999
DXF file: _cgs_temp_output.dxf
999
Pro/ENGINEER 2016360 by Parametric Technology Corporation
  0
SECTION
  2
HEADER
  9
$ACADVER
  1
AC1021
  9
$DWGCODEPAGE
  3
ANSI_1252
  9
$EXTMAX
 10
22.0
 20
17.0
 30
0.0
  9
$EXTMIN
 10
0.0
 20
0.0
 30
0.0
  9
$LIMMIN
 10
0.0
 20
0.0
  9
$LIMMAX
 10
22.0
 20
17.0
  9
$VIEWCTR
 10
11.0
 20
8.5
  9
$VIEWSIZE
 40
17.0
  9
$CLAYER
  8
0
  9
$LTSCALE
 40
1.21
  9
$CELTYPE
  6
BYLAYER
  9
$DIMSCALE
 40
1.0
  9
$DIMASZ
 40
0.1875
  9
$DIMEXO
 40
0.0625
  9
$DIMDLI
 40
0.836
  9
$DIMEXE
 40
0.125
  9
$DIMCEN
 40
0.198
  9
$DIMLFAC
 40
1.0
  9
$DIMBLK
  1
_CLOSED
  9
$DIMALT
 70
0
  9
$DIMALTF
 40
25.4
  9
$DIMTXT
 40
0.15625
  9
$DIMTOL
 70
0
  9
$DIMLIM
 70
0
  9
$DIMTFAC
 40
1.0
  9
$DIMGAP
 40
0.09
  9
$DIMDSEP
 70
46
  9
$AUNITS
 70
0
  9
$PDMODE
 70
3
  9
$PDSIZE
 40
0.3125
  9
$HANDSEED
  5
2DC
  9
$TILEMODE
 70
1
  9
$MEASUREMENT
 70
0
  9
$INSUNITS
 70
1
  0
ENDSEC
  0
SECTION
  2
CLASSES
  0
CLASS
  1
ACDBDICTIONARYWDFLT
  2
AcDbDictionaryWithDefault
  3
AutoCAD 2000
 90
0
 91
1
280
0
281
0
  0
CLASS
  1
ACDBPLACEHOLDER
  2
AcDbPlaceHolder
  3
AutoCAD 2000
 90
0
 91
1
280
0
281
0
  0
CLASS
  1
LAYOUT
  2
AcDbLayout
  3
AutoCAD 2000
 90
0
 91
0
280
0
281
0
  0
ENDSEC
  0
SECTION
  2
TABLES
  0
TABLE
  2
VPORT
  5
8
100
AcDbSymbolTable
 70
2
  0
VPORT
  5
1F4
100
AcDbSymbolTableRecord
100
AcDbViewportTableRecord
  2
*ACTIVE
 70
0
 10
0.0
 20
0.0
 11
1.0
 21
1.0
 12
11.0
 22
8.5
 13
0.0
 23
0.0
 14
1.0
 24
1.0
 15
0.0
 25
0.0
 16
0.0
 26
0.0
 36
1.0
 17
0.0
 27
0.0
 37
0.0
 40
17.0
 41
1.2941176471
 42
50.0
 43
0.0
 44
0.0
 50
0.0
 51
0.0
 71
0
 72
100
 73
1
 74
1
 75
0
 76
0
 77
0
 78
0
  0
ENDTAB
  0
TABLE
  2
LTYPE
  5
5
100
AcDbSymbolTable
 70
6
  0
LTYPE
  5
14
100
AcDbSymbolTableRecord
100
AcDbLinetypeTableRecord
  2
BYBLOCK
 70
0
  3

 72
65
 73
0
 40
0.0
  0
LTYPE
  5
15
100
AcDbSymbolTableRecord
100
AcDbLinetypeTableRecord
  2
BYLAYER
 70
0
  3

 72
65
 73
0
 40
0.0
  0
LTYPE
  5
16
100
AcDbSymbolTableRecord
100
AcDbLinetypeTableRecord
  2
CONTINUOUS
 70
64
  3
Solid line
 72
65
 73
0
 40
0.0
  0
LTYPE
  5
1F5
100
AcDbSymbolTableRecord
100
AcDbLinetypeTableRecord
  2
CENTER
 70
64
  3
____ _ ____ _ ____ _ ____ _ ____ _ ____ _ ____
 72
65
 73
4
 40
0.6
 49
0.375
 74
0
 49
-0.075
 74
0
 49
0.075
 74
0
 49
-0.075
 74
0
  0
LTYPE
  5
1F6
100
AcDbSymbolTableRecord
100
AcDbLinetypeTableRecord
  2
HIDDEN
 70
64
  3
- - - - - - - - - - - - - - - - - - - -
 72
65
 73
2
 40
0.2
 49
0.1
 74
0
 49
-0.1
 74
0
  0
LTYPE
  5
1F7
100
AcDbSymbolTableRecord
100
AcDbLinetypeTableRecord
  2
PHANTOM
 70
64
  3
_____ _ _ _____ _ _ _____ _ _ _____
 72
65
 73
6
 40
0.8
 49
0.45
 74
0
 49
-0.05
 74
0
 49
0.1
 74
0
 49
-0.05
 74
0
 49
0.1
 74
0
 49
-0.05
 74
0
  0
LTYPE
  5
1F8
100
AcDbSymbolTableRecord
100
AcDbLinetypeTableRecord
  2
DOT
 70
64
  3
. . . . . . . . . . . . . . . . . . . .
 72
65
 73
2
 40
0.2
 49
0.1
 74
0
 49
-0.1
 74
0
  0
LTYPE
  5
1F9
100
AcDbSymbolTableRecord
100
AcDbLinetypeTableRecord
  2
DASHED
 70
64
  3
- - - - - - - - - - - - - - - - - - - -
 72
65
 73
2
 40
0.2
 49
0.1
 74
0
 49
-0.1
 74
0
  0
ENDTAB
  0
TABLE
  2
LAYER
  5
2
100
AcDbSymbolTable
 70
36
  0
LAYER
  5
10
100
AcDbSymbolTableRecord
100
AcDbLayerTableRecord
  2
0
 70
0
 62
7
  6
CONTINUOUS
370
-3
390
F
  0
LAYER
  5
1FA
100
AcDbSymbolTableRecord
100
AcDbLayerTableRecord
  2
DEFAULT_1
 70
0
 62
7
  6
CENTER
370
-3
390
F
  0
LAYER
  5
1FB
100
AcDbSymbolTableRecord
100
AcDbLayerTableRecord
  2
DEFAULT_2
 70
0
 62
8
  6
HIDDEN
370
-3
390
F
  0
LAYER
  5
1FC
100
AcDbSymbolTableRecord
100
AcDbLayerTableRecord
  2
DEFAULT_3
 70
0
 62
7
  6
PHANTOM
370
-3
390
F
  0
LAYER
  5
1FD
100
AcDbSymbolTableRecord
100
AcDbLayerTableRecord
  2
01_ALL_DTM_PLN
 70
0
 62
7
  6
CONTINUOUS
370
-3
390
F
  0
LAYER
  5
1FE
100
AcDbSymbolTableRecord
100
AcDbLayerTableRecord
  2
01__ASM_ALL_DTM_PLN
 70
0
 62
7
  6
CONTINUOUS
370
-3
390
F
  0
LAYER
  5
1FF
100
AcDbSymbolTableRecord
100
AcDbLayerTableRecord
  2
01__ASM_DEF_DTM_PLN
 70
0
 62
7
  6
CONTINUOUS
370
-3
390
F
  0
LAYER
  5
200
100
AcDbSymbolTableRecord
100
AcDbLayerTableRecord
  2
01___PRT_ALL_DTM_PLN
 70
0
 62
7
  6
CONTINUOUS
370
-3
390
F
  0
LAYER
  5
201
100
AcDbSymbolTableRecord
100
AcDbLayerTableRecord
  2
01___PRT_DEF_DTM_PLN
 70
0
 62
7
  6
CONTINUOUS
370
-3
390
F
  0
LAYER
  5
202
100
AcDbSymbolTableRecord
100
AcDbLayerTableRecord
  2
02_ALL_AXES
 70
0
 62
7
  6
CONTINUOUS
370
-3
390
F
  0
LAYER
  5
203
100
AcDbSymbolTableRecord
100
AcDbLayerTableRecord
  2
02__ASM_ALL_AXES
 70
0
 62
7
  6
CONTINUOUS
370
-3
390
F
  0
LAYER
  5
204
100
AcDbSymbolTableRecord
100
AcDbLayerTableRecord
  2
02___PRT_ALL_AXES
 70
0
 62
7
  6
CONTINUOUS
370
-3
390
F
  0
LAYER
  5
205
100
AcDbSymbolTableRecord
100
AcDbLayerTableRecord
  2
03_ALL_CURVES
 70
0
 62
7
  6
CONTINUOUS
370
-3
390
F
  0
LAYER
  5
206
100
AcDbSymbolTableRecord
100
AcDbLayerTableRecord
  2
03__ASM_ALL_CURVES
 70
0
 62
7
  6
CONTINUOUS
370
-3
390
F
  0
LAYER
  5
207
100
AcDbSymbolTableRecord
100
AcDbLayerTableRecord
  2
03___PRT_ALL_CURVES
 70
0
 62
7
  6
CONTINUOUS
370
-3
390
F
  0
LAYER
  5
208
100
AcDbSymbolTableRecord
100
AcDbLayerTableRecord
  2
04_ALL_DTM_PNT
 70
0
 62
7
  6
CONTINUOUS
370
-3
390
F
  0
LAYER
  5
209
100
AcDbSymbolTableRecord
100
AcDbLayerTableRecord
  2
04__ASM_ALL_DTM_PNT
 70
0
 62
7
  6
CONTINUOUS
370
-3
390
F
  0
LAYER
  5
20A
100
AcDbSymbolTableRecord
100
AcDbLayerTableRecord
  2
04___PRT_ALL_DTM_PNT
 70
0
 62
7
  6
CONTINUOUS
370
-3
390
F
  0
LAYER
  5
20B
100
AcDbSymbolTableRecord
100
AcDbLayerTableRecord
  2
05_ALL_DTM_CSYS
 70
0
 62
7
  6
CONTINUOUS
370
-3
390
F
  0
LAYER
  5
20C
100
AcDbSymbolTableRecord
100
AcDbLayerTableRecord
  2
05__ASM_ALL_DTM_CSYS
 70
0
 62
7
  6
CONTINUOUS
370
-3
390
F
  0
LAYER
  5
20D
100
AcDbSymbolTableRecord
100
AcDbLayerTableRecord
  2
05__ASM_DEF_DTM_CSYS
 70
0
 62
7
  6
CONTINUOUS
370
-3
390
F
  0
LAYER
  5
20E
100
AcDbSymbolTableRecord
100
AcDbLayerTableRecord
  2
05___PRT_ALL_DTM_CSYS
 70
0
 62
7
  6
CONTINUOUS
370
-3
390
F
  0
LAYER
  5
20F
100
AcDbSymbolTableRecord
100
AcDbLayerTableRecord
  2
05___PRT_DEF_DTM_CSYS
 70
0
 62
7
  6
CONTINUOUS
370
-3
390
F
  0
LAYER
  5
210
100
AcDbSymbolTableRecord
100
AcDbLayerTableRecord
  2
06_ALL_SURFS
 70
0
 62
7
  6
CONTINUOUS
370
-3
390
F
  0
LAYER
  5
211
100
AcDbSymbolTableRecord
100
AcDbLayerTableRecord
  2
06__ASM_ALL_SURFS
 70
0
 62
7
  6
CONTINUOUS
370
-3
390
F
  0
LAYER
  5
212
100
AcDbSymbolTableRecord
100
AcDbLayerTableRecord
  2
06___PRT_ALL_SURFS
 70
0
 62
7
  6
CONTINUOUS
370
-3
390
F
  0
LAYER
  5
213
100
AcDbSymbolTableRecord
100
AcDbLayerTableRecord
  2
07__ASM_ALL_SKELETONS
 70
0
 62
7
  6
CONTINUOUS
370
-3
390
F
  0
LAYER
  5
214
100
AcDbSymbolTableRecord
100
AcDbLayerTableRecord
  2
LAYER_AXIS
 70
0
 62
7
  6
CONTINUOUS
370
-3
390
F
  0
LAYER
  5
215
100
AcDbSymbolTableRecord
100
AcDbLayerTableRecord
  2
LAYER_CHAMFER_FEAT
 70
0
 62
7
  6
CONTINUOUS
370
-3
390
F
  0
LAYER
  5
216
100
AcDbSymbolTableRecord
100
AcDbLayerTableRecord
  2
LAYER_CUT_FEAT
 70
0
 62
7
  6
CONTINUOUS
370
-3
390
F
  0
LAYER
  5
217
100
AcDbSymbolTableRecord
100
AcDbLayerTableRecord
  2
LAYER_DATUM
 70
0
 62
7
  6
CONTINUOUS
370
-3
390
F
  0
LAYER
  5
218
100
AcDbSymbolTableRecord
100
AcDbLayerTableRecord
  2
LAYER_DIM
 70
0
 62
7
  6
CONTINUOUS
370
-3
390
F
  0
LAYER
  5
219
100
AcDbSymbolTableRecord
100
AcDbLayerTableRecord
  2
LAYER_FEATURE
 70
0
 62
7
  6
CONTINUOUS
370
-3
390
F
  0
LAYER
  5
21A
100
AcDbSymbolTableRecord
100
AcDbLayerTableRecord
  2
LAYER_GEOM_FEAT
 70
0
 62
7
  6
CONTINUOUS
370
-3
390
F
  0
LAYER
  5
21B
100
AcDbSymbolTableRecord
100
AcDbLayerTableRecord
  2
LAYER_NOGEOM_FEAT
 70
0
 62
7
  6
CONTINUOUS
370
-3
390
F
  0
LAYER
  5
21C
100
AcDbSymbolTableRecord
100
AcDbLayerTableRecord
  2
LAYER_PARAMETER_DIM
 70
0
 62
7
  6
CONTINUOUS
370
-3
390
F
  0
LAYER
  5
21D
100
AcDbSymbolTableRecord
100
AcDbLayerTableRecord
  2
LAYER_PROTRUSION_FEAT
 70
0
 62
7
  6
CONTINUOUS
370
-3
390
F
  0
LAYER
  5
21E
100
AcDbSymbolTableRecord
100
AcDbLayerTableRecord
  2
LAYER_QUILT
 70
0
 62
7
  6
CONTINUOUS
370
-3
390
F
  0
LAYER
  5
21F
100
AcDbSymbolTableRecord
100
AcDbLayerTableRecord
  2
LAYER_ROUND_FEAT
 70
0
 62
7
  6
CONTINUOUS
370
-3
390
F
  0
ENDTAB
  0
TABLE
  2
STYLE
  5
3
100
AcDbSymbolTable
 70
1
  0
STYLE
  5
11
100
AcDbSymbolTableRecord
100
AcDbTextStyleTableRecord
  2
STANDARD
 70
0
 40
0.0
 41
0.8
 50
0.0
 71
0
 42
0.2
  3
txt
  4

  0
STYLE
  5
220
100
AcDbSymbolTableRecord
100
AcDbTextStyleTableRecord
  2
TEXTSTYLE_1
 70
0
 40
0.0
 41
0.8
 50
0.0
 71
0
 42
0.2
  3
gdt
  4

  0
ENDTAB
  0
TABLE
  2
VIEW
  5
6
100
AcDbSymbolTable
 70
0
  0
ENDTAB
  0
TABLE
  2
UCS
  5
7
100
AcDbSymbolTable
 70
0
  0
ENDTAB
  0
TABLE
  2
APPID
  5
9
100
AcDbSymbolTable
 70
1
  0
APPID
  5
221
100
AcDbSymbolTableRecord
100
AcDbRegAppTableRecord
  2
ACAD
 70
0
  0
ENDTAB
  0
TABLE
  2
BLOCK_RECORD
  5
1
100
AcDbSymbolTable
 70
0
  0
BLOCK_RECORD
  5
222
100
AcDbSymbolTableRecord
100
AcDbBlockTableRecord
  2
*Model_Space
  0
BLOCK_RECORD
  5
223
100
AcDbSymbolTableRecord
100
AcDbBlockTableRecord
  2
*Paper_Space
  0
ENDTAB
  0
TABLE
  2
DIMSTYLE
  5
A
100
AcDbSymbolTable
 70
1
100
AcDbDimStyleTable
 71
0
  0
DIMSTYLE
105
224
100
AcDbSymbolTableRecord
100
AcDbDimStyleTableRecord
  2
STANDARD
 70
0
  3

  4

 40
1.0
 41
0.1875
 42
0.0625
 43
0.38
 44
0.125
 45
0.0
 46
0.0
 47
0.0001
 48
0.0001
140
0.15625
141
0.09
142
0.0
143
25.4
144
1.0
145
0.0
146
1.0
147
0.09
 71
0.0
 72
0.0
 73
1
 74
1
 75
0
 76
0
 77
0
 78
4
 79
1
170
0
171
3
172
0
173
0
174
0
175
0
176
0
177
0
178
0
270
2
179
4
271
4
272
4
273
2
274
2
275
0
280
0
281
0
282
0
283
1
284
4
285
0
286
0
287
3
288
0
340
11
278
46
  0
ENDTAB
  0
ENDSEC
  0
SECTION
  2
BLOCKS
  0
BLOCK
  5
20
100
AcDbEntity
  8
0
100
AcDbBlockBegin
  2
*Model_Space
 70
0
 10
0.0
 20
0.0
 30
0.0
  3
*Model_Space
  1

  0
ENDBLK
  5
21
100
AcDbEntity
  8
0
100
AcDbBlockEnd
  0
BLOCK
  5
1C
100
AcDbEntity
  8
0
100
AcDbBlockBegin
  2
*Paper_Space
 70
0
 10
0.0
 20
0.0
 30
0.0
  3
*Paper_Space
  1

  0
ENDBLK
  5
1D
100
AcDbEntity
  8
0
100
AcDbBlockEnd
  0
ENDSEC
  0
SECTION
  2
ENTITIES
  0
MTEXT
  5
225
100
AcDbEntity
  8
0
100
AcDbMText
 62
7
  6
CONTINUOUS
  7
STANDARD
 71
1
 72
1
 10
15.9560215477
 20
0.9479130325
 30
0.0
 11
1.0
 21
0.0
 31
0.0
 44
0.9
  1
SCALE: 1:0.333
 40
0.3
 41
3.36
  0
LINE
  5
226
100
AcDbEntity
  8
0
100
AcDbLine
 62
7
  6
CONTINUOUS
 10
0.0
 20
0.0
 11
0.0
 21
17.0
  0
LINE
  5
227
100
AcDbEntity
  8
0
100
AcDbLine
 62
7
  6
CONTINUOUS
 10
0.0
 20
0.0
 11
22.0
 21
0.0
  0
LINE
  5
228
100
AcDbEntity
  8
0
100
AcDbLine
 62
7
  6
CONTINUOUS
 10
0.0
 20
17.0
 11
22.0
 21
17.0
  0
LINE
  5
229
100
AcDbEntity
  8
0
100
AcDbLine
 62
7
  6
CONTINUOUS
 10
22.0
 20
0.0
 11
22.0
 21
17.0
  0
LINE
  5
22A
100
AcDbEntity
  8
LAYER_FEATURE
100
AcDbLine
 62
7
  6
CONTINUOUS
 10
6.6033672762
 20
4.1296198968
 11
6.561956229
 21
4.1296198968
  0
LINE
  5
22B
100
AcDbEntity
  8
LAYER_FEATURE
100
AcDbLine
 62
7
  6
CONTINUOUS
 10
5.6573672762
 20
4.1296198968
 11
5.6987783234
 21
4.1296198968
  0
LINE
  5
22C
100
AcDbEntity
  8
02___PRT_ALL_AXES
100
AcDbLine
 62
7
  6
CONTINUOUS
 10
5.7253672762
 20
4.2517865634
 11
6.5353672762
 21
4.2517865634
  0
LINE
  5
22D
100
AcDbEntity
  8
LAYER_FEATURE
100
AcDbLine
 62
7
  6
CONTINUOUS
 10
5.6573672762
 20
6.9106198968
 11
5.6573672762
 21
4.1296198968
  0
LINE
  5
22E
100
AcDbEntity
  8
LAYER_FEATURE
100
AcDbLine
 62
7
  6
CONTINUOUS
 10
5.6987783234
 20
6.9106198968
 11
5.6987783234
 21
4.1296198968
  0
LINE
  5
22F
100
AcDbEntity
  8
LAYER_FEATURE
100
AcDbLine
 62
7
  6
CONTINUOUS
 10
5.7253672762
 20
6.811388574
 11
5.7253672762
 21
4.2288512195
  0
LINE
  5
230
100
AcDbEntity
  8
LAYER_FEATURE
100
AcDbLine
 62
7
  6
CONTINUOUS
 10
5.6987783234
 20
4.1296198968
 11
5.7253672762
 21
4.2288512195
  0
LINE
  5
231
100
AcDbEntity
  8
LAYER_FEATURE
100
AcDbLine
 62
7
  6
CONTINUOUS
 10
5.6987783234
 20
6.9106198968
 11
5.7253672762
 21
6.811388574
  0
LINE
  5
232
100
AcDbEntity
  8
LAYER_FEATURE
100
AcDbLine
 62
7
  6
CONTINUOUS
 10
6.561956229
 20
6.9106198968
 11
6.5353672762
 21
6.811388574
  0
LINE
  5
233
100
AcDbEntity
  8
LAYER_FEATURE
100
AcDbLine
 62
7
  6
CONTINUOUS
 10
6.561956229
 20
4.1296198968
 11
6.5353672762
 21
4.2288512195
  0
LINE
  5
234
100
AcDbEntity
  8
LAYER_FEATURE
100
AcDbLine
 62
7
  6
CONTINUOUS
 10
6.5353672762
 20
6.811388574
 11
6.5353672762
 21
4.2288512195
  0
LINE
  5
235
100
AcDbEntity
  8
LAYER_FEATURE
100
AcDbLine
 62
7
  6
CONTINUOUS
 10
6.561956229
 20
6.9106198968
 11
6.561956229
 21
4.1296198968
  0
LINE
  5
236
100
AcDbEntity
  8
LAYER_FEATURE
100
AcDbLine
 62
7
  6
CONTINUOUS
 10
6.6033672762
 20
6.9106198968
 11
6.6033672762
 21
4.1296198968
  0
LINE
  5
237
100
AcDbEntity
  8
LAYER_FEATURE
100
AcDbLine
 62
7
  6
CONTINUOUS
 10
5.7253672762
 20
6.6402701649
 11
6.5353672762
 21
6.6402701649
  0
LINE
  5
238
100
AcDbEntity
  8
LAYER_CUT_FEAT
100
AcDbLine
 62
7
  6
CONTINUOUS
 10
5.7253672762
 20
6.6414077486
 11
6.5353672762
 21
6.6414077486
  0
LINE
  5
239
100
AcDbEntity
  8
LAYER_FEATURE
100
AcDbLine
 62
7
  6
CONTINUOUS
 10
5.7253672762
 20
6.7032747752
 11
6.5353672762
 21
6.7032747752
  0
LINE
  5
23A
100
AcDbEntity
  8
LAYER_FEATURE
100
AcDbLine
 62
7
  6
CONTINUOUS
 10
5.7253672762
 20
6.7135349545
 11
6.5353672762
 21
6.7135349545
  0
LINE
  5
23B
100
AcDbEntity
  8
LAYER_CUT_FEAT
100
AcDbLine
 62
7
  6
CONTINUOUS
 10
5.7253672762
 20
6.7140448709
 11
6.5353672762
 21
6.7140448709
  0
LINE
  5
23C
100
AcDbEntity
  8
LAYER_FEATURE
100
AcDbLine
 62
7
  6
CONTINUOUS
 10
5.7253672762
 20
6.7562643922
 11
6.5353672762
 21
6.7562643922
  0
LINE
  5
23D
100
AcDbEntity
  8
LAYER_FEATURE
100
AcDbLine
 62
7
  6
CONTINUOUS
 10
5.7253672762
 20
6.762505255
 11
6.5353672762
 21
6.762505255
  0
LINE
  5
23E
100
AcDbEntity
  8
LAYER_CUT_FEAT
100
AcDbLine
 62
7
  6
CONTINUOUS
 10
5.7253672762
 20
6.7626333862
 11
6.5353672762
 21
6.7626333862
  0
LINE
  5
23F
100
AcDbEntity
  8
LAYER_FEATURE
100
AcDbLine
 62
7
  6
CONTINUOUS
 10
5.7253672762
 20
6.7840896721
 11
6.5353672762
 21
6.7840896721
  0
LINE
  5
240
100
AcDbEntity
  8
LAYER_FEATURE
100
AcDbLine
 62
7
  6
CONTINUOUS
 10
5.7253672762
 20
6.7861841724
 11
6.5353672762
 21
6.7861841724
  0
LINE
  5
241
100
AcDbEntity
  8
LAYER_FEATURE
100
AcDbLine
 62
7
  6
CONTINUOUS
 10
6.6033672762
 20
6.9106198968
 11
6.561956229
 21
6.9106198968
  0
LINE
  5
242
100
AcDbEntity
  8
LAYER_FEATURE
100
AcDbLine
 62
7
  6
CONTINUOUS
 10
5.6573672762
 20
6.9106198968
 11
5.6987783234
 21
6.9106198968
  0
LINE
  5
243
100
AcDbEntity
  8
LAYER_FEATURE
100
AcDbLine
 62
7
  6
CONTINUOUS
 10
5.5978720839
 20
11.2095477814
 11
5.6392831311
 21
11.2095477814
  0
LINE
  5
244
100
AcDbEntity
  8
LAYER_FEATURE
100
AcDbLine
 62
7
  6
CONTINUOUS
 10
6.5024610366
 20
11.2095477814
 11
6.5438720839
 21
11.2095477814
  0
LINE
  5
245
100
AcDbEntity
  8
02___PRT_ALL_AXES
100
AcDbLine
 62
7
  6
CONTINUOUS
 10
5.6658720839
 20
11.331714448
 11
6.4758720839
 21
11.331714448
  0
LINE
  5
246
100
AcDbEntity
  8
LAYER_FEATURE
100
AcDbLine
 62
7
  6
CONTINUOUS
 10
5.6658720839
 20
12.0051252475
 11
6.4758720839
 21
12.0051252475
  0
LINE
  5
247
100
AcDbEntity
  8
LAYER_FEATURE
100
AcDbLine
 62
7
  6
CONTINUOUS
 10
6.4758720839
 20
12.0872481798
 11
5.6658720839
 21
12.0872481798
  0
LINE
  5
248
100
AcDbEntity
  8
LAYER_FEATURE
100
AcDbLine
 62
7
  6
CONTINUOUS
 10
5.5978720839
 20
11.2095477814
 11
5.5978720839
 21
13.9905477814
  0
LINE
  5
249
100
AcDbEntity
  8
LAYER_FEATURE
100
AcDbLine
 62
7
  6
CONTINUOUS
 10
5.6392831311
 20
11.2095477814
 11
5.6392831311
 21
13.9905477814
  0
LINE
  5
24A
100
AcDbEntity
  8
LAYER_FEATURE
100
AcDbLine
 62
7
  6
CONTINUOUS
 10
5.6658720839
 20
11.3087791041
 11
5.6658720839
 21
13.8913164587
  0
LINE
  5
24B
100
AcDbEntity
  8
LAYER_FEATURE
100
AcDbLine
 62
7
  6
CONTINUOUS
 10
6.4758720839
 20
12.1236334596
 11
5.6658720839
 21
12.1236334596
  0
LINE
  5
24C
100
AcDbEntity
  8
LAYER_CUT_FEAT
100
AcDbLine
 62
7
  6
CONTINUOUS
 10
5.6658720839
 20
12.1357271421
 11
6.4758720839
 21
12.1357271421
  0
LINE
  5
24D
100
AcDbEntity
  8
LAYER_FEATURE
100
AcDbLine
 62
7
  6
CONTINUOUS
 10
5.6658720839
 20
12.1430861002
 11
6.4758720839
 21
12.1430861002
  0
LINE
  5
24E
100
AcDbEntity
  8
LAYER_FEATURE
100
AcDbLine
 62
7
  6
CONTINUOUS
 10
5.6658720839
 20
12.1705947054
 11
6.4758720839
 21
12.1705947054
  0
LINE
  5
24F
100
AcDbEntity
  8
LAYER_FEATURE
100
AcDbLine
 62
7
  6
CONTINUOUS
 10
6.4758720839
 20
12.2454177486
 11
5.6658720839
 21
12.2454177486
  0
LINE
  5
250
100
AcDbEntity
  8
LAYER_FEATURE
100
AcDbLine
 62
7
  6
CONTINUOUS
 10
6.4758720839
 20
12.2837974676
 11
5.6658720839
 21
12.2837974676
  0
LINE
  5
251
100
AcDbEntity
  8
LAYER_FEATURE
100
AcDbLine
 62
7
  6
CONTINUOUS
 10
5.6658720839
 20
12.3161178064
 11
6.4758720839
 21
12.3161178064
  0
LINE
  5
252
100
AcDbEntity
  8
LAYER_FEATURE
100
AcDbLine
 62
7
  6
CONTINUOUS
 10
5.6658720839
 20
12.3448065894
 11
6.4758720839
 21
12.3448065894
  0
LINE
  5
253
100
AcDbEntity
  8
LAYER_FEATURE
100
AcDbLine
 62
7
  6
CONTINUOUS
 10
6.4758720839
 20
12.4108065623
 11
5.6658720839
 21
12.4108065623
  0
LINE
  5
254
100
AcDbEntity
  8
LAYER_FEATURE
100
AcDbLine
 62
7
  6
CONTINUOUS
 10
6.4758720839
 20
12.4503994199
 11
5.6658720839
 21
12.4503994199
  0
LINE
  5
255
100
AcDbEntity
  8
LAYER_FEATURE
100
AcDbLine
 62
7
  6
CONTINUOUS
 10
5.6658720839
 20
12.4949295081
 11
6.4758720839
 21
12.4949295081
  0
LINE
  5
256
100
AcDbEntity
  8
LAYER_FEATURE
100
AcDbLine
 62
7
  6
CONTINUOUS
 10
5.6392831311
 20
11.2095477814
 11
5.6658720839
 21
11.3087791041
  0
LINE
  5
257
100
AcDbEntity
  8
LAYER_FEATURE
100
AcDbLine
 62
7
  6
CONTINUOUS
 10
5.6658720839
 20
12.524214448
 11
6.4758720839
 21
12.524214448
  0
LINE
  5
258
100
AcDbEntity
  8
LAYER_FEATURE
100
AcDbLine
 62
7
  6
CONTINUOUS
 10
6.4758720839
 20
12.5800477814
 11
5.6658720839
 21
12.5800477814
  0
LINE
  5
259
100
AcDbEntity
  8
LAYER_FEATURE
100
AcDbLine
 62
7
  6
CONTINUOUS
 10
5.6392831311
 20
13.9905477814
 11
5.6658720839
 21
13.8913164587
  0
LINE
  5
25A
100
AcDbEntity
  8
LAYER_FEATURE
100
AcDbLine
 62
7
  6
CONTINUOUS
 10
6.4758720839
 20
13.8913164587
 11
6.5024610366
 21
13.9905477814
  0
LINE
  5
25B
100
AcDbEntity
  8
LAYER_FEATURE
100
AcDbLine
 62
7
  6
CONTINUOUS
 10
6.4758720839
 20
12.6200477814
 11
5.6658720839
 21
12.6200477814
  0
LINE
  5
25C
100
AcDbEntity
  8
LAYER_FEATURE
100
AcDbLine
 62
7
  6
CONTINUOUS
 10
5.6658720839
 20
12.6758811147
 11
6.4758720839
 21
12.6758811147
  0
LINE
  5
25D
100
AcDbEntity
  8
LAYER_FEATURE
100
AcDbLine
 62
7
  6
CONTINUOUS
 10
6.4758720839
 20
11.3087791041
 11
6.5024610366
 21
11.2095477814
  0
LINE
  5
25E
100
AcDbEntity
  8
LAYER_FEATURE
100
AcDbLine
 62
7
  6
CONTINUOUS
 10
6.4758720839
 20
11.3087791041
 11
6.4758720839
 21
13.8913164587
  0
LINE
  5
25F
100
AcDbEntity
  8
LAYER_FEATURE
100
AcDbLine
 62
7
  6
CONTINUOUS
 10
6.5024610366
 20
11.2095477814
 11
6.5024610366
 21
13.9905477814
  0
LINE
  5
260
100
AcDbEntity
  8
LAYER_FEATURE
100
AcDbLine
 62
7
  6
CONTINUOUS
 10
6.5438720839
 20
11.2095477814
 11
6.5438720839
 21
13.9905477814
  0
LINE
  5
261
100
AcDbEntity
  8
02___PRT_ALL_AXES
100
AcDbLine
 62
7
  6
CONTINUOUS
 10
5.6658720839
 20
13.8683811147
 11
6.4758720839
 21
13.8683811147
  0
LINE
  5
262
100
AcDbEntity
  8
LAYER_FEATURE
100
AcDbLine
 62
7
  6
CONTINUOUS
 10
5.5978720839
 20
13.9905477814
 11
5.6392831311
 21
13.9905477814
  0
LINE
  5
263
100
AcDbEntity
  8
LAYER_FEATURE
100
AcDbLine
 62
7
  6
CONTINUOUS
 10
6.5024610366
 20
13.9905477814
 11
6.5438720839
 21
13.9905477814
  0
LINE
  5
264
100
AcDbEntity
  8
LAYER_FEATURE
100
AcDbLine
 62
7
  6
CONTINUOUS
 10
15.0354258199
 20
11.1203049929
 11
15.0735679202
 21
11.1203049929
  0
LINE
  5
265
100
AcDbEntity
  8
LAYER_FEATURE
100
AcDbLine
 62
7
  6
CONTINUOUS
 10
15.8686074199
 20
11.1203049929
 11
15.9067495202
 21
11.1203049929
  0
LINE
  5
266
100
AcDbEntity
  8
02___PRT_ALL_AXES
100
AcDbLine
 62
7
  6
CONTINUOUS
 10
15.0980579675
 20
11.2424716596
 11
15.6468937974
 21
11.2424716596
  0
LINE
  5
267
100
AcDbEntity
  8
02___PRT_ALL_AXES
100
AcDbLine
 62
7
  6
CONTINUOUS
 10
15.8588402103
 20
11.3869380736
 11
15.821283492
 21
11.3945186744
  0
LINE
  5
268
100
AcDbEntity
  8
LAYER_FEATURE
100
AcDbLine
 62
7
  6
CONTINUOUS
 10
14.7324699105
 20
13.2431641811
 11
14.7397062795
 21
13.2665810797
  0
LINE
  5
269
100
AcDbEntity
  8
LAYER_FEATURE
100
AcDbLine
 62
7
  6
CONTINUOUS
 10
14.6460888462
 20
12.7771780689
 11
14.6498277383
 21
12.8160086823
  0
LINE
  5
26A
100
AcDbEntity
  8
LAYER_FEATURE
100
AcDbLine
 62
7
  6
CONTINUOUS
 10
14.6654516383
 20
12.9396411015
 11
14.6713044668
 21
12.9767100788
  0
LINE
  5
26B
100
AcDbEntity
  8
LAYER_FEATURE
100
AcDbLine
 62
7
  6
CONTINUOUS
 10
14.6936210477
 20
13.0933742676
 11
14.7014686659
 21
13.1279269914
  0
LINE
  5
26C
100
AcDbEntity
  8
LAYER_FEATURE
100
AcDbLine
 62
7
  6
CONTINUOUS
 10
14.6404088136
 20
12.8528926303
 11
14.6284231269
 21
12.8750826683
  0
LINE
  5
26D
100
AcDbEntity
  8
LAYER_FEATURE
100
AcDbLine
 62
7
  6
CONTINUOUS
 10
14.6640255219
 20
13.0166607935
 11
14.6533916043
 21
13.0430051968
  0
LINE
  5
26E
100
AcDbEntity
  8
LAYER_FEATURE
100
AcDbLine
 62
7
  6
CONTINUOUS
 10
14.616429966
 20
12.750526574
 11
14.6310615835
 21
12.755816097
  0
LINE
  5
26F
100
AcDbEntity
  8
LAYER_FEATURE
100
AcDbLine
 62
7
  6
CONTINUOUS
 10
14.6964778791
 20
13.1701311914
 11
14.6874122064
 21
13.2000936639
  0
LINE
  5
270
100
AcDbEntity
  8
LAYER_FEATURE
100
AcDbLine
 62
7
  6
CONTINUOUS
 10
14.7371052488
 20
13.3101796093
 11
14.7297923721
 21
13.3431502013
  0
LINE
  5
271
100
AcDbEntity
  8
LAYER_FEATURE
100
AcDbLine
 62
7
  6
CONTINUOUS
 10
14.6123545283
 20
12.7410827356
 11
15.334653808
 21
12.7410827356
  0
LINE
  5
272
100
AcDbEntity
  8
LAYER_FEATURE
100
AcDbLine
 62
7
  6
CONTINUOUS
 10
15.3372104795
 20
12.7771780689
 11
14.6460888462
 21
12.7771780689
  0
LINE
  5
273
100
AcDbEntity
  8
LAYER_FEATURE
100
AcDbLine
 62
7
  6
CONTINUOUS
 10
15.3404314511
 20
12.8160086823
 11
14.6498277383
 21
12.8160086823
  0
LINE
  5
274
100
AcDbEntity
  8
LAYER_FEATURE
100
AcDbLine
 62
7
  6
CONTINUOUS
 10
14.6265311607
 20
12.8883154778
 11
15.3474910492
 21
12.8883154778
  0
LINE
  5
275
100
AcDbEntity
  8
LAYER_FEATURE
100
AcDbLine
 62
7
  6
CONTINUOUS
 10
14.6300602834
 20
12.9162415382
 11
15.3507582709
 21
12.9162415382
  0
LINE
  5
276
100
AcDbEntity
  8
LAYER_CUT_FEAT
100
AcDbLine
 62
7
  6
CONTINUOUS
 10
14.6346032097
 20
12.9240999176
 11
15.3516973021
 21
12.9240999176
  0
LINE
  5
277
100
AcDbEntity
  8
LAYER_FEATURE
100
AcDbLine
 62
7
  6
CONTINUOUS
 10
15.3535543844
 20
12.9396411015
 11
14.6654516383
 21
12.9396411015
  0
LINE
  5
278
100
AcDbEntity
  8
LAYER_FEATURE
100
AcDbLine
 62
7
  6
CONTINUOUS
 10
15.358525771
 20
12.9767100788
 11
14.6713044668
 21
12.9767100788
  0
LINE
  5
279
100
AcDbEntity
  8
LAYER_CUT_FEAT
100
AcDbLine
 62
7
  6
CONTINUOUS
 10
15.5740559286
 20
13.0724369747
 11
15.579744238
 21
13.0730590346
  0
LINE
  5
27A
100
AcDbEntity
  8
LAYER_CUT_FEAT
100
AcDbLine
 62
7
  6
CONTINUOUS
 10
15.5740559286
 20
13.0724369747
 11
15.5520125862
 21
13.0707728919
  0
LINE
  5
27B
100
AcDbEntity
  8
LAYER_FEATURE
100
AcDbLine
 62
7
  6
CONTINUOUS
 10
14.652252258
 20
13.0567947437
 11
15.3706820266
 21
13.0567947437
  0
LINE
  5
27C
100
AcDbEntity
  8
LAYER_FEATURE
100
AcDbLine
 62
7
  6
CONTINUOUS
 10
14.6572931218
 20
13.0831468219
 11
15.3752099827
 21
13.0831468219
  0
LINE
  5
27D
100
AcDbEntity
  8
LAYER_CUT_FEAT
100
AcDbLine
 62
7
  6
CONTINUOUS
 10
14.6615276728
 20
13.0893931109
 11
15.3762832538
 21
13.0893931109
  0
LINE
  5
27E
100
AcDbEntity
  8
LAYER_FEATURE
100
AcDbLine
 62
7
  6
CONTINUOUS
 10
15.3769673176
 20
13.0933742676
 11
14.6936210477
 21
13.0933742676
  0
LINE
  5
27F
100
AcDbEntity
  8
LAYER_FEATURE
100
AcDbLine
 62
7
  6
CONTINUOUS
 10
15.3834796585
 20
13.1279269914
 11
14.7014686659
 21
13.1279269914
  0
LINE
  5
280
100
AcDbEntity
  8
LAYER_FEATURE
100
AcDbLine
 62
7
  6
CONTINUOUS
 10
14.6870486739
 20
13.2141592327
 11
15.401621272
 21
13.2141592327
  0
LINE
  5
281
100
AcDbEntity
  8
LAYER_FEATURE
100
AcDbLine
 62
7
  6
CONTINUOUS
 10
14.6934986614
 20
13.2384008765
 11
15.4071949968
 21
13.2384008765
  0
LINE
  5
282
100
AcDbEntity
  8
0
100
AcDbLine
 62
7
  6
CONTINUOUS
 10
14.6973386339
 20
13.2431641811
 11
15.4083329779
 21
13.2431641811
  0
LINE
  5
283
100
AcDbEntity
  8
LAYER_FEATURE
100
AcDbLine
 62
7
  6
CONTINUOUS
 10
15.414211735
 20
13.2665810797
 11
14.7397062795
 21
13.2665810797
  0
LINE
  5
284
100
AcDbEntity
  8
LAYER_FEATURE
100
AcDbLine
 62
7
  6
CONTINUOUS
 10
14.7302120538
 20
13.3572054577
 11
15.439120545
 21
13.3572054577
  0
LINE
  5
285
100
AcDbEntity
  8
02___PRT_ALL_AXES
100
AcDbLine
 62
7
  6
CONTINUOUS
 10
15.8588402103
 20
13.6346719122
 11
15.8220543374
 21
13.627246902
  0
LINE
  5
286
100
AcDbEntity
  8
02___PRT_ALL_AXES
100
AcDbLine
 62
7
  6
CONTINUOUS
 10
15.0980579675
 20
13.7791383262
 11
15.6468099878
 21
13.7791383262
  0
LINE
  5
287
100
AcDbEntity
  8
LAYER_FEATURE
100
AcDbLine
 62
7
  6
CONTINUOUS
 10
15.0354258199
 20
13.9013049929
 11
15.0735679202
 21
13.9013049929
  0
LINE
  5
288
100
AcDbEntity
  8
LAYER_FEATURE
100
AcDbLine
 62
7
  6
CONTINUOUS
 10
15.8686074199
 20
13.9013049929
 11
15.9067495202
 21
13.9013049929
  0
CIRCLE
  5
289
100
AcDbEntity
  8
LAYER_FEATURE
100
AcDbCircle
 62
7
  6
CONTINUOUS
 10
15.5603552569
 20
5.4606247044
 40
1.3905
  0
CIRCLE
  5
28A
100
AcDbEntity
  8
LAYER_FEATURE
100
AcDbCircle
 62
7
  6
CONTINUOUS
 10
15.5603552569
 20
5.4606247044
 40
1.2912686773
  0
CIRCLE
  5
28B
100
AcDbEntity
  8
02___PRT_ALL_AXES
100
AcDbCircle
 62
7
  6
CONTINUOUS
 10
15.5603552569
 20
5.4606247044
 40
1.1273333333
  0
CIRCLE
  5
28C
100
AcDbEntity
  8
LAYER_CHAMFER_FEAT
100
AcDbCircle
 62
7
  6
CONTINUOUS
 10
15.5603552569
 20
5.4606247044
 40
1.04
  0
CIRCLE
  5
28D
100
AcDbEntity
  8
LAYER_CHAMFER_FEAT
100
AcDbCircle
 62
7
  6
CONTINUOUS
 10
15.5603552569
 20
5.4606247044
 40
1.02
  0
ARC
  5
28E
100
AcDbEntity
  8
02___PRT_ALL_AXES
100
AcDbCircle
 62
7
  6
CONTINUOUS
 10
15.5603552569
 20
5.4606247044
 40
0.5625
100
AcDbArc
 50
153.3827617612
 51
231.6172382388
  0
ARC
  5
28F
100
AcDbEntity
  8
02___PRT_ALL_AXES
100
AcDbCircle
 62
7
  6
CONTINUOUS
 10
15.5603552569
 20
5.4606247044
 40
0.5625
100
AcDbArc
 50
58.3827617612
 51
136.6172382388
  0
ARC
  5
290
100
AcDbEntity
  8
LAYER_CUT_FEAT
100
AcDbCircle
 62
7
  6
CONTINUOUS
 10
15.5603552569
 20
5.4606247044
 40
0.5625
100
AcDbArc
 50
248.3827617612
 51
41.6172382388
  0
ARC
  5
291
100
AcDbEntity
  8
02___PRT_ALL_AXES
100
AcDbCircle
 62
7
  6
CONTINUOUS
 10
15.5603552569
 20
5.4606247044
 40
0.5421046798
100
AcDbArc
 50
136.1802428979
 51
153.8197571021
  0
ARC
  5
292
100
AcDbEntity
  8
LAYER_CUT_FEAT
100
AcDbCircle
 62
7
  6
CONTINUOUS
 10
15.5603552569
 20
5.4606247044
 40
0.5217093597
100
AcDbArc
 50
58.7288156508
 51
231.2711843492
  0
ARC
  5
293
100
AcDbEntity
  8
LAYER_CUT_FEAT
100
AcDbCircle
 62
7
  6
CONTINUOUS
 10
15.5603552569
 20
5.4606247044
 40
0.5217093597
100
AcDbArc
 50
248.7288156508
 51
41.2711843492
  0
ARC
  5
294
100
AcDbEntity
  8
02___PRT_ALL_AXES
100
AcDbCircle
 62
7
  6
CONTINUOUS
 10
15.1166478996
 20
5.7713119408
 40
0.0833333333
100
AcDbArc
 50
50.8903869362
 51
239.1096130638
  0
ARC
  5
295
100
AcDbEntity
  8
LAYER_CUT_FEAT
100
AcDbCircle
 62
7
  6
CONTINUOUS
 10
15.9085318788
 20
5.8755654445
 40
0.0833333333
100
AcDbArc
 50
301.820265907
 51
158.179734093
  0
ARC
  5
296
100
AcDbEntity
  8
02___PRT_ALL_AXES
100
AcDbCircle
 62
7
  6
CONTINUOUS
 10
15.2895219236
 20
4.9915276107
 40
0.0833333333
100
AcDbArc
 50
131.820265907
 51
348.179734093
  0
ARC
  5
297
100
AcDbEntity
  8
02___PRT_ALL_AXES
100
AcDbCircle
 62
7
  6
CONTINUOUS
 10
13.6662455083
 20
-13.9908635536
 40
26.0933111522
100
AcDbArc
 50
85.5394868552
 51
85.8972835247
  0
ARC
  5
298
100
AcDbEntity
  8
LAYER_FEATURE
100
AcDbCircle
 62
7
  6
CONTINUOUS
 10
17.4712392883
 20
12.5430048946
 40
2.8655895955
100
AcDbArc
 50
172.5160899938
 51
173.0788983991
  0
ARC
  5
299
100
AcDbEntity
  8
LAYER_FEATURE
100
AcDbCircle
 62
7
  6
CONTINUOUS
 10
17.0902218673
 20
12.6040960421
 40
2.4796435087
100
AcDbArc
 50
168.8607932023
 51
169.4807396779
  0
ARC
  5
29A
100
AcDbEntity
  8
LAYER_FEATURE
100
AcDbCircle
 62
7
  6
CONTINUOUS
 10
16.6471595064
 20
12.7056103633
 40
2.02500776
100
AcDbArc
 50
164.7455932314
 51
165.4553567166
  0
ARC
  5
29B
100
AcDbEntity
  8
LAYER_CHAMFER_FEAT
100
AcDbCircle
 62
7
  6
CONTINUOUS
 10
16.0119404543
 20
11.8400952594
 40
0.3967189401
100
AcDbArc
 50
221.4235224122
 51
223.166692139
  0
ARC
  5
29C
100
AcDbEntity
  8
LAYER_CHAMFER_FEAT
100
AcDbCircle
 62
7
  6
CONTINUOUS
 10
16.0080903895
 20
13.185024018
 40
0.3915100566
100
AcDbArc
 50
136.8275568243
 51
138.51418366
  0
ARC
  5
29D
100
AcDbEntity
  8
02___PRT_ALL_AXES
100
AcDbCircle
 62
7
  6
CONTINUOUS
 10
15.8935570214
 20
11.5584286703
 40
0.1749693737
100
AcDbArc
 50
258.5556243703
 51
266.3057171389
  0
ARC
  5
29E
100
AcDbEntity
  8
02___PRT_ALL_AXES
100
AcDbCircle
 62
7
  6
CONTINUOUS
 10
15.8935565766
 20
13.4631844651
 40
0.1749661967
100
AcDbArc
 50
93.6915556817
 51
101.4444376352
  0
ARC
  5
29F
100
AcDbEntity
  8
LAYER_FEATURE
100
AcDbCircle
 62
7
  6
CONTINUOUS
 10
15.8437963472
 20
13.4634745569
 40
0.1746792873
100
AcDbArc
 50
81.8825793771
 51
83.5195908932
  0
ARC
  5
2A0
100
AcDbEntity
  8
LAYER_FEATURE
100
AcDbCircle
 62
7
  6
CONTINUOUS
 10
15.8438218194
 20
11.5579381305
 40
0.1744803797
100
AcDbArc
 50
276.557038544
 51
278.2138724121
  0
ARC
  5
2A1
100
AcDbEntity
  8
LAYER_FEATURE
100
AcDbCircle
 62
7
  6
CONTINUOUS
 10
15.8822588995
 20
11.5545040897
 40
0.1710324259
100
AcDbArc
 50
270.0001920906
 51
272.1500968399
  0
ARC
  5
2A2
100
AcDbEntity
  8
LAYER_FEATURE
100
AcDbCircle
 62
7
  6
CONTINUOUS
 10
15.8822594896
 20
13.4671298295
 40
0.1710084925
100
AcDbArc
 50
87.8931914014
 51
90.0000055713
  0
SPLINE
  5
2A3
100
AcDbEntity
  8
02___PRT_ALL_AXES
100
AcDbSpline
 62
7
  6
CONTINUOUS
 70
0
 71
3
 72
37
 73
33
 74
0
 42
0.0000001
 43
0.0000001
 44
0.0000000001
 40
0.0
 40
0.0
 40
0.0
 40
0.0
 40
0.0886839534
 40
0.1739708203
 40
0.2152902436
 40
0.2557010561
 40
0.2951872392
 40
0.333734727
 40
0.3713317074
 40
0.4079687373
 40
0.4436389242
 40
0.4783381922
 40
0.5120655018
 40
0.5448230892
 40
0.5766167863
 40
0.6074563683
 40
0.6373558659
 40
0.6663339529
 40
0.6944143973
 40
0.7216264601
 40
0.748005313
 40
0.7735924903
 40
0.7984362795
 40
0.8225920024
 40
0.846122223
 40
0.869096805
 40
0.8915927015
 40
0.9136935026
 40
0.9354887043
 40
0.957072645
 40
0.9785431553
 40
1.0
 40
1.0
 40
1.0
 40
1.0
 10
16.2371244899
 20
11.8100433553
 30
0.0
 10
16.2319614471
 20
11.7933357425
 30
0.0
 10
16.2212944117
 20
11.7607237293
 30
0.0
 10
16.2066503076
 20
11.720866044
 30
0.0
 10
16.1943815782
 20
11.690301175
 30
0.0
 10
16.1850256252
 20
11.6683043133
 30
0.0
 10
16.1754261878
 20
11.6470107117
 30
0.0
 10
16.1655911659
 20
11.6264380503
 30
0.0
 10
16.1555287726
 20
11.6066034576
 30
0.0
 10
16.145247363
 20
11.5875234279
 30
0.0
 10
16.1347554523
 20
11.5692138361
 30
0.0
 10
16.1240617356
 20
11.5516898968
 30
0.0
 10
16.1131750612
 20
11.5349661621
 30
0.0
 10
16.1021043996
 20
11.5190565301
 30
0.0
 10
16.0908588504
 20
11.503974223
 30
0.0
 10
16.0794476522
 20
11.4897317615
 30
0.0
 10
16.0678801346
 20
11.4763409919
 30
0.0
 10
16.0561657081
 20
11.4638130889
 30
0.0
 10
16.0443138955
 20
11.4521585173
 30
0.0
 10
16.032334295
 20
11.4413870626
 30
0.0
 10
16.0202365665
 20
11.4315078606
 30
0.0
 10
16.0080304601
 20
11.4225293779
 30
0.0
 10
15.9957258342
 20
11.4144594056
 30
0.0
 10
15.9833326454
 20
11.4073051108
 30
0.0
 10
15.970860988
 20
11.4010730348
 30
0.0
 10
15.9583211573
 20
11.3957690162
 30
0.0
 10
15.9457236634
 20
11.3913982122
 30
0.0
 10
15.9330792346
 20
11.3879650691
 30
0.0
 10
15.9203989596
 20
11.3854731837
 30
0.0
 10
15.9076938621
 20
11.3839252534
 30
0.0
 10
15.8949763121
 20
11.3833229481
 30
0.0
 10
15.8865055728
 20
11.3835521675
 30
0.0
 10
15.8822832664
 20
11.3838228738
 30
0.0
  0
SPLINE
  5
2A4
100
AcDbEntity
  8
02___PRT_ALL_AXES
100
AcDbSpline
 62
7
  6
CONTINUOUS
 70
0
 71
3
 72
22
 73
18
 74
0
 42
0.0000001
 43
0.0000001
 44
0.0000000001
 40
0.0
 40
0.0
 40
0.0
 40
0.0
 40
0.1749971989
 40
0.2575982647
 40
0.3366426207
 40
0.4119520776
 40
0.4833887688
 40
0.5508583393
 40
0.6143186054
 40
0.6737899266
 40
0.7293679716
 40
0.7812395533
 40
0.8297007507
 40
0.8751749325
 40
0.9182261978
 40
0.9595598202
 40
1.0
 40
1.0
 40
1.0
 40
1.0
 10
15.6361784133
 20
11.9631297578
 30
0.0
 10
15.6368779177
 20
11.9602340961
 30
0.0
 10
15.6380401432
 20
11.9560009592
 30
0.0
 10
15.6398679104
 20
11.9505684461
 30
0.0
 10
15.6413081472
 20
11.9467993364
 30
0.0
 10
15.6428383243
 20
11.9432719628
 30
0.0
 10
15.6444524242
 20
11.9400002709
 30
0.0
 10
15.6461440968
 20
11.936997184
 30
0.0
 10
15.6479068069
 20
11.9342744963
 30
0.0
 10
15.6497338894
 20
11.9318428721
 30
0.0
 10
15.6516186528
 20
11.9297118627
 30
0.0
 10
15.6535544502
 20
11.9278899981
 30
0.0
 10
15.6555347193
 20
11.9263849613
 30
0.0
 10
15.6575527446
 20
11.9252038734
 30
0.0
 10
15.6596015483
 20
11.9243535118
 30
0.0
 10
15.6616719302
 20
11.9238400964
 30
0.0
 10
15.6630665105
 20
11.9237252035
 30
0.0
 10
15.6637549181
 20
11.9237251964
 30
0.0
  0
SPLINE
  5
2A5
100
AcDbEntity
  8
LAYER_CHAMFER_FEAT
100
AcDbSpline
 62
7
  6
CONTINUOUS
 70
0
 71
3
 72
15
 73
11
 74
0
 42
0.0000001
 43
0.0000001
 44
0.0000000001
 40
0.0
 40
0.0
 40
0.0
 40
0.0
 40
0.1375060016
 40
0.2714667399
 40
0.4018485959
 40
0.5286396659
 40
0.6518353097
 40
0.7714433989
 40
0.887486029
 40
1.0
 40
1.0
 40
1.0
 40
1.0
 10
15.6414916493
 20
11.6961450069
 30
0.0
 10
15.6445490331
 20
11.6899147138
 30
0.0
 10
15.6507295828
 20
11.6776849991
 30
0.0
 10
15.6603283767
 20
11.6598161976
 30
0.0
 10
15.6701269668
 20
11.642676056
 30
0.0
 10
15.6801168319
 20
11.6262794764
 30
0.0
 10
15.6902895713
 20
11.6106402926
 30
0.0
 10
15.7006366181
 20
11.5957718
 30
0.0
 10
15.7111490317
 20
11.5816869504
 30
0.0
 10
15.7183725692
 20
11.572689337
 30
0.0
 10
15.7220114553
 20
11.568329771
 30
0.0
  0
SPLINE
  5
2A6
100
AcDbEntity
  8
02___PRT_ALL_AXES
100
AcDbSpline
 62
7
  6
CONTINUOUS
 70
0
 71
3
 72
11
 73
7
 74
0
 42
0.0000001
 43
0.0000001
 44
0.0000000001
 40
0.0
 40
0.0
 40
0.0
 40
0.0
 40
0.2444324287
 40
0.4916564823
 40
0.7430739213
 40
1.0
 40
1.0
 40
1.0
 40
1.0
 10
15.5797442372
 20
11.9485508835
 30
0.0
 10
15.5773131922
 20
11.9487355334
 30
0.0
 10
15.5724367793
 20
11.9493157555
 30
0.0
 10
15.5651679929
 20
11.9508047523
 30
0.0
 10
15.5579246025
 20
11.9529132768
 30
0.0
 10
15.5531763704
 20
11.9547081137
 30
0.0
 10
15.5508141504
 20
11.9557016722
 30
0.0
  0
SPLINE
  5
2A7
100
AcDbEntity
  8
LAYER_FEATURE
100
AcDbSpline
 62
7
  6
CONTINUOUS
 70
0
 71
3
 72
23
 73
19
 74
0
 42
0.0000001
 43
0.0000001
 44
0.0000000001
 40
0.0
 40
0.0
 40
0.0
 40
0.0
 40
0.0547202275
 40
0.1096527211
 40
0.1650067101
 40
0.2209855484
 40
0.2777841926
 40
0.3355870398
 40
0.3945663847
 40
0.4548812873
 40
0.5166768503
 40
0.5800841
 40
0.6452200296
 40
0.7121878931
 40
0.7810778956
 40
0.8519677613
 40
0.9249234349
 40
1.0
 40
1.0
 40
1.0
 40
1.0
 10
15.0735679202
 20
13.9013049851
 30
0.0
 10
15.0783312829
 20
13.9013049805
 30
0.0
 10
15.087879626
 20
13.9009810031
 30
0.0
 10
15.10217966
 20
13.8995243678
 30
0.0
 10
15.1164590187
 20
13.8970981239
 30
0.0
 10
15.1307063256
 20
13.8937043834
 30
0.0
 10
15.1449114571
 20
13.8893460122
 30
0.0
 10
15.1590642085
 20
13.884026687
 30
0.0
 10
15.1731546313
 20
13.8777506879
 30
0.0
 10
15.1871729207
 20
13.8705229132
 30
0.0
 10
15.2011094738
 20
13.8623489283
 30
0.0
 10
15.2149547862
 20
13.8532348088
 30
0.0
 10
15.2286994619
 20
13.8431872102
 30
0.0
 10
15.2423342412
 20
13.8322133997
 30
0.0
 10
15.2558498841
 20
13.8203211753
 30
0.0
 10
15.2692372976
 20
13.8075188594
 30
0.0
 10
15.2824872502
 20
13.7938156744
 30
0.0
 10
15.2910982871
 20
13.7842247447
 30
0.0
 10
15.2953800783
 20
13.7792874053
 30
0.0
  0
SPLINE
  5
2A8
100
AcDbEntity
  8
LAYER_FEATURE
100
AcDbSpline
 62
7
  6
CONTINUOUS
 70
0
 71
3
 72
23
 73
19
 74
0
 42
0.0000001
 43
0.0000001
 44
0.0000000001
 40
0.0
 40
0.0
 40
0.0
 40
0.0
 40
0.0547187883
 40
0.1096498835
 40
0.1650025741
 40
0.2209802428
 40
0.2777778715
 40
0.3355799315
 40
0.3945587095
 40
0.4548732821
 40
0.5166688254
 40
0.5800763199
 40
0.6452127771
 40
0.7121815123
 40
0.7810726551
 40
0.8519639592
 40
0.924921411
 40
1.0
 40
1.0
 40
1.0
 40
1.0
 10
15.0735679202
 20
11.1203050007
 30
0.0
 10
15.0783318601
 20
11.120304996
 30
0.0
 10
15.0878813642
 20
11.1206290823
 30
0.0
 10
15.1021831365
 20
11.1220860334
 30
0.0
 10
15.1164642205
 20
11.1245128878
 30
0.0
 10
15.1307132392
 20
11.1279074587
 30
0.0
 10
15.1449200786
 20
11.1322668601
 30
0.0
 10
15.1590745029
 20
11.1375874925
 30
0.0
 10
15.1731665808
 20
11.143865008
 30
0.0
 10
15.1871865117
 20
11.1510945047
 30
0.0
 10
15.2011246544
 20
11.1592704742
 30
0.0
 10
15.214971536
 20
11.1683867756
 30
0.0
 10
15.2287177537
 20
11.1784367644
 30
0.0
 10
15.2423540114
 20
11.189413209
 30
0.0
 10
15.2558711089
 20
11.2013082544
 30
0.0
 10
15.2692599352
 20
11.2141135959
 30
0.0
 10
15.2825112231
 20
11.2278200351
 30
0.0
 10
15.2911231219
 20
11.2374131908
 30
0.0
 10
15.2954053194
 20
11.2423516869
 30
0.0
  0
SPLINE
  5
2A9
100
AcDbEntity
  8
LAYER_FEATURE
100
AcDbSpline
 62
7
  6
CONTINUOUS
 70
0
 71
3
 72
58
 73
54
 74
0
 42
0.0000001
 43
0.0000001
 44
0.0000000001
 40
0.0
 40
0.0
 40
0.0
 40
0.0
 40
0.0076944078
 40
0.0154412971
 40
0.0232918437
 40
0.0312947396
 40
0.0394952416
 40
0.0479344979
 40
0.0566491579
 40
0.0656712319
 40
0.0750281475
 40
0.0847429431
 40
0.0948345481
 40
0.1053181053
 40
0.1162053062
 40
0.1275047176
 40
0.1392220882
 40
0.15136063
 40
0.16392127
 40
0.1769028759
 40
0.1903024537
 40
0.2041153234
 40
0.218335273
 40
0.2329546958
 40
0.2479647097
 40
0.2633552653
 40
0.2791152409
 40
0.2952325284
 40
0.3116941116
 40
0.3284861365
 40
0.3455939762
 40
0.3630022917
 40
0.380695088
 40
0.3986557668
 40
0.4353105099
 40
0.4728247224
 40
0.5110486683
 40
0.5498272506
 40
0.5890012787
 40
0.628408691
 40
0.6678857482
 40
0.7072682122
 40
0.7463925223
 40
0.7850969759
 40
0.8232229255
 40
0.8606160057
 40
0.8971274086
 40
0.9150084462
 40
0.9326164895
 40
0.9499351403
 40
0.9669485365
 40
0.9836416873
 40
1.0
 40
1.0
 40
1.0
 40
1.0
 10
15.9067495202
 20
13.9013049921
 30
0.0
 10
15.9130764478
 20
13.9013049973
 30
0.0
 10
15.9257807804
 20
13.9007317713
 30
0.0
 10
15.9447833735
 20
13.8981568175
 30
0.0
 10
15.9637351727
 20
13.8938704216
 30
0.0
 10
15.9826090015
 20
13.8878800236
 30
0.0
 10
16.0013812433
 20
13.8801954348
 30
0.0
 10
16.0200285154
 20
13.8708284838
 30
0.0
 10
16.0385284304
 20
13.8597927509
 30
0.0
 10
16.0568591514
 20
13.8471034248
 30
0.0
 10
16.0749992835
 20
13.8327772603
 30
0.0
 10
16.0929277203
 20
13.8168326029
 30
0.0
 10
16.110623568
 20
13.7992894422
 30
0.0
 10
16.1280661073
 20
13.7801694686
 30
0.0
 10
16.1452347928
 20
13.7594961232
 30
0.0
 10
16.1621092747
 20
13.7372946314
 30
0.0
 10
16.1786694327
 20
13.71359202
 30
0.0
 10
16.194895416
 20
13.6884171184
 30
0.0
 10
16.2107676856
 20
13.6618005468
 30
0.0
 10
16.2262670547
 20
13.6337746947
 30
0.0
 10
16.2413747284
 20
13.6043736911
 30
0.0
 10
16.2560723408
 20
13.5736333689
 30
0.0
 10
16.270341987
 20
13.5415912219
 30
0.0
 10
16.2841662544
 20
13.5082863596
 30
0.0
 10
16.2975282514
 20
13.4737594587
 30
0.0
 10
16.3104116337
 20
13.438052712
 30
0.0
 10
16.3228006292
 20
13.4012097761
 30
0.0
 10
16.3346800604
 20
13.3632757157
 30
0.0
 10
16.3460353664
 20
13.3242969468
 30
0.0
 10
16.3568526213
 20
13.2843211818
 30
0.0
 10
16.367118562
 20
13.2433973579
 30
0.0
 10
16.3768205739
 20
13.2015756213
 30
0.0
 10
16.3859468245
 20
13.1589070872
 30
0.0
 10
16.3974095865
 20
13.1005628483
 30
0.0
 10
16.4101914368
 20
13.0258788083
 30
0.0
 10
16.4229702895
 20
12.9343348812
 30
0.0
 10
16.433228712
 20
12.8407175157
 30
0.0
 10
16.4409161655
 20
12.7454854394
 30
0.0
 10
16.4459947693
 20
12.6491044964
 30
0.0
 10
16.4484394934
 20
12.5520465152
 30
0.0
 10
16.4482382848
 20
12.4547866251
 30
0.0
 10
16.4453921322
 20
12.3578009859
 30
0.0
 10
16.4399150692
 20
12.2615643664
 30
0.0
 10
16.4318340902
 20
12.1665478771
 30
0.0
 10
16.4211890161
 20
12.0732162821
 30
0.0
 10
16.4080322891
 20
11.9820268958
 30
0.0
 10
16.3949401151
 20
11.9076837501
 30
0.0
 10
16.3832342013
 20
11.8496458922
 30
0.0
 10
16.3739316913
 20
11.8072292511
 30
0.0
 10
16.3640569685
 20
11.7656751346
 30
0.0
 10
16.3536220615
 20
11.7250341816
 30
0.0
 10
16.3426398467
 20
11.6853565093
 30
0.0
 10
16.3348816228
 20
11.6593077451
 30
0.0
 10
16.3309102358
 20
11.646456332
 30
0.0
  0
SPLINE
  5
2AA
100
AcDbEntity
  8
LAYER_FEATURE
100
AcDbSpline
 62
7
  6
CONTINUOUS
 70
0
 71
3
 72
38
 73
34
 74
0
 42
0.0000001
 43
0.0000001
 44
0.0000000001
 40
0.0
 40
0.0
 40
0.0
 40
0.0
 40
0.0212770472
 40
0.0426478763
 40
0.0642047498
 40
0.0860369964
 40
0.1082297705
 40
0.1308630396
 40
0.1540108617
 40
0.1777409173
 40
0.2021142561
 40
0.2271852721
 40
0.2530018495
 40
0.2796055948
 40
0.3070321341
 40
0.3353115069
 40
0.3644685544
 40
0.3945232742
 40
0.425491203
 40
0.4573837959
 40
0.4902087439
 40
0.5239702514
 40
0.5586693495
 40
0.5943041549
 40
0.6308700679
 40
0.6683599846
 40
0.7067645162
 40
0.7460721413
 40
0.7862693083
 40
0.827340706
 40
0.8692692239
 40
0.9120359448
 40
1.0
 40
1.0
 40
1.0
 40
1.0
 10
15.9067495202
 20
11.1203049937
 30
0.0
 10
15.9118285931
 20
11.1203049978
 30
0.0
 10
15.9220129286
 20
11.120673549
 30
0.0
 10
15.9372620645
 20
11.122330261
 30
0.0
 10
15.9524859112
 20
11.1250895012
 30
0.0
 10
15.9676706103
 20
11.1289484743
 30
0.0
 10
15.9828038849
 20
11.133903373
 30
0.0
 10
15.9978733858
 20
11.1399494247
 30
0.0
 10
16.0128671295
 20
11.1470810394
 30
0.0
 10
16.0277733353
 20
11.1552918655
 30
0.0
 10
16.0425804499
 20
11.1645747732
 30
0.0
 10
16.0572770902
 20
11.1749219048
 30
0.0
 10
16.0718519961
 20
11.1863247086
 30
0.0
 10
16.0862940118
 20
11.1987739109
 30
0.0
 10
16.1005921015
 20
11.2122594747
 30
0.0
 10
16.1147353062
 20
11.2267706397
 30
0.0
 10
16.1287127404
 20
11.2422959098
 30
0.0
 10
16.1425136299
 20
11.2588230105
 30
0.0
 10
16.156127308
 20
11.2763389023
 30
0.0
 10
16.1695432051
 20
11.2948298015
 30
0.0
 10
16.1827508692
 20
11.3142811682
 30
0.0
 10
16.1957400099
 20
11.3346776891
 30
0.0
 10
16.208500472
 20
11.356003317
 30
0.0
 10
16.2210222455
 20
11.3782412799
 30
0.0
 10
16.2332955058
 20
11.4013740698
 30
0.0
 10
16.2453106179
 20
11.4253834617
 30
0.0
 10
16.2570581236
 20
11.4502505461
 30
0.0
 10
16.268528754
 20
11.4759557246
 30
0.0
 10
16.279713494
 20
11.5024787395
 30
0.0
 10
16.2906034903
 20
11.5297986322
 30
0.0
 10
16.3011902156
 20
11.557893961
 30
0.0
 10
16.3150195478
 20
11.5967220269
 30
0.0
 10
16.3247106258
 20
11.6263943868
 30
0.0
 10
16.3309102358
 20
11.646456332
 30
0.0
  0
SPLINE
  5
2AB
100
AcDbEntity
  8
LAYER_FEATURE
100
AcDbSpline
 62
7
  6
CONTINUOUS
 70
0
 71
3
 72
36
 73
32
 74
0
 42
0.0000001
 43
0.0000001
 44
0.0000000001
 40
0.0
 40
0.0
 40
0.0
 40
0.0
 40
0.0879647457
 40
0.1726570522
 40
0.2539222798
 40
0.293230187
 40
0.3316350088
 40
0.3691252153
 40
0.4056913953
 40
0.4413264612
 40
0.4760258306
 40
0.5097875901
 40
0.5426127719
 40
0.5745056125
 40
0.6054737787
 40
0.6355287119
 40
0.6646859796
 40
0.6929655735
 40
0.7203923106
 40
0.746996252
 40
0.7728130306
 40
0.7978842314
 40
0.8222577496
 40
0.8459879861
 40
0.8691359811
 40
0.8917694186
 40
0.9139623597
 40
0.9357947691
 40
0.9573518041
 40
0.9787227938
 40
1.0
 40
1.0
 40
1.0
 40
1.0
 10
15.5383756086
 20
13.2115666305
 30
0.0
 10
15.5434018794
 20
13.2278316486
 30
0.0
 10
15.5537783738
 20
13.2596021074
 30
0.0
 10
15.57066171
 20
13.3057633137
 30
0.0
 10
15.5857119084
 20
13.3425398171
 30
0.0
 10
15.5982503988
 20
13.3706383853
 30
0.0
 10
15.6077746171
 20
13.3907991539
 30
0.0
 10
15.6175157225
 20
13.410264512
 30
0.0
 10
15.6274661485
 20
13.4290191787
 30
0.0
 10
15.6376180503
 20
13.4470483701
 30
0.0
 10
15.6479634518
 20
13.4643379069
 30
0.0
 10
15.6584942621
 20
13.4808741726
 30
0.0
 10
15.6692022483
 20
13.4966441565
 30
0.0
 10
15.6800790384
 20
13.5116354659
 30
0.0
 10
15.6911161809
 20
13.5258362967
 30
0.0
 10
15.7023051182
 20
13.539235461
 30
0.0
 10
15.7136371748
 20
13.5518224127
 30
0.0
 10
15.7251036213
 20
13.5635871977
 30
0.0
 10
15.7366956558
 20
13.5745204693
 30
0.0
 10
15.7484043715
 20
13.5846135256
 30
0.0
 10
15.7602208155
 20
13.5938582411
 30
0.0
 10
15.7721359674
 20
13.6022470646
 30
0.0
 10
15.784140683
 20
13.6097730797
 30
0.0
 10
15.7962257293
 20
13.6164299286
 30
0.0
 10
15.8083817518
 20
13.6222118086
 30
0.0
 10
15.8205991929
 20
13.6271135789
 30
0.0
 10
15.8328683356
 20
13.6311307152
 30
0.0
 10
15.8451791726
 20
13.634259334
 30
0.0
 10
15.8575217469
 20
13.6364963585
 30
0.0
 10
15.8698848238
 20
13.63783953
 30
0.0
 10
15.8781416678
 20
13.638138316
 30
0.0
 10
15.8822594729
 20
13.638138322
 30
0.0
  0
SPLINE
  5
2AC
100
AcDbEntity
  8
LAYER_FEATURE
100
AcDbSpline
 62
7
  6
CONTINUOUS
 70
0
 71
3
 72
56
 73
52
 74
0
 42
0.0000001
 43
0.0000001
 44
0.0000000001
 40
0.0
 40
0.0
 40
0.0
 40
0.0
 40
0.0163583263
 40
0.0330515626
 40
0.0500649807
 40
0.0673836811
 40
0.1028715846
 40
0.1393830808
 40
0.1767762554
 40
0.2149022994
 40
0.2536068502
 40
0.2927312591
 40
0.3321138218
 40
0.3715909781
 40
0.4109984893
 40
0.4501726158
 40
0.4889512958
 40
0.5271753368
 40
0.5646896433
 40
0.6013444802
 40
0.6369967977
 40
0.6544051557
 40
0.6715130374
 40
0.6883051044
 40
0.70476673
 40
0.7208840594
 40
0.7366440749
 40
0.7520346686
 40
0.7670447194
 40
0.7816641785
 40
0.795884164
 40
0.8096970688
 40
0.8230966803
 40
0.8360783181
 40
0.8486389891
 40
0.8607775614
 40
0.8724949623
 40
0.8837944032
 40
0.8946816324
 40
0.9051652153
 40
0.9152568439
 40
0.9249716626
 40
0.9343286014
 40
0.943350699
 40
0.9520653822
 40
0.9605046605
 40
0.9687051829
 40
0.9767080984
 40
0.9845586643
 40
0.9923055729
 40
1.0
 40
1.0
 40
1.0
 40
1.0
 10
15.5383756086
 20
13.2115666305
 30
0.0
 10
15.5351558535
 20
13.2011474992
 30
0.0
 10
15.5288659518
 20
13.1800287219
 30
0.0
 10
15.5199622438
 20
13.1478604825
 30
0.0
 10
15.5115022081
 20
13.1149111816
 30
0.0
 10
15.5007406909
 20
13.0696246612
 30
0.0
 10
15.4885001417
 20
13.0113397155
 30
0.0
 10
15.4758497137
 20
12.9395066906
 30
0.0
 10
15.4651830358
 20
12.8655753559
 30
0.0
 10
15.4565526474
 20
12.7899078786
 30
0.0
 10
15.4500010767
 20
12.7128742167
 30
0.0
 10
15.4455606108
 20
12.6348513936
 30
0.0
 10
15.4432531223
 20
12.5562212978
 30
0.0
 10
15.4430899902
 20
12.4773688607
 30
0.0
 10
15.4450720276
 20
12.3986801147
 30
0.0
 10
15.449189452
 20
12.3205402829
 30
0.0
 10
15.4554219717
 20
12.2433318365
 30
0.0
 10
15.4637388854
 20
12.1674326708
 30
0.0
 10
15.4740992081
 20
12.0932139059
 30
0.0
 10
15.4864518945
 20
12.0210391251
 30
0.0
 10
15.4984486961
 20
11.9624332538
 30
0.0
 10
15.5090200545
 20
11.9168634384
 30
0.0
 10
15.5173431026
 20
11.8836848246
 30
0.0
 10
15.5261130676
 20
11.8512749052
 30
0.0
 10
15.5353192642
 20
11.8196732701
 30
0.0
 10
15.5449503857
 20
11.7889186256
 30
0.0
 10
15.5549946342
 20
11.7590485994
 30
0.0
 10
15.5654397029
 20
11.7300997291
 30
0.0
 10
15.5762728033
 20
11.7021074069
 30
0.0
 10
15.5874806839
 20
11.6751058391
 30
0.0
 10
15.59904965
 20
11.6491280033
 30
0.0
 10
15.6109655847
 20
11.6242056076
 30
0.0
 10
15.6232139727
 20
11.6003690513
 30
0.0
 10
15.6357799254
 20
11.5776473863
 30
0.0
 10
15.6486482026
 20
11.5560682806
 30
0.0
 10
15.6618032489
 20
11.5356579922
 30
0.0
 10
15.6752292229
 20
11.5164413457
 30
0.0
 10
15.6889100315
 20
11.4984417151
 30
0.0
 10
15.7028293624
 20
11.4816810141
 30
0.0
 10
15.7169707194
 20
11.4661796973
 30
0.0
 10
15.7313174449
 20
11.4519567686
 30
0.0
 10
15.7458527388
 20
11.4390298093
 30
0.0
 10
15.7605596612
 20
11.4274150221
 30
0.0
 10
15.7754211004
 20
11.4171272798
 30
0.0
 10
15.7904197115
 20
11.4081801684
 30
0.0
 10
15.8055377916
 20
11.4005860062
 30
0.0
 10
15.8207571913
 20
11.3943558082
 30
0.0
 10
15.8360589514
 20
11.3894991605
 30
0.0
 10
15.8514239246
 20
11.3860240133
 30
0.0
 10
15.8668300779
 20
11.3839364004
 30
0.0
 10
15.8771299826
 20
11.3834716564
 30
0.0
 10
15.8822594729
 20
11.3834716638
 30
0.0
  0
SPLINE
  5
2AD
100
AcDbEntity
  8
LAYER_FEATURE
100
AcDbSpline
 62
7
  6
CONTINUOUS
 70
0
 71
3
 72
58
 73
54
 74
0
 42
0.0000001
 43
0.0000001
 44
0.0000000001
 40
0.0
 40
0.0
 40
0.0
 40
0.0
 40
0.0163583127
 40
0.0330514635
 40
0.0500648597
 40
0.0673835105
 40
0.0849915538
 40
0.1028725914
 40
0.1393839943
 40
0.1767770745
 40
0.2149030241
 40
0.2536074777
 40
0.2927317878
 40
0.3321142518
 40
0.371591309
 40
0.4109987213
 40
0.4501727494
 40
0.4889513317
 40
0.5271752776
 40
0.5646894901
 40
0.6013442332
 40
0.619304912
 40
0.6369977083
 40
0.6544060238
 40
0.6715138635
 40
0.6883058884
 40
0.7047674716
 40
0.7208847591
 40
0.7366447347
 40
0.7520352903
 40
0.7670453042
 40
0.781664727
 40
0.7958846766
 40
0.8096975463
 40
0.8230971241
 40
0.83607873
 40
0.84863937
 40
0.8607779118
 40
0.8724952824
 40
0.8837946938
 40
0.8946818947
 40
0.9051654519
 40
0.9152570569
 40
0.9249718525
 40
0.9343287681
 40
0.9433508421
 40
0.9520655021
 40
0.9605047584
 40
0.9687052604
 40
0.9767081563
 40
0.9845587029
 40
0.9923055922
 40
1.0
 40
1.0
 40
1.0
 40
1.0
 10
15.4444467043
 20
13.3751536538
 30
0.0
 10
15.4404753173
 20
13.3623022407
 30
0.0
 10
15.4327170934
 20
13.3362534765
 30
0.0
 10
15.4217348786
 20
13.2965758042
 30
0.0
 10
15.4112999716
 20
13.2559348512
 30
0.0
 10
15.4014252488
 20
13.2143807347
 30
0.0
 10
15.3921227388
 20
13.1719640936
 30
0.0
 10
15.380416825
 20
13.1139262357
 30
0.0
 10
15.367324651
 20
13.03958309
 30
0.0
 10
15.354167924
 20
12.9483937037
 30
0.0
 10
15.3435228499
 20
12.8550621088
 30
0.0
 10
15.335441871
 20
12.7600456194
 30
0.0
 10
15.3299648079
 20
12.663809
 30
0.0
 10
15.3271186553
 20
12.5668233607
 30
0.0
 10
15.3269174467
 20
12.4695634706
 30
0.0
 10
15.3293621708
 20
12.3725054894
 30
0.0
 10
15.3344407746
 20
12.2761245464
 30
0.0
 10
15.3421282281
 20
12.1808924701
 30
0.0
 10
15.3523866506
 20
12.0872751046
 30
0.0
 10
15.3651655033
 20
11.9957311775
 30
0.0
 10
15.3779473536
 20
11.9210471375
 30
0.0
 10
15.3894101156
 20
11.8627028986
 30
0.0
 10
15.3985363663
 20
11.8200343645
 30
0.0
 10
15.4082383781
 20
11.7782126279
 30
0.0
 10
15.4185043188
 20
11.737288804
 30
0.0
 10
15.4293215737
 20
11.697313039
 30
0.0
 10
15.4406768798
 20
11.6583342702
 30
0.0
 10
15.4525563109
 20
11.6204002097
 30
0.0
 10
15.4649453064
 20
11.5835572738
 30
0.0
 10
15.4778286887
 20
11.5478505271
 30
0.0
 10
15.4911906857
 20
11.5133236262
 30
0.0
 10
15.5050149532
 20
11.4800187639
 30
0.0
 10
15.5192845993
 20
11.447976617
 30
0.0
 10
15.5339822117
 20
11.4172362947
 30
0.0
 10
15.5490898854
 20
11.3878352911
 30
0.0
 10
15.5645892545
 20
11.359809439
 30
0.0
 10
15.5804615241
 20
11.3331928674
 30
0.0
 10
15.5966875075
 20
11.3080179658
 30
0.0
 10
15.6132476654
 20
11.2843153544
 30
0.0
 10
15.6301221473
 20
11.2621138626
 30
0.0
 10
15.6472908328
 20
11.2414405172
 30
0.0
 10
15.6647333721
 20
11.2223205436
 30
0.0
 10
15.6824292198
 20
11.2047773829
 30
0.0
 10
15.7003576566
 20
11.1888327255
 30
0.0
 10
15.7184977887
 20
11.174506561
 30
0.0
 10
15.7368285097
 20
11.1618172349
 30
0.0
 10
15.7553284247
 20
11.150781502
 30
0.0
 10
15.7739756968
 20
11.141414551
 30
0.0
 10
15.7927479386
 20
11.1337299622
 30
0.0
 10
15.8116217674
 20
11.1277395642
 30
0.0
 10
15.8305735666
 20
11.1234531683
 30
0.0
 10
15.8495761597
 20
11.1208782145
 30
0.0
 10
15.8622804923
 20
11.1203049885
 30
0.0
 10
15.8686074199
 20
11.1203049937
 30
0.0
  0
SPLINE
  5
2AE
100
AcDbEntity
  8
02___PRT_ALL_AXES
100
AcDbSpline
 62
7
  6
CONTINUOUS
 70
0
 71
3
 72
57
 73
53
 74
0
 42
0.0000001
 43
0.0000001
 44
0.0000000001
 40
0.0
 40
0.0
 40
0.0
 40
0.0
 40
0.0077321675
 40
0.0154803493
 40
0.0232982303
 40
0.0312377394
 40
0.0393478767
 40
0.0476738059
 40
0.0562562488
 40
0.0651311721
 40
0.0743297215
 40
0.0838783414
 40
0.0937990193
 40
0.1041096018
 40
0.1148241411
 40
0.1259532457
 40
0.1375044172
 40
0.1494823609
 40
0.1618892677
 40
0.1747250661
 40
0.1879876451
 40
0.2016730501
 40
0.2157756555
 40
0.2302883185
 40
0.2452025128
 40
0.2605084482
 40
0.2761951757
 40
0.2922506827
 40
0.308661978
 40
0.3254151682
 40
0.3424955297
 40
0.3598875744
 40
0.3775751101
 40
0.3955412969
 40
0.4322381495
 40
0.4698337012
 40
0.50817502
 40
0.547103394
 40
0.5864556688
 40
0.6260655355
 40
0.6657647902
 40
0.7053845763
 40
0.7447566174
 40
0.7837144583
 40
0.8220947242
 40
0.8597384057
 40
0.8964921923
 40
0.9322098823
 40
0.9496375344
 40
0.9667553114
 40
0.9835478285
 40
1.0
 40
1.0
 40
1.0
 40
1.0
 10
15.8822913372
 20
13.6377876276
 30
0.0
 10
15.8874636128
 20
13.638118999
 30
0.0
 10
15.897855244
 20
13.6383129018
 30
0.0
 10
15.9134514097
 20
13.6371799594
 30
0.0
 10
15.9290201777
 20
13.6346253791
 30
0.0
 10
15.9445382629
 20
13.6306537636
 30
0.0
 10
15.9599852743
 20
13.6252721045
 30
0.0
 10
15.9753410887
 20
13.6184892699
 30
0.0
 10
15.9905865236
 20
13.6103157538
 30
0.0
 10
16.0057029832
 20
13.6007634706
 30
0.0
 10
16.0206723451
 20
13.5898456674
 30
0.0
 10
16.0354768004
 20
13.5775769116
 30
0.0
 10
16.0500987566
 20
13.5639731248
 30
0.0
 10
16.0645207813
 20
13.5490516357
 30
0.0
 10
16.0787255878
 20
13.5328312326
 30
0.0
 10
16.092696039
 20
13.5153321982
 30
0.0
 10
16.1064151726
 20
13.4965763329
 30
0.0
 10
16.119866233
 20
13.4765869636
 30
0.0
 10
16.1330327073
 20
13.4553889408
 30
0.0
 10
16.1458983611
 20
13.4330086239
 30
0.0
 10
16.1584472725
 20
13.4094738601
 30
0.0
 10
16.1706638668
 20
13.3848139579
 30
0.0
 10
16.182532947
 20
13.359059653
 30
0.0
 10
16.1940397192
 20
13.3322430695
 30
0.0
 10
16.205169819
 20
13.3043976793
 30
0.0
 10
16.2159093347
 20
13.2755582598
 30
0.0
 10
16.22624483
 20
13.2457608489
 30
0.0
 10
16.2361633633
 20
13.2150426994
 30
0.0
 10
16.2456525073
 20
13.1834422307
 30
0.0
 10
16.2547003679
 20
13.1509989834
 30
0.0
 10
16.263295605
 20
13.1177535569
 30
0.0
 10
16.2714274215
 20
13.0837475953
 30
0.0
 10
16.2790856795
 20
13.0490235858
 30
0.0
 10
16.2887199271
 20
13.0014915211
 30
0.0
 10
16.2994865561
 20
12.9405829275
 30
0.0
 10
16.3102900811
 20
12.8658498149
 30
0.0
 10
16.319012115
 20
12.7893397878
 30
0.0
 10
16.3256087213
 20
12.7114361018
 30
0.0
 10
16.3300466562
 20
12.6325283191
 30
0.0
 10
16.3323035533
 20
12.5530113441
 30
0.0
 10
16.3323680472
 20
12.4732831257
 30
0.0
 10
16.3302398129
 20
12.3937427026
 30
0.0
 10
16.3259295681
 20
12.3147881587
 30
0.0
 10
16.3194590343
 20
12.2368145748
 30
0.0
 10
16.3108608218
 20
12.1602120981
 30
0.0
 10
16.3001782414
 20
12.0853636259
 30
0.0
 10
16.2874650909
 20
12.0126440038
 30
0.0
 10
16.2751332485
 20
11.9536466908
 30
0.0
 10
16.264275861
 20
11.9078156087
 30
0.0
 10
16.2557344998
 20
11.8744784668
 30
0.0
 10
16.246739309
 20
11.8419389278
 30
0.0
 10
16.2403804506
 20
11.8205796479
 30
0.0
 10
16.2371244899
 20
11.8100433553
 30
0.0
  0
SPLINE
  5
2AF
100
AcDbEntity
  8
LAYER_CHAMFER_FEAT
100
AcDbSpline
 62
7
  6
CONTINUOUS
 70
0
 71
3
 72
49
 73
45
 74
0
 42
0.0000001
 43
0.0000001
 44
0.0000000001
 40
0.0
 40
0.0
 40
0.0
 40
0.0
 40
0.0101615087
 40
0.0206688207
 40
0.0315256417
 40
0.0427339846
 40
0.0542943162
 40
0.0662057063
 40
0.0784659526
 40
0.0910716811
 40
0.1040184422
 40
0.1173008083
 40
0.1309124513
 40
0.1448462032
 40
0.1590941209
 40
0.1736475516
 40
0.20363185
 40
0.234718789
 40
0.2668181748
 40
0.2998324551
 40
0.3336577934
 40
0.3681849849
 40
0.4033003565
 40
0.4388865724
 40
0.474823438
 40
0.5109886534
 40
0.5472585667
 40
0.5835089084
 40
0.6196155233
 40
0.6554551062
 40
0.6909059382
 40
0.7258486411
 40
0.760166947
 40
0.7937484955
 40
0.8264856792
 40
0.8582765275
 40
0.8890256955
 40
0.9186455208
 40
0.9330076363
 40
0.9470587174
 40
0.96079055
 40
0.9741955858
 40
0.9872675047
 40
1.0
 40
1.0
 40
1.0
 40
1.0
 10
15.7220114548
 20
13.4532802177
 30
0.0
 10
15.7180564768
 20
13.4485419631
 30
0.0
 10
15.7102110073
 20
13.4387364947
 30
0.0
 10
15.6988239718
 20
13.4233370017
 30
0.0
 10
15.6876336139
 20
13.4070170209
 30
0.0
 10
15.6766513188
 20
13.3897932582
 30
0.0
 10
15.6658879292
 20
13.3716829094
 30
0.0
 10
15.655354211
 20
13.3527041794
 30
0.0
 10
15.6450607065
 20
13.3328761115
 30
0.0
 10
15.6350177405
 20
13.3122186298
 30
0.0
 10
15.6252353862
 20
13.2907525096
 30
0.0
 10
15.6157234817
 20
13.2684993452
 30
0.0
 10
15.6064916066
 20
13.2454815215
 30
0.0
 10
15.5975490793
 20
13.2217222343
 30
0.0
 10
15.588904833
 20
13.1972453528
 30
0.0
 10
15.5776772857
 20
13.1633490202
 30
0.0
 10
15.5644789804
 20
13.1193411486
 30
0.0
 10
15.5501162605
 20
13.0645930979
 30
0.0
 10
15.5371333622
 20
13.0076128828
 30
0.0
 10
15.5255828346
 20
12.948630293
 30
0.0
 10
15.5155114892
 20
12.8878825486
 30
0.0
 10
15.5069600997
 20
12.8256143785
 30
0.0
 10
15.4999633735
 20
12.7620766886
 30
0.0
 10
15.4945496434
 20
12.6975256168
 30
0.0
 10
15.4907408993
 20
12.6322214453
 30
0.0
 10
15.4885525585
 20
12.566427544
 30
0.0
 10
15.4879935225
 20
12.5004092844
 30
0.0
 10
15.4890660385
 20
12.4344329571
 30
0.0
 10
15.4917657711
 20
12.3687646806
 30
0.0
 10
15.4960817611
 20
12.3036693134
 30
0.0
 10
15.5019965071
 20
12.2394093693
 30
0.0
 10
15.509486026
 20
12.1762439398
 30
0.0
 10
15.5185199408
 20
12.1144276332
 30
0.0
 10
15.5290616491
 20
12.0542095034
 30
0.0
 10
15.5410684105
 20
11.9958320965
 30
0.0
 10
15.5544916547
 20
11.9395301359
 30
0.0
 10
15.5692769784
 20
11.885530625
 30
0.0
 10
15.582819015
 20
11.8421951507
 30
0.0
 10
15.5943121685
 20
11.808871058
 30
0.0
 10
15.6031452961
 20
11.7848431153
 30
0.0
 10
15.6122710584
 20
11.7615479829
 30
0.0
 10
15.6216803771
 20
11.739008847
 30
0.0
 10
15.6313636554
 20
11.7172487979
 30
0.0
 10
15.638084702
 20
11.7030876355
 30
0.0
 10
15.6414916493
 20
11.6961450069
 30
0.0
  0
SPLINE
  5
2B0
100
AcDbEntity
  8
LAYER_CHAMFER_FEAT
100
AcDbSpline
 62
7
  6
CONTINUOUS
 70
0
 71
3
 72
19
 73
15
 74
0
 42
0.0000001
 43
0.0000001
 44
0.0000000001
 40
0.0
 40
0.0
 40
0.0
 40
0.0
 40
0.1458762482
 40
0.2841789827
 40
0.4154904209
 40
0.5405633275
 40
0.6010666287
 40
0.6603767804
 40
0.7186391908
 40
0.7760098917
 40
0.8326544709
 40
0.8887467079
 40
0.9444669406
 40
1.0
 40
1.0
 40
1.0
 40
1.0
 10
15.722586968
 20
11.5686906216
 30
0.0
 10
15.7284401205
 20
11.562453842
 30
0.0
 10
15.7402567765
 20
11.5506822188
 30
0.0
 10
15.7588068222
 20
11.5348503015
 30
0.0
 10
15.77765362
 20
11.5213691096
 30
0.0
 10
15.7937508202
 20
11.5120221031
 30
0.0
 10
15.8067028716
 20
11.5058108381
 30
0.0
 10
15.8163534232
 20
11.5018109936
 30
0.0
 10
15.8260407007
 20
11.4984217871
 30
0.0
 10
15.8357589743
 20
11.4956454182
 30
0.0
 10
15.8455021123
 20
11.4934838896
 30
0.0
 10
15.8552641467
 20
11.4919388154
 30
0.0
 10
15.8650383401
 20
11.4910112675
 30
0.0
 10
15.8715633307
 20
11.4908050038
 30
0.0
 10
15.8748194058
 20
11.4908050015
 30
0.0
  0
SPLINE
  5
2B1
100
AcDbEntity
  8
LAYER_CHAMFER_FEAT
100
AcDbSpline
 62
7
  6
CONTINUOUS
 70
0
 71
3
 72
19
 73
15
 74
0
 42
0.0000001
 43
0.0000001
 44
0.0000000001
 40
0.0
 40
0.0
 40
0.0
 40
0.0
 40
0.0555312368
 40
0.1112497008
 40
0.1673402875
 40
0.2239833629
 40
0.2813527901
 40
0.3396141591
 40
0.3989235746
 40
0.4594264604
 40
0.5844995882
 40
0.7158127682
 40
0.854118832
 40
1.0
 40
1.0
 40
1.0
 40
1.0
 10
15.8748194058
 20
13.5308049843
 30
0.0
 10
15.8715627889
 20
13.5308049867
 30
0.0
 10
15.8650367089
 20
13.5305986402
 30
0.0
 10
15.855260885
 20
13.5296708022
 30
0.0
 10
15.8454972325
 20
13.5281251905
 30
0.0
 10
15.8357524766
 20
13.5259629659
 30
0.0
 10
15.8260326096
 20
13.5231856525
 30
0.0
 10
15.8163437432
 20
13.5197953346
 30
0.0
 10
15.8066916289
 20
13.5157941559
 30
0.0
 10
15.7937374589
 20
13.5095808138
 30
0.0
 10
15.7776376714
 20
13.500230683
 30
0.0
 10
15.7587879839
 20
13.4867450549
 30
0.0
 10
15.7402351912
 20
13.4709079637
 30
0.0
 10
15.7284169187
 20
13.4591325674
 30
0.0
 10
15.7225629739
 20
13.4528937987
 30
0.0
  0
SPLINE
  5
2B2
100
AcDbEntity
  8
LAYER_FEATURE
100
AcDbSpline
 62
7
  6
CONTINUOUS
 70
0
 71
3
 72
38
 73
34
 74
0
 42
0.0000001
 43
0.0000001
 44
0.0000000001
 40
0.0
 40
0.0
 40
0.0
 40
0.0
 40
0.0879640552
 40
0.1307307761
 40
0.172659294
 40
0.2137306917
 40
0.2539278587
 40
0.2932354838
 40
0.3316400154
 40
0.3691299321
 40
0.4056958451
 40
0.4413306505
 40
0.4760297486
 40
0.5097912561
 40
0.5426162041
 40
0.574508797
 40
0.6054767258
 40
0.6355314456
 40
0.6646884931
 40
0.6929678659
 40
0.7203944052
 40
0.7469981505
 40
0.7728147279
 40
0.7978857439
 40
0.8222590827
 40
0.8459891383
 40
0.8691369604
 40
0.8917702295
 40
0.9139630036
 40
0.9357952502
 40
0.9573521237
 40
0.9787229528
 40
1.0
 40
1.0
 40
1.0
 40
1.0
 10
15.4444467043
 20
13.3751536538
 30
0.0
 10
15.4506463143
 20
13.395215599
 30
0.0
 10
15.4603373923
 20
13.4248879589
 30
0.0
 10
15.4741667245
 20
13.4637160248
 30
0.0
 10
15.4847534498
 20
13.4918113536
 30
0.0
 10
15.4956434461
 20
13.5191312463
 30
0.0
 10
15.5068281861
 20
13.5456542613
 30
0.0
 10
15.5182988165
 20
13.5713594397
 30
0.0
 10
15.5300463223
 20
13.5962265241
 30
0.0
 10
15.5420614343
 20
13.6202359161
 30
0.0
 10
15.5543346946
 20
13.6433687059
 30
0.0
 10
15.5668564681
 20
13.6656066688
 30
0.0
 10
15.5796169302
 20
13.6869322967
 30
0.0
 10
15.5926060709
 20
13.7073288176
 30
0.0
 10
15.605813735
 20
13.7267801843
 30
0.0
 10
15.6192296321
 20
13.7452710835
 30
0.0
 10
15.6328433102
 20
13.7627869753
 30
0.0
 10
15.6466441997
 20
13.779314076
 30
0.0
 10
15.6606216339
 20
13.7948393461
 30
0.0
 10
15.6747648386
 20
13.8093505112
 30
0.0
 10
15.6890629283
 20
13.8228360749
 30
0.0
 10
15.703504944
 20
13.8352852772
 30
0.0
 10
15.7180798499
 20
13.846688081
 30
0.0
 10
15.7327764902
 20
13.8570352126
 30
0.0
 10
15.7475836048
 20
13.8663181203
 30
0.0
 10
15.7624898106
 20
13.8745289464
 30
0.0
 10
15.7774835543
 20
13.8816605611
 30
0.0
 10
15.7925530552
 20
13.8877066128
 30
0.0
 10
15.8076863298
 20
13.8926615115
 30
0.0
 10
15.8228710289
 20
13.8965204847
 30
0.0
 10
15.8380948757
 20
13.8992797248
 30
0.0
 10
15.8533440115
 20
13.9009364368
 30
0.0
 10
15.863528347
 20
13.901304988
 30
0.0
 10
15.8686074199
 20
13.9013049921
 30
0.0
  0
LINE
  5
2B3
100
AcDbEntity
  8
02___PRT_ALL_AXES
100
AcDbLine
 62
7
  6
CONTINUOUS
 10
15.6361784133
 20
11.9631297578
 11
15.547452633
 21
11.9691521249
  0
SPLINE
  5
2B4
100
AcDbEntity
  8
LAYER_FEATURE
100
AcDbSpline
 62
7
  6
CONTINUOUS
 70
0
 71
3
 72
58
 73
54
 74
0
 42
0.0000001
 43
0.0000001
 44
0.0000000001
 40
0.0
 40
0.0
 40
0.0
 40
0.0
 40
0.0163583
 40
0.033051471
 40
0.0500648574
 40
0.0673835114
 40
0.0849915535
 40
0.1028725909
 40
0.1393839941
 40
0.1767770752
 40
0.2149030243
 40
0.2536074773
 40
0.2927317876
 40
0.3321142519
 40
0.3715913088
 40
0.4109987214
 40
0.4501727498
 40
0.4889513312
 40
0.5271752767
 40
0.5646894904
 40
0.601344234
 40
0.6193049122
 40
0.6369977078
 40
0.6544060228
 40
0.6715138624
 40
0.6883058876
 40
0.7047674716
 40
0.7208847596
 40
0.736644735
 40
0.7520352903
 40
0.7670453039
 40
0.7816647265
 40
0.7958846763
 40
0.8096975461
 40
0.823097124
 40
0.8360787296
 40
0.8486393693
 40
0.860777911
 40
0.8724952819
 40
0.8837946938
 40
0.8946818953
 40
0.9051654528
 40
0.9152570574
 40
0.9249718519
 40
0.9343287667
 40
0.9433508406
 40
0.952065501
 40
0.960504758
 40
0.9687052606
 40
0.9767081569
 40
0.9845587033
 40
0.9923055923
 40
1.0
 40
1.0
 40
1.0
 40
1.0
 10
14.6112651043
 20
13.3751536538
 30
0.0
 10
14.6072937204
 20
13.3623022507
 30
0.0
 10
14.5995354962
 20
13.3362534801
 30
0.0
 10
14.5885532792
 20
13.2965758103
 30
0.0
 10
14.5781183725
 20
13.2559348458
 30
0.0
 10
14.5682436492
 20
13.214380736
 30
0.0
 10
14.5589411387
 20
13.1719640935
 30
0.0
 10
14.5472352234
 20
13.1139262368
 30
0.0
 10
14.5341430496
 20
13.0395830902
 30
0.0
 10
14.5209863275
 20
12.9483937027
 30
0.0
 10
14.5103412516
 20
12.8550621082
 30
0.0
 10
14.502260268
 20
12.7600456198
 30
0.0
 10
14.496783205
 20
12.6638090004
 30
0.0
 10
14.4939370596
 20
12.5668233607
 30
0.0
 10
14.49373585
 20
12.4695634706
 30
0.0
 10
14.4961805676
 20
12.372505489
 30
0.0
 10
14.5012591711
 20
12.2761245461
 30
0.0
 10
14.5089466309
 20
12.1808924711
 30
0.0
 10
14.5192050551
 20
12.087275106
 30
0.0
 10
14.5319839008
 20
11.9957311769
 30
0.0
 10
14.5447657507
 20
11.9210471357
 30
0.0
 10
14.556228515
 20
11.8627028979
 30
0.0
 10
14.5653547672
 20
11.8200343657
 30
0.0
 10
14.5750567801
 20
11.7782126305
 30
0.0
 10
14.5853227209
 20
11.7372888069
 30
0.0
 10
14.5961399749
 20
11.6973130408
 30
0.0
 10
14.6074952791
 20
11.6583342699
 30
0.0
 10
14.6193747096
 20
11.6204002083
 30
0.0
 10
14.6317637056
 20
11.5835572725
 30
0.0
 10
14.6446470886
 20
11.5478505268
 30
0.0
 10
14.6580090861
 20
11.5133236268
 30
0.0
 10
14.6718333537
 20
11.480018765
 30
0.0
 10
14.6861029996
 20
11.4479766178
 30
0.0
 10
14.7008006116
 20
11.417236295
 30
0.0
 10
14.715908285
 20
11.3878352913
 30
0.0
 10
14.7314076547
 20
11.35980944
 30
0.0
 10
14.7472799248
 20
11.3331928694
 30
0.0
 10
14.7635059082
 20
11.308017968
 30
0.0
 10
14.7800660658
 20
11.2843153558
 30
0.0
 10
14.7969405472
 20
11.2621138621
 30
0.0
 10
14.814109232
 20
11.2414405145
 30
0.0
 10
14.8315517707
 20
11.2223205397
 30
0.0
 10
14.8492476187
 20
11.2047773806
 30
0.0
 10
14.8671760572
 20
11.1888327281
 30
0.0
 10
14.8853161901
 20
11.1745065673
 30
0.0
 10
14.9036469109
 20
11.1618172416
 30
0.0
 10
14.9221468252
 20
11.1507815061
 30
0.0
 10
14.9407940966
 20
11.1414145505
 30
0.0
 10
14.9595663378
 20
11.1337299569
 30
0.0
 10
14.9784401664
 20
11.1277395553
 30
0.0
 10
14.9973919663
 20
11.1234531641
 30
0.0
 10
15.0163945599
 20
11.1208782096
 30
0.0
 10
15.0290988924
 20
11.1203050069
 30
0.0
 10
15.0354258199
 20
11.1203050007
 30
0.0
  0
SPLINE
  5
2B5
100
AcDbEntity
  8
LAYER_FEATURE
100
AcDbSpline
 62
7
  6
CONTINUOUS
 70
0
 71
3
 72
38
 73
34
 74
0
 42
0.0000001
 43
0.0000001
 44
0.0000000001
 40
0.0
 40
0.0
 40
0.0
 40
0.0
 40
0.0879640716
 40
0.1307307847
 40
0.1726592835
 40
0.2137306933
 40
0.2539278613
 40
0.2932354821
 40
0.331640013
 40
0.3691299341
 40
0.4056958476
 40
0.4413306462
 40
0.4760297484
 40
0.5097912612
 40
0.5426162009
 40
0.5745087936
 40
0.6054767306
 40
0.6355314471
 40
0.6646884872
 40
0.6929678677
 40
0.7203944107
 40
0.7469981459
 40
0.7728147257
 40
0.7978857495
 40
0.8222590824
 40
0.8459891342
 40
0.8691369629
 40
0.8917702321
 40
0.9139630012
 40
0.9357952498
 40
0.9573521255
 40
0.9787229532
 40
1.0
 40
1.0
 40
1.0
 40
1.0
 10
14.6112651043
 20
13.3751536538
 30
0.0
 10
14.6174647154
 20
13.3952156027
 30
0.0
 10
14.627155795
 20
13.4248879642
 30
0.0
 10
14.6409851239
 20
13.4637160286
 30
0.0
 10
14.6515718522
 20
13.4918113525
 30
0.0
 10
14.6624618462
 20
13.5191312445
 30
0.0
 10
14.673646584
 20
13.5456542626
 30
0.0
 10
14.6851172173
 20
13.5713594388
 30
0.0
 10
14.6968647248
 20
13.5962265221
 30
0.0
 10
14.7088798329
 20
13.6202359171
 30
0.0
 10
14.7211530917
 20
13.6433687073
 30
0.0
 10
14.7336748726
 20
13.6656066654
 30
0.0
 10
14.7464353308
 20
13.6869322962
 30
0.0
 10
14.7594244654
 20
13.7073288214
 30
0.0
 10
14.7726321385
 20
13.726780181
 30
0.0
 10
14.7860480356
 20
13.7452710799
 30
0.0
 10
14.7996617055
 20
13.7627869795
 30
0.0
 10
14.8134625981
 20
13.7793140773
 30
0.0
 10
14.8274400405
 20
13.7948393387
 30
0.0
 10
14.841583237
 20
13.8093505126
 30
0.0
 10
14.8558813221
 20
13.8228360824
 30
0.0
 10
14.8703233499
 20
13.8352852692
 30
0.0
 10
14.8848982524
 20
13.8466880765
 30
0.0
 10
14.8995948838
 20
13.857035223
 30
0.0
 10
14.9144020059
 20
13.8663181185
 30
0.0
 10
14.9293082158
 20
13.8745289345
 30
0.0
 10
14.9443019509
 20
13.8816605684
 30
0.0
 10
14.9593714528
 20
13.8877066207
 30
0.0
 10
14.9745047337
 20
13.8926614975
 30
0.0
 10
14.9896894286
 20
13.8965204825
 30
0.0
 10
15.0049132738
 20
13.8992797407
 30
0.0
 10
15.0201624125
 20
13.9009364239
 30
0.0
 10
15.0303467471
 20
13.9013049901
 30
0.0
 10
15.0354258199
 20
13.9013049851
 30
0.0
  0
SPLINE
  5
2B6
100
AcDbEntity
  8
LAYER_FEATURE
100
AcDbSpline
 62
7
  6
CONTINUOUS
 70
0
 71
3
 72
16
 73
12
 74
0
 42
0.0000001
 43
0.0000001
 44
0.0000000001
 40
0.0
 40
0.0
 40
0.0
 40
0.0
 40
0.0461937574
 40
0.0933247359
 40
0.1918935308
 40
0.2985779146
 40
0.4153393194
 40
0.5434241179
 40
0.6834910228
 40
0.8357356972
 40
1.0
 40
1.0
 40
1.0
 40
1.0
 10
14.6505761107
 20
12.9240542594
 30
0.0
 10
14.6509193149
 20
12.9240951142
 30
0.0
 10
14.6516087397
 20
12.9242156467
 30
0.0
 10
14.6529913747
 20
12.924610599
 30
0.0
 10
14.6547184064
 20
12.9254047148
 30
0.0
 10
14.6567074011
 20
12.9267816204
 30
0.0
 10
14.6586355507
 20
12.9285819465
 30
0.0
 10
14.6604919502
 20
12.9307912525
 30
0.0
 10
14.6622661568
 20
12.9333939554
 30
0.0
 10
14.6639468181
 20
12.9363719106
 30
0.0
 10
14.6649600053
 20
12.9385146691
 30
0.0
 10
14.6654516383
 20
12.9396411015
 30
0.0
  0
SPLINE
  5
2B7
100
AcDbEntity
  8
LAYER_FEATURE
100
AcDbSpline
 62
7
  6
CONTINUOUS
 70
0
 71
3
 72
17
 73
13
 74
0
 42
0.0000001
 43
0.0000001
 44
0.0000000001
 40
0.0
 40
0.0
 40
0.0
 40
0.0
 40
0.0377618413
 40
0.0766615657
 40
0.1176966408
 40
0.1616973039
 40
0.2606930668
 40
0.3765668375
 40
0.5098136392
 40
0.6595025123
 40
0.8237422747
 40
1.0
 40
1.0
 40
1.0
 40
1.0
 10
14.6346032097
 20
12.9240999175
 30
0.0
 10
14.6344817019
 20
12.9240999155
 30
0.0
 10
14.6342344217
 20
12.9240760123
 30
0.0
 10
14.6338689243
 20
12.9239697054
 30
0.0
 10
14.6335088903
 20
12.923794189
 30
0.0
 10
14.6330198578
 20
12.9234570074
 30
0.0
 10
14.6324352166
 20
12.9228529381
 30
0.0
 10
14.631812965
 20
12.921916842
 30
0.0
 10
14.6312513342
 20
12.9207595357
 30
0.0
 10
14.6307616468
 20
12.9194043291
 30
0.0
 10
14.6303539051
 20
12.9178790203
 30
0.0
 10
14.6301487353
 20
12.9168017496
 30
0.0
 10
14.6300602834
 20
12.9162415382
 30
0.0
  0
LINE
  5
2B8
100
AcDbEntity
  8
LAYER_FEATURE
100
AcDbLine
 62
7
  6
CONTINUOUS
 10
14.6908838763
 20
13.0893498798
 11
14.6936210477
 21
13.0933742676
  0
SPLINE
  5
2B9
100
AcDbEntity
  8
LAYER_FEATURE
100
AcDbSpline
 62
7
  6
CONTINUOUS
 70
0
 71
3
 72
16
 73
12
 74
0
 42
0.0000001
 43
0.0000001
 44
0.0000000001
 40
0.0
 40
0.0
 40
0.0
 40
0.0
 40
0.0399907386
 40
0.0809115664
 40
0.1686284858
 40
0.268603692
 40
0.3837153692
 40
0.5150199624
 40
0.6623180404
 40
0.8245361551
 40
1.0
 40
1.0
 40
1.0
 40
1.0
 10
14.6615276728
 20
13.0893931127
 30
0.0
 10
14.661420879
 20
13.0893931118
 30
0.0
 10
14.6612043822
 20
13.0893747678
 30
0.0
 10
14.6607662936
 20
13.0892632256
 30
0.0
 10
14.660218667
 20
13.0889738777
 30
0.0
 10
14.6596121896
 20
13.0884307588
 30
0.0
 10
14.6590427647
 20
13.0876969255
 30
0.0
 10
14.6585168704
 20
13.0867836086
 30
0.0
 10
14.6580414368
 20
13.0857047022
 30
0.0
 10
14.6576239992
 20
13.0844773069
 30
0.0
 10
14.6573969005
 20
13.083603755
 30
0.0
 10
14.6572931218
 20
13.0831468219
 30
0.0
  0
SPLINE
  5
2BA
100
AcDbEntity
  8
LAYER_FEATURE
100
AcDbSpline
 62
7
  6
CONTINUOUS
 70
0
 71
3
 72
15
 73
11
 74
0
 42
0.0000001
 43
0.0000001
 44
0.0000000001
 40
0.0
 40
0.0
 40
0.0
 40
0.0
 40
0.0858518027
 40
0.1774223665
 40
0.2792241801
 40
0.39414084
 40
0.5236356815
 40
0.6681080548
 40
0.82720401
 40
1.0
 40
1.0
 40
1.0
 40
1.0
 10
14.6973386339
 20
13.2431641718
 30
0.0
 10
14.6971532824
 20
13.2431641695
 30
0.0
 10
14.6967683016
 20
13.2431065594
 30
0.0
 10
14.6962134537
 20
13.2428558037
 30
0.0
 10
14.6956801258
 20
13.2424501369
 30
0.0
 10
14.6951722594
 20
13.2418976591
 30
0.0
 10
14.6946934201
 20
13.2412054626
 30
0.0
 10
14.6942482665
 20
13.2403815449
 30
0.0
 10
14.6938417931
 20
13.2394356249
 30
0.0
 10
14.6936088068
 20
13.2387573072
 30
0.0
 10
14.6934986614
 20
13.2384008765
 30
0.0
  0
SPLINE
  5
2BB
100
AcDbEntity
  8
LAYER_CHAMFER_FEAT
100
AcDbSpline
 62
7
  6
CONTINUOUS
 70
0
 71
3
 72
39
 73
35
 74
0
 42
0.0000001
 43
0.0000001
 44
0.0000000001
 40
0.0
 40
0.0
 40
0.0
 40
0.0
 40
0.043950483
 40
0.0865559171
 40
0.1278044801
 40
0.1676923361
 40
0.2062207629
 40
0.2433985069
 40
0.2792420428
 40
0.3137765136
 40
0.3470366673
 40
0.3790678458
 40
0.4099270355
 40
0.4396838995
 40
0.4684216879
 40
0.496237929
 40
0.5232447546
 40
0.5495686788
 40
0.5753496608
 40
0.6007393096
 40
0.625898212
 40
0.6509924975
 40
0.6761898839
 40
0.7016555651
 40
0.7275483411
 40
0.7540173428
 40
0.7811995651
 40
0.8092182793
 40
0.8381822599
 40
0.8681856996
 40
0.8993086449
 40
0.931617758
 40
0.9651672696
 40
1.0
 40
1.0
 40
1.0
 40
1.0
 10
16.144989602
 20
13.3254649789
 30
0.0
 10
16.1413852541
 20
13.3328098677
 30
0.0
 10
16.1340863671
 20
13.3471776978
 30
0.0
 10
16.1226813451
 20
13.3680614342
 30
0.0
 10
16.1110014997
 20
13.3879207692
 30
0.0
 10
16.0990608725
 20
13.4067318034
 30
0.0
 10
16.0868733833
 20
13.4244723261
 30
0.0
 10
16.07445336
 20
13.4411212216
 30
0.0
 10
16.0618152749
 20
13.4566587242
 30
0.0
 10
16.0489737861
 20
13.4710663411
 30
0.0
 10
16.0359436955
 20
13.4843268568
 30
0.0
 10
16.0227399312
 20
13.4964243086
 30
0.0
 10
16.0093775428
 20
13.5073439556
 30
0.0
 10
15.9958717295
 20
13.5170722563
 30
0.0
 10
15.9822378767
 20
13.5255968212
 30
0.0
 10
15.9684916361
 20
13.5329063807
 30
0.0
 10
15.9546490427
 20
13.5389907994
 30
0.0
 10
15.9407266451
 20
13.543841146
 30
0.0
 10
15.9267416301
 20
13.5474498714
 30
0.0
 10
15.9127118671
 20
13.5498110297
 30
0.0
 10
15.898655846
 20
13.5509205344
 30
0.0
 10
15.884592486
 20
13.5507764014
 30
0.0
 10
15.8705408373
 20
13.5493788788
 30
0.0
 10
15.8565197466
 20
13.5467304518
 30
0.0
 10
15.8425475725
 20
13.5428356716
 30
0.0
 10
15.8286420258
 20
13.537700885
 30
0.0
 10
15.8148201367
 20
13.5313339743
 30
0.0
 10
15.8010983299
 20
13.5237441393
 30
0.0
 10
15.7874925438
 20
13.5149417811
 30
0.0
 10
15.7740183507
 20
13.504938432
 30
0.0
 10
15.7606911037
 20
13.4937467747
 30
0.0
 10
15.7475258871
 20
13.4813805283
 30
0.0
 10
15.7345380287
 20
13.4678550651
 30
0.0
 10
15.7261665843
 20
13.4582582634
 30
0.0
 10
15.7220114548
 20
13.4532802177
 30
0.0
  0
SPLINE
  5
2BC
100
AcDbEntity
  8
LAYER_FEATURE
100
AcDbSpline
 62
7
  6
CONTINUOUS
 70
0
 71
3
 72
23
 73
19
 74
0
 42
0.0000001
 43
0.0000001
 44
0.0000000001
 40
0.0
 40
0.0
 40
0.0
 40
0.0
 40
0.0547642252
 40
0.1111915094
 40
0.1691660777
 40
0.2285635881
 40
0.2892529076
 40
0.3510967759
 40
0.4139526412
 40
0.4776734184
 40
0.5421082414
 40
0.6071031766
 40
0.6725019058
 40
0.7381464149
 40
0.8038776635
 40
0.869536249
 40
0.9349630723
 40
1.0
 40
1.0
 40
1.0
 40
1.0
 10
15.4883684653
 20
13.3134704744
 30
0.0
 10
15.4827073436
 20
13.2951510778
 30
0.0
 10
15.4717970103
 20
13.2577732996
 30
0.0
 10
15.4568569581
 20
13.200452128
 30
0.0
 10
15.4431289401
 20
13.1411623111
 30
0.0
 10
15.4306524862
 20
13.0800734305
 30
0.0
 10
15.4194632517
 20
13.017359505
 30
0.0
 10
15.4095933066
 20
12.9531994593
 30
0.0
 10
15.4010709457
 20
12.8877763373
 30
0.0
 10
15.3939205818
 20
12.8212768615
 30
0.0
 10
15.3881627071
 20
12.7538908581
 30
0.0
 10
15.3838138447
 20
12.6858107124
 30
0.0
 10
15.3808864495
 20
12.6172308176
 30
0.0
 10
15.3793889096
 20
12.5483469987
 30
0.0
 10
15.3793255334
 20
12.4793559944
 30
0.0
 10
15.3806964987
 20
12.4104547107
 30
0.0
 10
15.3834978433
 20
12.3418403243
 30
0.0
 10
15.3863244189
 20
12.2962455339
 30
0.0
 10
15.3879776537
 20
12.2735347635
 30
0.0
  0
SPLINE
  5
2BD
100
AcDbEntity
  8
LAYER_FEATURE
100
AcDbSpline
 62
7
  6
CONTINUOUS
 70
0
 71
3
 72
68
 73
64
 74
0
 42
0.0000001
 43
0.0000001
 44
0.0000000001
 40
0.0
 40
0.0
 40
0.0
 40
0.0
 40
0.0474088259
 40
0.0940783002
 40
0.1398121802
 40
0.1622696546
 40
0.1844231196
 40
0.2062504243
 40
0.2277301117
 40
0.2488414836
 40
0.2695646687
 40
0.2898806965
 40
0.3097715739
 40
0.3292203697
 40
0.3482113061
 40
0.3667298586
 40
0.3847628675
 40
0.4022986611
 40
0.4193271941
 40
0.435840204
 40
0.4518313882
 40
0.4672966034
 40
0.4822340938
 40
0.4966447504
 40
0.5105324054
 40
0.5239041637
 40
0.5367707732
 40
0.5491470297
 40
0.5610522106
 40
0.5725105186
 40
0.5835515081
 40
0.594210453
 40
0.6045285962
 40
0.6145532075
 40
0.6243373693
 40
0.6339394188
 40
0.6434220045
 40
0.6528507739
 40
0.662292772
 40
0.6718146972
 40
0.6814811939
 40
0.69135335
 40
0.7014875245
 40
0.7119345574
 40
0.7227393544
 40
0.733940789
 40
0.7455718447
 40
0.7576599193
 40
0.7702272227
 40
0.7832912149
 40
0.7968650476
 40
0.8109579882
 40
0.8255758114
 40
0.840721154
 40
0.8563938321
 40
0.8725911197
 40
0.8893079962
 40
0.9065373667
 40
0.9242702378
 40
0.9424959363
 40
0.961202107
 40
0.9803752265
 40
1.0
 40
1.0
 40
1.0
 40
1.0
 10
15.3879776537
 20
12.2735347635
 30
0.0
 10
15.3901638331
 20
12.2435028398
 30
0.0
 10
15.3953493422
 20
12.1839650981
 30
0.0
 10
15.4056497506
 20
12.0957515129
 30
0.0
 10
15.4163131547
 20
12.0235687011
 30
0.0
 10
15.4260612295
 20
11.9670187474
 30
0.0
 10
15.4339095584
 20
11.9255551782
 30
0.0
 10
15.4423290209
 20
11.8848377837
 30
0.0
 10
15.4513089336
 20
11.8449183282
 30
0.0
 10
15.4608378179
 20
11.8058476952
 30
0.0
 10
15.4709035186
 20
11.7676756392
 30
0.0
 10
15.4814931916
 20
11.730450768
 30
0.0
 10
15.4925933305
 20
11.6942204676
 30
0.0
 10
15.5041897835
 20
11.6590308439
 30
0.0
 10
15.5162677742
 20
11.6249266615
 30
0.0
 10
15.5288119231
 20
11.5919512858
 30
0.0
 10
15.5418062707
 20
11.5601466258
 30
0.0
 10
15.5552343026
 20
11.5295530791
 30
0.0
 10
15.5690789762
 20
11.5002094795
 30
0.0
 10
15.5833227501
 20
11.4721530458
 30
0.0
 10
15.5979476135
 20
11.4454193338
 30
0.0
 10
15.6129351231
 20
11.4200421946
 30
0.0
 10
15.62826644
 20
11.3960537375
 30
0.0
 10
15.6439223694
 20
11.3734842983
 30
0.0
 10
15.6598834036
 20
11.3523624164
 30
0.0
 10
15.6761297654
 20
11.3327148231
 30
0.0
 10
15.6926414494
 20
11.314566443
 30
0.0
 10
15.7093982593
 20
11.2979404126
 30
0.0
 10
15.7263798283
 20
11.2828581157
 30
0.0
 10
15.7435656164
 20
11.2693392351
 30
0.0
 10
15.7609348733
 20
11.2574018198
 30
0.0
 10
15.7784665471
 20
11.2470623413
 30
0.0
 10
15.7961391375
 20
11.2383357172
 30
0.0
 10
15.8139305019
 20
11.2312352586
 30
0.0
 10
15.8318176502
 20
11.2257725074
 30
0.0
 10
15.8497765984
 20
11.2219569411
 30
0.0
 10
15.8677823624
 20
11.2197955796
 30
0.0
 10
15.8858091543
 20
11.2192925723
 30
0.0
 10
15.9038307803
 20
11.2204489026
 30
0.0
 10
15.9218211493
 20
11.2232623147
 30
0.0
 10
15.939754753
 20
11.2277274845
 30
0.0
 10
15.9576069897
 20
11.2338363756
 30
0.0
 10
15.9753542771
 20
11.2415786562
 30
0.0
 10
15.9929739812
 20
11.2509420614
 30
0.0
 10
16.010444237
 20
11.261912636
 30
0.0
 10
16.027743741
 20
11.2744748508
 30
0.0
 10
16.0448515746
 20
11.2886116164
 30
0.0
 10
16.0617470793
 20
11.304304245
 30
0.0
 10
16.0784097861
 20
11.3215323893
 30
0.0
 10
16.0948193939
 20
11.3402739818
 30
0.0
 10
16.1109557774
 20
11.3605051863
 30
0.0
 10
16.1267990164
 20
11.3822003695
 30
0.0
 10
16.1423294339
 20
11.4053320887
 30
0.0
 10
16.1575276401
 20
11.429871096
 30
0.0
 10
16.1723745745
 20
11.4557863545
 30
0.0
 10
16.1868515499
 20
11.4830450627
 30
0.0
 10
16.2009402917
 20
11.511612692
 30
0.0
 10
16.2146229658
 20
11.5414530216
 30
0.0
 10
16.2278822369
 20
11.5725282051
 30
0.0
 10
16.2407012324
 20
11.6047987448
 30
0.0
 10
16.2530637267
 20
11.6382237614
 30
0.0
 10
16.2649538519
 20
11.672760493
 30
0.0
 10
16.2724703579
 20
11.6962306299
 30
0.0
 10
16.2761504806
 20
11.7081395114
 30
0.0
  0
SPLINE
  5
2BE
100
AcDbEntity
  8
LAYER_FEATURE
100
AcDbSpline
 62
7
  6
CONTINUOUS
 70
0
 71
3
 72
58
 73
54
 74
0
 42
0.0000001
 43
0.0000001
 44
0.0000000001
 40
0.0
 40
0.0
 40
0.0
 40
0.0
 40
0.0163583127
 40
0.0330514635
 40
0.0500648597
 40
0.0673835105
 40
0.0849915538
 40
0.1028725914
 40
0.1393839943
 40
0.1767770745
 40
0.2149030241
 40
0.2536074777
 40
0.2927317878
 40
0.3321142518
 40
0.371591309
 40
0.4109987213
 40
0.4501727494
 40
0.4889513317
 40
0.5271752776
 40
0.5646894901
 40
0.6013442332
 40
0.619304912
 40
0.6369977083
 40
0.6544060238
 40
0.6715138635
 40
0.6883058884
 40
0.7047674716
 40
0.7208847591
 40
0.7366447347
 40
0.7520352903
 40
0.7670453042
 40
0.781664727
 40
0.7958846766
 40
0.8096975463
 40
0.8230971241
 40
0.83607873
 40
0.84863937
 40
0.8607779118
 40
0.8724952824
 40
0.8837946938
 40
0.8946818947
 40
0.9051654519
 40
0.9152570569
 40
0.9249718525
 40
0.9343287681
 40
0.9433508421
 40
0.9520655021
 40
0.9605047584
 40
0.9687052604
 40
0.9767081563
 40
0.9845587029
 40
0.9923055922
 40
1.0
 40
1.0
 40
1.0
 40
1.0
 10
15.4825888047
 20
13.3751536538
 30
0.0
 10
15.4786174176
 20
13.3623022407
 30
0.0
 10
15.4708591937
 20
13.3362534765
 30
0.0
 10
15.4598769789
 20
13.2965758042
 30
0.0
 10
15.4494420719
 20
13.2559348512
 30
0.0
 10
15.4395673491
 20
13.2143807347
 30
0.0
 10
15.4302648392
 20
13.1719640936
 30
0.0
 10
15.4185589253
 20
13.1139262357
 30
0.0
 10
15.4054667513
 20
13.03958309
 30
0.0
 10
15.3923100243
 20
12.9483937037
 30
0.0
 10
15.3816649502
 20
12.8550621088
 30
0.0
 10
15.3735839713
 20
12.7600456194
 30
0.0
 10
15.3681069082
 20
12.663809
 30
0.0
 10
15.3652607556
 20
12.5668233607
 30
0.0
 10
15.365059547
 20
12.4695634706
 30
0.0
 10
15.3675042711
 20
12.3725054894
 30
0.0
 10
15.3725828749
 20
12.2761245464
 30
0.0
 10
15.3802703284
 20
12.1808924701
 30
0.0
 10
15.3905287509
 20
12.0872751046
 30
0.0
 10
15.4033076036
 20
11.9957311775
 30
0.0
 10
15.4160894539
 20
11.9210471375
 30
0.0
 10
15.4275522159
 20
11.8627028986
 30
0.0
 10
15.4366784666
 20
11.8200343645
 30
0.0
 10
15.4463804784
 20
11.7782126279
 30
0.0
 10
15.4566464191
 20
11.737288804
 30
0.0
 10
15.467463674
 20
11.697313039
 30
0.0
 10
15.4788189801
 20
11.6583342702
 30
0.0
 10
15.4906984112
 20
11.6204002097
 30
0.0
 10
15.5030874067
 20
11.5835572738
 30
0.0
 10
15.515970789
 20
11.5478505271
 30
0.0
 10
15.5293327861
 20
11.5133236262
 30
0.0
 10
15.5431570535
 20
11.4800187639
 30
0.0
 10
15.5574266996
 20
11.447976617
 30
0.0
 10
15.572124312
 20
11.4172362947
 30
0.0
 10
15.5872319857
 20
11.3878352911
 30
0.0
 10
15.6027313548
 20
11.359809439
 30
0.0
 10
15.6186036245
 20
11.3331928674
 30
0.0
 10
15.6348296078
 20
11.3080179658
 30
0.0
 10
15.6513897657
 20
11.2843153544
 30
0.0
 10
15.6682642476
 20
11.2621138626
 30
0.0
 10
15.6854329332
 20
11.2414405172
 30
0.0
 10
15.7028754724
 20
11.2223205436
 30
0.0
 10
15.7205713201
 20
11.2047773829
 30
0.0
 10
15.7384997569
 20
11.1888327255
 30
0.0
 10
15.756639889
 20
11.174506561
 30
0.0
 10
15.7749706101
 20
11.1618172349
 30
0.0
 10
15.793470525
 20
11.150781502
 30
0.0
 10
15.8121177971
 20
11.141414551
 30
0.0
 10
15.8308900389
 20
11.1337299622
 30
0.0
 10
15.8497638677
 20
11.1277395642
 30
0.0
 10
15.8687156669
 20
11.1234531683
 30
0.0
 10
15.88771826
 20
11.1208782145
 30
0.0
 10
15.9004225926
 20
11.1203049885
 30
0.0
 10
15.9067495202
 20
11.1203049937
 30
0.0
  0
SPLINE
  5
2BF
100
AcDbEntity
  8
LAYER_CHAMFER_FEAT
100
AcDbSpline
 62
7
  6
CONTINUOUS
 70
0
 71
3
 72
26
 73
22
 74
0
 42
0.0000001
 43
0.0000001
 44
0.0000000001
 40
0.0
 40
0.0
 40
0.0
 40
0.0
 40
0.083512342
 40
0.1639107454
 40
0.2411706187
 40
0.3152881385
 40
0.3862822553
 40
0.4541980971
 40
0.5191103211
 40
0.5811270572
 40
0.6403940767
 40
0.6970990368
 40
0.7514753368
 40
0.803804924
 40
0.8544191333
 40
0.8792073509
 40
0.9037123623
 40
0.9279878313
 40
0.9520893424
 40
0.9760740152
 40
1.0
 40
1.0
 40
1.0
 40
1.0
 10
16.1217270556
 20
13.3097984407
 30
0.0
 10
16.1174580147
 20
13.3184978315
 30
0.0
 10
16.1087932942
 20
13.3354341739
 30
0.0
 10
16.0951412461
 20
13.3598700225
 30
0.0
 10
16.0811017732
 20
13.3828179368
 30
0.0
 10
16.06669919
 20
13.404237672
 30
0.0
 10
16.0519580003
 20
13.4240921425
 30
0.0
 10
16.0369031473
 20
13.4423468229
 30
0.0
 10
16.0215598189
 20
13.4589698895
 30
0.0
 10
16.0059534276
 20
13.4739321117
 30
0.0
 10
15.9901095212
 20
13.4872067567
 30
0.0
 10
15.9740540117
 20
13.4987693946
 30
0.0
 10
15.9578127359
 20
13.5085978556
 30
0.0
 10
15.9414139324
 20
13.5166716937
 30
0.0
 10
15.927540907
 20
13.5219599301
 30
0.0
 10
15.9164260212
 20
13.5252689539
 30
0.0
 10
15.9081275144
 20
13.5272875167
 30
0.0
 10
15.8998139307
 20
13.5288585392
 30
0.0
 10
15.8914887566
 20
13.5299812644
 30
0.0
 10
15.8831561799
 20
13.5306551618
 30
0.0
 10
15.8775956742
 20
13.5308049823
 30
0.0
 10
15.8748194058
 20
13.5308049843
 30
0.0
  0
SPLINE
  5
2C0
100
AcDbEntity
  8
02___PRT_ALL_AXES
100
AcDbSpline
 62
7
  6
CONTINUOUS
 70
0
 71
3
 72
30
 73
26
 74
0
 42
0.0000001
 43
0.0000001
 44
0.0000000001
 40
0.0
 40
0.0
 40
0.0
 40
0.0
 40
0.0160814747
 40
0.0324335314
 40
0.0493106062
 40
0.0669383732
 40
0.0855065959
 40
0.1051673632
 40
0.126036719
 40
0.1481981219
 40
0.171706949
 40
0.1965945919
 40
0.2228718443
 40
0.2505322465
 40
0.2795547043
 40
0.3099053144
 40
0.3743922036
 40
0.4435392078
 40
0.5167619266
 40
0.5933850411
 40
0.6726638606
 40
0.7538025743
 40
0.8359711857
 40
0.9183201655
 40
1.0
 40
1.0
 40
1.0
 40
1.0
 10
15.6637549181
 20
11.9237251964
 30
0.0
 10
15.6643538878
 20
11.9237251903
 30
0.0
 10
15.665563605
 20
11.9238117569
 30
0.0
 10
15.6673645029
 20
11.9241992437
 30
0.0
 10
15.6691518374
 20
11.9248423743
 30
0.0
 10
15.6709192871
 20
11.9257377264
 30
0.0
 10
15.6726618669
 20
11.9268813271
 30
0.0
 10
15.6743748046
 20
11.9282688966
 30
0.0
 10
15.676053536
 20
11.9298957947
 30
0.0
 10
15.6776935441
 20
11.9317569001
 30
0.0
 10
15.6792902897
 20
11.9338465709
 30
0.0
 10
15.6808392241
 20
11.936158557
 30
0.0
 10
15.6823358793
 20
11.9386859357
 30
0.0
 10
15.6837758398
 20
11.9414211375
 30
0.0
 10
15.685154851
 20
11.9443559733
 30
0.0
 10
15.6869428184
 20
11.9486098664
 30
0.0
 10
15.6889823227
 20
11.9543730174
 30
0.0
 10
15.6910792888
 20
11.9617913406
 30
0.0
 10
15.6928474478
 20
11.9697581298
 30
0.0
 10
15.6942651108
 20
11.9781770217
 30
0.0
 10
15.6953148049
 20
11.9869463791
 30
0.0
 10
15.6959836127
 20
11.9959598772
 30
0.0
 10
15.6962632481
 20
12.0051081789
 30
0.0
 10
15.6961502983
 20
12.0142800015
 30
0.0
 10
15.6958116143
 20
12.0203823296
 30
0.0
 10
15.695575182
 20
12.0234153709
 30
0.0
  0
SPLINE
  5
2C1
100
AcDbEntity
  8
02___PRT_ALL_AXES
100
AcDbSpline
 62
7
  6
CONTINUOUS
 70
0
 71
3
 72
53
 73
49
 74
0
 42
0.0000001
 43
0.0000001
 44
0.0000000001
 40
0.0
 40
0.0
 40
0.0
 40
0.0
 40
0.0077385301
 40
0.0156305072
 40
0.0237166567
 40
0.032034001
 40
0.040615562
 40
0.0494902653
 40
0.0586829981
 40
0.0682147792
 40
0.0781029995
 40
0.0883616977
 40
0.0990018447
 40
0.1100316239
 40
0.1214566926
 40
0.1332804249
 40
0.1455041336
 40
0.1581272676
 40
0.1711475864
 40
0.184561315
 40
0.1983632789
 40
0.212547026
 40
0.2271049363
 40
0.2420283182
 40
0.2573074938
 40
0.2729318758
 40
0.2888900354
 40
0.3051697676
 40
0.3217581504
 40
0.3386415992
 40
0.3732351542
 40
0.4088315845
 40
0.4453030348
 40
0.4825152121
 40
0.52032854
 40
0.558599266
 40
0.5971805219
 40
0.6359233477
 40
0.6746777062
 40
0.7132934825
 40
0.7516214865
 40
0.7895144628
 40
0.8268281109
 40
0.8634221458
 40
0.8991613882
 40
0.9339169092
 40
0.9675672626
 40
1.0
 40
1.0
 40
1.0
 40
1.0
 10
15.8588402103
 20
11.3869380737
 30
0.0
 10
15.8538708408
 20
11.3879411101
 30
0.0
 10
15.8439148472
 20
11.3903933928
 30
0.0
 10
15.8291654624
 20
11.3953265709
 30
0.0
 10
15.8144942992
 20
11.4015374054
 30
0.0
 10
15.7999196069
 20
11.4090169184
 30
0.0
 10
15.7854572935
 20
11.4177552578
 30
0.0
 10
15.7711233859
 20
11.4277413295
 30
0.0
 10
15.7569334862
 20
11.4389629404
 30
0.0
 10
15.7429030314
 20
11.4514067437
 30
0.0
 10
15.7290473
 20
11.4650582273
 30
0.0
 10
15.7153814449
 20
11.4799016726
 30
0.0
 10
15.7019204909
 20
11.4959201254
 30
0.0
 10
15.6886793235
 20
11.5130953739
 30
0.0
 10
15.6756726619
 20
11.5314079323
 30
0.0
 10
15.6629150323
 20
11.5508370405
 30
0.0
 10
15.6504207455
 20
11.5713606776
 30
0.0
 10
15.6382038678
 20
11.5929555762
 30
0.0
 10
15.6262781948
 20
11.6155972418
 30
0.0
 10
15.6146572292
 20
11.6392599753
 30
0.0
 10
15.6033541513
 20
11.6639168961
 30
0.0
 10
15.5923818002
 20
11.6895399734
 30
0.0
 10
15.5817526576
 20
11.7161000622
 30
0.0
 10
15.5714788281
 20
11.7435669369
 30
0.0
 10
15.5615720223
 20
11.7719093267
 30
0.0
 10
15.5520435436
 20
11.8010949485
 30
0.0
 10
15.542904259
 20
11.8310905507
 30
0.0
 10
15.5341646184
 20
11.8618619196
 30
0.0
 10
15.5258345349
 20
11.8933740547
 30
0.0
 10
15.5152008612
 20
11.9366798452
 30
0.0
 10
15.5030269784
 20
11.9924200583
 30
0.0
 10
15.4903078905
 20
12.0611387588
 30
0.0
 10
15.479420861
 20
12.1319072846
 30
0.0
 10
15.4704158393
 20
12.2044027703
 30
0.0
 10
15.4633341169
 20
12.2782951194
 30
0.0
 10
15.4582081699
 20
12.3532475224
 30
0.0
 10
15.4550615326
 20
12.4289183154
 30
0.0
 10
15.4539086366
 20
12.5049624866
 30
0.0
 10
15.454754762
 20
12.5810332982
 30
0.0
 10
15.4575960439
 20
12.6567838885
 30
0.0
 10
15.462419436
 20
12.7318688793
 30
0.0
 10
15.4692028011
 20
12.8059459802
 30
0.0
 10
15.4779150362
 20
12.8786775642
 30
0.0
 10
15.4885161782
 20
12.9497322929
 30
0.0
 10
15.5009575848
 20
13.0187864906
 30
0.0
 10
15.5151823638
 20
13.0855262676
 30
0.0
 10
15.531124994
 20
13.1496469067
 30
0.0
 10
15.5430836387
 20
13.1912667981
 30
0.0
 10
15.5493567613
 20
13.2115666305
 30
0.0
  0
SPLINE
  5
2C2
100
AcDbEntity
  8
LAYER_CUT_FEAT
100
AcDbSpline
 62
7
  6
CONTINUOUS
 70
0
 71
3
 72
58
 73
54
 74
0
 42
0.0000001
 43
0.0000001
 44
0.0000000001
 40
0.0
 40
0.0
 40
0.0
 40
0.0
 40
0.0078425926
 40
0.0157063439
 40
0.0236656419
 40
0.0317912531
 40
0.040148698
 40
0.0487967127
 40
0.0577864546
 40
0.0671612934
 40
0.0769570153
 40
0.0872023043
 40
0.0979193562
 40
0.1091245423
 40
0.1208290581
 40
0.1330395209
 40
0.1457585041
 40
0.1589850046
 40
0.1727148452
 40
0.1869410261
 40
0.2016540289
 40
0.2168420771
 40
0.2324913607
 40
0.248586233
 40
0.2651093803
 40
0.2820419773
 40
0.2993638278
 40
0.31705349
 40
0.3534431598
 40
0.3910206025
 40
0.4295800727
 40
0.4689052622
 40
0.5087718773
 40
0.5489501024
 40
0.5892069944
 40
0.6293088207
 40
0.6690234025
 40
0.7081224673
 40
0.7463840512
 40
0.7835950126
 40
0.8195536651
 40
0.8370051827
 40
0.8540747241
 40
0.8707416507
 40
0.8869866506
 40
0.9027918713
 40
0.9181410687
 40
0.9330197738
 40
0.9474154764
 40
0.961317886
 40
0.9747189932
 40
0.9876138759
 40
1.0
 40
1.0
 40
1.0
 40
1.0
 10
15.5797442374
 20
13.0730590884
 30
0.0
 10
15.5827576329
 20
13.0732879643
 30
0.0
 10
15.5888218455
 20
13.0734270108
 30
0.0
 10
15.5979254811
 20
13.0726630388
 30
0.0
 10
15.6070064666
 20
13.0709288669
 30
0.0
 10
15.6160459509
 20
13.068229107
 30
0.0
 10
15.6250276753
 20
13.0645707051
 30
0.0
 10
15.6339359574
 20
13.0599621616
 30
0.0
 10
15.6427560561
 20
13.054413257
 30
0.0
 10
15.6514737566
 20
13.0479348871
 30
0.0
 10
15.6600751878
 20
13.0405390404
 30
0.0
 10
15.66854666
 20
13.0322388649
 30
0.0
 10
15.6768746016
 20
13.0230487593
 30
0.0
 10
15.6850455377
 20
13.0129844431
 30
0.0
 10
15.6930461077
 20
13.0020630065
 30
0.0
 10
15.7008631033
 20
12.9903029387
 30
0.0
 10
15.7084835127
 20
12.9777241358
 30
0.0
 10
15.7158945634
 20
12.9643478913
 30
0.0
 10
15.7230837713
 20
12.9501968788
 30
0.0
 10
15.730038976
 20
12.9352951175
 30
0.0
 10
15.7367483727
 20
12.9196679311
 30
0.0
 10
15.743200545
 20
12.9033419041
 30
0.0
 10
15.7493844927
 20
12.8863448363
 30
0.0
 10
15.7552896539
 20
12.8687056957
 30
0.0
 10
15.7609059401
 20
12.8504545633
 30
0.0
 10
15.7662237291
 20
12.8316226068
 30
0.0
 10
15.7712339836
 20
12.8122419125
 30
0.0
 10
15.7775520205
 20
12.7854615494
 30
0.0
 10
15.7845976895
 20
12.7508419611
 30
0.0
 10
15.7916262086
 20
12.7080446492
 30
0.0
 10
15.7972578098
 20
12.6639009068
 30
0.0
 10
15.8014537107
 20
12.6187123019
 30
0.0
 10
15.8041849888
 20
12.5727869928
 30
0.0
 10
15.8054328393
 20
12.5264385074
 30
0.0
 10
15.8051886561
 20
12.4799832752
 30
0.0
 10
15.8034541104
 20
12.4337384917
 30
0.0
 10
15.8002411736
 20
12.3880198597
 30
0.0
 10
15.7955719819
 20
12.3431394623
 30
0.0
 10
15.7894786902
 20
12.299403289
 30
0.0
 10
15.7820032652
 20
12.257110072
 30
0.0
 10
15.7745928273
 20
12.2229745973
 30
0.0
 10
15.7679914522
 20
12.1966284952
 30
0.0
 10
15.7627789602
 20
12.1776030756
 30
0.0
 10
15.7572648347
 20
12.1591475415
 30
0.0
 10
15.7514584413
 20
12.1412933249
 30
0.0
 10
15.7453697254
 20
12.1240709029
 30
0.0
 10
15.7390090808
 20
12.1075096329
 30
0.0
 10
15.7323873559
 20
12.0916377346
 30
0.0
 10
15.7255158273
 20
12.0764821966
 30
0.0
 10
15.7184061822
 20
12.0620688462
 30
0.0
 10
15.7110704055
 20
12.0484219726
 30
0.0
 10
15.7035210824
 20
12.0355651663
 30
0.0
 10
15.6982478773
 20
12.0273697524
 30
0.0
 10
15.695575182
 20
12.0234153709
 30
0.0
  0
SPLINE
  5
2C3
100
AcDbEntity
  8
02___PRT_ALL_AXES
100
AcDbSpline
 62
7
  6
CONTINUOUS
 70
0
 71
3
 72
25
 73
21
 74
0
 42
0.0000001
 43
0.0000001
 44
0.0000000001
 40
0.0
 40
0.0
 40
0.0
 40
0.0
 40
0.0855338239
 40
0.1681803392
 40
0.2478120771
 40
0.3243189443
 40
0.3976123412
 40
0.4676276314
 40
0.5343277559
 40
0.5977075094
 40
0.6577987085
 40
0.7146763375
 40
0.7684656463
 40
0.8193500967
 40
0.8675795727
 40
0.9134775989
 40
0.9356837044
 40
0.9574640901
 40
0.9788807803
 40
1.0
 40
1.0
 40
1.0
 40
1.0
 10
15.5493567613
 20
13.2115666305
 30
0.0
 10
15.5539522968
 20
13.2264377889
 30
0.0
 10
15.5634161488
 20
13.2555483503
 30
0.0
 10
15.5787136187
 20
13.297978361
 30
0.0
 10
15.5948375946
 20
13.3383388743
 30
0.0
 10
15.6117457929
 20
13.3765239845
 30
0.0
 10
15.6293941436
 20
13.4124341691
 30
0.0
 10
15.6477368782
 20
13.4459759674
 30
0.0
 10
15.6667267948
 20
13.4770623219
 30
0.0
 10
15.6863155391
 20
13.505612707
 30
0.0
 10
15.7064538853
 20
13.5315532149
 30
0.0
 10
15.7270921528
 20
13.5548165397
 30
0.0
 10
15.7481801759
 20
13.5753415601
 30
0.0
 10
15.7696686269
 20
13.5930732366
 30
0.0
 10
15.7915046109
 20
13.607960368
 30
0.0
 10
15.8101559684
 20
13.6180690048
 30
0.0
 10
15.8251512188
 20
13.6246218
 30
0.0
 10
15.8363225346
 20
13.6287481632
 30
0.0
 10
15.8475326401
 20
13.6321360634
 30
0.0
 10
15.855073009
 20
13.6339115279
 30
0.0
 10
15.8588402104
 20
13.6346719104
 30
0.0
  0
SPLINE
  5
2C4
100
AcDbEntity
  8
LAYER_CHAMFER_FEAT
100
AcDbSpline
 62
7
  6
CONTINUOUS
 70
0
 71
3
 72
77
 73
73
 74
0
 42
0.0000001
 43
0.0000001
 44
0.0000000001
 40
0.0
 40
0.0
 40
0.0
 40
0.0
 40
0.0113885235
 40
0.0222284698
 40
0.0325471007
 40
0.0375228689
 40
0.0423827192
 40
0.0517773137
 40
0.0607897061
 40
0.0651747407
 40
0.0694904645
 40
0.0737469148
 40
0.0779546818
 40
0.0821248244
 40
0.0862687849
 40
0.0903982747
 40
0.0945251603
 40
0.0986613353
 40
0.1028185935
 40
0.1070085105
 40
0.1112423232
 40
0.1155308398
 40
0.1198843451
 40
0.1288217485
 40
0.1381274888
 40
0.1478606858
 40
0.158069751
 40
0.1687930055
 40
0.1800595875
 40
0.1918904584
 40
0.2042993899
 40
0.2172938702
 40
0.230875903
 40
0.2450426977
 40
0.2597872572
 40
0.2750988777
 40
0.2909635726
 40
0.3073644344
 40
0.3242819458
 40
0.3416942496
 40
0.3595773854
 40
0.3779054999
 40
0.3966510356
 40
0.4157849032
 40
0.4352766393
 40
0.4550945542
 40
0.4752058708
 40
0.4955768562
 40
0.5161729485
 40
0.5369588786
 40
0.5578987897
 40
0.5789563529
 40
0.6212757822
 40
0.6636230812
 40
0.6847153987
 40
0.7057038186
 40
0.7265518645
 40
0.7472234884
 40
0.7676831866
 40
0.7878961172
 40
0.8078282212
 40
0.827446347
 40
0.8467183801
 40
0.8656133797
 40
0.8841017218
 40
0.902155254
 40
0.9197474609
 40
0.9368536487
 40
0.953451138
 40
0.969519519
 40
0.9850408255
 40
1.0
 40
1.0
 40
1.0
 40
1.0
 10
15.7220114553
 20
11.568329771
 30
0.0
 10
15.7274341924
 20
11.5618330631
 30
0.0
 10
15.7383820973
 20
11.5494489233
 30
0.0
 10
15.7555418738
 20
11.532382466
 30
0.0
 10
15.7702617894
 20
11.5196849652
 30
0.0
 10
15.7821653723
 20
11.510591114
 30
0.0
 10
15.7938697376
 20
11.5023880103
 30
0.0
 10
15.8086517764
 20
11.4933753
 30
0.0
 10
15.8239026337
 20
11.485942731
 30
0.0
 10
15.8361472273
 20
11.4811006123
 30
0.0
 10
15.8452786707
 20
11.4780333977
 30
0.0
 10
15.8544357874
 20
11.475499957
 30
0.0
 10
15.8636139086
 20
11.4735016261
 30
0.0
 10
15.8728080952
 20
11.4720397218
 30
0.0
 10
15.882013391
 20
11.4711150528
 30
0.0
 10
15.8912248069
 20
11.4707282937
 30
0.0
 10
15.9004373215
 20
11.4708795835
 30
0.0
 10
15.9096459111
 20
11.4715689348
 30
0.0
 10
15.9188455729
 20
11.4727958071
 30
0.0
 10
15.9280313328
 20
11.4745595506
 30
0.0
 10
15.9371982248
 20
11.4768589577
 30
0.0
 10
15.9463415708
 20
11.47969286
 30
0.0
 10
15.9586001415
 20
11.4842203267
 30
0.0
 10
15.9738772951
 20
11.4912612627
 30
0.0
 10
15.9918627398
 20
11.5017422175
 30
0.0
 10
16.0096299848
 20
11.514303162
 30
0.0
 10
16.0271437639
 20
11.5289146119
 30
0.0
 10
16.0443715147
 20
11.5455448722
 30
0.0
 10
16.0612803509
 20
11.5641589548
 30
0.0
 10
16.0778377416
 20
11.5847185107
 30
0.0
 10
16.0940113371
 20
11.6071815595
 30
0.0
 10
16.1097691526
 20
11.6315023937
 30
0.0
 10
16.1250796939
 20
11.6576315417
 30
0.0
 10
16.139912106
 20
11.6855157958
 30
0.0
 10
16.1542363039
 20
11.7150982826
 30
0.0
 10
16.1680230911
 20
11.746318562
 30
0.0
 10
16.1812442624
 20
11.7791127475
 30
0.0
 10
16.1938726955
 20
11.8134136388
 30
0.0
 10
16.2058824306
 20
11.8491508665
 30
0.0
 10
16.2172487426
 20
11.8862510436
 30
0.0
 10
16.2279482045
 20
11.9246379238
 30
0.0
 10
16.2379587453
 20
11.9642325659
 30
0.0
 10
16.2472597025
 20
12.0049535022
 30
0.0
 10
16.2558318693
 20
12.0467169123
 30
0.0
 10
16.2636575381
 20
12.0894368006
 30
0.0
 10
16.2707205391
 20
12.1330251773
 30
0.0
 10
16.2770062762
 20
12.1773922445
 30
0.0
 10
16.2825017563
 20
12.22244658
 30
0.0
 10
16.2871956243
 20
12.2680953463
 30
0.0
 10
16.29107816
 20
12.314244415
 30
0.0
 10
16.2941414004
 20
12.3607988268
 30
0.0
 10
16.2971293687
 20
12.4233836723
 30
0.0
 10
16.2987758776
 20
12.501944432
 30
0.0
 10
16.2976505308
 20
12.5805401556
 30
0.0
 10
16.2950796286
 20
12.6432261496
 30
0.0
 10
16.2923261122
 20
12.6899081043
 30
0.0
 10
16.2887507189
 20
12.7362207008
 30
0.0
 10
16.2843607786
 20
12.7820686411
 30
0.0
 10
16.279165383
 20
12.8273573826
 30
0.0
 10
16.2731752674
 20
12.8719936003
 30
0.0
 10
16.2664028144
 20
12.9158853121
 30
0.0
 10
16.2588620205
 20
12.9589420888
 30
0.0
 10
16.250568468
 20
13.0010752387
 30
0.0
 10
16.2415392908
 20
13.0421979953
 30
0.0
 10
16.2317931373
 20
13.0822256993
 30
0.0
 10
16.2213501274
 20
13.121075979
 30
0.0
 10
16.2102318108
 20
13.158668921
 30
0.0
 10
16.1984611038
 20
13.1949272558
 30
0.0
 10
16.1860622751
 20
13.2297764674
 30
0.0
 10
16.1730607473
 20
13.2631451725
 30
0.0
 10
16.1594834986
 20
13.2949644105
 30
0.0
 10
16.1498865448
 20
13.3154860586
 30
0.0
 10
16.144989602
 20
13.3254649789
 30
0.0
  0
SPLINE
  5
2C5
100
AcDbEntity
  8
LAYER_CHAMFER_FEAT
100
AcDbSpline
 62
7
  6
CONTINUOUS
 70
0
 71
3
 72
60
 73
56
 74
0
 42
0.0000001
 43
0.0000001
 44
0.0000000001
 40
0.0
 40
0.0
 40
0.0
 40
0.0
 40
0.0077261573
 40
0.0155162563
 40
0.023432316
 40
0.0315327354
 40
0.0398709864
 40
0.0484947685
 40
0.0574456059
 40
0.0667588112
 40
0.0764637115
 40
0.086584037
 40
0.0971383923
 40
0.1081407513
 40
0.1196009392
 40
0.1315250807
 40
0.1439160043
 40
0.1567736009
 40
0.1700951375
 40
0.1838755307
 40
0.1981075861
 40
0.2127822047
 40
0.2278885645
 40
0.243414279
 40
0.2593455377
 40
0.275667231
 40
0.2923630622
 40
0.3094156489
 40
0.3268066154
 40
0.3445166784
 40
0.3625257268
 40
0.3808128962
 40
0.4181334507
 40
0.4563003812
 40
0.4951264214
 40
0.5344183586
 40
0.5739788592
 40
0.6136082439
 40
0.6531062344
 40
0.6922736946
 40
0.7309143859
 40
0.768836755
 40
0.8058557772
 40
0.8239717044
 40
0.841796393
 40
0.8593094403
 40
0.8764912436
 40
0.8933230776
 40
0.9097871762
 40
0.9258668259
 40
0.9415464517
 40
0.956811763
 40
0.9716497643
 40
0.9860491606
 40
1.0
 40
1.0
 40
1.0
 40
1.0
 10
15.8748194058
 20
11.4908050015
 30
0.0
 10
15.8799359582
 20
11.4908049978
 30
0.0
 10
15.8902185885
 20
11.4913167585
 30
0.0
 10
15.9055889621
 20
11.4936146344
 30
0.0
 10
15.9209083426
 20
11.4974384421
 30
0.0
 10
15.9361498996
 20
11.5027797519
 30
0.0
 10
15.9512906162
 20
11.5096276489
 30
0.0
 10
15.9663079182
 20
11.5179692054
 30
0.0
 10
15.9811803129
 20
11.5277897791
 30
0.0
 10
15.9958868578
 20
11.5390731292
 30
0.0
 10
16.0104070034
 20
11.5518014083
 30
0.0
 10
16.024720431
 20
11.5659550862
 30
0.0
 10
16.0388069916
 20
11.5815128588
 30
0.0
 10
16.052646694
 20
11.5984515685
 30
0.0
 10
16.0662197313
 20
11.6167461504
 30
0.0
 10
16.0795065256
 20
11.6363696033
 30
0.0
 10
16.0924877808
 20
11.6572929848
 30
0.0
 10
16.1051445363
 20
11.6794854248
 30
0.0
 10
16.1174582201
 20
11.7029141522
 30
0.0
 10
16.1294106973
 20
11.7275445343
 30
0.0
 10
16.1409843123
 20
11.7533401246
 30
0.0
 10
16.1521619296
 20
11.7802627154
 30
0.0
 10
16.16292697
 20
11.8082723951
 30
0.0
 10
16.1732634437
 20
11.8373276091
 30
0.0
 10
16.1831559805
 20
11.8673852238
 30
0.0
 10
16.1925898576
 20
11.8984005923
 30
0.0
 10
16.2015510258
 20
11.9303276243
 30
0.0
 10
16.210026131
 20
11.9631188535
 30
0.0
 10
16.2180025459
 20
11.9967255207
 30
0.0
 10
16.2254683597
 20
12.0310976053
 30
0.0
 10
16.2324125078
 20
12.0661840696
 30
0.0
 10
16.2410197418
 20
12.1141722314
 30
0.0
 10
16.2503778803
 20
12.175577452
 30
0.0
 10
16.2593079178
 20
12.2507644896
 30
0.0
 10
16.2659592386
 20
12.3274976631
 30
0.0
 10
16.2702920045
 20
12.4053203384
 30
0.0
 10
16.2722802469
 20
12.4837701466
 30
0.0
 10
16.2719120505
 20
12.5623806645
 30
0.0
 10
16.269189621
 20
12.6406845784
 30
0.0
 10
16.2641292696
 20
12.7182163474
 30
0.0
 10
16.2567613303
 20
12.7945153784
 30
0.0
 10
16.2471299395
 20
12.8691276529
 30
0.0
 10
16.2371955664
 20
12.9299613368
 30
0.0
 10
16.2281366525
 20
12.9774233931
 30
0.0
 10
16.2208653476
 20
13.0120697312
 30
0.0
 10
16.2130792442
 20
13.0459696113
 30
0.0
 10
16.2047898795
 20
13.0790727061
 30
0.0
 10
16.1960096305
 20
13.1113297528
 30
0.0
 10
16.1867515776
 20
13.1426927993
 30
0.0
 10
16.1770295114
 20
13.1731152224
 30
0.0
 10
16.1668579044
 20
13.2025518459
 30
0.0
 10
16.1562518945
 20
13.2309588993
 30
0.0
 10
16.1452272002
 20
13.2582943936
 30
0.0
 10
16.1338003381
 20
13.2845173608
 30
0.0
 10
16.125797129
 20
13.3015045032
 30
0.0
 10
16.1217270556
 20
13.3097984407
 30
0.0
  0
SPLINE
  5
2C6
100
AcDbEntity
  8
LAYER_FEATURE
100
AcDbSpline
 62
7
  6
CONTINUOUS
 70
0
 71
3
 72
36
 73
32
 74
0
 42
0.0000001
 43
0.0000001
 44
0.0000000001
 40
0.0
 40
0.0
 40
0.0
 40
0.0
 40
0.0219087024
 40
0.0439016035
 40
0.0660617077
 40
0.0884697114
 40
0.1112030064
 40
0.1343348288
 40
0.1579336541
 40
0.1820627334
 40
0.2067798181
 40
0.2321371096
 40
0.2581812468
 40
0.2849534514
 40
0.3124897848
 40
0.3408213392
 40
0.3699745666
 40
0.3999716063
 40
0.4308305084
 40
0.4625655959
 40
0.49518774
 40
0.5287045559
 40
0.5631207302
 40
0.5984382098
 40
0.6346563656
 40
0.6717722671
 40
0.7097807908
 40
0.7486747469
 40
0.8290772053
 40
0.9128911255
 40
1.0
 40
1.0
 40
1.0
 40
1.0
 10
15.0980579675
 20
13.7791383189
 30
0.0
 10
15.0937333782
 20
13.7791383145
 30
0.0
 10
15.085064755
 20
13.7788455637
 30
0.0
 10
15.0720820347
 20
13.7775293064
 30
0.0
 10
15.0591178982
 20
13.7753368745
 30
0.0
 10
15.0461825761
 20
13.7722701466
 30
0.0
 10
15.0332851726
 20
13.7683316891
 30
0.0
 10
15.0204348647
 20
13.7635247967
 30
0.0
 10
15.00764061
 20
13.7578532835
 30
0.0
 10
14.9949112261
 20
13.7513215489
 30
0.0
 10
14.9822553546
 20
13.7439345746
 30
0.0
 10
14.9696815616
 20
13.7356977854
 30
0.0
 10
14.9571982891
 20
13.7266171633
 30
0.0
 10
14.9448138793
 20
13.7166992114
 30
0.0
 10
14.9325366501
 20
13.7059508888
 30
0.0
 10
14.9203748086
 20
13.6943797264
 30
0.0
 10
14.9083365046
 20
13.6819937634
 30
0.0
 10
14.8964298633
 20
13.6688015313
 30
0.0
 10
14.8846628858
 20
13.6548121411
 30
0.0
 10
14.8730435275
 20
13.6400352063
 30
0.0
 10
14.8615796869
 20
13.6244808565
 30
0.0
 10
14.85027912
 20
13.6081597869
 30
0.0
 10
14.8391495321
 20
13.5910831843
 30
0.0
 10
14.828198529
 20
13.5732627581
 30
0.0
 10
14.8174335571
 20
13.554710748
 30
0.0
 10
14.8068620242
 20
13.5354398906
 30
0.0
 10
14.7964910918
 20
13.5154633535
 30
0.0
 10
14.7827888681
 20
13.4875972712
 30
0.0
 10
14.766239558
 20
13.4510669107
 30
0.0
 10
14.7475062711
 20
13.4051193484
 30
0.0
 10
14.7358768519
 20
13.3734400609
 30
0.0
 10
14.7302120538
 20
13.3572054577
 30
0.0
  0
SPLINE
  5
2C7
100
AcDbEntity
  8
LAYER_FEATURE
100
AcDbSpline
 62
7
  6
CONTINUOUS
 70
0
 71
3
 72
79
 73
75
 74
0
 42
0.0000001
 43
0.0000001
 44
0.0000000001
 40
0.0
 40
0.0
 40
0.0
 40
0.0
 40
0.017311513
 40
0.0340659347
 40
0.0502394981
 40
0.0658114448
 40
0.0807647673
 40
0.0950865818
 40
0.1087687329
 40
0.1218084797
 40
0.1342093207
 40
0.1459819739
 40
0.1571455233
 40
0.1677287087
 40
0.1777713084
 40
0.1873254791
 40
0.1919408919
 40
0.1964599764
 40
0.2008930889
 40
0.2052514102
 40
0.2095468937
 40
0.2137921734
 40
0.2180004612
 40
0.2221854086
 40
0.226360952
 40
0.230541145
 40
0.2347399837
 40
0.238971234
 40
0.2432482716
 40
0.2475839427
 40
0.2519904385
 40
0.256479211
 40
0.2657422617
 40
0.2754513736
 40
0.2856676065
 40
0.2964388871
 40
0.307801189
 40
0.3197799087
 40
0.3323912267
 40
0.3456433549
 40
0.3595376279
 40
0.3740694302
 40
0.3892289734
 40
0.4050019452
 40
0.4213700613
 40
0.4383115292
 40
0.455801443
 40
0.4738121222
 40
0.4923134106
 40
0.5112729447
 40
0.5306563932
 40
0.5504276746
 40
0.5705491581
 40
0.5909818554
 40
0.611685602
 40
0.6326192294
 40
0.6537407303
 40
0.6750074214
 40
0.696376103
 40
0.7178032152
 40
0.7392449927
 40
0.7606576184
 40
0.7819973778
 40
0.8032208131
 40
0.8242848779
 40
0.8451470945
 40
0.8657657151
 40
0.8860998845
 40
0.9061098078
 40
0.9257569249
 40
0.9450040935
 40
0.9638158067
 40
0.9821582794
 40
1.0
 40
1.0
 40
1.0
 40
1.0
 10
15.4883684653
 20
13.3134704744
 30
0.0
 10
15.4934042807
 20
13.329766379
 30
0.0
 10
15.5037628364
 20
13.361697495
 30
0.0
 10
15.5204552703
 20
13.4083049073
 30
0.0
 10
15.5380168366
 20
13.4527553502
 30
0.0
 10
15.5564054058
 20
13.4949421349
 30
0.0
 10
15.5755770974
 20
13.5347646473
 30
0.0
 10
15.5954863692
 20
13.572128014
 30
0.0
 10
15.6160862062
 20
13.6069434411
 30
0.0
 10
15.6373283755
 20
13.6391283486
 30
0.0
 10
15.6591636627
 20
13.6686064754
 30
0.0
 10
15.6815422526
 20
13.6953079237
 30
0.0
 10
15.7044136816
 20
13.71916889
 30
0.0
 10
15.7277281048
 20
13.7401318294
 30
0.0
 10
15.7514326146
 20
13.7581431402
 30
0.0
 10
15.7717027456
 20
13.770798213
 30
0.0
 10
15.7880280563
 20
13.779329988
 30
0.0
 10
15.8001911073
 20
13.7848914081
 30
0.0
 10
15.8124053747
 20
13.7896844842
 30
0.0
 10
15.8246637165
 20
13.7937060711
 30
0.0
 10
15.836958518
 20
13.7969533773
 30
0.0
 10
15.8492821685
 20
13.7994240279
 30
0.0
 10
15.8616268944
 20
13.8011162476
 30
0.0
 10
15.8739848491
 20
13.8020287897
 30
0.0
 10
15.8863481192
 20
13.8021609136
 30
0.0
 10
15.8987087624
 20
13.8015125907
 30
0.0
 10
15.9110588521
 20
13.8000842528
 30
0.0
 10
15.9233905049
 20
13.7978769888
 30
0.0
 10
15.9356959581
 20
13.7948924378
 30
0.0
 10
15.9479674321
 20
13.7911327403
 30
0.0
 10
15.9601976697
 20
13.7866004246
 30
0.0
 10
15.9766090879
 20
13.7794578741
 30
0.0
 10
15.9970267901
 20
13.7685261963
 30
0.0
 10
16.0209647385
 20
13.7525167822
 30
0.0
 10
16.0445470679
 20
13.7335233306
 30
0.0
 10
16.0677202467
 20
13.7115960989
 30
0.0
 10
16.0904343721
 20
13.686789058
 30
0.0
 10
16.1126388109
 20
13.6591620193
 30
0.0
 10
16.1342834538
 20
13.6287807056
 30
0.0
 10
16.1553186044
 20
13.5957171331
 30
0.0
 10
16.1756953548
 20
13.5600496521
 30
0.0
 10
16.1953658437
 20
13.521862915
 30
0.0
 10
16.2142835168
 20
13.4812477445
 30
0.0
 10
16.2324033635
 20
13.4383009524
 30
0.0
 10
16.2496820906
 20
13.3931250986
 30
0.0
 10
16.2660782896
 20
13.3458282344
 30
0.0
 10
16.2815525775
 20
13.2965236293
 30
0.0
 10
16.2960677318
 20
13.245329491
 30
0.0
 10
16.3095888044
 20
13.1923686649
 30
0.0
 10
16.3220832087
 20
13.13776832
 30
0.0
 10
16.3335208132
 20
13.0816596298
 30
0.0
 10
16.3438740183
 20
13.0241774495
 30
0.0
 10
16.3531178442
 20
12.9654599869
 30
0.0
 10
16.3612299814
 20
12.9056484582
 30
0.0
 10
16.3681908459
 20
12.8448867401
 30
0.0
 10
16.3739836274
 20
12.7833210185
 30
0.0
 10
16.3785943362
 20
12.7210994342
 30
0.0
 10
16.3820118446
 20
12.6583717227
 30
0.0
 10
16.3842279012
 20
12.5952888476
 30
0.0
 10
16.3852371534
 20
12.5320026341
 30
0.0
 10
16.3850371582
 20
12.468665401
 30
0.0
 10
16.3836284012
 20
12.4054295914
 30
0.0
 10
16.3810142884
 20
12.3424474017
 30
0.0
 10
16.3772011326
 20
12.2798704128
 30
0.0
 10
16.3721981386
 20
12.2178492229
 30
0.0
 10
16.3660173825
 20
12.1565330802
 30
0.0
 10
16.3586737938
 20
12.0960695188
 30
0.0
 10
16.3501851037
 20
12.0366039991
 30
0.0
 10
16.3405718047
 20
11.9782795599
 30
0.0
 10
16.3298570896
 20
11.9212364517
 30
0.0
 10
16.3180668285
 20
11.8656118378
 30
0.0
 10
16.3052294198
 20
11.811539297
 30
0.0
 10
16.2913759938
 20
11.7591491934
 30
0.0
 10
16.2813405302
 20
11.724934518
 30
0.0
 10
16.2761504806
 20
11.7081395114
 30
0.0
  0
SPLINE
  5
2C8
100
AcDbEntity
  8
LAYER_FEATURE
100
AcDbSpline
 62
7
  6
CONTINUOUS
 70
0
 71
3
 72
38
 73
34
 74
0
 42
0.0000001
 43
0.0000001
 44
0.0000000001
 40
0.0
 40
0.0
 40
0.0
 40
0.0
 40
0.0879640552
 40
0.1307307761
 40
0.172659294
 40
0.2137306917
 40
0.2539278587
 40
0.2932354838
 40
0.3316400154
 40
0.3691299321
 40
0.4056958451
 40
0.4413306505
 40
0.4760297486
 40
0.5097912561
 40
0.5426162041
 40
0.574508797
 40
0.6054767258
 40
0.6355314456
 40
0.6646884931
 40
0.6929678659
 40
0.7203944052
 40
0.7469981505
 40
0.7728147279
 40
0.7978857439
 40
0.8222590827
 40
0.8459891383
 40
0.8691369604
 40
0.8917702295
 40
0.9139630036
 40
0.9357952502
 40
0.9573521237
 40
0.9787229528
 40
1.0
 40
1.0
 40
1.0
 40
1.0
 10
15.4825888047
 20
13.3751536538
 30
0.0
 10
15.4887884146
 20
13.395215599
 30
0.0
 10
15.4984794926
 20
13.4248879589
 30
0.0
 10
15.5123088248
 20
13.4637160248
 30
0.0
 10
15.5228955501
 20
13.4918113536
 30
0.0
 10
15.5337855464
 20
13.5191312463
 30
0.0
 10
15.5449702864
 20
13.5456542613
 30
0.0
 10
15.5564409169
 20
13.5713594397
 30
0.0
 10
15.5681884226
 20
13.5962265241
 30
0.0
 10
15.5802035346
 20
13.6202359161
 30
0.0
 10
15.592476795
 20
13.6433687059
 30
0.0
 10
15.6049985684
 20
13.6656066688
 30
0.0
 10
15.6177590305
 20
13.6869322967
 30
0.0
 10
15.6307481713
 20
13.7073288176
 30
0.0
 10
15.6439558353
 20
13.7267801843
 30
0.0
 10
15.6573717324
 20
13.7452710835
 30
0.0
 10
15.6709854105
 20
13.7627869753
 30
0.0
 10
15.6847863
 20
13.779314076
 30
0.0
 10
15.6987637343
 20
13.7948393461
 30
0.0
 10
15.7129069389
 20
13.8093505112
 30
0.0
 10
15.7272050287
 20
13.8228360749
 30
0.0
 10
15.7416470443
 20
13.8352852772
 30
0.0
 10
15.7562219502
 20
13.846688081
 30
0.0
 10
15.7709185905
 20
13.8570352126
 30
0.0
 10
15.7857257051
 20
13.8663181203
 30
0.0
 10
15.8006319109
 20
13.8745289464
 30
0.0
 10
15.8156256546
 20
13.8816605611
 30
0.0
 10
15.8306951555
 20
13.8877066128
 30
0.0
 10
15.8458284301
 20
13.8926615115
 30
0.0
 10
15.8610131292
 20
13.8965204847
 30
0.0
 10
15.876236976
 20
13.8992797248
 30
0.0
 10
15.8914861118
 20
13.9009364368
 30
0.0
 10
15.9016704474
 20
13.901304988
 30
0.0
 10
15.9067495202
 20
13.9013049921
 30
0.0
  0
SPLINE
  5
2C9
100
AcDbEntity
  8
02___PRT_ALL_AXES
100
AcDbSpline
 62
7
  6
CONTINUOUS
 70
0
 71
3
 72
15
 73
11
 74
0
 42
0.0000001
 43
0.0000001
 44
0.0000000001
 40
0.0
 40
0.0
 40
0.0
 40
0.0
 40
0.1342980787
 40
0.2647984788
 40
0.3920026752
 40
0.5164814421
 40
0.6388502127
 40
0.7597653145
 40
0.879914096
 40
1.0
 40
1.0
 40
1.0
 40
1.0
 10
15.6361784133
 20
11.9631297578
 30
0.0
 10
15.6339061837
 20
11.9617629659
 30
0.0
 10
15.6293386498
 20
11.9592095504
 30
0.0
 10
15.6223342833
 20
11.9559020708
 30
0.0
 10
15.6152888821
 20
11.9531799874
 30
0.0
 10
15.6082104387
 20
11.9510470514
 30
0.0
 10
15.6011066239
 20
11.9495060765
 30
0.0
 10
15.5939853249
 20
11.948559323
 30
0.0
 10
15.5868554218
 20
11.9482081793
 30
0.0
 10
15.5821084479
 20
11.94837131
 30
0.0
 10
15.5797442372
 20
11.9485508835
 30
0.0
  0
SPLINE
  5
2CA
100
AcDbEntity
  8
LAYER_CUT_FEAT
100
AcDbSpline
 62
7
  6
CONTINUOUS
 70
0
 71
3
 72
15
 73
11
 74
0
 42
0.0000001
 43
0.0000001
 44
0.0000000001
 40
0.0
 40
0.0
 40
0.0
 40
0.0
 40
0.14306347
 40
0.281990804
 40
0.4162013591
 40
0.5451668967
 40
0.6684070201
 40
0.7855059025
 40
0.8961212551
 40
1.0
 40
1.0
 40
1.0
 40
1.0
 10
15.5740559286
 20
13.0724369747
 30
0.0
 10
15.573764615
 20
13.0743060839
 30
0.0
 10
15.5731315693
 20
13.077981426
 30
0.0
 10
15.5720129836
 20
13.0833709282
 30
0.0
 10
15.5707439172
 20
13.0885354171
 30
0.0
 10
15.5693312594
 20
13.0934471553
 30
0.0
 10
15.5677825952
 20
13.0980799385
 30
0.0
 10
15.5661062001
 20
13.1024091648
 30
0.0
 10
15.5643111173
 20
13.1064116377
 30
0.0
 10
15.5629994809
 20
13.1089288337
 30
0.0
 10
15.5623229447
 20
13.1101242154
 30
0.0
  0
SPLINE
  5
2CB
100
AcDbEntity
  8
LAYER_FEATURE
100
AcDbSpline
 62
7
  6
CONTINUOUS
 70
0
 71
3
 72
58
 73
54
 74
0
 42
0.0000001
 43
0.0000001
 44
0.0000000001
 40
0.0
 40
0.0
 40
0.0
 40
0.0
 40
0.0163583
 40
0.033051471
 40
0.0500648574
 40
0.0673835114
 40
0.0849915535
 40
0.1028725909
 40
0.1393839941
 40
0.1767770752
 40
0.2149030243
 40
0.2536074773
 40
0.2927317876
 40
0.3321142519
 40
0.3715913088
 40
0.4109987214
 40
0.4501727498
 40
0.4889513312
 40
0.5271752767
 40
0.5646894904
 40
0.601344234
 40
0.6193049122
 40
0.6369977078
 40
0.6544060228
 40
0.6715138624
 40
0.6883058876
 40
0.7047674716
 40
0.7208847596
 40
0.736644735
 40
0.7520352903
 40
0.7670453039
 40
0.7816647265
 40
0.7958846763
 40
0.8096975461
 40
0.823097124
 40
0.8360787296
 40
0.8486393693
 40
0.860777911
 40
0.8724952819
 40
0.8837946938
 40
0.8946818953
 40
0.9051654528
 40
0.9152570574
 40
0.9249718519
 40
0.9343287667
 40
0.9433508406
 40
0.952065501
 40
0.960504758
 40
0.9687052606
 40
0.9767081569
 40
0.9845587033
 40
0.9923055923
 40
1.0
 40
1.0
 40
1.0
 40
1.0
 10
14.6494072046
 20
13.3751536538
 30
0.0
 10
14.6454358207
 20
13.3623022507
 30
0.0
 10
14.6376775965
 20
13.3362534801
 30
0.0
 10
14.6266953796
 20
13.2965758103
 30
0.0
 10
14.6162604728
 20
13.2559348458
 30
0.0
 10
14.6063857495
 20
13.214380736
 30
0.0
 10
14.597083239
 20
13.1719640935
 30
0.0
 10
14.5853773237
 20
13.1139262368
 30
0.0
 10
14.5722851499
 20
13.0395830902
 30
0.0
 10
14.5591284278
 20
12.9483937027
 30
0.0
 10
14.5484833519
 20
12.8550621082
 30
0.0
 10
14.5404023683
 20
12.7600456198
 30
0.0
 10
14.5349253053
 20
12.6638090004
 30
0.0
 10
14.5320791599
 20
12.5668233607
 30
0.0
 10
14.5318779503
 20
12.4695634706
 30
0.0
 10
14.5343226679
 20
12.372505489
 30
0.0
 10
14.5394012714
 20
12.2761245461
 30
0.0
 10
14.5470887312
 20
12.1808924711
 30
0.0
 10
14.5573471554
 20
12.087275106
 30
0.0
 10
14.5701260011
 20
11.9957311769
 30
0.0
 10
14.582907851
 20
11.9210471357
 30
0.0
 10
14.5943706153
 20
11.8627028979
 30
0.0
 10
14.6034968675
 20
11.8200343657
 30
0.0
 10
14.6131988804
 20
11.7782126305
 30
0.0
 10
14.6234648212
 20
11.7372888069
 30
0.0
 10
14.6342820753
 20
11.6973130408
 30
0.0
 10
14.6456373794
 20
11.6583342699
 30
0.0
 10
14.6575168099
 20
11.6204002083
 30
0.0
 10
14.6699058059
 20
11.5835572725
 30
0.0
 10
14.6827891889
 20
11.5478505268
 30
0.0
 10
14.6961511864
 20
11.5133236268
 30
0.0
 10
14.709975454
 20
11.480018765
 30
0.0
 10
14.7242450999
 20
11.4479766178
 30
0.0
 10
14.7389427119
 20
11.417236295
 30
0.0
 10
14.7540503853
 20
11.3878352913
 30
0.0
 10
14.7695497551
 20
11.35980944
 30
0.0
 10
14.7854220251
 20
11.3331928694
 30
0.0
 10
14.8016480085
 20
11.308017968
 30
0.0
 10
14.8182081662
 20
11.2843153558
 30
0.0
 10
14.8350826475
 20
11.2621138621
 30
0.0
 10
14.8522513324
 20
11.2414405145
 30
0.0
 10
14.869693871
 20
11.2223205397
 30
0.0
 10
14.887389719
 20
11.2047773806
 30
0.0
 10
14.9053181575
 20
11.1888327281
 30
0.0
 10
14.9234582904
 20
11.1745065673
 30
0.0
 10
14.9417890112
 20
11.1618172416
 30
0.0
 10
14.9602889255
 20
11.1507815061
 30
0.0
 10
14.9789361969
 20
11.1414145505
 30
0.0
 10
14.9977084381
 20
11.1337299569
 30
0.0
 10
15.0165822667
 20
11.1277395553
 30
0.0
 10
15.0355340666
 20
11.1234531641
 30
0.0
 10
15.0545366602
 20
11.1208782096
 30
0.0
 10
15.0672409927
 20
11.1203050069
 30
0.0
 10
15.0735679202
 20
11.1203050007
 30
0.0
  0
SPLINE
  5
2CC
100
AcDbEntity
  8
LAYER_FEATURE
100
AcDbSpline
 62
7
  6
CONTINUOUS
 70
0
 71
3
 72
40
 73
36
 74
0
 42
0.0000001
 43
0.0000001
 44
0.0000000001
 40
0.0
 40
0.0
 40
0.0
 40
0.0
 40
0.0467030114
 40
0.0923856504
 40
0.137014184
 40
0.1805595089
 40
0.2229943226
 40
0.2642948912
 40
0.3044408227
 40
0.3434155106
 40
0.3812064712
 40
0.4178057384
 40
0.4532103252
 40
0.4874227385
 40
0.5204515702
 40
0.5523121437
 40
0.58302723
 40
0.6126278363
 40
0.6411540464
 40
0.6686558915
 40
0.6951942018
 40
0.7081259252
 40
0.7208449212
 40
0.7456854091
 40
0.7698160979
 40
0.793346035
 40
0.8163956701
 40
0.8390953793
 40
0.8615832687
 40
0.8840023451
 40
0.9064972456
 40
0.9292108137
 40
0.9522808408
 40
0.975837262
 40
1.0
 40
1.0
 40
1.0
 40
1.0
 10
14.7041669598
 20
13.3134704744
 30
0.0
 10
14.7076712472
 20
13.3248103525
 30
0.0
 10
14.714821878
 20
13.3471755776
 30
0.0
 10
14.726105617
 20
13.3801196393
 30
0.0
 10
14.7378186112
 20
13.4120604582
 30
0.0
 10
14.7499471811
 20
13.4429609389
 30
0.0
 10
14.7624774571
 20
13.4727856681
 30
0.0
 10
14.7753949744
 20
13.5015002639
 30
0.0
 10
14.7886848994
 20
13.5290717224
 30
0.0
 10
14.802331971
 20
13.5554683588
 30
0.0
 10
14.8163205548
 20
13.5806598631
 30
0.0
 10
14.8306346647
 20
13.604617327
 30
0.0
 10
14.8452579899
 20
13.6273132729
 30
0.0
 10
14.860173929
 20
13.6487216787
 30
0.0
 10
14.875365613
 20
13.6688180064
 30
0.0
 10
14.8908159389
 20
13.6875792057
 30
0.0
 10
14.9065076238
 20
13.704983722
 30
0.0
 10
14.9224231606
 20
13.7210114416
 30
0.0
 10
14.9385450837
 20
13.7356438272
 30
0.0
 10
14.9548551063
 20
13.7488633244
 30
0.0
 10
14.9687071698
 20
13.758773708
 30
0.0
 10
14.9798591988
 20
13.7659572167
 30
0.0
 10
14.9908740266
 20
13.772543332
 30
0.0
 10
15.0047371123
 20
13.7798954084
 30
0.0
 10
15.0216192081
 20
13.7873195076
 30
0.0
 10
15.038597216
 20
13.7932653983
 30
0.0
 10
15.0556505332
 20
13.7977239811
 30
0.0
 10
15.0727583103
 20
13.8006883102
 30
0.0
 10
15.0898988635
 20
13.8021534821
 30
0.0
 10
15.1070500386
 20
13.8021170107
 30
0.0
 10
15.1241895226
 20
13.8005789438
 30
0.0
 10
15.1412950986
 20
13.7975419216
 30
0.0
 10
15.1583454303
 20
13.7930108149
 30
0.0
 10
15.1753184821
 20
13.7869932644
 30
0.0
 10
15.1864139904
 20
13.7820652984
 30
0.0
 10
15.1919326365
 20
13.7793723021
 30
0.0
  0
SPLINE
  5
2CD
100
AcDbEntity
  8
LAYER_FEATURE
100
AcDbSpline
 62
7
  6
CONTINUOUS
 70
0
 71
3
 72
62
 73
58
 74
0
 42
0.0000001
 43
0.0000001
 44
0.0000000001
 40
0.0
 40
0.0
 40
0.0
 40
0.0
 40
0.0170211156
 40
0.0344181579
 40
0.0521732681
 40
0.0702679065
 40
0.0886824971
 40
0.107396737
 40
0.1263895721
 40
0.1456392986
 40
0.1848184039
 40
0.2247509841
 40
0.2652459426
 40
0.3061073358
 40
0.3471361095
 40
0.388131801
 40
0.4288942254
 40
0.4692251653
 40
0.5089300814
 40
0.5284890701
 40
0.5478211829
 40
0.566903932
 40
0.5857154023
 40
0.6042343148
 40
0.6224400927
 40
0.6403129315
 40
0.6578338725
 40
0.6749848823
 40
0.6917489374
 40
0.7081101177
 40
0.7240537074
 40
0.739566308
 40
0.7546359632
 40
0.7692522997
 40
0.7834066865
 40
0.7970924164
 40
0.8103049136
 40
0.8230419711
 40
0.8353040245
 40
0.8470944633
 40
0.8584199867
 40
0.8692910018
 40
0.8797220632
 40
0.8897323431
 40
0.8993461099
 40
0.9085931799
 40
0.9175092843
 40
0.9261362764
 40
0.9345220832
 40
0.9427203049
 40
0.9507893923
 40
0.9587913831
 40
0.9667902649
 40
0.9748501168
 40
0.9830332416
 40
0.9913984986
 40
1.0
 40
1.0
 40
1.0
 40
1.0
 10
14.7041669598
 20
13.3134704744
 30
0.0
 10
14.700166255
 20
13.3005241888
 30
0.0
 10
14.692367179
 20
13.2742550007
 30
0.0
 10
14.6813838723
 20
13.2341960107
 30
0.0
 10
14.6709999078
 20
13.1930953995
 30
0.0
 10
14.6612303201
 20
13.1510126209
 30
0.0
 10
14.6520891739
 20
13.1080080634
 30
0.0
 10
14.6435896712
 20
13.0641436886
 30
0.0
 10
14.6357439985
 20
13.0194824749
 30
0.0
 10
14.6261140557
 20
12.9586022852
 30
0.0
 10
14.6158150214
 20
12.8809627029
 30
0.0
 10
14.6062911299
 20
12.7862074798
 30
0.0
 10
14.5995861627
 20
12.6898686417
 30
0.0
 10
14.5957389389
 20
12.5925006274
 30
0.0
 10
14.5947717552
 20
12.4946629054
 30
0.0
 10
14.5966902154
 20
12.3969180364
 30
0.0
 10
14.6014831957
 20
12.2998277124
 30
0.0
 10
14.6091229565
 20
12.2039507318
 30
0.0
 10
14.6178678035
 20
12.1251333764
 30
0.0
 10
14.6262729887
 20
12.0631286036
 30
0.0
 10
14.6332246037
 20
12.017500467
 30
0.0
 10
14.6408450065
 20
11.9725827571
 30
0.0
 10
14.6491232697
 20
11.9284399978
 30
0.0
 10
14.6580474358
 20
11.8851357511
 30
0.0
 10
14.6676046394
 20
11.842732319
 30
0.0
 10
14.6777810992
 20
11.8012907067
 30
0.0
 10
14.6885621462
 20
11.7608705189
 30
0.0
 10
14.6999322443
 20
11.7215298754
 30
0.0
 10
14.7118750159
 20
11.6833253252
 30
0.0
 10
14.7243732672
 20
11.6463117622
 30
0.0
 10
14.7374090173
 20
11.6105423438
 30
0.0
 10
14.7509635275
 20
11.5760684113
 30
0.0
 10
14.7650173354
 20
11.5429394142
 30
0.0
 10
14.7795502912
 20
11.5112028367
 30
0.0
 10
14.7945415959
 20
11.4809041282
 30
0.0
 10
14.8099698452
 20
11.4520866379
 30
0.0
 10
14.8258130756
 20
11.4247915548
 30
0.0
 10
14.8420488169
 20
11.3990578551
 30
0.0
 10
14.8586541477
 20
11.3749222592
 30
0.0
 10
14.8756057562
 20
11.3524192005
 30
0.0
 10
14.8928800017
 20
11.3315808123
 30
0.0
 10
14.9104529753
 20
11.3124369354
 30
0.0
 10
14.9283005488
 20
11.2950151529
 30
0.0
 10
14.9463984007
 20
11.2793408524
 30
0.0
 10
14.9647220007
 20
11.2654373175
 30
0.0
 10
14.9832465295
 20
11.2533258301
 30
0.0
 10
15.0019467111
 20
11.2430257517
 30
0.0
 10
15.0207965544
 20
11.2345545278
 30
0.0
 10
15.0397690369
 20
11.2279275479
 30
0.0
 10
15.0588358127
 20
11.223157803
 30
0.0
 10
15.0779670868
 20
11.2202553456
 30
0.0
 10
15.0971317676
 20
11.2192266494
 30
0.0
 10
15.1162980178
 20
11.220074099
 30
0.0
 10
15.1354338275
 20
11.222795689
 30
0.0
 10
15.1545084117
 20
11.2273855115
 30
0.0
 10
15.1734902911
 20
11.2338330995
 30
0.0
 10
15.1858720831
 20
11.2392772283
 30
0.0
 10
15.1920248402
 20
11.2422826976
 30
0.0
  0
SPLINE
  5
2CE
100
AcDbEntity
  8
LAYER_FEATURE
100
AcDbSpline
 62
7
  6
CONTINUOUS
 70
0
 71
3
 72
15
 73
11
 74
0
 42
0.0000001
 43
0.0000001
 44
0.0000000001
 40
0.0
 40
0.0
 40
0.0
 40
0.0
 40
0.1203338852
 40
0.2467211076
 40
0.3768839626
 40
0.5084061922
 40
0.6388324299
 40
0.7657428081
 40
0.8868294439
 40
1.0
 40
1.0
 40
1.0
 40
1.0
 10
14.6870486739
 20
13.2141592327
 30
0.0
 10
14.6869224675
 20
13.2136035515
 30
0.0
 10
14.6867066253
 20
13.2124542
 30
0.0
 10
14.686491368
 20
13.210681452
 30
0.0
 10
14.6863795921
 20
13.2088460859
 30
0.0
 10
14.6863738508
 20
13.20698826
 30
0.0
 10
14.6864742608
 20
13.2051485435
 30
0.0
 10
14.6866785793
 20
13.2033670596
 30
0.0
 10
14.6869821655
 20
13.2016827312
 30
0.0
 10
14.6872570055
 20
13.2006066102
 30
0.0
 10
14.6874122064
 20
13.2000936639
 30
0.0
  0
SPLINE
  5
2CF
100
AcDbEntity
  8
LAYER_FEATURE
100
AcDbSpline
 62
7
  6
CONTINUOUS
 70
0
 71
3
 72
14
 73
10
 74
0
 42
0.0000001
 43
0.0000001
 44
0.0000000001
 40
0.0
 40
0.0
 40
0.0
 40
0.0
 40
0.2638768327
 40
0.3945886655
 40
0.5232380033
 40
0.6489322903
 40
0.7708166553
 40
0.8880847447
 40
1.0
 40
1.0
 40
1.0
 40
1.0
 10
14.7014686659
 20
13.1279269914
 30
0.0
 10
14.7015724281
 20
13.1316784801
 30
0.0
 10
14.7015283378
 20
13.1372965578
 30
0.0
 10
14.7010702091
 20
13.144725168
 30
0.0
 10
14.7005321775
 20
13.1501764229
 30
0.0
 10
14.6998034018
 20
13.1554787163
 30
0.0
 10
14.6988899329
 20
13.1605881863
 30
0.0
 10
14.6977995236
 20
13.1654622392
 30
0.0
 10
14.6969388344
 20
13.1686077124
 30
0.0
 10
14.6964778791
 20
13.1701311914
 30
0.0
  0
SPLINE
  5
2D0
100
AcDbEntity
  8
LAYER_FEATURE
100
AcDbSpline
 62
7
  6
CONTINUOUS
 70
0
 71
3
 72
15
 73
11
 74
0
 42
0.0000001
 43
0.0000001
 44
0.0000000001
 40
0.0
 40
0.0
 40
0.0
 40
0.0
 40
0.1282376045
 40
0.260395879
 40
0.3940365946
 40
0.5266595509
 40
0.6558028648
 40
0.7791199013
 40
0.8944630256
 40
1.0
 40
1.0
 40
1.0
 40
1.0
 10
14.652252258
 20
13.0567947437
 30
0.0
 10
14.6521590564
 20
13.05620445
 30
0.0
 10
14.6520097608
 20
13.0549992282
 30
0.0
 10
14.6518939292
 20
13.0531656276
 30
0.0
 10
14.6518840449
 20
13.0513079092
 30
0.0
 10
14.6519803634
 20
13.0494667283
 30
0.0
 10
14.6521807047
 20
13.0476822783
 30
0.0
 10
14.6524805961
 20
13.0459933425
 30
0.0
 10
14.6528732474
 20
13.0444366898
 30
0.0
 10
14.6532075135
 20
13.043461262
 30
0.0
 10
14.6533916043
 20
13.0430051968
 30
0.0
  0
SPLINE
  5
2D1
100
AcDbEntity
  8
LAYER_FEATURE
100
AcDbSpline
 62
7
  6
CONTINUOUS
 70
0
 71
3
 72
14
 73
10
 74
0
 42
0.0000001
 43
0.0000001
 44
0.0000000001
 40
0.0
 40
0.0
 40
0.0
 40
0.0
 40
0.2728672835
 40
0.4057704262
 40
0.5350747206
 40
0.6599145339
 40
0.779485167
 40
0.8930568539
 40
1.0
 40
1.0
 40
1.0
 40
1.0
 10
14.6713044668
 20
12.9767100788
 30
0.0
 10
14.671200427
 20
12.9804198807
 30
0.0
 10
14.6708518962
 20
12.9859342714
 30
0.0
 10
14.669983385
 20
12.9931610831
 30
0.0
 10
14.6691499421
 20
12.9983604648
 30
0.0
 10
14.6681360258
 20
13.0033427833
 30
0.0
 10
14.6669500414
 20
13.0080669582
 30
0.0
 10
14.6656020315
 20
13.0124936992
 30
0.0
 10
14.6645699624
 20
13.0153119998
 30
0.0
 10
14.6640255219
 20
13.0166607935
 30
0.0
  0
SPLINE
  5
2D2
100
AcDbEntity
  8
LAYER_FEATURE
100
AcDbSpline
 62
7
  6
CONTINUOUS
 70
0
 71
3
 72
15
 73
11
 74
0
 42
0.0000001
 43
0.0000001
 44
0.0000000001
 40
0.0
 40
0.0
 40
0.0
 40
0.0
 40
0.1364629161
 40
0.2745475146
 40
0.411685413
 40
0.5453238886
 40
0.6730317312
 40
0.7925840778
 40
0.9020623536
 40
1.0
 40
1.0
 40
1.0
 40
1.0
 10
14.6265311607
 20
12.8883154778
 30
0.0
 10
14.6264721781
 20
12.8877029079
 30
0.0
 10
14.6263912426
 20
12.8864665769
 30
0.0
 10
14.6263772459
 20
12.8846090992
 30
0.0
 10
14.6264694575
 20
12.8827665198
 30
0.0
 10
14.6266658353
 20
12.8809791163
 30
0.0
 10
14.6269619487
 20
12.8792858249
 30
0.0
 10
14.6273512301
 20
12.8777231879
 30
0.0
 10
14.6278249115
 20
12.8763249779
 30
0.0
 10
14.6282132279
 20
12.8754712707
 30
0.0
 10
14.6284231269
 20
12.8750826683
 30
0.0
  0
SPLINE
  5
2D3
100
AcDbEntity
  8
LAYER_FEATURE
100
AcDbSpline
 62
7
  6
CONTINUOUS
 70
0
 71
3
 72
15
 73
11
 74
0
 42
0.0000001
 43
0.0000001
 44
0.0000000001
 40
0.0
 40
0.0
 40
0.0
 40
0.0
 40
0.1429342892
 40
0.2824546197
 40
0.4176186658
 40
0.5475359841
 40
0.6713936205
 40
0.7884709646
 40
0.8981601306
 40
1.0
 40
1.0
 40
1.0
 40
1.0
 10
14.6498277383
 20
12.8160086823
 30
0.0
 10
14.6496733113
 20
12.8178273167
 30
0.0
 10
14.6493023406
 20
12.8214159608
 30
0.0
 10
14.6485503473
 20
12.8266967322
 30
0.0
 10
14.6476145653
 20
12.8317793407
 30
0.0
 10
14.6465028322
 20
12.8366215677
 30
0.0
 10
14.6452244973
 20
12.8411833313
 30
0.0
 10
14.6437901582
 20
12.8454271286
 30
0.0
 10
14.6422118711
 20
12.8493178608
 30
0.0
 10
14.6410268338
 20
12.8517484412
 30
0.0
 10
14.6404088136
 20
12.8528926303
 30
0.0
  0
SPLINE
  5
2D4
100
AcDbEntity
  8
LAYER_FEATURE
100
AcDbSpline
 62
7
  6
CONTINUOUS
 70
0
 71
3
 72
15
 73
11
 74
0
 42
0.0000001
 43
0.0000001
 44
0.0000000001
 40
0.0
 40
0.0
 40
0.0
 40
0.0
 40
0.0890558744
 40
0.1862631482
 40
0.293484591
 40
0.4118210694
 40
0.5417718706
 40
0.6833753521
 40
0.8363130959
 40
1.0
 40
1.0
 40
1.0
 40
1.0
 10
14.6310615835
 20
12.755816097
 30
0.0
 10
14.6318122998
 20
12.7560874909
 30
0.0
 10
14.6333223827
 20
12.7568297353
 30
0.0
 10
14.6354431807
 20
12.7584046678
 30
0.0
 10
14.6374903232
 20
12.7604617155
 30
0.0
 10
14.6394502729
 20
12.7629824314
 30
0.0
 10
14.6413105087
 20
12.7659468188
 30
0.0
 10
14.6430571616
 20
12.7693314988
 30
0.0
 10
14.6446766129
 20
12.7731093206
 30
0.0
 10
14.6456319902
 20
12.7757837742
 30
0.0
 10
14.6460888462
 20
12.7771780689
 30
0.0
  0
SPLINE
  5
2D5
100
AcDbEntity
  8
LAYER_FEATURE
100
AcDbSpline
 62
7
  6
CONTINUOUS
 70
0
 71
3
 72
16
 73
12
 74
0
 42
0.0000001
 43
0.0000001
 44
0.0000000001
 40
0.0
 40
0.0
 40
0.0
 40
0.0
 40
0.076272991
 40
0.1190269894
 40
0.1653757247
 40
0.2696058857
 40
0.3896323731
 40
0.5246577233
 40
0.6729992107
 40
0.8323524472
 40
1.0
 40
1.0
 40
1.0
 40
1.0
 10
14.616429966
 20
12.750526574
 30
0.0
 10
14.6161746737
 20
12.7504342825
 30
0.0
 10
14.6158017391
 20
12.7502160449
 30
0.0
 10
14.6153587952
 20
12.7498279025
 30
0.0
 10
14.6148936753
 20
12.7493188298
 30
0.0
 10
14.6143517492
 20
12.7485169478
 30
0.0
 10
14.6137858435
 20
12.7473672358
 30
0.0
 10
14.6132914275
 20
12.7460169422
 30
0.0
 10
14.6128790463
 20
12.7444944979
 30
0.0
 10
14.6125576822
 20
12.7428321952
 30
0.0
 10
14.6124117158
 20
12.7416766615
 30
0.0
 10
14.6123545283
 20
12.7410827356
 30
0.0
  0
SPLINE
  5
2D6
100
AcDbEntity
  8
LAYER_FEATURE
100
AcDbSpline
 62
7
  6
CONTINUOUS
 70
0
 71
3
 72
52
 73
48
 74
0
 42
0.0000001
 43
0.0000001
 44
0.0000000001
 40
0.0
 40
0.0
 40
0.0
 40
0.0
 40
0.0408880674
 40
0.0820202706
 40
0.1232925389
 40
0.1645997188
 40
0.2058366562
 40
0.2468984936
 40
0.2876811385
 40
0.328081737
 40
0.3679991393
 40
0.4073343866
 40
0.4459912136
 40
0.4838765538
 40
0.5209010937
 40
0.5569798533
 40
0.5920327949
 40
0.625985526
 40
0.6587700592
 40
0.6903256644
 40
0.720599896
 40
0.73524348
 40
0.7495514692
 40
0.763520198
 40
0.7771467974
 40
0.7904292335
 40
0.8033663795
 40
0.81595811
 40
0.8282053603
 40
0.8401102192
 40
0.8516760495
 40
0.8629075736
 40
0.8738109899
 40
0.8843941185
 40
0.8946665094
 40
0.9046395732
 40
0.9143267303
 40
0.9237435148
 40
0.9329076743
 40
0.9418392624
 40
0.950560658
 40
0.95909654
 40
0.9674738084
 40
0.9757214014
 40
0.9838700326
 40
0.9919518491
 40
1.0
 40
1.0
 40
1.0
 40
1.0
 10
14.6123545283
 20
12.7410827356
 30
0.0
 10
14.61071042
 20
12.7182153338
 30
0.0
 10
14.6079173515
 20
12.6723061643
 30
0.0
 10
14.6052111958
 20
12.6032224914
 30
0.0
 10
14.6039804911
 20
12.533861458
 30
0.0
 10
14.6042290087
 20
12.4644313327
 30
0.0
 10
14.6059559663
 20
12.3951402194
 30
0.0
 10
14.6091561753
 20
12.3261958734
 30
0.0
 10
14.6138200131
 20
12.2578049663
 30
0.0
 10
14.6199334204
 20
12.1901725028
 30
0.0
 10
14.6274780067
 20
12.1235011867
 30
0.0
 10
14.636431072
 20
12.0579908063
 30
0.0
 10
14.6467656544
 20
11.9938376213
 30
0.0
 10
14.6584506764
 20
11.9312337712
 30
0.0
 10
14.6714509963
 20
11.8703666771
 30
0.0
 10
14.6857275127
 20
11.8114184682
 30
0.0
 10
14.7012373603
 20
11.7545654014
 30
0.0
 10
14.7179339741
 20
11.6999773924
 30
0.0
 10
14.7357673465
 20
11.6478171404
 30
0.0
 10
14.7546839983
 20
11.5982408268
 30
0.0
 10
14.7714850366
 20
11.5587762158
 30
0.0
 10
14.7854470928
 20
11.5286428834
 30
0.0
 10
14.7960371382
 20
11.5070299703
 30
0.0
 10
14.8068536745
 20
11.4861697384
 30
0.0
 10
14.8178886941
 20
11.4660777043
 30
0.0
 10
14.8291339537
 20
11.4467689002
 30
0.0
 10
14.8405811073
 20
11.4282577567
 30
0.0
 10
14.852221625
 20
11.4105580845
 30
0.0
 10
14.8640468764
 20
11.3936830989
 30
0.0
 10
14.8760481316
 20
11.3776454157
 30
0.0
 10
14.8882165096
 20
11.3624569975
 30
0.0
 10
14.9005430527
 20
11.3481291969
 30
0.0
 10
14.9130187356
 20
11.3346727625
 30
0.0
 10
14.9256344071
 20
11.3220977781
 30
0.0
 10
14.9383808586
 20
11.3104137186
 30
0.0
 10
14.9512488326
 20
11.2996294725
 30
0.0
 10
14.964228955
 20
11.2897532711
 30
0.0
 10
14.9773117862
 20
11.2807927544
 30
0.0
 10
14.9904878167
 20
11.2727550059
 30
0.0
 10
15.0037473858
 20
11.2656464592
 30
0.0
 10
15.0170807069
 20
11.259472954
 30
0.0
 10
15.0304778388
 20
11.2542397607
 30
0.0
 10
15.0439286389
 20
11.249951436
 30
0.0
 10
15.0574226757
 20
11.2466118395
 30
0.0
 10
15.070949619
 20
11.244224127
 30
0.0
 10
15.0844978003
 20
11.242790572
 30
0.0
 10
15.0935452729
 20
11.242471656
 30
0.0
 10
15.0980579675
 20
11.2424716609
 30
0.0
  0
SPLINE
  5
2D7
100
AcDbEntity
  8
LAYER_FEATURE
100
AcDbSpline
 62
7
  6
CONTINUOUS
 70
0
 71
3
 72
15
 73
11
 74
0
 42
0.0000001
 43
0.0000001
 44
0.0000000001
 40
0.0
 40
0.0
 40
0.0
 40
0.0
 40
0.1126204601
 40
0.233296856
 40
0.3599530997
 40
0.4902911285
 40
0.6218950407
 40
0.7523079002
 40
0.8791063589
 40
1.0
 40
1.0
 40
1.0
 40
1.0
 10
14.7302120538
 20
13.3572054577
 30
0.0
 10
14.7300546901
 20
13.3566962289
 30
0.0
 10
14.7297754266
 20
13.3556266019
 30
0.0
 10
14.7294652129
 20
13.3539503497
 30
0.0
 10
14.7292538659
 20
13.3521743381
 30
0.0
 10
14.729146185
 20
13.3503373635
 30
0.0
 10
14.7291445758
 20
13.3484794829
 30
0.0
 10
14.729249087
 20
13.3466412679
 30
0.0
 10
14.7294573294
 20
13.3448629416
 30
0.0
 10
14.7296684817
 20
13.3437087696
 30
0.0
 10
14.7297923721
 20
13.3431502013
 30
0.0
  0
SPLINE
  5
2D8
100
AcDbEntity
  8
LAYER_FEATURE
100
AcDbSpline
 62
7
  6
CONTINUOUS
 70
0
 71
3
 72
14
 73
10
 74
0
 42
0.0000001
 43
0.0000001
 44
0.0000000001
 40
0.0
 40
0.0
 40
0.0
 40
0.0
 40
0.2552898455
 40
0.3838708566
 40
0.5118478661
 40
0.6383178993
 40
0.7623964994
 40
0.8832269717
 40
1.0
 40
1.0
 40
1.0
 40
1.0
 10
14.7397062795
 20
13.2665810797
 30
0.0
 10
14.7400203749
 20
13.270297663
 30
0.0
 10
14.7402851073
 20
13.2759062819
 30
0.0
 10
14.7402421028
 20
13.2833853355
 30
0.0
 10
14.7400105127
 20
13.2889779727
 30
0.0
 10
14.7395818192
 20
13.294492869
 30
0.0
 10
14.7389595614
 20
13.2998843435
 30
0.0
 10
14.7381490329
 20
13.3051073983
 30
0.0
 10
14.7374746784
 20
13.3085140115
 30
0.0
 10
14.7371052488
 20
13.3101796093
 30
0.0
  0
SPLINE
  5
2D9
100
AcDbEntity
  8
LAYER_FEATURE
100
AcDbSpline
 62
7
  6
CONTINUOUS
 70
0
 71
3
 72
38
 73
34
 74
0
 42
0.0000001
 43
0.0000001
 44
0.0000000001
 40
0.0
 40
0.0
 40
0.0
 40
0.0
 40
0.0879640716
 40
0.1307307847
 40
0.1726592835
 40
0.2137306933
 40
0.2539278613
 40
0.2932354821
 40
0.331640013
 40
0.3691299341
 40
0.4056958476
 40
0.4413306462
 40
0.4760297484
 40
0.5097912612
 40
0.5426162009
 40
0.5745087936
 40
0.6054767306
 40
0.6355314471
 40
0.6646884872
 40
0.6929678677
 40
0.7203944107
 40
0.7469981459
 40
0.7728147257
 40
0.7978857495
 40
0.8222590824
 40
0.8459891342
 40
0.8691369629
 40
0.8917702321
 40
0.9139630012
 40
0.9357952498
 40
0.9573521255
 40
0.9787229532
 40
1.0
 40
1.0
 40
1.0
 40
1.0
 10
14.6494072046
 20
13.3751536538
 30
0.0
 10
14.6556068158
 20
13.3952156027
 30
0.0
 10
14.6652978953
 20
13.4248879642
 30
0.0
 10
14.6791272242
 20
13.4637160286
 30
0.0
 10
14.6897139525
 20
13.4918113525
 30
0.0
 10
14.7006039465
 20
13.5191312445
 30
0.0
 10
14.7117886843
 20
13.5456542626
 30
0.0
 10
14.7232593176
 20
13.5713594388
 30
0.0
 10
14.7350068251
 20
13.5962265221
 30
0.0
 10
14.7470219332
 20
13.6202359171
 30
0.0
 10
14.759295192
 20
13.6433687073
 30
0.0
 10
14.7718169729
 20
13.6656066654
 30
0.0
 10
14.7845774311
 20
13.6869322962
 30
0.0
 10
14.7975665657
 20
13.7073288214
 30
0.0
 10
14.8107742388
 20
13.726780181
 30
0.0
 10
14.824190136
 20
13.7452710799
 30
0.0
 10
14.8378038058
 20
13.7627869795
 30
0.0
 10
14.8516046984
 20
13.7793140773
 30
0.0
 10
14.8655821408
 20
13.7948393387
 30
0.0
 10
14.8797253373
 20
13.8093505126
 30
0.0
 10
14.8940234224
 20
13.8228360824
 30
0.0
 10
14.9084654502
 20
13.8352852692
 30
0.0
 10
14.9230403527
 20
13.8466880765
 30
0.0
 10
14.9377369841
 20
13.857035223
 30
0.0
 10
14.9525441062
 20
13.8663181185
 30
0.0
 10
14.9674503161
 20
13.8745289345
 30
0.0
 10
14.9824440512
 20
13.8816605684
 30
0.0
 10
14.9975135532
 20
13.8877066207
 30
0.0
 10
15.012646834
 20
13.8926614975
 30
0.0
 10
15.0278315289
 20
13.8965204825
 30
0.0
 10
15.0430553742
 20
13.8992797407
 30
0.0
 10
15.0583045128
 20
13.9009364239
 30
0.0
 10
15.0684888474
 20
13.9013049901
 30
0.0
 10
15.0735679202
 20
13.9013049851
 30
0.0
  0
ENDSEC
  0
SECTION
  2
OBJECTS
  0
DICTIONARY
  5
C
100
AcDbDictionary
280
0
281
1
  3
ACAD_GROUP
350
D
  3
ACAD_MLINESTYLE
350
17
  3
ACAD_LAYOUT
350
1A
  3
ACAD_PLOTSETTINGS
350
19
  3
ACAD_PLOTSTYLENAME
350
E
  0
DICTIONARY
  5
D
102
{ACAD_REACTORS
330
C
102
}
100
AcDbDictionary
280
0
281
1
  0
ACDBDICTIONARYWDFLT
  5
E
102
{ACAD_REACTORS
330
C
102
}
100
AcDbDictionary
281
1
  3
Normal
350
F
100
AcDbDictionaryWithDefault
340
F
  0
DICTIONARY
  5
17
102
{ACAD_REACTORS
330
C
102
}
100
AcDbDictionary
280
0
281
1
  3
Standard
350
18
  0
DICTIONARY
  5
19
102
{ACAD_REACTORS
330
C
102
}
100
AcDbDictionary
281
1
  0
DICTIONARY
  5
1A
102
{ACAD_REACTORS
330
C
102
}
100
AcDbDictionary
281
1
  3
Model
350
2DA
  3
Layout1
350
2DB
  0
ACDBPLACEHOLDER
  5
F
102
{ACAD_REACTORS
330
E
102
}
  0
MLINESTYLE
  5
18
102
{ACAD_REACTORS
330
17
102
}
100
AcDbMlineStyle
  2
STANDARD
 70
0
  3

 62
256
 51
90.0
 52
90.0
 71
2
 49
0.5
 62
256
  6
BYLAYER
 49
-0.5
 62
256
  6
BYLAYER
  0
LAYOUT
  5
2DA
102
{ACAD_REACTORS
330
1A
102
}
100
AcDbPlotSettings
  1

  2
none_device
  4
ANSI_C_(22.00_x_17.00_Inches)
  6

 40
0.0
 41
0.0
 42
0.0
 43
0.0
 44
558.8
 45
431.8
 46
0.0
 47
0.0
 48
0.0
 49
0.0
140
0.0
141
0.0
142
1.0
143
1.0
 70
1024
 72
0
 73
0
 74
0
  7

 75
0
147
1.0
148
0.0
149
0.0
100
AcDbLayout
  1
Model
 70
0
 71
0
 10
0.0
 20
0.0
 11
22.0
 21
17.0
 12
0.0
 22
0.0
 32
0.0
 14
0.0
 24
0.0
 34
0.0
 15
0.0
 25
0.0
 35
0.0
146
0.0
 13
0.0
 23
0.0
 33
0.0
 16
1.0
 26
0.0
 36
0.0
 17
0.0
 27
1.0
 37
0.0
 76
0
330
222
345
0
346
0
  0
LAYOUT
  5
2DB
102
{ACAD_REACTORS
330
1A
102
}
100
AcDbPlotSettings
  1

  2
none_device
  4
ANSI_C_(22.00_x_17.00_Inches)
  6

 40
0.0
 41
0.0
 42
0.0
 43
0.0
 44
558.8
 45
431.8
 46
0.0
 47
0.0
 48
0.0
 49
0.0
140
0.0
141
0.0
142
1.0
143
1.0
 70
0
 72
0
 73
0
 74
0
  7

 75
0
147
1.0
148
0.0
149
0.0
100
AcDbLayout
  1
Layout1
 70
0
 71
1
 10
0.0
 20
0.0
 11
22.0
 21
17.0
 12
0.0
 22
0.0
 32
0.0
 14
0.0
 24
0.0
 34
0.0
 15
0.0
 25
0.0
 35
0.0
146
0.0
 13
0.0
 23
0.0
 33
0.0
 16
1.0
 26
0.0
 36
0.0
 17
0.0
 27
1.0
 37
0.0
 76
0
330
223
345
0
346
0
  0
ENDSEC
  0
EOF