999
DXF file: _cgs_temp_output.dxf
999
Pro/ENGINEER 2016360 by Parametric Technology Corporation
  0
SECTION
  2
HEADER
  9
$ACADVER
  1
AC1021
  9
$DWGCODEPAGE
  3
ANSI_1252
  9
$EXTMAX
 10
22.0
 20
17.0
 30
0.0
  9
$EXTMIN
 10
0.0
 20
0.0
 30
0.0
  9
$LIMMIN
 10
0.0
 20
0.0
  9
$LIMMAX
 10
22.0
 20
17.0
  9
$VIEWCTR
 10
11.0
 20
8.5
  9
$VIEWSIZE
 40
17.0
  9
$CLAYER
  8
0
  9
$LTSCALE
 40
1.21
  9
$CELTYPE
  6
BYLAYER
  9
$DIMSCALE
 40
1.0
  9
$DIMASZ
 40
0.1875
  9
$DIMEXO
 40
0.0625
  9
$DIMDLI
 40
0.836
  9
$DIMEXE
 40
0.125
  9
$DIMCEN
 40
0.198
  9
$DIMLFAC
 40
1.0
  9
$DIMBLK
  1
_CLOSED
  9
$DIMALT
 70
0
  9
$DIMALTF
 40
25.4
  9
$DIMTXT
 40
0.15625
  9
$DIMTOL
 70
0
  9
$DIMLIM
 70
0
  9
$DIMTFAC
 40
1.0
  9
$DIMGAP
 40
0.09
  9
$DIMDSEP
 70
46
  9
$AUNITS
 70
0
  9
$PDMODE
 70
3
  9
$PDSIZE
 40
0.3125
  9
$HANDSEED
  5
2DA
  9
$TILEMODE
 70
1
  9
$MEASUREMENT
 70
0
  9
$INSUNITS
 70
1
  0
ENDSEC
  0
SECTION
  2
CLASSES
  0
CLASS
  1
ACDBDICTIONARYWDFLT
  2
AcDbDictionaryWithDefault
  3
AutoCAD 2000
 90
0
 91
1
280
0
281
0
  0
CLASS
  1
ACDBPLACEHOLDER
  2
AcDbPlaceHolder
  3
AutoCAD 2000
 90
0
 91
1
280
0
281
0
  0
CLASS
  1
LAYOUT
  2
AcDbLayout
  3
AutoCAD 2000
 90
0
 91
0
280
0
281
0
  0
ENDSEC
  0
SECTION
  2
TABLES
  0
TABLE
  2
VPORT
  5
8
100
AcDbSymbolTable
 70
2
  0
VPORT
  5
1F4
100
AcDbSymbolTableRecord
100
AcDbViewportTableRecord
  2
*ACTIVE
 70
0
 10
0.0
 20
0.0
 11
1.0
 21
1.0
 12
11.0
 22
8.5
 13
0.0
 23
0.0
 14
1.0
 24
1.0
 15
0.0
 25
0.0
 16
0.0
 26
0.0
 36
1.0
 17
0.0
 27
0.0
 37
0.0
 40
17.0
 41
1.2941176471
 42
50.0
 43
0.0
 44
0.0
 50
0.0
 51
0.0
 71
0
 72
100
 73
1
 74
1
 75
0
 76
0
 77
0
 78
0
  0
ENDTAB
  0
TABLE
  2
LTYPE
  5
5
100
AcDbSymbolTable
 70
6
  0
LTYPE
  5
14
100
AcDbSymbolTableRecord
100
AcDbLinetypeTableRecord
  2
BYBLOCK
 70
0
  3

 72
65
 73
0
 40
0.0
  0
LTYPE
  5
15
100
AcDbSymbolTableRecord
100
AcDbLinetypeTableRecord
  2
BYLAYER
 70
0
  3

 72
65
 73
0
 40
0.0
  0
LTYPE
  5
16
100
AcDbSymbolTableRecord
100
AcDbLinetypeTableRecord
  2
CONTINUOUS
 70
64
  3
Solid line
 72
65
 73
0
 40
0.0
  0
LTYPE
  5
1F5
100
AcDbSymbolTableRecord
100
AcDbLinetypeTableRecord
  2
CENTER
 70
64
  3
____ _ ____ _ ____ _ ____ _ ____ _ ____ _ ____
 72
65
 73
4
 40
0.6
 49
0.375
 74
0
 49
-0.075
 74
0
 49
0.075
 74
0
 49
-0.075
 74
0
  0
LTYPE
  5
1F6
100
AcDbSymbolTableRecord
100
AcDbLinetypeTableRecord
  2
HIDDEN
 70
64
  3
- - - - - - - - - - - - - - - - - - - -
 72
65
 73
2
 40
0.2
 49
0.1
 74
0
 49
-0.1
 74
0
  0
LTYPE
  5
1F7
100
AcDbSymbolTableRecord
100
AcDbLinetypeTableRecord
  2
PHANTOM
 70
64
  3
_____ _ _ _____ _ _ _____ _ _ _____
 72
65
 73
6
 40
0.8
 49
0.45
 74
0
 49
-0.05
 74
0
 49
0.1
 74
0
 49
-0.05
 74
0
 49
0.1
 74
0
 49
-0.05
 74
0
  0
LTYPE
  5
1F8
100
AcDbSymbolTableRecord
100
AcDbLinetypeTableRecord
  2
DOT
 70
64
  3
. . . . . . . . . . . . . . . . . . . .
 72
65
 73
2
 40
0.2
 49
0.1
 74
0
 49
-0.1
 74
0
  0
LTYPE
  5
1F9
100
AcDbSymbolTableRecord
100
AcDbLinetypeTableRecord
  2
DASHED
 70
64
  3
- - - - - - - - - - - - - - - - - - - -
 72
65
 73
2
 40
0.2
 49
0.1
 74
0
 49
-0.1
 74
0
  0
ENDTAB
  0
TABLE
  2
LAYER
  5
2
100
AcDbSymbolTable
 70
36
  0
LAYER
  5
10
100
AcDbSymbolTableRecord
100
AcDbLayerTableRecord
  2
0
 70
0
 62
7
  6
CONTINUOUS
370
-3
390
F
  0
LAYER
  5
1FA
100
AcDbSymbolTableRecord
100
AcDbLayerTableRecord
  2
DEFAULT_1
 70
0
 62
7
  6
CENTER
370
-3
390
F
  0
LAYER
  5
1FB
100
AcDbSymbolTableRecord
100
AcDbLayerTableRecord
  2
DEFAULT_2
 70
0
 62
8
  6
HIDDEN
370
-3
390
F
  0
LAYER
  5
1FC
100
AcDbSymbolTableRecord
100
AcDbLayerTableRecord
  2
DEFAULT_3
 70
0
 62
7
  6
PHANTOM
370
-3
390
F
  0
LAYER
  5
1FD
100
AcDbSymbolTableRecord
100
AcDbLayerTableRecord
  2
01_ALL_DTM_PLN
 70
0
 62
7
  6
CONTINUOUS
370
-3
390
F
  0
LAYER
  5
1FE
100
AcDbSymbolTableRecord
100
AcDbLayerTableRecord
  2
01__ASM_ALL_DTM_PLN
 70
0
 62
7
  6
CONTINUOUS
370
-3
390
F
  0
LAYER
  5
1FF
100
AcDbSymbolTableRecord
100
AcDbLayerTableRecord
  2
01__ASM_DEF_DTM_PLN
 70
0
 62
7
  6
CONTINUOUS
370
-3
390
F
  0
LAYER
  5
200
100
AcDbSymbolTableRecord
100
AcDbLayerTableRecord
  2
01___PRT_ALL_DTM_PLN
 70
0
 62
7
  6
CONTINUOUS
370
-3
390
F
  0
LAYER
  5
201
100
AcDbSymbolTableRecord
100
AcDbLayerTableRecord
  2
01___PRT_DEF_DTM_PLN
 70
0
 62
7
  6
CONTINUOUS
370
-3
390
F
  0
LAYER
  5
202
100
AcDbSymbolTableRecord
100
AcDbLayerTableRecord
  2
02_ALL_AXES
 70
0
 62
7
  6
CONTINUOUS
370
-3
390
F
  0
LAYER
  5
203
100
AcDbSymbolTableRecord
100
AcDbLayerTableRecord
  2
02__ASM_ALL_AXES
 70
0
 62
7
  6
CONTINUOUS
370
-3
390
F
  0
LAYER
  5
204
100
AcDbSymbolTableRecord
100
AcDbLayerTableRecord
  2
02___PRT_ALL_AXES
 70
0
 62
7
  6
CONTINUOUS
370
-3
390
F
  0
LAYER
  5
205
100
AcDbSymbolTableRecord
100
AcDbLayerTableRecord
  2
03_ALL_CURVES
 70
0
 62
7
  6
CONTINUOUS
370
-3
390
F
  0
LAYER
  5
206
100
AcDbSymbolTableRecord
100
AcDbLayerTableRecord
  2
03__ASM_ALL_CURVES
 70
0
 62
7
  6
CONTINUOUS
370
-3
390
F
  0
LAYER
  5
207
100
AcDbSymbolTableRecord
100
AcDbLayerTableRecord
  2
03___PRT_ALL_CURVES
 70
0
 62
7
  6
CONTINUOUS
370
-3
390
F
  0
LAYER
  5
208
100
AcDbSymbolTableRecord
100
AcDbLayerTableRecord
  2
04_ALL_DTM_PNT
 70
0
 62
7
  6
CONTINUOUS
370
-3
390
F
  0
LAYER
  5
209
100
AcDbSymbolTableRecord
100
AcDbLayerTableRecord
  2
04__ASM_ALL_DTM_PNT
 70
0
 62
7
  6
CONTINUOUS
370
-3
390
F
  0
LAYER
  5
20A
100
AcDbSymbolTableRecord
100
AcDbLayerTableRecord
  2
04___PRT_ALL_DTM_PNT
 70
0
 62
7
  6
CONTINUOUS
370
-3
390
F
  0
LAYER
  5
20B
100
AcDbSymbolTableRecord
100
AcDbLayerTableRecord
  2
05_ALL_DTM_CSYS
 70
0
 62
7
  6
CONTINUOUS
370
-3
390
F
  0
LAYER
  5
20C
100
AcDbSymbolTableRecord
100
AcDbLayerTableRecord
  2
05__ASM_ALL_DTM_CSYS
 70
0
 62
7
  6
CONTINUOUS
370
-3
390
F
  0
LAYER
  5
20D
100
AcDbSymbolTableRecord
100
AcDbLayerTableRecord
  2
05__ASM_DEF_DTM_CSYS
 70
0
 62
7
  6
CONTINUOUS
370
-3
390
F
  0
LAYER
  5
20E
100
AcDbSymbolTableRecord
100
AcDbLayerTableRecord
  2
05___PRT_ALL_DTM_CSYS
 70
0
 62
7
  6
CONTINUOUS
370
-3
390
F
  0
LAYER
  5
20F
100
AcDbSymbolTableRecord
100
AcDbLayerTableRecord
  2
05___PRT_DEF_DTM_CSYS
 70
0
 62
7
  6
CONTINUOUS
370
-3
390
F
  0
LAYER
  5
210
100
AcDbSymbolTableRecord
100
AcDbLayerTableRecord
  2
06_ALL_SURFS
 70
0
 62
7
  6
CONTINUOUS
370
-3
390
F
  0
LAYER
  5
211
100
AcDbSymbolTableRecord
100
AcDbLayerTableRecord
  2
06__ASM_ALL_SURFS
 70
0
 62
7
  6
CONTINUOUS
370
-3
390
F
  0
LAYER
  5
212
100
AcDbSymbolTableRecord
100
AcDbLayerTableRecord
  2
06___PRT_ALL_SURFS
 70
0
 62
7
  6
CONTINUOUS
370
-3
390
F
  0
LAYER
  5
213
100
AcDbSymbolTableRecord
100
AcDbLayerTableRecord
  2
07__ASM_ALL_SKELETONS
 70
0
 62
7
  6
CONTINUOUS
370
-3
390
F
  0
LAYER
  5
214
100
AcDbSymbolTableRecord
100
AcDbLayerTableRecord
  2
LAYER_AXIS
 70
0
 62
7
  6
CONTINUOUS
370
-3
390
F
  0
LAYER
  5
215
100
AcDbSymbolTableRecord
100
AcDbLayerTableRecord
  2
LAYER_CHAMFER_FEAT
 70
0
 62
7
  6
CONTINUOUS
370
-3
390
F
  0
LAYER
  5
216
100
AcDbSymbolTableRecord
100
AcDbLayerTableRecord
  2
LAYER_CUT_FEAT
 70
0
 62
7
  6
CONTINUOUS
370
-3
390
F
  0
LAYER
  5
217
100
AcDbSymbolTableRecord
100
AcDbLayerTableRecord
  2
LAYER_DATUM
 70
0
 62
7
  6
CONTINUOUS
370
-3
390
F
  0
LAYER
  5
218
100
AcDbSymbolTableRecord
100
AcDbLayerTableRecord
  2
LAYER_DIM
 70
0
 62
7
  6
CONTINUOUS
370
-3
390
F
  0
LAYER
  5
219
100
AcDbSymbolTableRecord
100
AcDbLayerTableRecord
  2
LAYER_FEATURE
 70
0
 62
7
  6
CONTINUOUS
370
-3
390
F
  0
LAYER
  5
21A
100
AcDbSymbolTableRecord
100
AcDbLayerTableRecord
  2
LAYER_GEOM_FEAT
 70
0
 62
7
  6
CONTINUOUS
370
-3
390
F
  0
LAYER
  5
21B
100
AcDbSymbolTableRecord
100
AcDbLayerTableRecord
  2
LAYER_NOGEOM_FEAT
 70
0
 62
7
  6
CONTINUOUS
370
-3
390
F
  0
LAYER
  5
21C
100
AcDbSymbolTableRecord
100
AcDbLayerTableRecord
  2
LAYER_PARAMETER_DIM
 70
0
 62
7
  6
CONTINUOUS
370
-3
390
F
  0
LAYER
  5
21D
100
AcDbSymbolTableRecord
100
AcDbLayerTableRecord
  2
LAYER_PROTRUSION_FEAT
 70
0
 62
7
  6
CONTINUOUS
370
-3
390
F
  0
LAYER
  5
21E
100
AcDbSymbolTableRecord
100
AcDbLayerTableRecord
  2
LAYER_QUILT
 70
0
 62
7
  6
CONTINUOUS
370
-3
390
F
  0
LAYER
  5
21F
100
AcDbSymbolTableRecord
100
AcDbLayerTableRecord
  2
LAYER_ROUND_FEAT
 70
0
 62
7
  6
CONTINUOUS
370
-3
390
F
  0
ENDTAB
  0
TABLE
  2
STYLE
  5
3
100
AcDbSymbolTable
 70
1
  0
STYLE
  5
11
100
AcDbSymbolTableRecord
100
AcDbTextStyleTableRecord
  2
STANDARD
 70
0
 40
0.0
 41
0.8
 50
0.0
 71
0
 42
0.2
  3
txt
  4

  0
STYLE
  5
220
100
AcDbSymbolTableRecord
100
AcDbTextStyleTableRecord
  2
TEXTSTYLE_1
 70
0
 40
0.0
 41
0.8
 50
0.0
 71
0
 42
0.2
  3
gdt
  4

  0
ENDTAB
  0
TABLE
  2
VIEW
  5
6
100
AcDbSymbolTable
 70
0
  0
ENDTAB
  0
TABLE
  2
UCS
  5
7
100
AcDbSymbolTable
 70
0
  0
ENDTAB
  0
TABLE
  2
APPID
  5
9
100
AcDbSymbolTable
 70
1
  0
APPID
  5
221
100
AcDbSymbolTableRecord
100
AcDbRegAppTableRecord
  2
ACAD
 70
0
  0
ENDTAB
  0
TABLE
  2
BLOCK_RECORD
  5
1
100
AcDbSymbolTable
 70
0
  0
BLOCK_RECORD
  5
222
100
AcDbSymbolTableRecord
100
AcDbBlockTableRecord
  2
*Model_Space
  0
BLOCK_RECORD
  5
223
100
AcDbSymbolTableRecord
100
AcDbBlockTableRecord
  2
*Paper_Space
  0
ENDTAB
  0
TABLE
  2
DIMSTYLE
  5
A
100
AcDbSymbolTable
 70
1
100
AcDbDimStyleTable
 71
0
  0
DIMSTYLE
105
224
100
AcDbSymbolTableRecord
100
AcDbDimStyleTableRecord
  2
STANDARD
 70
0
  3

  4

 40
1.0
 41
0.1875
 42
0.0625
 43
0.38
 44
0.125
 45
0.0
 46
0.0
 47
0.0001
 48
0.0001
140
0.15625
141
0.09
142
0.0
143
25.4
144
1.0
145
0.0
146
1.0
147
0.09
 71
0.0
 72
0.0
 73
1
 74
1
 75
0
 76
0
 77
0
 78
4
 79
1
170
0
171
3
172
0
173
0
174
0
175
0
176
0
177
0
178
0
270
2
179
4
271
4
272
4
273
2
274
2
275
0
280
0
281
0
282
0
283
1
284
4
285
0
286
0
287
3
288
0
340
11
278
46
  0
ENDTAB
  0
ENDSEC
  0
SECTION
  2
BLOCKS
  0
BLOCK
  5
20
100
AcDbEntity
  8
0
100
AcDbBlockBegin
  2
*Model_Space
 70
0
 10
0.0
 20
0.0
 30
0.0
  3
*Model_Space
  1

  0
ENDBLK
  5
21
100
AcDbEntity
  8
0
100
AcDbBlockEnd
  0
BLOCK
  5
1C
100
AcDbEntity
  8
0
100
AcDbBlockBegin
  2
*Paper_Space
 70
0
 10
0.0
 20
0.0
 30
0.0
  3
*Paper_Space
  1

  0
ENDBLK
  5
1D
100
AcDbEntity
  8
0
100
AcDbBlockEnd
  0
ENDSEC
  0
SECTION
  2
ENTITIES
  0
MTEXT
  5
225
100
AcDbEntity
  8
0
100
AcDbMText
 62
7
  6
CONTINUOUS
  7
STANDARD
 71
1
 72
1
 10
15.9560215477
 20
0.9479130325
 30
0.0
 11
1.0
 21
0.0
 31
0.0
 44
0.9
  1
SCALE: 1:0.333
 40
0.3
 41
3.36
  0
LINE
  5
226
100
AcDbEntity
  8
0
100
AcDbLine
 62
7
  6
CONTINUOUS
 10
0.0
 20
0.0
 11
0.0
 21
17.0
  0
LINE
  5
227
100
AcDbEntity
  8
0
100
AcDbLine
 62
7
  6
CONTINUOUS
 10
0.0
 20
0.0
 11
22.0
 21
0.0
  0
LINE
  5
228
100
AcDbEntity
  8
0
100
AcDbLine
 62
7
  6
CONTINUOUS
 10
0.0
 20
17.0
 11
22.0
 21
17.0
  0
LINE
  5
229
100
AcDbEntity
  8
0
100
AcDbLine
 62
7
  6
CONTINUOUS
 10
22.0
 20
0.0
 11
22.0
 21
17.0
  0
LINE
  5
22A
100
AcDbEntity
  8
LAYER_FEATURE
100
AcDbLine
 62
7
  6
CONTINUOUS
 10
7.3720339428
 20
3.7909532301
 11
7.3306228956
 21
3.7909532301
  0
LINE
  5
22B
100
AcDbEntity
  8
LAYER_FEATURE
100
AcDbLine
 62
7
  6
CONTINUOUS
 10
4.8887006095
 20
3.7909532301
 11
4.9301116567
 21
3.7909532301
  0
LINE
  5
22C
100
AcDbEntity
  8
02___PRT_ALL_AXES
100
AcDbLine
 62
7
  6
CONTINUOUS
 10
4.9537006095
 20
3.9009532301
 11
7.3070339428
 21
3.9009532301
  0
LINE
  5
22D
100
AcDbEntity
  8
LAYER_FEATURE
100
AcDbLine
 62
7
  6
CONTINUOUS
 10
4.8887006095
 20
7.2492865634
 11
4.8887006095
 21
3.7909532301
  0
LINE
  5
22E
100
AcDbEntity
  8
LAYER_FEATURE
100
AcDbLine
 62
7
  6
CONTINUOUS
 10
4.9301116567
 20
7.2492865634
 11
4.9301116567
 21
3.7909532301
  0
LINE
  5
22F
100
AcDbEntity
  8
LAYER_FEATURE
100
AcDbLine
 62
7
  6
CONTINUOUS
 10
4.9537006095
 20
7.1612513931
 11
4.9537006095
 21
3.8789884004
  0
LINE
  5
230
100
AcDbEntity
  8
LAYER_FEATURE
100
AcDbLine
 62
7
  6
CONTINUOUS
 10
4.9301116567
 20
3.7909532301
 11
4.9537006095
 21
3.8789884004
  0
LINE
  5
231
100
AcDbEntity
  8
LAYER_FEATURE
100
AcDbLine
 62
7
  6
CONTINUOUS
 10
4.9301116567
 20
7.2492865634
 11
4.9537006095
 21
7.1612513931
  0
LINE
  5
232
100
AcDbEntity
  8
LAYER_FEATURE
100
AcDbLine
 62
7
  6
CONTINUOUS
 10
7.3306228956
 20
7.2492865634
 11
7.3070339428
 21
7.1612513931
  0
LINE
  5
233
100
AcDbEntity
  8
LAYER_FEATURE
100
AcDbLine
 62
7
  6
CONTINUOUS
 10
7.3306228956
 20
3.7909532301
 11
7.3070339428
 21
3.8789884004
  0
LINE
  5
234
100
AcDbEntity
  8
LAYER_FEATURE
100
AcDbLine
 62
7
  6
CONTINUOUS
 10
7.3070339428
 20
7.1612513931
 11
7.3070339428
 21
3.8789884004
  0
LINE
  5
235
100
AcDbEntity
  8
LAYER_FEATURE
100
AcDbLine
 62
7
  6
CONTINUOUS
 10
7.3306228956
 20
7.2492865634
 11
7.3306228956
 21
3.7909532301
  0
LINE
  5
236
100
AcDbEntity
  8
LAYER_FEATURE
100
AcDbLine
 62
7
  6
CONTINUOUS
 10
7.3720339428
 20
7.2492865634
 11
7.3720339428
 21
3.7909532301
  0
LINE
  5
237
100
AcDbEntity
  8
LAYER_FEATURE
100
AcDbLine
 62
7
  6
CONTINUOUS
 10
4.9537006095
 20
7.0217010739
 11
7.3070339428
 21
7.0217010739
  0
LINE
  5
238
100
AcDbEntity
  8
LAYER_CUT_FEAT
100
AcDbLine
 62
7
  6
CONTINUOUS
 10
4.9537006095
 20
7.0223910553
 11
7.3070339428
 21
7.0223910553
  0
LINE
  5
239
100
AcDbEntity
  8
LAYER_FEATURE
100
AcDbLine
 62
7
  6
CONTINUOUS
 10
4.9537006095
 20
7.0717933983
 11
7.3070339428
 21
7.0717933983
  0
LINE
  5
23A
100
AcDbEntity
  8
LAYER_FEATURE
100
AcDbLine
 62
7
  6
CONTINUOUS
 10
4.9537006095
 20
7.0800839243
 11
7.3070339428
 21
7.0800839243
  0
LINE
  5
23B
100
AcDbEntity
  8
LAYER_CUT_FEAT
100
AcDbLine
 62
7
  6
CONTINUOUS
 10
4.9537006095
 20
7.0803921976
 11
7.3070339428
 21
7.0803921976
  0
LINE
  5
23C
100
AcDbEntity
  8
LAYER_FEATURE
100
AcDbLine
 62
7
  6
CONTINUOUS
 10
4.9537006095
 20
7.1138329326
 11
7.3070339428
 21
7.1138329326
  0
LINE
  5
23D
100
AcDbEntity
  8
LAYER_FEATURE
100
AcDbLine
 62
7
  6
CONTINUOUS
 10
4.9537006095
 20
7.1188493219
 11
7.3070339428
 21
7.1188493219
  0
LINE
  5
23E
100
AcDbEntity
  8
LAYER_CUT_FEAT
100
AcDbLine
 62
7
  6
CONTINUOUS
 10
4.9537006095
 20
7.1189266333
 11
7.3070339428
 21
7.1189266333
  0
LINE
  5
23F
100
AcDbEntity
  8
LAYER_FEATURE
100
AcDbLine
 62
7
  6
CONTINUOUS
 10
4.9537006095
 20
7.1358306008
 11
7.3070339428
 21
7.1358306008
  0
LINE
  5
240
100
AcDbEntity
  8
LAYER_FEATURE
100
AcDbLine
 62
7
  6
CONTINUOUS
 10
4.9537006095
 20
7.1375097694
 11
7.3070339428
 21
7.1375097694
  0
LINE
  5
241
100
AcDbEntity
  8
LAYER_FEATURE
100
AcDbLine
 62
7
  6
CONTINUOUS
 10
7.3720339428
 20
7.2492865634
 11
7.3306228956
 21
7.2492865634
  0
LINE
  5
242
100
AcDbEntity
  8
LAYER_FEATURE
100
AcDbLine
 62
7
  6
CONTINUOUS
 10
4.8887006095
 20
7.2492865634
 11
4.9301116567
 21
7.2492865634
  0
LINE
  5
243
100
AcDbEntity
  8
LAYER_FEATURE
100
AcDbLine
 62
7
  6
CONTINUOUS
 10
4.8292054172
 20
10.8708811147
 11
4.8706164644
 21
10.8708811147
  0
LINE
  5
244
100
AcDbEntity
  8
LAYER_FEATURE
100
AcDbLine
 62
7
  6
CONTINUOUS
 10
7.2711277033
 20
10.8708811147
 11
7.3125387505
 21
10.8708811147
  0
LINE
  5
245
100
AcDbEntity
  8
02___PRT_ALL_AXES
100
AcDbLine
 62
7
  6
CONTINUOUS
 10
4.8942054172
 20
10.9808811147
 11
7.2475387505
 21
10.9808811147
  0
LINE
  5
246
100
AcDbEntity
  8
LAYER_FEATURE
100
AcDbLine
 62
7
  6
CONTINUOUS
 10
4.8292054172
 20
10.8708811147
 11
4.8292054172
 21
14.329214448
  0
LINE
  5
247
100
AcDbEntity
  8
LAYER_FEATURE
100
AcDbLine
 62
7
  6
CONTINUOUS
 10
4.8706164644
 20
10.8708811147
 11
4.8706164644
 21
14.329214448
  0
LINE
  5
248
100
AcDbEntity
  8
LAYER_FEATURE
100
AcDbLine
 62
7
  6
CONTINUOUS
 10
4.8942054172
 20
10.9589164034
 11
4.8942054172
 21
14.2411791594
  0
LINE
  5
249
100
AcDbEntity
  8
LAYER_FEATURE
100
AcDbLine
 62
7
  6
CONTINUOUS
 10
4.8706164644
 20
10.8708811147
 11
4.8942054172
 21
10.958916285
  0
LINE
  5
24A
100
AcDbEntity
  8
LAYER_FEATURE
100
AcDbLine
 62
7
  6
CONTINUOUS
 10
4.8706164644
 20
14.329214448
 11
4.8942054172
 21
14.2411792777
  0
LINE
  5
24B
100
AcDbEntity
  8
LAYER_FEATURE
100
AcDbLine
 62
7
  6
CONTINUOUS
 10
4.8942054172
 20
11.9942799522
 11
7.2475387505
 21
11.9942799522
  0
LINE
  5
24C
100
AcDbEntity
  8
LAYER_FEATURE
100
AcDbLine
 62
7
  6
CONTINUOUS
 10
7.2475387505
 20
12.0720559501
 11
4.8942054172
 21
12.0720559501
  0
LINE
  5
24D
100
AcDbEntity
  8
LAYER_FEATURE
100
AcDbLine
 62
7
  6
CONTINUOUS
 10
7.2475387505
 20
12.1098112833
 11
4.8942054172
 21
12.1098112833
  0
LINE
  5
24E
100
AcDbEntity
  8
LAYER_FEATURE
100
AcDbLine
 62
7
  6
CONTINUOUS
 10
4.8942054172
 20
12.1374355906
 11
7.2475387505
 21
12.1374355906
  0
LINE
  5
24F
100
AcDbEntity
  8
LAYER_FEATURE
100
AcDbLine
 62
7
  6
CONTINUOUS
 10
4.8942054172
 20
12.166212643
 11
7.2475387505
 21
12.166212643
  0
LINE
  5
250
100
AcDbEntity
  8
LAYER_FEATURE
100
AcDbLine
 62
7
  6
CONTINUOUS
 10
7.2475387505
 20
12.2375406208
 11
4.8942054172
 21
12.2375406208
  0
LINE
  5
251
100
AcDbEntity
  8
LAYER_FEATURE
100
AcDbLine
 62
7
  6
CONTINUOUS
 10
7.2475387505
 20
12.2765377373
 11
4.8942054172
 21
12.2765377373
  0
LINE
  5
252
100
AcDbEntity
  8
LAYER_FEATURE
100
AcDbLine
 62
7
  6
CONTINUOUS
 10
4.8942054172
 20
12.3140767097
 11
7.2475387505
 21
12.3140767097
  0
LINE
  5
253
100
AcDbEntity
  8
LAYER_FEATURE
100
AcDbLine
 62
7
  6
CONTINUOUS
 10
4.8942054172
 20
12.3436010624
 11
7.2475387505
 21
12.3436010624
  0
LINE
  5
254
100
AcDbEntity
  8
LAYER_FEATURE
100
AcDbLine
 62
7
  6
CONTINUOUS
 10
7.2475387505
 20
12.4075840294
 11
4.8942054172
 21
12.4075840294
  0
LINE
  5
255
100
AcDbEntity
  8
LAYER_FEATURE
100
AcDbLine
 62
7
  6
CONTINUOUS
 10
7.2475387505
 20
12.4473325178
 11
4.8942054172
 21
12.4473325178
  0
LINE
  5
256
100
AcDbEntity
  8
LAYER_FEATURE
100
AcDbLine
 62
7
  6
CONTINUOUS
 10
4.8942054172
 20
12.4943140809
 11
7.2475387505
 21
12.4943140809
  0
LINE
  5
257
100
AcDbEntity
  8
LAYER_FEATURE
100
AcDbLine
 62
7
  6
CONTINUOUS
 10
4.8942054172
 20
12.524214448
 11
7.2475387505
 21
12.524214448
  0
LINE
  5
258
100
AcDbEntity
  8
LAYER_FEATURE
100
AcDbLine
 62
7
  6
CONTINUOUS
 10
7.2475387505
 20
12.5800477814
 11
4.8942054172
 21
12.5800477814
  0
LINE
  5
259
100
AcDbEntity
  8
LAYER_FEATURE
100
AcDbLine
 62
7
  6
CONTINUOUS
 10
7.2475387505
 20
12.6200477814
 11
4.8942054172
 21
12.6200477814
  0
LINE
  5
25A
100
AcDbEntity
  8
LAYER_FEATURE
100
AcDbLine
 62
7
  6
CONTINUOUS
 10
4.8942054172
 20
12.6758811147
 11
7.2475387505
 21
12.6758811147
  0
LINE
  5
25B
100
AcDbEntity
  8
LAYER_FEATURE
100
AcDbLine
 62
7
  6
CONTINUOUS
 10
7.2475387505
 20
14.2411792777
 11
7.2711277033
 21
14.329214448
  0
LINE
  5
25C
100
AcDbEntity
  8
LAYER_FEATURE
100
AcDbLine
 62
7
  6
CONTINUOUS
 10
7.2475387505
 20
10.958916285
 11
7.2711277033
 21
10.8708811147
  0
LINE
  5
25D
100
AcDbEntity
  8
LAYER_FEATURE
100
AcDbLine
 62
7
  6
CONTINUOUS
 10
7.2475387505
 20
10.958916285
 11
7.2475387505
 21
14.2411792777
  0
LINE
  5
25E
100
AcDbEntity
  8
LAYER_FEATURE
100
AcDbLine
 62
7
  6
CONTINUOUS
 10
7.2711277033
 20
10.8708811147
 11
7.2711277033
 21
14.329214448
  0
LINE
  5
25F
100
AcDbEntity
  8
LAYER_FEATURE
100
AcDbLine
 62
7
  6
CONTINUOUS
 10
7.3125387505
 20
10.8708811147
 11
7.3125387505
 21
14.329214448
  0
LINE
  5
260
100
AcDbEntity
  8
02___PRT_ALL_AXES
100
AcDbLine
 62
7
  6
CONTINUOUS
 10
4.8942054172
 20
14.219214448
 11
7.2475387505
 21
14.219214448
  0
LINE
  5
261
100
AcDbEntity
  8
LAYER_FEATURE
100
AcDbLine
 62
7
  6
CONTINUOUS
 10
4.8292054172
 20
14.329214448
 11
4.8706164644
 21
14.329214448
  0
LINE
  5
262
100
AcDbEntity
  8
LAYER_FEATURE
100
AcDbLine
 62
7
  6
CONTINUOUS
 10
7.2711277033
 20
14.329214448
 11
7.3125387505
 21
14.329214448
  0
LINE
  5
263
100
AcDbEntity
  8
LAYER_FEATURE
100
AcDbLine
 62
7
  6
CONTINUOUS
 10
13.8177511183
 20
12.9975292436
 11
13.8228604554
 21
13.0353162024
  0
LINE
  5
264
100
AcDbEntity
  8
LAYER_FEATURE
100
AcDbLine
 62
7
  6
CONTINUOUS
 10
13.8425544385
 20
13.1582441502
 11
13.849279199
 21
13.1943244902
  0
LINE
  5
265
100
AcDbEntity
  8
LAYER_FEATURE
100
AcDbLine
 62
7
  6
CONTINUOUS
 10
13.8742091345
 20
13.3108171338
 11
13.8824647508
 21
13.3447371237
  0
LINE
  5
266
100
AcDbEntity
  8
LAYER_FEATURE
100
AcDbLine
 62
7
  6
CONTINUOUS
 10
13.9148237289
 20
13.4614408565
 11
13.9219997832
 21
13.4846625769
  0
LINE
  5
267
100
AcDbEntity
  8
LAYER_FEATURE
100
AcDbLine
 62
7
  6
CONTINUOUS
 10
14.3275013615
 20
10.7816383262
 11
14.3656434618
 21
10.7816383262
  0
LINE
  5
268
100
AcDbEntity
  8
LAYER_FEATURE
100
AcDbLine
 62
7
  6
CONTINUOUS
 10
16.5766607296
 20
10.7816383262
 11
16.6148028299
 21
10.7816383262
  0
LINE
  5
269
100
AcDbEntity
  8
02___PRT_ALL_AXES
100
AcDbLine
 62
7
  6
CONTINUOUS
 10
14.3873703261
 20
10.8916383262
 11
16.3405397866
 21
10.8916383262
  0
LINE
  5
26A
100
AcDbEntity
  8
02___PRT_ALL_AXES
100
AcDbLine
 62
7
  6
CONTINUOUS
 10
16.5601665825
 20
11.0768943611
 11
16.5360991321
 21
11.0817522332
  0
LINE
  5
26B
100
AcDbEntity
  8
LAYER_FEATURE
100
AcDbLine
 62
7
  6
CONTINUOUS
 10
13.8147978858
 20
13.0742621043
 11
13.8034408822
 21
13.0996585879
  0
LINE
  5
26C
100
AcDbEntity
  8
LAYER_FEATURE
100
AcDbLine
 62
7
  6
CONTINUOUS
 10
13.8429654063
 20
13.235343636
 11
13.8327871257
 21
13.2638457659
  0
LINE
  5
26D
100
AcDbEntity
  8
LAYER_FEATURE
100
AcDbLine
 62
7
  6
CONTINUOUS
 10
13.8779791345
 20
13.3873136738
 11
13.8691075748
 21
13.4185630192
  0
LINE
  5
26E
100
AcDbEntity
  8
LAYER_FEATURE
100
AcDbLine
 62
7
  6
CONTINUOUS
 10
13.9193987525
 20
13.5282611065
 11
13.9119454787
 21
13.5618646886
  0
LINE
  5
26F
100
AcDbEntity
  8
LAYER_FEATURE
100
AcDbLine
 62
7
  6
CONTINUOUS
 10
13.7826892097
 20
12.9696885792
 11
15.9275067925
 21
12.9696885792
  0
LINE
  5
270
100
AcDbEntity
  8
LAYER_FEATURE
100
AcDbLine
 62
7
  6
CONTINUOUS
 10
15.9306619245
 20
12.9975292436
 11
13.8177511183
 21
12.9975292436
  0
LINE
  5
271
100
AcDbEntity
  8
LAYER_FEATURE
100
AcDbLine
 62
7
  6
CONTINUOUS
 10
13.7869823578
 20
12.9779368109
 11
13.8020245432
 21
12.9797947074
  0
LINE
  5
272
100
AcDbEntity
  8
LAYER_FEATURE
100
AcDbLine
 62
7
  6
CONTINUOUS
 10
15.9350763281
 20
13.0353162024
 11
13.8228604554
 21
13.0353162024
  0
LINE
  5
273
100
AcDbEntity
  8
LAYER_FEATURE
100
AcDbLine
 62
7
  6
CONTINUOUS
 10
13.8020621126
 20
13.1129641313
 11
15.9455600179
 21
13.1129641313
  0
LINE
  5
274
100
AcDbEntity
  8
LAYER_FEATURE
100
AcDbLine
 62
7
  6
CONTINUOUS
 10
13.8064991103
 20
13.1406594443
 11
15.94967872
 21
13.1406594443
  0
LINE
  5
275
100
AcDbEntity
  8
LAYER_CUT_FEAT
100
AcDbLine
 62
7
  6
CONTINUOUS
 10
13.8108180039
 20
13.1476467406
 11
15.9507178341
 21
13.1476467406
  0
LINE
  5
276
100
AcDbEntity
  8
LAYER_FEATURE
100
AcDbLine
 62
7
  6
CONTINUOUS
 10
15.9522938255
 20
13.1582441502
 11
13.8425544385
 21
13.1582441502
  0
LINE
  5
277
100
AcDbEntity
  8
LAYER_FEATURE
100
AcDbLine
 62
7
  6
CONTINUOUS
 10
15.9582849283
 20
13.1943244902
 11
13.849279199
 21
13.1943244902
  0
LINE
  5
278
100
AcDbEntity
  8
LAYER_FEATURE
100
AcDbLine
 62
7
  6
CONTINUOUS
 10
13.8319971608
 20
13.2774640667
 11
15.9731862164
 21
13.2774640667
  0
LINE
  5
279
100
AcDbEntity
  8
LAYER_FEATURE
100
AcDbLine
 62
7
  6
CONTINUOUS
 10
13.8376138036
 20
13.3037095243
 11
15.9783714814
 21
13.3037095243
  0
LINE
  5
27A
100
AcDbEntity
  8
LAYER_CUT_FEAT
100
AcDbLine
 62
7
  6
CONTINUOUS
 10
13.8416740986
 20
13.3094884411
 11
15.9795637356
 21
13.3094884411
  0
LINE
  5
27B
100
AcDbEntity
  8
LAYER_FEATURE
100
AcDbLine
 62
7
  6
CONTINUOUS
 10
15.9798378595
 20
13.3108171338
 11
13.8742091345
 21
13.3108171338
  0
LINE
  5
27C
100
AcDbEntity
  8
LAYER_FEATURE
100
AcDbLine
 62
7
  6
CONTINUOUS
 10
15.9868359269
 20
13.3447371237
 11
13.8824647508
 21
13.3447371237
  0
LINE
  5
27D
100
AcDbEntity
  8
LAYER_FEATURE
100
AcDbLine
 62
7
  6
CONTINUOUS
 10
13.8689163489
 20
13.4323228195
 11
16.0070295037
 21
13.4323228195
  0
LINE
  5
27E
100
AcDbEntity
  8
LAYER_FEATURE
100
AcDbLine
 62
7
  6
CONTINUOUS
 10
13.8756420041
 20
13.4567883697
 11
16.0131200616
 21
13.4567883697
  0
LINE
  5
27F
100
AcDbEntity
  8
0
100
AcDbLine
 62
7
  6
CONTINUOUS
 10
13.8793926401
 20
13.4614408565
 11
16.0142782714
 21
13.4614408565
  0
LINE
  5
280
100
AcDbEntity
  8
LAYER_FEATURE
100
AcDbLine
 62
7
  6
CONTINUOUS
 10
16.0203574468
 20
13.4846625769
 11
13.9219997832
 21
13.4846625769
  0
LINE
  5
281
100
AcDbEntity
  8
02___PRT_ALL_AXES
100
AcDbLine
 62
7
  6
CONTINUOUS
 10
16.5601665825
 20
13.9447156247
 11
16.5350265873
 21
13.9396412658
  0
LINE
  5
282
100
AcDbEntity
  8
LAYER_FEATURE
100
AcDbLine
 62
7
  6
CONTINUOUS
 10
13.9123553965
 20
13.5755929509
 11
16.0462062014
 21
13.5755929509
  0
LINE
  5
283
100
AcDbEntity
  8
02___PRT_ALL_AXES
100
AcDbLine
 62
7
  6
CONTINUOUS
 10
14.3873703261
 20
14.1299716596
 11
16.3406486361
 21
14.1299716596
  0
LINE
  5
284
100
AcDbEntity
  8
LAYER_FEATURE
100
AcDbLine
 62
7
  6
CONTINUOUS
 10
14.3275013615
 20
14.2399716596
 11
14.3656434618
 21
14.2399716596
  0
LINE
  5
285
100
AcDbEntity
  8
LAYER_FEATURE
100
AcDbLine
 62
7
  6
CONTINUOUS
 10
16.5766607296
 20
14.2399716596
 11
16.6148028299
 21
14.2399716596
  0
CIRCLE
  5
286
100
AcDbEntity
  8
LAYER_FEATURE
100
AcDbCircle
 62
7
  6
CONTINUOUS
 10
15.5603552569
 20
5.4606247044
 40
1.7291666667
  0
CIRCLE
  5
287
100
AcDbEntity
  8
LAYER_FEATURE
100
AcDbCircle
 62
7
  6
CONTINUOUS
 10
15.5603552569
 20
5.4606247044
 40
1.6411314964
  0
CIRCLE
  5
288
100
AcDbEntity
  8
02___PRT_ALL_AXES
100
AcDbCircle
 62
7
  6
CONTINUOUS
 10
15.5603552569
 20
5.4606247044
 40
1.4383333333
  0
CIRCLE
  5
289
100
AcDbEntity
  8
LAYER_CHAMFER_FEAT
100
AcDbCircle
 62
7
  6
CONTINUOUS
 10
15.5603552569
 20
5.4606247044
 40
1.3333333333
  0
CIRCLE
  5
28A
100
AcDbEntity
  8
LAYER_CHAMFER_FEAT
100
AcDbCircle
 62
7
  6
CONTINUOUS
 10
15.5603552569
 20
5.4606247044
 40
1.3133333333
  0
ARC
  5
28B
100
AcDbEntity
  8
02___PRT_ALL_AXES
100
AcDbCircle
 62
7
  6
CONTINUOUS
 10
15.5603552569
 20
5.4606247044
 40
0.9583333333
100
AcDbArc
 50
150.9785815553
 51
219.0214184447
  0
ARC
  5
28C
100
AcDbEntity
  8
02___PRT_ALL_AXES
100
AcDbCircle
 62
7
  6
CONTINUOUS
 10
15.5603552569
 20
5.4606247044
 40
0.9583333333
100
AcDbArc
 50
230.9785815553
 51
259.0214184447
  0
ARC
  5
28D
100
AcDbEntity
  8
02___PRT_ALL_AXES
100
AcDbCircle
 62
7
  6
CONTINUOUS
 10
15.5603552569
 20
5.4606247044
 40
0.9583333333
100
AcDbArc
 50
270.9785815553
 51
11.0214184447
  0
ARC
  5
28E
100
AcDbEntity
  8
02___PRT_ALL_AXES
100
AcDbCircle
 62
7
  6
CONTINUOUS
 10
15.5603552569
 20
5.4606247044
 40
0.9583333333
100
AcDbArc
 50
22.9785815553
 51
51.0214184447
  0
ARC
  5
28F
100
AcDbEntity
  8
02___PRT_ALL_AXES
100
AcDbCircle
 62
7
  6
CONTINUOUS
 10
15.5603552569
 20
5.4606247044
 40
0.9583333333
100
AcDbArc
 50
62.9785815553
 51
139.0214184447
  0
ARC
  5
290
100
AcDbEntity
  8
02___PRT_ALL_AXES
100
AcDbCircle
 62
7
  6
CONTINUOUS
 10
15.5603552569
 20
5.4606247044
 40
0.8985459091
100
AcDbArc
 50
50.6325170267
 51
63.3674829733
  0
ARC
  5
291
100
AcDbEntity
  8
02___PRT_ALL_AXES
100
AcDbCircle
 62
7
  6
CONTINUOUS
 10
15.5603552569
 20
5.4606247044
 40
0.8985459091
100
AcDbArc
 50
218.6325170267
 51
231.3674829733
  0
ARC
  5
292
100
AcDbEntity
  8
LAYER_CUT_FEAT
100
AcDbCircle
 62
7
  6
CONTINUOUS
 10
15.5603552569
 20
5.4606247044
 40
0.8650975841
100
AcDbArc
 50
150.5389667464
 51
259.4610332536
  0
ARC
  5
293
100
AcDbEntity
  8
LAYER_CUT_FEAT
100
AcDbCircle
 62
7
  6
CONTINUOUS
 10
15.5603552569
 20
5.4606247044
 40
0.8650975841
100
AcDbArc
 50
270.5389667464
 51
11.4610332536
  0
ARC
  5
294
100
AcDbEntity
  8
LAYER_CUT_FEAT
100
AcDbCircle
 62
7
  6
CONTINUOUS
 10
15.5603552569
 20
5.4606247044
 40
0.8650975841
100
AcDbArc
 50
22.5389667464
 51
139.4610332536
  0
ARC
  5
295
100
AcDbEntity
  8
02___PRT_ALL_AXES
100
AcDbCircle
 62
7
  6
CONTINUOUS
 10
16.0632386326
 20
6.2349971955
 40
0.1041666667
100
AcDbArc
 50
310.0717969435
 51
163.9282030565
  0
ARC
  5
296
100
AcDbEntity
  8
02___PRT_ALL_AXES
100
AcDbCircle
 62
7
  6
CONTINUOUS
 10
14.8040048694
 20
5.9902269473
 40
0.1041666667
100
AcDbArc
 50
71.6162582083
 51
218.3837417917
  0
ARC
  5
297
100
AcDbEntity
  8
02___PRT_ALL_AXES
100
AcDbCircle
 62
7
  6
CONTINUOUS
 10
16.4433433149
 20
5.7305812451
 40
0.1041666667
100
AcDbArc
 50
303.6162582083
 51
90.3837417917
  0
ARC
  5
298
100
AcDbEntity
  8
02___PRT_ALL_AXES
100
AcDbCircle
 62
7
  6
CONTINUOUS
 10
14.9074599956
 20
4.8077294431
 40
0.1041666667
100
AcDbArc
 50
118.0717969435
 51
331.9282030565
  0
ARC
  5
299
100
AcDbEntity
  8
LAYER_CUT_FEAT
100
AcDbCircle
 62
7
  6
CONTINUOUS
 10
16.4433433149
 20
5.7305812451
 40
0.1041666667
100
AcDbArc
 50
250.2845919746
 51
303.6162582083
  0
ARC
  5
29A
100
AcDbEntity
  8
LAYER_CUT_FEAT
100
AcDbCircle
 62
7
  6
CONTINUOUS
 10
16.4433433149
 20
5.7305812451
 40
0.1041666667
100
AcDbArc
 50
90.3837417917
 51
143.7154080254
  0
ARC
  5
29B
100
AcDbEntity
  8
LAYER_CUT_FEAT
100
AcDbCircle
 62
7
  6
CONTINUOUS
 10
15.4798814545
 20
4.5408049332
 40
0.1041666667
100
AcDbArc
 50
138.2845919746
 51
31.7154080254
  0
ARC
  5
29C
100
AcDbEntity
  8
LAYER_CUT_FEAT
100
AcDbCircle
 62
7
  6
CONTINUOUS
 10
14.8040048694
 20
5.9902269473
 40
0.1041666667
100
AcDbArc
 50
18.2845919746
 51
71.6162582083
  0
ARC
  5
29D
100
AcDbEntity
  8
LAYER_CUT_FEAT
100
AcDbCircle
 62
7
  6
CONTINUOUS
 10
14.8040048694
 20
5.9902269473
 40
0.1041666667
100
AcDbArc
 50
218.3837417917
 51
271.7154080254
  0
ARC
  5
29E
100
AcDbEntity
  8
LAYER_CUT_FEAT
100
AcDbCircle
 62
7
  6
CONTINUOUS
 10
14.8648720574
 20
-7.2522011912
 40
19.2272799124
100
AcDbArc
 50
85.9898042483
 51
86.2083071234
  0
ARC
  5
29F
100
AcDbEntity
  8
LAYER_FEATURE
100
AcDbCircle
 62
7
  6
CONTINUOUS
 10
17.1718921454
 20
12.5872950562
 40
3.4105838835
100
AcDbArc
 50
170.6625300047
 51
171.1337291297
  0
ARC
  5
2A0
100
AcDbEntity
  8
LAYER_FEATURE
100
AcDbCircle
 62
7
  6
CONTINUOUS
 10
16.7555533834
 20
12.6655339643
 40
2.986911354
100
AcDbArc
 50
167.6632311909
 51
168.178080086
  0
ARC
  5
2A1
100
AcDbEntity
  8
LAYER_FEATURE
100
AcDbCircle
 62
7
  6
CONTINUOUS
 10
16.304279154
 20
12.7759912969
 40
2.5222535678
100
AcDbArc
 50
164.3407202818
 51
164.9171022548
  0
ARC
  5
2A2
100
AcDbEntity
  8
LAYER_CHAMFER_FEAT
100
AcDbCircle
 62
7
  6
CONTINUOUS
 10
16.772079613
 20
11.6560464982
 40
0.5240687296
100
AcDbArc
 50
220.9313574451
 51
222.3804010241
  0
ARC
  5
2A3
100
AcDbEntity
  8
LAYER_CHAMFER_FEAT
100
AcDbCircle
 62
7
  6
CONTINUOUS
 10
16.7661743129
 20
13.3708437134
 40
0.5161474285
100
AcDbArc
 50
137.5999171415
 51
138.7984882164
  0
ARC
  5
2A4
100
AcDbEntity
  8
LAYER_FEATURE
100
AcDbCircle
 62
7
  6
CONTINUOUS
 10
16.5936463591
 20
11.2977399185
 40
0.2237992561
100
AcDbArc
 50
261.3901955292
 51
262.1650164008
  0
ARC
  5
2A5
100
AcDbEntity
  8
LAYER_FEATURE
100
AcDbCircle
 62
7
  6
CONTINUOUS
 10
16.5935571929
 20
13.7244796265
 40
0.2231832249
100
AcDbArc
 50
96.8165866698
 51
98.6166471752
  0
ARC
  5
2A6
100
AcDbEntity
  8
LAYER_FEATURE
100
AcDbCircle
 62
7
  6
CONTINUOUS
 10
13.8442614321
 20
13.329590919
 40
0.0353457196
100
AcDbArc
 50
325.227015233
 51
327.9169906069
  0
ARC
  5
2A7
100
AcDbEntity
  8
LAYER_CUT_FEAT
100
AcDbCircle
 62
7
  6
CONTINUOUS
 10
16.1743731837
 20
11.787816709
 40
0.0159848088
100
AcDbArc
 50
261.0959672273
 51
269.9703628294
  0
SPLINE
  5
2A8
100
AcDbEntity
  8
02___PRT_ALL_AXES
100
AcDbSpline
 62
7
  6
CONTINUOUS
 70
0
 71
3
 72
38
 73
34
 74
0
 42
0.0000001
 43
0.0000001
 44
0.0000000001
 40
0.0
 40
0.0
 40
0.0
 40
0.0
 40
0.0901050747
 40
0.133797109
 40
0.1765486341
 40
0.2183372659
 40
0.2591430913
 40
0.2989485894
 40
0.3377386737
 40
0.375501039
 40
0.4122263588
 40
0.4479085196
 40
0.4825449226
 40
0.5161368458
 40
0.5486897787
 40
0.5802138106
 40
0.6107240914
 40
0.6402413402
 40
0.6687923282
 40
0.6964104189
 40
0.7231361489
 40
0.7490177637
 40
0.7741116714
 40
0.7984828224
 40
0.8222049404
 40
0.8453604688
 40
0.86804021
 40
0.8903426073
 40
0.9123726132
 40
0.9342401302
 40
0.9560581256
 40
0.9779405212
 40
1.0
 40
1.0
 40
1.0
 40
1.0
 10
17.0428090032
 20
11.6167226552
 30
0.0
 10
17.0358483895
 20
11.5941981013
 30
0.0
 10
17.0249314817
 20
11.5609253755
 30
0.0
 10
17.0092636007
 20
11.5174683132
 30
0.0
 10
16.9972545408
 20
11.4861372028
 30
0.0
 10
16.9848783868
 20
11.4557632241
 30
0.0
 10
16.972146587
 20
11.4263745365
 30
0.0
 10
16.9590710427
 20
11.3979985597
 30
0.0
 10
16.9456638905
 20
11.3706617044
 30
0.0
 10
16.9319376015
 20
11.3443894163
 30
0.0
 10
16.9179049257
 20
11.3192061206
 30
0.0
 10
16.9035788623
 20
11.295135231
 30
0.0
 10
16.8889726399
 20
11.2721991278
 30
0.0
 10
16.8740997421
 20
11.2504191073
 30
0.0
 10
16.8589738519
 20
11.2298153906
 30
0.0
 10
16.8436088252
 20
11.2104071285
 30
0.0
 10
16.8280186794
 20
11.1922123836
 30
0.0
 10
16.8122176092
 20
11.1752480969
 30
0.0
 10
16.7962199262
 20
11.1595301323
 30
0.0
 10
16.7800400493
 20
11.1450732992
 30
0.0
 10
16.7636925303
 20
11.1318913339
 30
0.0
 10
16.747192064
 20
11.1199969105
 30
0.0
 10
16.7305534859
 20
11.1094017035
 30
0.0
 10
16.7137918193
 20
11.1001164076
 30
0.0
 10
16.6969223726
 20
11.0921506631
 30
0.0
 10
16.6799607843
 20
11.0855130591
 30
0.0
 10
16.662923086
 20
11.0802110894
 30
0.0
 10
16.6458257732
 20
11.0762510267
 30
0.0
 10
16.6286857821
 20
11.0736377039
 30
0.0
 10
16.6115205506
 20
11.0723744098
 30
0.0
 10
16.5943473553
 20
11.0724628689
 30
0.0
 10
16.5771851695
 20
11.0739027379
 30
0.0
 10
16.5658242325
 20
11.075752402
 30
0.0
 10
16.5601665828
 20
11.0768943708
 30
0.0
  0
SPLINE
  5
2A9
100
AcDbEntity
  8
LAYER_CHAMFER_FEAT
100
AcDbSpline
 62
7
  6
CONTINUOUS
 70
0
 71
3
 72
15
 73
11
 74
0
 42
0.0000001
 43
0.0000001
 44
0.0000000001
 40
0.0
 40
0.0
 40
0.0
 40
0.0
 40
0.1375058743
 40
0.2714667649
 40
0.4018486241
 40
0.5286396396
 40
0.6518353117
 40
0.7714434042
 40
0.8874860166
 40
1.0
 40
1.0
 40
1.0
 40
1.0
 10
16.2813020204
 20
11.4663691134
 30
0.0
 10
16.2852217396
 20
11.4583815656
 30
0.0
 10
16.2931455236
 20
11.4427024435
 30
0.0
 10
16.3054516683
 20
11.4197937208
 30
0.0
 10
16.3180139658
 20
11.3978191739
 30
0.0
 10
16.3308214879
 20
11.3767979215
 30
0.0
 10
16.3438634579
 20
11.3567476854
 30
0.0
 10
16.3571289017
 20
11.3376855134
 30
0.0
 10
16.3706063609
 20
11.3196280186
 30
0.0
 10
16.3798673
 20
11.3080926121
 30
0.0
 10
16.3845325409
 20
11.3025034257
 30
0.0
  0
SPLINE
  5
2AA
100
AcDbEntity
  8
LAYER_FEATURE
100
AcDbSpline
 62
7
  6
CONTINUOUS
 70
0
 71
3
 72
19
 73
15
 74
0
 42
0.0000001
 43
0.0000001
 44
0.0000000001
 40
0.0
 40
0.0
 40
0.0
 40
0.0
 40
0.0565064352
 40
0.1131707746
 40
0.1701493026
 40
0.2275950958
 40
0.285656655
 40
0.3444765417
 40
0.4041904862
 40
0.4649263765
 40
0.5898994091
 40
0.720285643
 40
0.8567948142
 40
1.0
 40
1.0
 40
1.0
 40
1.0
 10
14.3656434618
 20
14.2399716531
 30
0.0
 10
14.3706680236
 20
14.2399716603
 30
0.0
 10
14.3807335742
 20
14.2396820411
 30
0.0
 10
14.3958149917
 20
14.2383797345
 30
0.0
 10
14.4108810077
 20
14.2362100308
 30
0.0
 10
14.4259230905
 20
14.2331743386
 30
0.0
 10
14.4409335976
 20
14.2292743119
 30
0.0
 10
14.4559047125
 20
14.2245123949
 30
0.0
 10
14.47082908
 20
14.2188909755
 30
0.0
 10
14.490843525
 20
14.2101726624
 30
0.0
 10
14.5157528338
 20
14.1970532168
 30
0.0
 10
14.5450309689
 20
14.1780824405
 30
0.0
 10
14.5739278108
 20
14.1557794235
 30
0.0
 10
14.5924424337
 20
14.1391342613
 30
0.0
 10
14.6016244934
 20
14.1303115525
 30
0.0
  0
SPLINE
  5
2AB
100
AcDbEntity
  8
LAYER_FEATURE
100
AcDbSpline
 62
7
  6
CONTINUOUS
 70
0
 71
3
 72
19
 73
15
 74
0
 42
0.0000001
 43
0.0000001
 44
0.0000000001
 40
0.0
 40
0.0
 40
0.0
 40
0.0
 40
0.0564968548
 40
0.1131518972
 40
0.1701216794
 40
0.2275595683
 40
0.2856142643
 40
0.3444286288
 40
0.4041385002
 40
0.4648720556
 40
0.5898459253
 40
0.720241202
 40
0.8567681384
 40
1.0
 40
1.0
 40
1.0
 40
1.0
 10
14.3656434618
 20
10.7816383327
 30
0.0
 10
14.3706729582
 20
10.78163834
 30
0.0
 10
14.3807484272
 20
10.781928498
 30
0.0
 10
14.3958446666
 20
10.7832334064
 30
0.0
 10
14.4109254686
 20
10.7854073344
 30
0.0
 10
14.4259822445
 20
10.7884490529
 30
0.0
 10
14.4410073803
 20
10.7923566792
 30
0.0
 10
14.4559929643
 20
10.7971280084
 30
0.0
 10
14.4709317085
 20
10.8027603856
 30
0.0
 10
14.4909655339
 20
10.8114959597
 30
0.0
 10
14.5158986937
 20
10.8246412641
 30
0.0
 10
14.5452037351
 20
10.8436490145
 30
0.0
 10
14.5741263851
 20
10.8659952455
 30
0.0
 10
14.5926564655
 20
10.8826720441
 30
0.0
 10
14.6018460972
 20
10.8915114665
 30
0.0
  0
SPLINE
  5
2AC
100
AcDbEntity
  8
LAYER_FEATURE
100
AcDbSpline
 62
7
  6
CONTINUOUS
 70
0
 71
3
 72
58
 73
54
 74
0
 42
0.0000001
 43
0.0000001
 44
0.0000000001
 40
0.0
 40
0.0
 40
0.0
 40
0.0
 40
0.0076944078
 40
0.0154412972
 40
0.0232918439
 40
0.0312947399
 40
0.0394952418
 40
0.0479344978
 40
0.0566491577
 40
0.0656712322
 40
0.0750281485
 40
0.0847429444
 40
0.094834549
 40
0.1053181054
 40
0.1162053051
 40
0.1275047158
 40
0.139222087
 40
0.1513606304
 40
0.163921272
 40
0.1769028783
 40
0.1903024553
 40
0.2041153233
 40
0.2183352715
 40
0.2329546939
 40
0.2479647088
 40
0.2633552657
 40
0.2791152422
 40
0.2952325299
 40
0.3116941125
 40
0.3284861363
 40
0.3455939755
 40
0.3630022912
 40
0.3806950879
 40
0.398655767
 40
0.43531051
 40
0.4728247224
 40
0.5110486687
 40
0.5498272506
 40
0.5890012784
 40
0.628408691
 40
0.667885748
 40
0.7072682121
 40
0.7463925228
 40
0.7850969759
 40
0.8232229246
 40
0.8606160056
 40
0.8971274094
 40
0.9150084466
 40
0.9326164883
 40
0.9499351438
 40
0.9669485248
 40
0.9836417071
 40
1.0
 40
1.0
 40
1.0
 40
1.0
 10
16.6148028299
 20
14.239971659
 30
0.0
 10
16.622670728
 20
14.2399716534
 30
0.0
 10
16.6384692961
 20
14.2392588356
 30
0.0
 10
16.6621001126
 20
14.2360567223
 30
0.0
 10
16.6856677639
 20
14.2307263423
 30
0.0
 10
16.7091384545
 20
14.2232769365
 30
0.0
 10
16.7324828161
 20
14.2137207099
 30
0.0
 10
16.7556717712
 20
14.2020723701
 30
0.0
 10
16.7786774797
 20
14.1883488033
 30
0.0
 10
16.8014727841
 20
14.1725688939
 30
0.0
 10
16.8240310792
 20
14.1547534803
 30
0.0
 10
16.8463261202
 20
14.1349253809
 30
0.0
 10
16.8683319241
 20
14.1131094539
 30
0.0
 10
16.8900227253
 20
14.0893326722
 30
0.0
 10
16.9113729742
 20
14.0636241841
 30
0.0
 10
16.9323573641
 20
14.0360153561
 30
0.0
 10
16.9529508718
 20
14.0065397944
 30
0.0
 10
16.9731288116
 20
13.9752333509
 30
0.0
 10
16.9928668885
 20
13.9421341085
 30
0.0
 10
17.0121412437
 20
13.9072823487
 30
0.0
 10
17.0309285056
 20
13.8707205141
 30
0.0
 10
17.049205834
 20
13.8324931624
 30
0.0
 10
17.0669509622
 20
13.7926469163
 30
0.0
 10
17.0841422341
 20
13.7512304072
 30
0.0
 10
17.1007586433
 20
13.7082942185
 30
0.0
 10
17.1167798672
 20
13.6638908225
 30
0.0
 10
17.132186293
 20
13.6180745109
 30
0.0
 10
17.1469590477
 20
13.5709013258
 30
0.0
 10
17.1610800243
 20
13.5224289883
 30
0.0
 10
17.1745319054
 20
13.4727168301
 30
0.0
 10
17.1872981945
 20
13.421825705
 30
0.0
 10
17.199363203
 20
13.3698179717
 30
0.0
 10
17.2107122191
 20
13.316757196
 30
0.0
 10
17.2249668209
 20
13.2442027809
 30
0.0
 10
17.2408617873
 20
13.1513288849
 30
0.0
 10
17.2567530264
 20
13.0374887502
 30
0.0
 10
17.2695099603
 20
12.9210701754
 30
0.0
 10
17.2790697525
 20
12.8026436157
 30
0.0
 10
17.285385294
 20
12.6827883743
 30
0.0
 10
17.2884254444
 20
12.5620911964
 30
0.0
 10
17.2881752231
 20
12.4411429332
 30
0.0
 10
17.284635875
 20
12.3205357162
 30
0.0
 10
17.2778248394
 20
12.2008599483
 30
0.0
 10
17.2677756703
 20
12.0827014842
 30
0.0
 10
17.2545379033
 20
11.9666382832
 30
0.0
 10
17.2381767637
 20
11.8532390387
 30
0.0
 10
17.2218958959
 20
11.7607890623
 30
0.0
 10
17.2073389165
 20
11.6886156521
 30
0.0
 10
17.1957707097
 20
11.6358681185
 30
0.0
 10
17.1834909232
 20
11.5841931993
 30
0.0
 10
17.170514517
 20
11.5336538163
 30
0.0
 10
17.1568574974
 20
11.4843123553
 30
0.0
 10
17.1472096996
 20
11.4519192075
 30
0.0
 10
17.1422710576
 20
11.4359377561
 30
0.0
  0
SPLINE
  5
2AD
100
AcDbEntity
  8
LAYER_FEATURE
100
AcDbSpline
 62
7
  6
CONTINUOUS
 70
0
 71
3
 72
37
 73
33
 74
0
 42
0.0000001
 43
0.0000001
 44
0.0000000001
 40
0.0
 40
0.0
 40
0.0
 40
0.0
 40
0.021277122
 40
0.0426480254
 40
0.0642049741
 40
0.0860373005
 40
0.1082301507
 40
0.1308634955
 40
0.1540114045
 40
0.1777415446
 40
0.2021149612
 40
0.2271860685
 40
0.2530027443
 40
0.2796065741
 40
0.3070332067
 40
0.3353126904
 40
0.3644698363
 40
0.394524652
 40
0.4254926993
 40
0.4573854082
 40
0.4902104593
 40
0.5239720895
 40
0.5586713174
 40
0.5943062402
 40
0.6308722792
 40
0.6683623345
 40
0.7067670015
 40
0.7460747566
 40
0.7862720667
 40
0.8273436275
 40
0.9120356116
 40
1.0
 40
1.0
 40
1.0
 40
1.0
 10
16.6148028299
 20
10.7816383269
 30
0.0
 10
16.6211189489
 20
10.7816383224
 30
0.0
 10
16.6337837548
 20
10.7820966631
 30
0.0
 10
16.6527469321
 20
10.7841568602
 30
0.0
 10
16.6716786634
 20
10.7875881271
 30
0.0
 10
16.6905617035
 20
10.7923870057
 30
0.0
 10
16.7093808019
 20
10.798548697
 30
0.0
 10
16.7281205999
 20
10.8060672926
 30
0.0
 10
16.7467661733
 20
10.8149358864
 30
0.0
 10
16.765302894
 20
10.8251465236
 30
0.0
 10
16.7837164039
 20
10.8366903321
 30
0.0
 10
16.8019925172
 20
10.8495575929
 30
0.0
 10
16.8201172379
 20
10.8637376509
 30
0.0
 10
16.8380767273
 20
10.879218932
 30
0.0
 10
16.8558572285
 20
10.8959890012
 30
0.0
 10
16.8734450998
 20
10.9140344868
 30
0.0
 10
16.8908268479
 20
10.9333410462
 30
0.0
 10
16.9079890605
 20
10.9538934336
 30
0.0
 10
16.9249184384
 20
10.9756754638
 30
0.0
 10
16.9416018723
 20
10.9986699637
 30
0.0
 10
16.9580263782
 20
11.0228588434
 30
0.0
 10
16.9741791148
 20
11.0482230938
 30
0.0
 10
16.9900474731
 20
11.0747427447
 30
0.0
 10
17.0056190285
 20
11.1023969229
 30
0.0
 10
17.0208815353
 20
11.1311638748
 30
0.0
 10
17.0358230081
 20
11.1610209389
 30
0.0
 10
17.0504317119
 20
11.191944589
 30
0.0
 10
17.0646960924
 20
11.2239104415
 30
0.0
 10
17.0786050128
 20
11.2568933765
 30
0.0
 10
17.0968477521
 20
11.3026597851
 30
0.0
 10
17.1186455419
 20
11.3622588592
 30
0.0
 10
17.1345614842
 20
11.4109895673
 30
0.0
 10
17.1422710576
 20
11.4359377561
 30
0.0
  0
SPLINE
  5
2AE
100
AcDbEntity
  8
LAYER_FEATURE
100
AcDbSpline
 62
7
  6
CONTINUOUS
 70
0
 71
3
 72
26
 73
22
 74
0
 42
0.0000001
 43
0.0000001
 44
0.0000000001
 40
0.0
 40
0.0
 40
0.0
 40
0.0
 40
0.086160439
 40
0.1693388652
 40
0.2494013465
 40
0.326232837
 40
0.3997417688
 40
0.4698628018
 40
0.5365609406
 40
0.5998363727
 40
0.6597303307
 40
0.7163321047
 40
0.7697871343
 40
0.820305915
 40
0.8681729419
 40
0.8912317655
 40
0.9137720675
 40
0.9358527809
 40
0.9575378763
 40
0.9788960277
 40
1.0
 40
1.0
 40
1.0
 40
1.0
 10
16.1547816436
 20
13.4039549157
 30
0.0
 10
16.1607755325
 20
13.4233511474
 30
0.0
 10
16.1731267352
 20
13.4612992893
 30
0.0
 10
16.193124233
 20
13.5165676866
 30
0.0
 10
16.2142230373
 20
13.5690652677
 30
0.0
 10
16.2363651957
 20
13.6186477406
 30
0.0
 10
16.2594902782
 20
13.6651797609
 30
0.0
 10
16.283535535
 20
13.7085345161
 30
0.0
 10
16.3084362785
 20
13.7485942064
 30
0.0
 10
16.3341262635
 20
13.7852501909
 30
0.0
 10
16.3605382922
 20
13.818403133
 30
0.0
 10
16.3876042453
 20
13.8479626505
 30
0.0
 10
16.4152569617
 20
13.8738475435
 30
0.0
 10
16.4434252775
 20
13.8959824078
 30
0.0
 10
16.4675725808
 20
13.9114385135
 30
0.0
 10
16.4870340243
 20
13.9217670924
 30
0.0
 10
16.5015262128
 20
13.9284428804
 30
0.0
 10
16.5160842247
 20
13.9341381484
 30
0.0
 10
16.5306985149
 20
13.9388485345
 30
0.0
 10
16.5453577643
 20
13.9425700884
 30
0.0
 10
16.5552028646
 20
13.9443988318
 30
0.0
 10
16.5601192978
 20
13.9451437582
 30
0.0
  0
SPLINE
  5
2AF
100
AcDbEntity
  8
LAYER_FEATURE
100
AcDbSpline
 62
7
  6
CONTINUOUS
 70
0
 71
3
 72
53
 73
49
 74
0
 42
0.0000001
 43
0.0000001
 44
0.0000000001
 40
0.0
 40
0.0
 40
0.0
 40
0.0
 40
0.032587423
 40
0.0664080886
 40
0.1013468855
 40
0.1372793955
 40
0.1740735269
 40
0.2115907849
 40
0.249687448
 40
0.2882157203
 40
0.3270248176
 40
0.3659620362
 40
0.404873803
 40
0.443606717
 40
0.4820085945
 40
0.5199295195
 40
0.5572229262
 40
0.593746693
 40
0.6293643114
 40
0.6639461036
 40
0.68081089
 40
0.6973719007
 40
0.7136154654
 40
0.7295286164
 40
0.7450991453
 40
0.7603156688
 40
0.7751676991
 40
0.7896457156
 40
0.803741248
 40
0.8174469694
 40
0.8307568033
 40
0.8436660447
 40
0.8561714884
 40
0.8682715789
 40
0.8799665803
 40
0.8912587712
 40
0.9021526634
 40
0.9126552378
 40
0.9227762076
 40
0.9325283014
 40
0.941927561
 40
0.950993639
 40
0.9597500649
 40
0.9682244611
 40
0.9764486662
 40
0.9844587162
 40
0.9922946368
 40
1.0
 40
1.0
 40
1.0
 40
1.0
 10
16.1547816436
 20
13.4039549157
 30
0.0
 10
16.1467126341
 20
13.3778435914
 30
0.0
 10
16.1313378608
 20
13.3242976546
 30
0.0
 10
16.110865352
 20
13.2417879952
 30
0.0
 10
16.0926235265
 20
13.155886762
 30
0.0
 10
16.0766979232
 20
13.0669932385
 30
0.0
 10
16.0631626918
 20
12.9755188176
 30
0.0
 10
16.0520811038
 20
12.8818877392
 30
0.0
 10
16.0435048661
 20
12.7865342857
 30
0.0
 10
16.0374740574
 20
12.6899009311
 30
0.0
 10
16.0340168626
 20
12.5924361823
 30
0.0
 10
16.0331494026
 20
12.4945924755
 30
0.0
 10
16.0348757686
 20
12.3968240335
 30
0.0
 10
16.0391878665
 20
12.299584722
 30
0.0
 10
16.0460655553
 20
12.2033259174
 30
0.0
 10
16.0554767261
 20
12.1084943441
 30
0.0
 10
16.0673773815
 20
12.0155300621
 30
0.0
 10
16.0817119933
 20
11.9248640006
 30
0.0
 10
16.0984135999
 20
11.8369172713
 30
0.0
 10
16.1143695511
 20
11.7656493767
 30
0.0
 10
16.1282892071
 20
11.7103363765
 30
0.0
 10
16.1391819287
 20
11.6701277453
 30
0.0
 10
16.1506017303
 20
11.6308961325
 30
0.0
 10
16.1625354266
 20
11.5926869654
 30
0.0
 10
16.1749691287
 20
11.5555446122
 30
0.0
 10
16.1878884023
 20
11.5195121509
 30
0.0
 10
16.2012782406
 20
11.4846313584
 30
0.0
 10
16.21512311
 20
11.4509426566
 30
0.0
 10
16.2294069648
 20
11.4184850702
 30
0.0
 10
16.2441132745
 20
11.3872961797
 30
0.0
 10
16.2592250446
 20
11.3574120719
 30
0.0
 10
16.2747248326
 20
11.3288672905
 30
0.0
 10
16.2905947945
 20
11.3016948086
 30
0.0
 10
16.3068167117
 20
11.2759259971
 30
0.0
 10
16.3233720269
 20
11.251590596
 30
0.0
 10
16.3402418788
 20
11.2287166867
 30
0.0
 10
16.3574071246
 20
11.2073306633
 30
0.0
 10
16.3748483948
 20
11.1874572433
 30
0.0
 10
16.3925461218
 20
11.169119478
 30
0.0
 10
16.4104805662
 20
11.1523387755
 30
0.0
 10
16.428631826
 20
11.1371349336
 30
0.0
 10
16.4469798117
 20
11.1235261642
 30
0.0
 10
16.4655041972
 20
11.1115291665
 30
0.0
 10
16.484184393
 20
11.1011591554
 30
0.0
 10
16.5029991693
 20
11.0924298952
 30
0.0
 10
16.5219273631
 20
11.0853535015
 30
0.0
 10
16.5409445892
 20
11.0799407002
 30
0.0
 10
16.553753262
 20
11.0774301014
 30
0.0
 10
16.560142595
 20
11.0764627058
 30
0.0
  0
SPLINE
  5
2B0
100
AcDbEntity
  8
LAYER_FEATURE
100
AcDbSpline
 62
7
  6
CONTINUOUS
 70
0
 71
3
 72
58
 73
54
 74
0
 42
0.0000001
 43
0.0000001
 44
0.0000000001
 40
0.0
 40
0.0
 40
0.0
 40
0.0
 40
0.0163582929
 40
0.0330514752
 40
0.0500648562
 40
0.0673835117
 40
0.0849915534
 40
0.1028725906
 40
0.1393839944
 40
0.1767770754
 40
0.2149030241
 40
0.2536074772
 40
0.2927317879
 40
0.332114252
 40
0.371591309
 40
0.4109987216
 40
0.4501727494
 40
0.4889513313
 40
0.5271752776
 40
0.56468949
 40
0.601344233
 40
0.6193049121
 40
0.6369977088
 40
0.6544060245
 40
0.6715138637
 40
0.6883058875
 40
0.7047674701
 40
0.7208847578
 40
0.7366447343
 40
0.7520352912
 40
0.7670453061
 40
0.7816647285
 40
0.7958846767
 40
0.8096975447
 40
0.8230971217
 40
0.836078728
 40
0.8486393696
 40
0.860777913
 40
0.8724952842
 40
0.8837946949
 40
0.8946818946
 40
0.905165451
 40
0.9152570556
 40
0.9249718515
 40
0.9343287678
 40
0.9433508423
 40
0.9520655022
 40
0.9605047582
 40
0.9687052601
 40
0.9767081561
 40
0.9845587028
 40
0.9923055922
 40
1.0
 40
1.0
 40
1.0
 40
1.0
 10
16.0491925019
 20
13.5856722297
 30
0.0
 10
16.0442538599
 20
13.5696907783
 30
0.0
 10
16.0346060621
 20
13.5372976305
 30
0.0
 10
16.0209490426
 20
13.4879561695
 30
0.0
 10
16.0079726363
 20
13.4374167865
 30
0.0
 10
15.9956928498
 20
13.3857418673
 30
0.0
 10
15.984124643
 20
13.3329943337
 30
0.0
 10
15.9695676636
 20
13.2608209235
 30
0.0
 10
15.9532867958
 20
13.1683709471
 30
0.0
 10
15.9369256562
 20
13.0549717026
 30
0.0
 10
15.9236878893
 20
12.9389085016
 30
0.0
 10
15.9136387201
 20
12.8207500375
 30
0.0
 10
15.9068276845
 20
12.7010742696
 30
0.0
 10
15.9032883365
 20
12.5804670526
 30
0.0
 10
15.9030381151
 20
12.4595187894
 30
0.0
 10
15.9060782655
 20
12.3388216115
 30
0.0
 10
15.912393807
 20
12.2189663701
 30
0.0
 10
15.9219535992
 20
12.1005398104
 30
0.0
 10
15.9347105331
 20
11.9841212356
 30
0.0
 10
15.9506017722
 20
11.8702811009
 30
0.0
 10
15.9664967386
 20
11.7774072049
 30
0.0
 10
15.9807513404
 20
11.7048527898
 30
0.0
 10
15.9921003565
 20
11.6517920142
 30
0.0
 10
16.004165365
 20
11.5997842808
 30
0.0
 10
16.0169316541
 20
11.5488931557
 30
0.0
 10
16.0303835352
 20
11.4991809975
 30
0.0
 10
16.0445045118
 20
11.45070866
 30
0.0
 10
16.0592772665
 20
11.4035354749
 30
0.0
 10
16.0746836923
 20
11.3577191633
 30
0.0
 10
16.0907049162
 20
11.3133157673
 30
0.0
 10
16.1073213254
 20
11.2703795786
 30
0.0
 10
16.1245125973
 20
11.2289630695
 30
0.0
 10
16.1422577255
 20
11.1891168234
 30
0.0
 10
16.1605350539
 20
11.1508894717
 30
0.0
 10
16.1793223158
 20
11.1143276371
 30
0.0
 10
16.198596671
 20
11.0794758773
 30
0.0
 10
16.2183347479
 20
11.0463766349
 30
0.0
 10
16.2385126877
 20
11.0150701914
 30
0.0
 10
16.2591061954
 20
10.9855946297
 30
0.0
 10
16.2800905853
 20
10.9579858017
 30
0.0
 10
16.3014408342
 20
10.9322773136
 30
0.0
 10
16.3231316354
 20
10.9085005319
 30
0.0
 10
16.3451374393
 20
10.8866846049
 30
0.0
 10
16.3674324803
 20
10.8668565055
 30
0.0
 10
16.3899907754
 20
10.8490410919
 30
0.0
 10
16.4127860798
 20
10.8332611825
 30
0.0
 10
16.4357917883
 20
10.8195376157
 30
0.0
 10
16.4589807434
 20
10.8078892759
 30
0.0
 10
16.482325105
 20
10.7983330493
 30
0.0
 10
16.5057957956
 20
10.7908836435
 30
0.0
 10
16.5293634469
 20
10.7855532635
 30
0.0
 10
16.5529942635
 20
10.7823511502
 30
0.0
 10
16.5687928315
 20
10.7816383324
 30
0.0
 10
16.5766607296
 20
10.7816383269
 30
0.0
  0
SPLINE
  5
2B1
100
AcDbEntity
  8
02___PRT_ALL_AXES
100
AcDbSpline
 62
7
  6
CONTINUOUS
 70
0
 71
3
 72
58
 73
54
 74
0
 42
0.0000001
 43
0.0000001
 44
0.0000000001
 40
0.0
 40
0.0
 40
0.0
 40
0.0
 40
0.0079005425
 40
0.0157346489
 40
0.0235593462
 40
0.031431915
 40
0.0394083577
 40
0.0475419996
 40
0.0558823534
 40
0.0644743184
 40
0.07335772
 40
0.082567152
 40
0.0921320518
 40
0.1020769393
 40
0.1124217505
 40
0.1231822174
 40
0.1343702591
 40
0.1459943593
 40
0.1580599166
 40
0.1705695627
 40
0.1835234457
 40
0.1969194815
 40
0.2107535721
 40
0.2250198003
 40
0.2397105997
 40
0.2548169043
 40
0.2703282804
 40
0.286233043
 40
0.3025183607
 40
0.319170349
 40
0.3361741544
 40
0.3535140341
 40
0.3711734274
 40
0.389135022
 40
0.4258908713
 40
0.4636317295
 40
0.5021979301
 40
0.541423038
 40
0.5811353594
 40
0.6211593853
 40
0.6613171977
 40
0.701429854
 40
0.7413187565
 40
0.7808070283
 40
0.8197209076
 40
0.8578911695
 40
0.8951545984
 40
0.9133979394
 40
0.9313569103
 40
0.9490135459
 40
0.9663504512
 40
0.9833512789
 40
1.0
 40
1.0
 40
1.0
 40
1.0
 10
16.5601665828
 20
13.9447156144
 30
0.0
 10
16.566867641
 20
13.9460681889
 30
0.0
 10
16.5803426423
 20
13.9481654996
 30
0.0
 10
16.6007170813
 20
13.9494293058
 30
0.0
 10
16.6210982043
 20
13.9487892208
 30
0.0
 10
16.6414533023
 20
13.946246153
 30
0.0
 10
16.6617528525
 20
13.9418052731
 30
0.0
 10
16.6819676114
 20
13.9354750102
 30
0.0
 10
16.7020697535
 20
13.9272667162
 30
0.0
 10
16.7220325941
 20
13.9171941307
 30
0.0
 10
16.7418304651
 20
13.9052730481
 30
0.0
 10
16.7614384396
 20
13.8915211297
 30
0.0
 10
16.7808321027
 20
13.8759578553
 30
0.0
 10
16.7999873765
 20
13.8586045613
 30
0.0
 10
16.8188804186
 20
13.8394845159
 30
0.0
 10
16.8374875864
 20
13.8186230037
 30
0.0
 10
16.8557854348
 20
13.7960473826
 30
0.0
 10
16.8737507484
 20
13.771787125
 30
0.0
 10
16.8913605867
 20
13.7458738371
 30
0.0
 10
16.9085923359
 20
13.7183412581
 30
0.0
 10
16.9254237615
 20
13.6892252431
 30
0.0
 10
16.9418330582
 20
13.6585637341
 30
0.0
 10
16.957798902
 20
13.6263967236
 30
0.0
 10
16.9733004926
 20
13.5927662056
 30
0.0
 10
16.9883175915
 20
13.5577161202
 30
0.0
 10
17.0028305607
 20
13.5212922959
 30
0.0
 10
17.0168203961
 20
13.483542388
 30
0.0
 10
17.0302687595
 20
13.4445158155
 30
0.0
 10
17.0431580078
 20
13.4042636934
 30
0.0
 10
17.0554712181
 20
13.3628387685
 30
0.0
 10
17.0671922277
 20
13.320295336
 30
0.0
 10
17.0783056128
 20
13.2766892162
 30
0.0
 10
17.0887968632
 20
13.2320774774
 30
0.0
 10
17.1020382477
 20
13.1708640739
 30
0.0
 10
17.1169012331
 20
13.0922372723
 30
0.0
 10
17.1319225163
 20
12.9955497818
 30
0.0
 10
17.1441842819
 20
12.8963208479
 30
0.0
 10
17.153621808
 20
12.7950711621
 30
0.0
 10
17.1601852584
 20
12.6923310739
 30
0.0
 10
17.1638399627
 20
12.5886392256
 30
0.0
 10
17.1645666326
 20
12.4845392569
 30
0.0
 10
17.1623614321
 20
12.3805770155
 30
0.0
 10
17.1572359981
 20
12.277297586
 30
0.0
 10
17.1492173958
 20
12.1752424892
 30
0.0
 10
17.1383479809
 20
12.0749463989
 30
0.0
 10
17.1246851318
 20
11.9769356698
 30
0.0
 10
17.1109365294
 20
11.8970368279
 30
0.0
 10
17.0985669547
 20
11.8346806065
 30
0.0
 10
17.0887059787
 20
11.7891300473
 30
0.0
 10
17.0782091893
 20
11.7445271682
 30
0.0
 10
17.0670902858
 20
11.7009301545
 30
0.0
 10
17.0553639602
 20
11.6583966353
 30
0.0
 10
17.0470622913
 20
11.6304863006
 30
0.0
 10
17.0428090032
 20
11.6167226552
 30
0.0
  0
SPLINE
  5
2B2
100
AcDbEntity
  8
LAYER_CHAMFER_FEAT
100
AcDbSpline
 62
7
  6
CONTINUOUS
 70
0
 71
3
 72
49
 73
45
 74
0
 42
0.0000001
 43
0.0000001
 44
0.0000000001
 40
0.0
 40
0.0
 40
0.0
 40
0.0
 40
0.0101615053
 40
0.0206688197
 40
0.0315256439
 40
0.0427339836
 40
0.0542943125
 40
0.0662057066
 40
0.0784659546
 40
0.091071679
 40
0.1040184391
 40
0.1173008096
 40
0.1309124526
 40
0.1448462004
 40
0.159094119
 40
0.1736475535
 40
0.203631847
 40
0.2347187907
 40
0.2668181723
 40
0.2998324562
 40
0.3336577918
 40
0.3681849852
 40
0.4033003557
 40
0.4388865721
 40
0.4748234376
 40
0.5109886529
 40
0.5472585665
 40
0.5835089081
 40
0.6196155228
 40
0.6554551063
 40
0.6909059374
 40
0.7258486416
 40
0.760166946
 40
0.7937484961
 40
0.8264856783
 40
0.8582765279
 40
0.8890256948
 40
0.9186455209
 40
0.9330076353
 40
0.9470587184
 40
0.9607905496
 40
0.9741955822
 40
0.9872675144
 40
1.0
 40
1.0
 40
1.0
 40
1.0
 10
16.384532541
 20
13.7191065597
 30
0.0
 10
16.3794620658
 20
13.7130318699
 30
0.0
 10
16.3694037486
 20
13.7004607765
 30
0.0
 10
16.3548049982
 20
13.680717824
 30
0.0
 10
16.3404583936
 20
13.6597947644
 30
0.0
 10
16.3263785193
 20
13.6377130255
 30
0.0
 10
16.3125792936
 20
13.6144946362
 30
0.0
 10
16.2990745383
 20
13.5901629217
 30
0.0
 10
16.2858777424
 20
13.5647423183
 30
0.0
 10
16.2730021337
 20
13.5382583758
 30
0.0
 10
16.2604606502
 20
13.510737711
 30
0.0
 10
16.248265914
 20
13.4822080047
 30
0.0
 10
16.2364301763
 20
13.4526979745
 30
0.0
 10
16.2249653859
 20
13.422237357
 30
0.0
 10
16.2138830208
 20
13.3908567383
 30
0.0
 10
16.199488747
 20
13.3473998963
 30
0.0
 10
16.1825678127
 20
13.2909795541
 30
0.0
 10
16.1641541024
 20
13.2207897402
 30
0.0
 10
16.1475093295
 20
13.1477381864
 30
0.0
 10
16.1327009899
 20
13.0721194784
 30
0.0
 10
16.1197889832
 20
12.9942377571
 30
0.0
 10
16.1088256846
 20
12.9144067683
 30
0.0
 10
16.0998555063
 20
12.8329481925
 30
0.0
 10
16.0929148382
 20
12.7501904076
 30
0.0
 10
16.0880318264
 20
12.6664671113
 30
0.0
 10
16.0852262626
 20
12.5821159556
 30
0.0
 10
16.0845095529
 20
12.4974771614
 30
0.0
 10
16.085884566
 20
12.4128921262
 30
0.0
 10
16.0893457723
 20
12.3287020284
 30
0.0
 10
16.0948790797
 20
12.245246429
 30
0.0
 10
16.102462102
 20
12.162861886
 30
0.0
 10
16.1120640344
 20
12.0818805652
 30
0.0
 10
16.123645991
 20
12.0026288913
 30
0.0
 10
16.1371609885
 20
11.9254261598
 30
0.0
 10
16.1525542839
 20
11.8505833317
 30
0.0
 10
16.1697635619
 20
11.7784013298
 30
0.0
 10
16.1887191124
 20
11.7091711889
 30
0.0
 10
16.2060806927
 20
11.6536128881
 30
0.0
 10
16.2208155078
 20
11.6108896919
 30
0.0
 10
16.2321400301
 20
11.5800846376
 30
0.0
 10
16.2438397228
 20
11.5502190844
 30
0.0
 10
16.2559029549
 20
11.5213227503
 30
0.0
 10
16.2683174165
 20
11.4934252522
 30
0.0
 10
16.2769341426
 20
11.4752699125
 30
0.0
 10
16.2813020204
 20
11.4663691134
 30
0.0
  0
SPLINE
  5
2B3
100
AcDbEntity
  8
LAYER_CHAMFER_FEAT
100
AcDbSpline
 62
7
  6
CONTINUOUS
 70
0
 71
3
 72
19
 73
15
 74
0
 42
0.0000001
 43
0.0000001
 44
0.0000000001
 40
0.0
 40
0.0
 40
0.0
 40
0.0
 40
0.146620721
 40
0.2854286135
 40
0.4170050423
 40
0.5421116456
 40
0.6025517703
 40
0.6617498777
 40
0.7198561407
 40
0.7770322775
 40
0.8334503216
 40
0.8892913471
 40
0.9447435239
 40
1.0
 40
1.0
 40
1.0
 40
1.0
 10
16.3849574036
 20
11.3027981035
 30
0.0
 10
16.3926464164
 20
11.2943750708
 30
0.0
 10
16.4081750374
 20
11.2784751779
 30
0.0
 10
16.4325921419
 20
11.2570693416
 30
0.0
 10
16.4574202456
 20
11.2388360286
 30
0.0
 10
16.4786502483
 20
11.226184872
 30
0.0
 10
16.4957396546
 20
11.217777755
 30
0.0
 10
16.5084702668
 20
11.2123657839
 30
0.0
 10
16.5212519003
 20
11.2077796851
 30
0.0
 10
16.5340765872
 20
11.204022537
 30
0.0
 10
16.5469358617
 20
11.2010973248
 30
0.0
 10
16.5598214014
 20
11.1990062007
 30
0.0
 10
16.5727238718
 20
11.1977508677
 30
0.0
 10
16.581337826
 20
11.1974716659
 30
0.0
 10
16.5856358984
 20
11.1974716704
 30
0.0
  0
SPLINE
  5
2B4
100
AcDbEntity
  8
LAYER_CHAMFER_FEAT
100
AcDbSpline
 62
7
  6
CONTINUOUS
 70
0
 71
3
 72
19
 73
15
 74
0
 42
0.0000001
 43
0.0000001
 44
0.0000000001
 40
0.0
 40
0.0
 40
0.0
 40
0.0
 40
0.055260378
 40
0.1107163387
 40
0.1665608973
 40
0.222982147
 40
0.2801610084
 40
0.3382694758
 40
0.3974691531
 40
0.4579101459
 40
0.5830162519
 40
0.7145889423
 40
0.8533897333
 40
1.0
 40
1.0
 40
1.0
 40
1.0
 10
16.5856358984
 20
13.8241383154
 30
0.0
 10
16.5813393133
 20
13.8241383109
 30
0.0
 10
16.5727283509
 20
13.8238593296
 30
0.0
 10
16.5598303548
 20
13.82260483
 30
0.0
 10
16.5469492592
 20
13.8205151981
 30
0.0
 10
16.5340944187
 20
13.8175919677
 30
0.0
 10
16.5212741084
 20
13.8138374534
 30
0.0
 10
16.5084968225
 20
13.809254503
 30
0.0
 10
16.4957704974
 20
13.8038462672
 30
0.0
 10
16.4786868909
 20
13.7954450034
 30
0.0
 10
16.4574639694
 20
13.7828026256
 30
0.0
 10
16.4326437446
 20
13.7645817771
 30
0.0
 10
16.4082341057
 20
13.743190473
 30
0.0
 10
16.3927098693
 20
13.727301155
 30
0.0
 10
16.3850229912
 20
13.718883708
 30
0.0
  0
SPLINE
  5
2B5
100
AcDbEntity
  8
LAYER_FEATURE
100
AcDbSpline
 62
7
  6
CONTINUOUS
 70
0
 71
3
 72
37
 73
33
 74
0
 42
0.0000001
 43
0.0000001
 44
0.0000000001
 40
0.0
 40
0.0
 40
0.0
 40
0.0
 40
0.0879643884
 40
0.1726563725
 40
0.2137279333
 40
0.2539252434
 40
0.2932329985
 40
0.3316376655
 40
0.3691277208
 40
0.4056937598
 40
0.4413286826
 40
0.4760279105
 40
0.5097895407
 40
0.5426145918
 40
0.5745073007
 40
0.605475348
 40
0.6355301637
 40
0.6646873096
 40
0.6929667933
 40
0.7203934259
 40
0.7469972557
 40
0.7728139315
 40
0.7978850388
 40
0.8222584554
 40
0.8459885955
 40
0.8691365045
 40
0.8917698493
 40
0.9139626995
 40
0.9357950259
 40
0.9573519746
 40
0.978722878
 40
1.0
 40
1.0
 40
1.0
 40
1.0
 10
16.0491925019
 20
13.5856722297
 30
0.0
 10
16.0569020753
 20
13.6106204185
 30
0.0
 10
16.0728180176
 20
13.6593511266
 30
0.0
 10
16.0946158074
 20
13.7189502007
 30
0.0
 10
16.1128585467
 20
13.7647166093
 30
0.0
 10
16.1267674671
 20
13.7976995443
 30
0.0
 10
16.1410318476
 20
13.8296653969
 30
0.0
 10
16.1556405514
 20
13.8605890469
 30
0.0
 10
16.1705820242
 20
13.890446111
 30
0.0
 10
16.185844531
 20
13.9192130629
 30
0.0
 10
16.2014160864
 20
13.9468672411
 30
0.0
 10
16.2172844447
 20
13.973386892
 30
0.0
 10
16.2334371814
 20
13.9987511424
 30
0.0
 10
16.2498616873
 20
14.0229400221
 30
0.0
 10
16.2665451211
 20
14.045934522
 30
0.0
 10
16.283474499
 20
14.0677165522
 30
0.0
 10
16.3006367116
 20
14.0882689396
 30
0.0
 10
16.3180184597
 20
14.107575499
 30
0.0
 10
16.335606331
 20
14.1256209846
 30
0.0
 10
16.3533868322
 20
14.1423910538
 30
0.0
 10
16.3713463216
 20
14.157872335
 30
0.0
 10
16.3894710423
 20
14.1720523929
 30
0.0
 10
16.4077471556
 20
14.1849196537
 30
0.0
 10
16.4261606655
 20
14.1964634622
 30
0.0
 10
16.4446973862
 20
14.2066740994
 30
0.0
 10
16.4633429597
 20
14.2155426932
 30
0.0
 10
16.4820827576
 20
14.2230612889
 30
0.0
 10
16.500901856
 20
14.2292229801
 30
0.0
 10
16.5197848961
 20
14.2340218587
 30
0.0
 10
16.5387166274
 20
14.2374531256
 30
0.0
 10
16.5576798047
 20
14.2395133227
 30
0.0
 10
16.5703446106
 20
14.2399716634
 30
0.0
 10
16.5766607296
 20
14.239971659
 30
0.0
  0
SPLINE
  5
2B6
100
AcDbEntity
  8
LAYER_FEATURE
100
AcDbSpline
 62
7
  6
CONTINUOUS
 70
0
 71
3
 72
58
 73
54
 74
0
 42
0.0000001
 43
0.0000001
 44
0.0000000001
 40
0.0
 40
0.0
 40
0.0
 40
0.0
 40
0.0163582853
 40
0.0330514796
 40
0.050064855
 40
0.0673835119
 40
0.0849915532
 40
0.1028725904
 40
0.1393839949
 40
0.1767770756
 40
0.2149030239
 40
0.2536074775
 40
0.2927317882
 40
0.332114252
 40
0.3715913092
 40
0.4109987215
 40
0.4501727496
 40
0.4889513322
 40
0.5271752772
 40
0.5646894896
 40
0.6013442345
 40
0.6193049136
 40
0.6369977091
 40
0.6544060234
 40
0.6715138622
 40
0.688305887
 40
0.7047674712
 40
0.7208847602
 40
0.7366447361
 40
0.7520352911
 40
0.7670453043
 40
0.7816647266
 40
0.7958846765
 40
0.8096975466
 40
0.8230971245
 40
0.8360787297
 40
0.8486393691
 40
0.8607779109
 40
0.8724952824
 40
0.883794695
 40
0.8946818968
 40
0.9051654534
 40
0.9152570567
 40
0.9249718509
 40
0.9343287663
 40
0.9433508412
 40
0.9520655025
 40
0.9605047596
 40
0.9687052614
 40
0.9767081568
 40
0.984558703
 40
0.9923055922
 40
1.0
 40
1.0
 40
1.0
 40
1.0
 10
13.8000331337
 20
13.5856722297
 30
0.0
 10
13.795094494
 20
13.5696907858
 30
0.0
 10
13.7854466963
 20
13.5372976334
 30
0.0
 10
13.771789675
 20
13.4879561741
 30
0.0
 10
13.7588132686
 20
13.4374167828
 30
0.0
 10
13.7465334816
 20
13.3857418686
 30
0.0
 10
13.7349652742
 20
13.3329943341
 30
0.0
 10
13.7204082942
 20
13.2608209239
 30
0.0
 10
13.7041274301
 20
13.1683709465
 30
0.0
 10
13.687766289
 20
13.0549717023
 30
0.0
 10
13.6745285176
 20
12.938908502
 30
0.0
 10
13.6644793537
 20
12.8207500373
 30
0.0
 10
13.6576683197
 20
12.7010742692
 30
0.0
 10
13.6541289654
 20
12.5804670525
 30
0.0
 10
13.6538787442
 20
12.4595187896
 30
0.0
 10
13.6569189035
 20
12.3388216118
 30
0.0
 10
13.6632344386
 20
12.2189663697
 30
0.0
 10
13.6727942242
 20
12.1005398096
 30
0.0
 10
13.6855511706
 20
11.9841212368
 30
0.0
 10
13.7014424079
 20
11.8702811015
 30
0.0
 10
13.7173373659
 20
11.7774072021
 30
0.0
 10
13.731591968
 20
11.7048527862
 30
0.0
 10
13.7429409885
 20
11.6517920142
 30
0.0
 10
13.7550060014
 20
11.5997842851
 30
0.0
 10
13.7677722908
 20
11.548893161
 30
0.0
 10
13.7812241688
 20
11.4991809997
 30
0.0
 10
13.7953451416
 20
11.450708657
 30
0.0
 10
13.8101178933
 20
11.4035354685
 30
0.0
 10
13.8255243209
 20
11.3577191587
 30
0.0
 10
13.8415455492
 20
11.3133157688
 30
0.0
 10
13.858161962
 20
11.2703795857
 30
0.0
 10
13.8753532337
 20
11.2289630768
 30
0.0
 10
13.8930983584
 20
11.189116825
 30
0.0
 10
13.9113756828
 20
11.1508894662
 30
0.0
 10
13.9301629427
 20
11.1143276283
 30
0.0
 10
13.9494373009
 20
11.0794758728
 30
0.0
 10
13.9691753814
 20
11.0463766384
 30
0.0
 10
13.9893533241
 20
11.0150702011
 30
0.0
 10
14.0099468311
 20
10.9855946381
 30
0.0
 10
14.0309312173
 20
10.957985802
 30
0.0
 10
14.0522814625
 20
10.9322773051
 30
0.0
 10
14.0739722637
 20
10.9085005218
 30
0.0
 10
14.0959780704
 20
10.8866846016
 30
0.0
 10
14.1182731139
 20
10.8668565112
 30
0.0
 10
14.1408314107
 20
10.8490411036
 30
0.0
 10
14.163626714
 20
10.8332611913
 30
0.0
 10
14.1866324193
 20
10.8195376136
 30
0.0
 10
14.2098213727
 20
10.8078892645
 30
0.0
 10
14.2331657358
 20
10.7983330397
 30
0.0
 10
14.2566364278
 20
10.790883643
 30
0.0
 10
14.2802040796
 20
10.7855532685
 30
0.0
 10
14.3038348959
 20
10.7823511716
 30
0.0
 10
14.3196334634
 20
10.7816383213
 30
0.0
 10
14.3275013615
 20
10.7816383327
 30
0.0
  0
SPLINE
  5
2B7
100
AcDbEntity
  8
LAYER_FEATURE
100
AcDbSpline
 62
7
  6
CONTINUOUS
 70
0
 71
3
 72
37
 73
33
 74
0
 42
0.0000001
 43
0.0000001
 44
0.0000000001
 40
0.0
 40
0.0
 40
0.0
 40
0.0
 40
0.0879643961
 40
0.172656366
 40
0.2137279342
 40
0.2539252452
 40
0.2932329961
 40
0.3316376653
 40
0.3691277228
 40
0.4056937574
 40
0.4413286816
 40
0.4760279131
 40
0.5097895384
 40
0.5426145898
 40
0.5745073037
 40
0.6054753468
 40
0.6355301605
 40
0.6646873123
 40
0.6929667938
 40
0.7203934219
 40
0.7469972575
 40
0.7728139336
 40
0.7978850347
 40
0.822258456
 40
0.8459885983
 40
0.8691365012
 40
0.8917698488
 40
0.9139627016
 40
0.9357950243
 40
0.9573519736
 40
0.9787228784
 40
1.0
 40
1.0
 40
1.0
 40
1.0
 10
13.8000331337
 20
13.5856722297
 30
0.0
 10
13.8077427079
 20
13.6106204207
 30
0.0
 10
13.8236586485
 20
13.6593511273
 30
0.0
 10
13.8454564415
 20
13.7189502005
 30
0.0
 10
13.8636991782
 20
13.7647166082
 30
0.0
 10
13.8776080971
 20
13.7976995452
 30
0.0
 10
13.8918724819
 20
13.8296653955
 30
0.0
 10
13.9064811836
 20
13.8605890464
 30
0.0
 10
13.921422653
 20
13.8904461124
 30
0.0
 10
13.9366851657
 20
13.9192130609
 30
0.0
 10
13.9522567195
 20
13.94686724
 30
0.0
 10
13.9681250724
 20
13.9733868944
 30
0.0
 10
13.9842778159
 20
13.9987511401
 30
0.0
 10
14.0007023216
 20
14.0229400198
 30
0.0
 10
14.0173857482
 20
14.0459345254
 30
0.0
 10
14.0343151322
 20
14.0677165507
 30
0.0
 10
14.0514773476
 20
14.0882689353
 30
0.0
 10
14.0688590872
 20
14.1075755029
 30
0.0
 10
14.0864469616
 20
14.1256209857
 30
0.0
 10
14.1042274699
 20
14.1423910467
 30
0.0
 10
14.1221869503
 20
14.1578723386
 30
0.0
 10
14.1403116703
 20
14.1720523982
 30
0.0
 10
14.1585877941
 20
14.1849196432
 30
0.0
 10
14.1770012957
 20
14.1964634643
 30
0.0
 10
14.1955380129
 20
14.20667411
 30
0.0
 10
14.2141835973
 20
14.2155426797
 30
0.0
 10
14.2329233891
 20
14.2230612879
 30
0.0
 10
14.2517424836
 20
14.2292229954
 30
0.0
 10
14.2706255312
 20
14.2340218452
 30
0.0
 10
14.2895572592
 20
14.237453118
 30
0.0
 10
14.3085204353
 20
14.2395133492
 30
0.0
 10
14.3211852425
 20
14.2399716439
 30
0.0
 10
14.3275013615
 20
14.2399716531
 30
0.0
  0
SPLINE
  5
2B8
100
AcDbEntity
  8
LAYER_FEATURE
100
AcDbSpline
 62
7
  6
CONTINUOUS
 70
0
 71
3
 72
11
 73
7
 74
0
 42
0.0000001
 43
0.0000001
 44
0.0000000001
 40
0.0
 40
0.0
 40
0.0
 40
0.0
 40
0.2143563533
 40
0.4516990029
 40
0.7134695137
 40
1.0
 40
1.0
 40
1.0
 40
1.0
 10
13.8346015107
 20
13.1476231887
 30
0.0
 10
13.8353579899
 20
13.1482067304
 30
0.0
 10
13.8368472938
 20
13.1495747075
 30
0.0
 10
13.8388865937
 20
13.152023644
 30
0.0
 10
13.8408252316
 20
13.1549465309
 30
0.0
 10
13.8419885765
 20
13.157099278
 30
0.0
 10
13.8425544385
 20
13.1582441502
 30
0.0
  0
SPLINE
  5
2B9
100
AcDbEntity
  8
LAYER_FEATURE
100
AcDbSpline
 62
7
  6
CONTINUOUS
 70
0
 71
3
 72
16
 73
12
 74
0
 42
0.0000001
 43
0.0000001
 44
0.0000000001
 40
0.0
 40
0.0
 40
0.0
 40
0.0
 40
0.0386809073
 40
0.0783982028
 40
0.1643481123
 40
0.2636793149
 40
0.3791768102
 40
0.5115933316
 40
0.6603261751
 40
0.8238477145
 40
1.0
 40
1.0
 40
1.0
 40
1.0
 10
13.8108180039
 20
13.1476467187
 30
0.0
 10
13.8107054564
 20
13.1476467161
 30
0.0
 10
13.81047683
 20
13.1476258212
 30
0.0
 10
13.810013701
 20
13.1474983367
 30
0.0
 10
13.8094367943
 20
13.147167278
 30
0.0
 10
13.8088057209
 20
13.1465522564
 30
0.0
 10
13.80821869
 20
13.145724829
 30
0.0
 10
13.8076837751
 20
13.1446991612
 30
0.0
 10
13.8072094257
 20
13.1434933261
 30
0.0
 10
13.8068045792
 20
13.1421296483
 30
0.0
 10
13.8065930217
 20
13.1411633068
 30
0.0
 10
13.8064991103
 20
13.1406594443
 30
0.0
  0
SPLINE
  5
2BA
100
AcDbEntity
  8
LAYER_CHAMFER_FEAT
100
AcDbSpline
 62
7
  6
CONTINUOUS
 70
0
 71
3
 72
39
 73
35
 74
0
 42
0.0000001
 43
0.0000001
 44
0.0000000001
 40
0.0
 40
0.0
 40
0.0
 40
0.0
 40
0.0439504527
 40
0.0865559299
 40
0.1278044773
 40
0.1676923359
 40
0.2062207637
 40
0.2433985035
 40
0.2792420407
 40
0.3137765137
 40
0.3470366692
 40
0.3790678449
 40
0.4099270313
 40
0.4396838965
 40
0.468421688
 40
0.4962379307
 40
0.5232447534
 40
0.5495686752
 40
0.5753496581
 40
0.6007393082
 40
0.625898211
 40
0.6509924967
 40
0.6761898837
 40
0.7016555635
 40
0.7275483367
 40
0.7540173375
 40
0.7811995651
 40
0.809218283
 40
0.8381822595
 40
0.8681856923
 40
0.8993086361
 40
0.9316177586
 40
0.9651672759
 40
1.0
 40
1.0
 40
1.0
 40
1.0
 10
16.9268122162
 20
13.5552408724
 30
0.0
 10
16.9221912605
 20
13.56465739
 30
0.0
 10
16.9128337102
 20
13.583077687
 30
0.0
 10
16.8982118898
 20
13.6098517088
 30
0.0
 10
16.8832377241
 20
13.6353124002
 30
0.0
 10
16.8679292309
 20
13.6594291093
 30
0.0
 10
16.8523042441
 20
13.6821733687
 30
0.0
 10
16.836381135
 20
13.7035181044
 30
0.0
 10
16.8201784628
 20
13.7234379801
 30
0.0
 10
16.8037150165
 20
13.7419092864
 30
0.0
 10
16.787009774
 20
13.7589099499
 30
0.0
 10
16.7700818691
 20
13.7744195
 30
0.0
 10
16.7529505997
 20
13.7884190427
 30
0.0
 10
16.7356354557
 20
13.8008912253
 30
0.0
 10
16.7181561587
 20
13.8118201596
 30
0.0
 10
16.700532775
 20
13.8211913942
 30
0.0
 10
16.6827858577
 20
13.8289919233
 30
0.0
 10
16.6649366288
 20
13.8352103091
 30
0.0
 10
16.6470071238
 20
13.8398368847
 30
0.0
 10
16.6290202489
 20
13.8428640186
 30
0.0
 10
16.6109997086
 20
13.8442864662
 30
0.0
 10
16.5929697594
 20
13.844101668
 30
0.0
 10
16.5749548265
 20
13.8423099641
 30
0.0
 10
16.556979069
 20
13.8389145517
 30
0.0
 10
16.5390660238
 20
13.8339212535
 30
0.0
 10
16.5212383972
 20
13.8273381982
 30
0.0
 10
16.5035180306
 20
13.8191754783
 30
0.0
 10
16.4859259737
 20
13.8094449134
 30
0.0
 10
16.4684826557
 20
13.7981598461
 30
0.0
 10
16.4512080454
 20
13.7853350495
 30
0.0
 10
16.434121829
 20
13.7709867729
 30
0.0
 10
16.4172433515
 20
13.7551325997
 30
0.0
 10
16.4005922603
 20
13.7377922514
 30
0.0
 10
16.3898596209
 20
13.7254886753
 30
0.0
 10
16.384532541
 20
13.7191065597
 30
0.0
  0
SPLINE
  5
2BB
100
AcDbEntity
  8
LAYER_FEATURE
100
AcDbSpline
 62
7
  6
CONTINUOUS
 70
0
 71
3
 72
16
 73
12
 74
0
 42
0.0000001
 43
0.0000001
 44
0.0000000001
 40
0.0
 40
0.0
 40
0.0
 40
0.0
 40
0.0405213235
 40
0.0819323052
 40
0.1703890048
 40
0.2706761806
 40
0.385689778
 40
0.5165888789
 40
0.663310308
 40
0.8249534988
 40
1.0
 40
1.0
 40
1.0
 40
1.0
 10
13.8416740987
 20
13.3094884426
 30
0.0
 10
13.8415728686
 20
13.3094884408
 30
0.0
 10
13.8413678035
 20
13.30947159
 30
0.0
 10
13.8409530408
 20
13.309369167
 30
0.0
 10
13.8404340119
 20
13.3091036791
 30
0.0
 10
13.8398566104
 20
13.3086034526
 30
0.0
 10
13.8393126595
 20
13.3079264637
 30
0.0
 10
13.8388079438
 20
13.3070826581
 30
0.0
 10
13.838348628
 20
13.3060841584
 30
0.0
 10
13.8379415522
 20
13.3049458648
 30
0.0
 10
13.837717217
 20
13.3041344206
 30
0.0
 10
13.8376138036
 20
13.3037095243
 30
0.0
  0
SPLINE
  5
2BC
100
AcDbEntity
  8
LAYER_CHAMFER_FEAT
100
AcDbSpline
 62
7
  6
CONTINUOUS
 70
0
 71
3
 72
26
 73
22
 74
0
 42
0.0000001
 43
0.0000001
 44
0.0000000001
 40
0.0
 40
0.0
 40
0.0
 40
0.0
 40
0.0835123125
 40
0.1639107625
 40
0.241170611
 40
0.3152881401
 40
0.3862822526
 40
0.4541980949
 40
0.519110318
 40
0.5811270538
 40
0.640394073
 40
0.6970990332
 40
0.7514753335
 40
0.8038049211
 40
0.8544191309
 40
0.8792073522
 40
0.9037123611
 40
0.9279878318
 40
0.9520893421
 40
0.9760740154
 40
1.0
 40
1.0
 40
1.0
 40
1.0
 10
16.9035496698
 20
13.5395743342
 30
0.0
 10
16.8980529328
 20
13.5507755066
 30
0.0
 10
16.8868963952
 20
13.5725824327
 30
0.0
 10
16.8693182707
 20
13.6040455843
 30
0.0
 10
16.8512412974
 20
13.6335929011
 30
0.0
 10
16.8326967977
 20
13.6611725583
 30
0.0
 10
16.8137163101
 20
13.6867368107
 30
0.0
 10
16.7943319575
 20
13.7102412025
 30
0.0
 10
16.7745761683
 20
13.7316447583
 30
0.0
 10
16.7544816646
 20
13.7509098414
 30
0.0
 10
16.7340813406
 20
13.768002031
 30
0.0
 10
16.7134085605
 20
13.7828898721
 30
0.0
 10
16.692496591
 20
13.795544818
 30
0.0
 10
16.6713817925
 20
13.805940547
 30
0.0
 10
16.6535191365
 20
13.8127495768
 30
0.0
 10
16.639207817
 20
13.8170102304
 30
0.0
 10
16.6285228081
 20
13.8196092824
 30
0.0
 10
16.6178183921
 20
13.8216321122
 30
0.0
 10
16.6070990491
 20
13.8230777065
 30
0.0
 10
16.5963701763
 20
13.8239454037
 30
0.0
 10
16.5892105709
 20
13.8241383191
 30
0.0
 10
16.5856358984
 20
13.8241383154
 30
0.0
  0
SPLINE
  5
2BD
100
AcDbEntity
  8
LAYER_FEATURE
100
AcDbSpline
 62
7
  6
CONTINUOUS
 70
0
 71
3
 72
79
 73
75
 74
0
 42
0.0000001
 43
0.0000001
 44
0.0000000001
 40
0.0
 40
0.0
 40
0.0
 40
0.0
 40
0.0178417201
 40
0.0361841921
 40
0.0549959075
 40
0.0742430753
 40
0.0938901923
 40
0.1139001151
 40
0.1342342848
 40
0.154852906
 40
0.1757151227
 40
0.196779187
 40
0.218002622
 40
0.2393423817
 40
0.2607550075
 40
0.282196785
 40
0.3036238973
 40
0.3249925791
 40
0.3462592699
 40
0.3673807703
 40
0.3883143977
 40
0.4090181451
 40
0.429450843
 40
0.4495723258
 40
0.4693436062
 40
0.488727055
 40
0.50768659
 40
0.5261878789
 40
0.5441985574
 40
0.5616884705
 40
0.5786299386
 40
0.5949980552
 40
0.6107710271
 40
0.6259305702
 40
0.6404623726
 40
0.6543566455
 40
0.6676087732
 40
0.6802200909
 40
0.6921988114
 40
0.7035611142
 40
0.7143323942
 40
0.7245486261
 40
0.7342577376
 40
0.7435207894
 40
0.748009561
 40
0.7524160582
 40
0.756751728
 40
0.7610287663
 40
0.7652600166
 40
0.7694588549
 40
0.7736390482
 40
0.7778145917
 40
0.7819995388
 40
0.7862078267
 40
0.7904531069
 40
0.7947485892
 40
0.799106912
 40
0.8035400234
 40
0.808059108
 40
0.8126745221
 40
0.8222286927
 40
0.8322712907
 40
0.8428544751
 40
0.8540180258
 40
0.8657906807
 40
0.8781915212
 40
0.8912312667
 40
0.9049134172
 40
0.9192352325
 40
0.9341885562
 40
0.9497605016
 40
0.9659340665
 40
0.9826884873
 40
1.0
 40
1.0
 40
1.0
 40
1.0
 10
16.0924621506
 20
13.5309486903
 30
0.0
 10
16.0858658831
 20
13.5096031608
 30
0.0
 10
16.0731113604
 20
13.4661181911
 30
0.0
 10
16.055504418
 20
13.3995332482
 30
0.0
 10
16.0391887775
 20
13.3308100208
 30
0.0
 10
16.0242040061
 20
13.2601141927
 30
0.0
 10
16.010586189
 20
13.187615541
 30
0.0
 10
15.9983682118
 20
13.1134883863
 30
0.0
 10
15.9875795555
 20
13.0379109793
 30
0.0
 10
15.9782462617
 20
12.9610651154
 30
0.0
 10
15.9703908626
 20
12.8831356687
 30
0.0
 10
15.9640323264
 20
12.8043101475
 30
0.0
 10
15.959186011
 20
12.724778236
 30
0.0
 10
15.955863621
 20
12.6447313353
 30
0.0
 10
15.9540731741
 20
12.5643620975
 30
0.0
 10
15.9538189922
 20
12.4838639562
 30
0.0
 10
15.9551016895
 20
12.4034306578
 30
0.0
 10
15.9579181712
 20
12.3232557916
 30
0.0
 10
15.9622616408
 20
12.2435323199
 30
0.0
 10
15.968121605
 20
12.1644521087
 30
0.0
 10
15.9754839108
 20
12.086205461
 30
0.0
 10
15.9843307812
 20
12.0089806557
 30
0.0
 10
15.9946408578
 20
11.9329634898
 30
0.0
 10
16.0063892563
 20
11.8583368251
 30
0.0
 10
16.0195476169
 20
11.7852801372
 30
0.0
 10
16.034084181
 20
11.7139690761
 30
0.0
 10
16.0499638784
 20
11.6445750366
 30
0.0
 10
16.067148416
 20
11.577264737
 30
0.0
 10
16.085596382
 20
11.5121998037
 30
0.0
 10
16.1052633542
 20
11.4495363639
 30
0.0
 10
16.1261020199
 20
11.3894246493
 30
0.0
 10
16.1480623308
 20
11.3320086214
 30
0.0
 10
16.1710916597
 20
11.2774256091
 30
0.0
 10
16.1951349829
 20
11.2258059606
 30
0.0
 10
16.2201350921
 20
11.177272717
 30
0.0
 10
16.2460328215
 20
11.1319413103
 30
0.0
 10
16.2727673424
 20
11.0899193293
 30
0.0
 10
16.3002764959
 20
11.0513063515
 30
0.0
 10
16.328497114
 20
11.0161939002
 30
0.0
 10
16.3573655154
 20
10.9846655098
 30
0.0
 10
16.3868173538
 20
10.9567972079
 30
0.0
 10
16.4167892
 20
10.9326575806
 30
0.0
 10
16.4472130215
 20
10.9123105073
 30
0.0
 10
16.4731627847
 20
10.8984169166
 30
0.0
 10
16.4940208095
 20
10.8893391582
 30
0.0
 10
16.5095647537
 20
10.8835787941
 30
0.0
 10
16.5251611373
 20
10.8788004698
 30
0.0
 10
16.5408006828
 20
10.8750072402
 30
0.0
 10
16.5564735375
 20
10.8722019297
 30
0.0
 10
16.5721698245
 20
10.8703866198
 30
0.0
 10
16.5878795205
 20
10.869562587
 30
0.0
 10
16.6035925569
 20
10.8697305619
 30
0.0
 10
16.6192988388
 20
10.8708903194
 30
0.0
 10
16.6349883086
 20
10.8730410388
 30
0.0
 10
16.6506509828
 20
10.8761811299
 30
0.0
 10
16.666277014
 20
10.8803082283
 30
0.0
 10
16.6818566761
 20
10.8854194928
 30
0.0
 10
16.6973803497
 20
10.891511199
 30
0.0
 10
16.7128389183
 20
10.8985794624
 30
0.0
 10
16.7335874812
 20
10.9094228997
 30
0.0
 10
16.7593497075
 20
10.9255067919
 30
0.0
 10
16.7894768398
 20
10.948398168
 30
0.0
 10
16.8191081938
 20
10.9750409049
 30
0.0
 10
16.8481765182
 20
11.0053668893
 30
0.0
 10
16.8766184697
 20
11.0393029707
 30
0.0
 10
16.9043699225
 20
11.0767680463
 30
0.0
 10
16.9313675551
 20
11.1176732886
 30
0.0
 10
16.9575488172
 20
11.1619217795
 30
0.0
 10
16.9828524041
 20
11.209408568
 30
0.0
 10
17.0072185664
 20
11.2600207945
 30
0.0
 10
17.0305894306
 20
11.3136378786
 30
0.0
 10
17.0529092158
 20
11.3701319468
 30
0.0
 10
17.0741243825
 20
11.4293674054
 30
0.0
 10
17.0872895363
 20
11.4699500971
 30
0.0
 10
17.0936897807
 20
11.4906612955
 30
0.0
  0
SPLINE
  5
2BE
100
AcDbEntity
  8
LAYER_FEATURE
100
AcDbSpline
 62
7
  6
CONTINUOUS
 70
0
 71
3
 72
58
 73
54
 74
0
 42
0.0000001
 43
0.0000001
 44
0.0000000001
 40
0.0
 40
0.0
 40
0.0
 40
0.0
 40
0.0163582929
 40
0.0330514752
 40
0.0500648562
 40
0.0673835117
 40
0.0849915534
 40
0.1028725906
 40
0.1393839944
 40
0.1767770754
 40
0.2149030241
 40
0.2536074772
 40
0.2927317879
 40
0.332114252
 40
0.371591309
 40
0.4109987216
 40
0.4501727494
 40
0.4889513313
 40
0.5271752776
 40
0.56468949
 40
0.601344233
 40
0.6193049121
 40
0.6369977088
 40
0.6544060245
 40
0.6715138637
 40
0.6883058875
 40
0.7047674701
 40
0.7208847578
 40
0.7366447343
 40
0.7520352912
 40
0.7670453061
 40
0.7816647285
 40
0.7958846767
 40
0.8096975447
 40
0.8230971217
 40
0.836078728
 40
0.8486393696
 40
0.860777913
 40
0.8724952842
 40
0.8837946949
 40
0.8946818946
 40
0.905165451
 40
0.9152570556
 40
0.9249718515
 40
0.9343287678
 40
0.9433508423
 40
0.9520655022
 40
0.9605047582
 40
0.9687052601
 40
0.9767081561
 40
0.9845587028
 40
0.9923055922
 40
1.0
 40
1.0
 40
1.0
 40
1.0
 10
16.0873346022
 20
13.5856722297
 30
0.0
 10
16.0823959602
 20
13.5696907783
 30
0.0
 10
16.0727481624
 20
13.5372976305
 30
0.0
 10
16.0590911429
 20
13.4879561695
 30
0.0
 10
16.0461147366
 20
13.4374167865
 30
0.0
 10
16.0338349501
 20
13.3857418673
 30
0.0
 10
16.0222667433
 20
13.3329943337
 30
0.0
 10
16.0077097639
 20
13.2608209235
 30
0.0
 10
15.9914288961
 20
13.1683709471
 30
0.0
 10
15.9750677565
 20
13.0549717026
 30
0.0
 10
15.9618299896
 20
12.9389085016
 30
0.0
 10
15.9517808204
 20
12.8207500375
 30
0.0
 10
15.9449697848
 20
12.7010742696
 30
0.0
 10
15.9414304368
 20
12.5804670526
 30
0.0
 10
15.9411802154
 20
12.4595187894
 30
0.0
 10
15.9442203658
 20
12.3388216115
 30
0.0
 10
15.9505359074
 20
12.2189663701
 30
0.0
 10
15.9600956995
 20
12.1005398104
 30
0.0
 10
15.9728526334
 20
11.9841212356
 30
0.0
 10
15.9887438726
 20
11.8702811009
 30
0.0
 10
16.0046388389
 20
11.7774072049
 30
0.0
 10
16.0188934408
 20
11.7048527898
 30
0.0
 10
16.0302424568
 20
11.6517920142
 30
0.0
 10
16.0423074653
 20
11.5997842808
 30
0.0
 10
16.0550737544
 20
11.5488931557
 30
0.0
 10
16.0685256355
 20
11.4991809975
 30
0.0
 10
16.0826466122
 20
11.45070866
 30
0.0
 10
16.0974193668
 20
11.4035354749
 30
0.0
 10
16.1128257927
 20
11.3577191633
 30
0.0
 10
16.1288470166
 20
11.3133157673
 30
0.0
 10
16.1454634257
 20
11.2703795786
 30
0.0
 10
16.1626546976
 20
11.2289630695
 30
0.0
 10
16.1803998258
 20
11.1891168234
 30
0.0
 10
16.1986771542
 20
11.1508894717
 30
0.0
 10
16.2174644161
 20
11.1143276371
 30
0.0
 10
16.2367387713
 20
11.0794758773
 30
0.0
 10
16.2564768482
 20
11.0463766349
 30
0.0
 10
16.276654788
 20
11.0150701914
 30
0.0
 10
16.2972482957
 20
10.9855946297
 30
0.0
 10
16.3182326856
 20
10.9579858017
 30
0.0
 10
16.3395829346
 20
10.9322773136
 30
0.0
 10
16.3612737357
 20
10.9085005319
 30
0.0
 10
16.3832795396
 20
10.8866846049
 30
0.0
 10
16.4055745806
 20
10.8668565055
 30
0.0
 10
16.4281328757
 20
10.8490410919
 30
0.0
 10
16.4509281802
 20
10.8332611825
 30
0.0
 10
16.4739338886
 20
10.8195376157
 30
0.0
 10
16.4971228437
 20
10.8078892759
 30
0.0
 10
16.5204672053
 20
10.7983330493
 30
0.0
 10
16.5439378959
 20
10.7908836435
 30
0.0
 10
16.5675055472
 20
10.7855532635
 30
0.0
 10
16.5911363638
 20
10.7823511502
 30
0.0
 10
16.6069349318
 20
10.7816383324
 30
0.0
 10
16.6148028299
 20
10.7816383269
 30
0.0
  0
SPLINE
  5
2BF
100
AcDbEntity
  8
LAYER_FEATURE
100
AcDbSpline
 62
7
  6
CONTINUOUS
 70
0
 71
3
 72
15
 73
11
 74
0
 42
0.0000001
 43
0.0000001
 44
0.0000000001
 40
0.0
 40
0.0
 40
0.0
 40
0.0
 40
0.085851709
 40
0.1774225667
 40
0.2792248012
 40
0.3941414306
 40
0.5236377513
 40
0.6681055709
 40
0.8272097206
 40
1.0
 40
1.0
 40
1.0
 40
1.0
 10
13.8793926401
 20
13.4614408498
 30
0.0
 10
13.8792116009
 20
13.4614408379
 30
0.0
 10
13.8788355759
 20
13.4613845857
 30
0.0
 10
13.8782936346
 20
13.4611396562
 30
0.0
 10
13.8777727189
 20
13.4607434213
 30
0.0
 10
13.8772766639
 20
13.4602037947
 30
0.0
 10
13.8768089765
 20
13.4595277022
 30
0.0
 10
13.8763741608
 20
13.4587229507
 30
0.0
 10
13.8759771574
 20
13.4577990357
 30
0.0
 10
13.8757495834
 20
13.4571364966
 30
0.0
 10
13.8756420041
 20
13.4567883697
 30
0.0
  0
SPLINE
  5
2C0
100
AcDbEntity
  8
LAYER_CUT_FEAT
100
AcDbSpline
 62
7
  6
CONTINUOUS
 70
0
 71
3
 72
31
 73
27
 74
0
 42
0.0000001
 43
0.0000001
 44
0.0000000001
 40
0.0
 40
0.0
 40
0.0
 40
0.0
 40
0.0155099362
 40
0.0313834526
 40
0.0479543449
 40
0.0655056995
 40
0.0842610187
 40
0.1043851899
 40
0.1259907877
 40
0.149146033
 40
0.1738823919
 40
0.2002010174
 40
0.2280781122
 40
0.2574691386
 40
0.2883121212
 40
0.3205302466
 40
0.3540339851
 40
0.3887229655
 40
0.4612014658
 40
0.5370088723
 40
0.6150865314
 40
0.694316797
 40
0.7735528235
 40
0.8516476253
 40
0.9274826687
 40
1.0
 40
1.0
 40
1.0
 40
1.0
 10
16.1743649153
 20
11.7718319023
 30
0.0
 10
16.1752520087
 20
11.7718318946
 30
0.0
 10
16.1770504801
 20
11.7719847611
 30
0.0
 10
16.1797185171
 20
11.7726672712
 30
0.0
 10
16.1823566986
 20
11.7737970989
 30
0.0
 10
16.1849525761
 20
11.7753654016
 30
0.0
 10
16.1874968073
 20
11.7773626761
 30
0.0
 10
16.189980357
 20
11.779778989
 30
0.0
 10
16.1923943406
 20
11.7826036222
 30
0.0
 10
16.1947297071
 20
11.7858246585
 30
0.0
 10
16.1969773371
 20
11.7894287105
 30
0.0
 10
16.1991281872
 20
11.7934007905
 30
0.0
 10
16.2011734041
 20
11.7977243148
 30
0.0
 10
16.2031044401
 20
11.8023811457
 30
0.0
 10
16.2049131449
 20
11.8073516664
 30
0.0
 10
16.2065918167
 20
11.8126148476
 30
0.0
 10
16.2081333649
 20
11.8181484013
 30
0.0
 10
16.2100245413
 20
11.8259700464
 30
0.0
 10
16.2119851114
 20
11.8362574044
 30
0.0
 10
16.2136723635
 20
11.8491002898
 30
0.0
 10
16.2146979594
 20
11.8624000439
 30
0.0
 10
16.2150441074
 20
11.8759306086
 30
0.0
 10
16.2147048151
 20
11.8894623098
 30
0.0
 10
16.2136859409
 20
11.9027655255
 30
0.0
 10
16.2120052918
 20
11.9156139122
 30
0.0
 10
16.2104204909
 20
11.9239560416
 30
0.0
 10
16.2095124316
 20
11.9280030594
 30
0.0
  0
SPLINE
  5
2C1
100
AcDbEntity
  8
02___PRT_ALL_AXES
100
AcDbSpline
 62
7
  6
CONTINUOUS
 70
0
 71
3
 72
52
 73
48
 74
0
 42
0.0000001
 43
0.0000001
 44
0.0000000001
 40
0.0
 40
0.0
 40
0.0
 40
0.0
 40
0.0077385393
 40
0.0156305259
 40
0.0237166866
 40
0.032034043
 40
0.040615616
 40
0.04949033
 40
0.058683073
 40
0.0682148665
 40
0.078103101
 40
0.0883618135
 40
0.0990019744
 40
0.1100317667
 40
0.1214568499
 40
0.1332805982
 40
0.1455043234
 40
0.1581274738
 40
0.1711478092
 40
0.1845615554
 40
0.1983635377
 40
0.2125473031
 40
0.2271052319
 40
0.2420286329
 40
0.2573078292
 40
0.2729322325
 40
0.2888904126
 40
0.305170165
 40
0.3386407353
 40
0.3732343372
 40
0.4088308118
 40
0.445302311
 40
0.482514537
 40
0.5203279131
 40
0.5585986902
 40
0.5971799959
 40
0.6359228725
 40
0.6746772812
 40
0.7132931083
 40
0.7516211624
 40
0.7895141872
 40
0.8268278855
 40
0.8634219673
 40
0.8991612563
 40
0.9339168235
 40
0.9675672113
 40
1.0
 40
1.0
 40
1.0
 40
1.0
 10
16.5601665828
 20
11.0768943708
 30
0.0
 10
16.5538263043
 20
11.078174125
 30
0.0
 10
16.5411237249
 20
11.0813029015
 30
0.0
 10
16.5223053924
 20
11.0875970027
 30
0.0
 10
16.5035868631
 20
11.0955212385
 30
0.0
 10
16.4849914196
 20
11.105064151
 30
0.0
 10
16.466539357
 20
11.1162131606
 30
0.0
 10
16.448251121
 20
11.128954108
 30
0.0
 10
16.4301466165
 20
11.1432714404
 30
0.0
 10
16.4122455496
 20
11.1591481448
 30
0.0
 10
16.3945674082
 20
11.1765656989
 30
0.0
 10
16.3771315243
 20
11.1955040429
 30
0.0
 10
16.3599570668
 20
11.2159415424
 30
0.0
 10
16.3430630254
 20
11.2378549612
 30
0.0
 10
16.3264681861
 20
11.261219445
 30
0.0
 10
16.3101910819
 20
11.2860085069
 30
0.0
 10
16.2942499687
 20
11.3121940478
 30
0.0
 10
16.2786627931
 20
11.3397463801
 30
0.0
 10
16.2634471567
 20
11.3686342524
 30
0.0
 10
16.2486202893
 20
11.3988248779
 30
0.0
 10
16.2341990065
 20
11.4302839599
 30
0.0
 10
16.220199688
 20
11.4629757331
 30
0.0
 10
16.2066382585
 20
11.4968630128
 30
0.0
 10
16.1935301641
 20
11.5319072346
 30
0.0
 10
16.1808903431
 20
11.5680685098
 30
0.0
 10
16.1687332395
 20
11.6053056206
 30
0.0
 10
16.1570726175
 20
11.6435762404
 30
0.0
 10
16.1420668207
 20
11.6964108754
 30
0.0
 10
16.1246854331
 20
11.7647489326
 30
0.0
 10
16.106194374
 20
11.8494115237
 30
0.0
 10
16.0899664055
 20
11.9370884578
 30
0.0
 10
16.0760759609
 20
12.0273798767
 30
0.0
 10
16.0645867059
 20
12.1198749067
 30
0.0
 10
16.0555513181
 20
12.2141520905
 30
0.0
 10
16.0490112806
 20
12.3097817872
 30
0.0
 10
16.0449965672
 20
12.4063280524
 30
0.0
 10
16.0435256116
 20
12.503350701
 30
0.0
 10
16.0446051753
 20
12.6004073396
 30
0.0
 10
16.0482302745
 20
12.6970554173
 30
0.0
 10
16.0543843098
 20
12.7928542742
 30
0.0
 10
16.0630390255
 20
12.8873671922
 30
0.0
 10
16.0741547118
 20
12.9801634041
 30
0.0
 10
16.0876804233
 20
13.0708201612
 30
0.0
 10
16.1035540686
 20
13.1589244965
 30
0.0
 10
16.1217030642
 20
13.2440759207
 30
0.0
 10
16.142043826
 20
13.3258856654
 30
0.0
 10
16.157301528
 20
13.3789873304
 30
0.0
 10
16.1653052335
 20
13.4048873306
 30
0.0
  0
SPLINE
  5
2C2
100
AcDbEntity
  8
02___PRT_ALL_AXES
100
AcDbSpline
 62
7
  6
CONTINUOUS
 70
0
 71
3
 72
25
 73
21
 74
0
 42
0.0000001
 43
0.0000001
 44
0.0000000001
 40
0.0
 40
0.0
 40
0.0
 40
0.0
 40
0.0855338275
 40
0.1681803304
 40
0.2478120783
 40
0.3243189428
 40
0.3976123459
 40
0.4676276325
 40
0.5343277504
 40
0.5977075068
 40
0.6577987159
 40
0.714676341
 40
0.7684656407
 40
0.8193500928
 40
0.8675795784
 40
0.9134776034
 40
0.9356837065
 40
0.9574640883
 40
0.9788807852
 40
1.0
 40
1.0
 40
1.0
 40
1.0
 10
16.1653052335
 20
13.4048873306
 30
0.0
 10
16.17116855
 20
13.4238610299
 30
0.0
 10
16.1832432149
 20
13.4610023861
 30
0.0
 10
16.2027608341
 20
13.5151376596
 30
0.0
 10
16.223332968
 20
13.5666325175
 30
0.0
 10
16.2449056704
 20
13.6153518434
 30
0.0
 10
16.2674227061
 20
13.6611686545
 30
0.0
 10
16.290825695
 20
13.7039637023
 30
0.0
 10
16.3150544076
 20
13.7436259149
 30
0.0
 10
16.3400471429
 20
13.7800525609
 30
0.0
 10
16.3657410912
 20
13.8131493452
 30
0.0
 10
16.3920728877
 20
13.8428303726
 30
0.0
 10
16.4189785181
 20
13.8690176662
 30
0.0
 10
16.4463950366
 20
13.89164102
 30
0.0
 10
16.4742549534
 20
13.910635117
 30
0.0
 10
16.4980517075
 20
13.923532441
 30
0.0
 10
16.5171837312
 20
13.9318929694
 30
0.0
 10
16.5314369108
 20
13.9371576575
 30
0.0
 10
16.545739559
 20
13.9414802354
 30
0.0
 10
16.5553601182
 20
13.9437454539
 30
0.0
 10
16.5601665828
 20
13.9447156144
 30
0.0
  0
SPLINE
  5
2C3
100
AcDbEntity
  8
LAYER_CHAMFER_FEAT
100
AcDbSpline
 62
7
  6
CONTINUOUS
 70
0
 71
3
 72
77
 73
73
 74
0
 42
0.0000001
 43
0.0000001
 44
0.0000000001
 40
0.0
 40
0.0
 40
0.0
 40
0.0
 40
0.0113885234
 40
0.0222284695
 40
0.0325471002
 40
0.0375228692
 40
0.0423827185
 40
0.0517773128
 40
0.0607897051
 40
0.0651747409
 40
0.0694904635
 40
0.0737469148
 40
0.077954681
 40
0.0821248241
 40
0.0862687843
 40
0.0903982742
 40
0.0945251598
 40
0.0986613346
 40
0.1028185931
 40
0.1070085097
 40
0.1112423227
 40
0.1155308392
 40
0.1198843442
 40
0.1288217474
 40
0.1381274873
 40
0.1478606841
 40
0.1580697492
 40
0.1687930038
 40
0.1800595861
 40
0.1918904574
 40
0.2042993895
 40
0.2172938704
 40
0.2308759039
 40
0.2450426992
 40
0.2597872593
 40
0.2750988802
 40
0.2909635753
 40
0.307364437
 40
0.3242819482
 40
0.3416942515
 40
0.3595773868
 40
0.3779055006
 40
0.3966510358
 40
0.415784903
 40
0.4352766387
 40
0.4550945535
 40
0.4752058701
 40
0.4955768555
 40
0.5161729479
 40
0.5369588782
 40
0.5578987895
 40
0.5789563529
 40
0.6212757824
 40
0.6636230811
 40
0.6847153985
 40
0.7057038183
 40
0.7265518641
 40
0.747223488
 40
0.7676831862
 40
0.787896117
 40
0.8078282211
 40
0.827446347
 40
0.8467183803
 40
0.86561338
 40
0.8841017222
 40
0.9021552545
 40
0.9197474613
 40
0.936853649
 40
0.9534511386
 40
0.9695195178
 40
0.9850408285
 40
1.0
 40
1.0
 40
1.0
 40
1.0
 10
16.3845325409
 20
11.3025034257
 30
0.0
 10
16.3914847703
 20
11.2941743153
 30
0.0
 10
16.4055205426
 20
11.2782972107
 30
0.0
 10
16.4275202564
 20
11.2564171376
 30
0.0
 10
16.446391947
 20
11.2401382951
 30
0.0
 10
16.4616529441
 20
11.2284795031
 30
0.0
 10
16.4766585474
 20
11.2179627139
 30
0.0
 10
16.4956098737
 20
11.2064079496
 30
0.0
 10
16.5151622628
 20
11.1968790326
 30
0.0
 10
16.5308604483
 20
11.1906711577
 30
0.0
 10
16.5425674379
 20
11.1867388619
 30
0.0
 10
16.554307321
 20
11.1834908272
 30
0.0
 10
16.5660741515
 20
11.1809289005
 30
0.0
 10
16.5778615639
 20
11.1790546281
 30
0.0
 10
16.5896632291
 20
11.1778691906
 30
0.0
 10
16.6014727351
 20
11.1773733123
 30
0.0
 10
16.6132836508
 20
11.1775673038
 30
0.0
 10
16.6250895367
 20
11.1784510618
 30
0.0
 10
16.6368839724
 20
11.1800239948
 30
0.0
 10
16.6486605901
 20
11.1822851907
 30
0.0
 10
16.6604130143
 20
11.1852331551
 30
0.0
 10
16.6721352526
 20
11.1888663625
 30
0.0
 10
16.6878513703
 20
11.1946708017
 30
0.0
 10
16.7074374642
 20
11.2036976418
 30
0.0
 10
16.7304957272
 20
11.2171347604
 30
0.0
 10
16.7532742467
 20
11.2332385342
 30
0.0
 10
16.7757278099
 20
11.2519711617
 30
0.0
 10
16.79781467
 20
11.2732920087
 30
0.0
 10
16.819492665
 20
11.2971562182
 30
0.0
 10
16.8407200888
 20
11.3235146251
 30
0.0
 10
16.8614554672
 20
11.3523134077
 30
0.0
 10
16.8816577942
 20
11.383493967
 30
0.0
 10
16.9012866925
 20
11.4169928772
 30
0.0
 10
16.9203026046
 20
11.4527419234
 30
0.0
 10
16.9386669601
 20
11.4906681906
 30
0.0
 10
16.9563423275
 20
11.5306941915
 30
0.0
 10
16.9732925466
 20
11.5727380198
 30
0.0
 10
16.9894828451
 20
11.6167135215
 30
0.0
 10
17.0048799416
 20
11.6625304793
 30
0.0
 10
17.019452137
 20
11.7100948074
 30
0.0
 10
17.0331693967
 20
11.7593087546
 30
0.0
 10
17.0460034244
 20
11.8100711144
 30
0.0
 10
17.0579277296
 20
11.8622774412
 30
0.0
 10
17.0689176882
 20
11.9158202733
 30
0.0
 10
17.078950598
 20
11.9705893598
 30
0.0
 10
17.0880057284
 20
12.0264718932
 30
0.0
 10
17.0960643664
 20
12.0833527484
 30
0.0
 10
17.1031098541
 20
12.141114717
 30
0.0
 10
17.1091276335
 20
12.1996387768
 30
0.0
 10
17.1141052429
 20
12.2588042501
 30
0.0
 10
17.1180324733
 20
12.3184893941
 30
0.0
 10
17.1218632004
 20
12.398726376
 30
0.0
 10
17.1239741069
 20
12.4994452989
 30
0.0
 10
17.1225313528
 20
12.6002090469
 30
0.0
 10
17.1192353239
 20
12.6805757054
 30
0.0
 10
17.1157051748
 20
12.7404243651
 30
0.0
 10
17.1111213375
 20
12.7997994886
 30
0.0
 10
17.1054932095
 20
12.8585788994
 30
0.0
 10
17.0988324465
 20
12.9166413886
 30
0.0
 10
17.0911528117
 20
12.9738673092
 30
0.0
 10
17.0824701803
 20
13.0301387351
 30
0.0
 10
17.0728024963
 20
13.0853397313
 30
0.0
 10
17.0621697371
 20
13.1393565906
 30
0.0
 10
17.0505938692
 20
13.1920780739
 30
0.0
 10
17.0380988007
 20
13.2433956435
 30
0.0
 10
17.0247103265
 20
13.2932036945
 30
0.0
 10
17.0104560744
 20
13.3413997738
 30
0.0
 10
16.9953654243
 20
13.3878848186
 30
0.0
 10
16.9794694897
 20
13.4325632934
 30
0.0
 10
16.9628008641
 20
13.4753436874
 30
0.0
 10
16.9453941336
 20
13.5161375809
 30
0.0
 10
16.9330903468
 20
13.5424473874
 30
0.0
 10
16.9268122162
 20
13.5552408724
 30
0.0
  0
SPLINE
  5
2C4
100
AcDbEntity
  8
LAYER_CHAMFER_FEAT
100
AcDbSpline
 62
7
  6
CONTINUOUS
 70
0
 71
3
 72
60
 73
56
 74
0
 42
0.0000001
 43
0.0000001
 44
0.0000000001
 40
0.0
 40
0.0
 40
0.0
 40
0.0
 40
0.0077261573
 40
0.0155162562
 40
0.0234323159
 40
0.0315327358
 40
0.0398709878
 40
0.0484947706
 40
0.0574456079
 40
0.0667588126
 40
0.0764637117
 40
0.0865840359
 40
0.0971383903
 40
0.1081407494
 40
0.1196009388
 40
0.1315250821
 40
0.1439160072
 40
0.156773604
 40
0.1700951395
 40
0.1838755312
 40
0.1981075849
 40
0.2127822025
 40
0.2278885625
 40
0.2434142783
 40
0.2593455386
 40
0.2756672331
 40
0.2923630647
 40
0.3094156507
 40
0.3268066159
 40
0.3445166777
 40
0.3625257255
 40
0.3808128951
 40
0.4181334512
 40
0.4563003824
 40
0.4951264217
 40
0.5344183584
 40
0.5739788595
 40
0.6136082441
 40
0.6531062342
 40
0.6922736948
 40
0.7309143866
 40
0.7688367552
 40
0.8058557766
 40
0.8239717037
 40
0.8417963925
 40
0.8593094404
 40
0.8764912442
 40
0.8933230782
 40
0.9097871766
 40
0.925866826
 40
0.9415464511
 40
0.9568117641
 40
0.9716497602
 40
0.9860491672
 40
1.0
 40
1.0
 40
1.0
 40
1.0
 10
16.5856358984
 20
11.1974716704
 30
0.0
 10
16.5922238777
 20
11.1974716774
 30
0.0
 10
16.6054636044
 20
11.1981305888
 30
0.0
 10
16.6252542165
 20
11.2010892964
 30
0.0
 10
16.6449791712
 20
11.2060127589
 30
0.0
 10
16.6646039207
 20
11.2128901376
 30
0.0
 10
16.684098829
 20
11.2217073717
 30
0.0
 10
16.7034348311
 20
11.2324478118
 30
0.0
 10
16.7225842543
 20
11.2450926026
 30
0.0
 10
16.7415201328
 20
11.2596208342
 30
0.0
 10
16.7602160076
 20
11.276009528
 30
0.0
 10
16.7786457165
 20
11.2942335393
 30
0.0
 10
16.7967833155
 20
11.314265439
 30
0.0
 10
16.8146030635
 20
11.3360754122
 30
0.0
 10
16.8320794562
 20
11.359631186
 30
0.0
 10
16.8491872871
 20
11.3848979912
 30
0.0
 10
16.8659017116
 20
11.4118385591
 30
0.0
 10
16.8821983178
 20
11.4404131396
 30
0.0
 10
16.898053193
 20
11.4705795373
 30
0.0
 10
16.9134429858
 20
11.5022931617
 30
0.0
 10
16.9283449629
 20
11.5355070867
 30
0.0
 10
16.9427370603
 20
11.5701721188
 30
0.0
 10
16.9565979295
 20
11.6062368703
 30
0.0
 10
16.9699069818
 20
11.6436478357
 30
0.0
 10
16.9826444285
 20
11.6823494748
 30
0.0
 10
16.9947913135
 20
11.7222842993
 30
0.0
 10
17.0063295483
 20
11.7633929627
 30
0.0
 10
17.0172419398
 20
11.8056143476
 30
0.0
 10
17.0275122281
 20
11.8488856738
 30
0.0
 10
17.0371250763
 20
11.8931425375
 30
0.0
 10
17.0460662368
 20
11.9383192249
 30
0.0
 10
17.0571487537
 20
12.0001079049
 30
0.0
 10
17.0691981166
 20
12.0791721462
 30
0.0
 10
17.0806962644
 20
12.1759816015
 30
0.0
 10
17.0892603869
 20
12.2747818305
 30
0.0
 10
17.0948391844
 20
12.3749848819
 30
0.0
 10
17.0973992061
 20
12.4759954193
 30
0.0
 10
17.0969251184
 20
12.5772128835
 30
0.0
 10
17.0934197657
 20
12.6780355698
 30
0.0
 10
17.0869041559
 20
12.7778640576
 30
0.0
 10
17.077417334
 20
12.8761052943
 30
0.0
 10
17.0650161281
 20
12.9721746925
 30
0.0
 10
17.0522248092
 20
13.050503029
 30
0.0
 10
17.0405607174
 20
13.1116143035
 30
0.0
 10
17.0311983189
 20
13.1562242951
 30
0.0
 10
17.0211730765
 20
13.1998731619
 30
0.0
 10
17.0104998431
 20
13.242496102
 30
0.0
 10
16.9991945549
 20
13.2840296852
 30
0.0
 10
16.9872740548
 20
13.3244121695
 30
0.0
 10
16.9747560996
 20
13.3635835234
 30
0.0
 10
16.9616593245
 20
13.4014855818
 30
0.0
 10
16.9480032199
 20
13.4380619799
 30
0.0
 10
16.9338080255
 20
13.4732586688
 30
0.0
 10
16.9190950052
 20
13.5070228797
 30
0.0
 10
16.9087902194
 20
13.5288952171
 30
0.0
 10
16.9035496698
 20
13.5395743342
 30
0.0
  0
SPLINE
  5
2C5
100
AcDbEntity
  8
LAYER_FEATURE
100
AcDbSpline
 62
7
  6
CONTINUOUS
 70
0
 71
3
 72
35
 73
31
 74
0
 42
0.0000001
 43
0.0000001
 44
0.0000000001
 40
0.0
 40
0.0
 40
0.0
 40
0.0
 40
0.0217685275
 40
0.0436233093
 40
0.0656493403
 40
0.0879291755
 40
0.1105418954
 40
0.1335622088
 40
0.1570598229
 40
0.1810989916
 40
0.2310133399
 40
0.2570051036
 40
0.2837379666
 40
0.3112479544
 40
0.3395659886
 40
0.3687182086
 40
0.3987263446
 40
0.4296079487
 40
0.4613767552
 40
0.4940429936
 40
0.5276135743
 40
0.5620924248
 40
0.5974807023
 40
0.6337769407
 40
0.6709773414
 40
0.7090758908
 40
0.7480644732
 40
0.8286662144
 40
0.9126862313
 40
1.0
 40
1.0
 40
1.0
 40
1.0
 10
14.3873703261
 20
14.1299716473
 30
0.0
 10
14.3817641851
 20
14.1299716451
 30
0.0
 10
14.370525915
 20
14.1295862255
 30
0.0
 10
14.3536955556
 20
14.1278534042
 30
0.0
 10
14.3368900897
 20
14.124967151
 30
0.0
 10
14.3201232099
 20
14.1209300839
 30
0.0
 10
14.3034070569
 20
14.1157456482
 30
0.0
 10
14.2867540402
 20
14.1094184173
 30
0.0
 10
14.2701755485
 20
14.1019532582
 30
0.0
 10
14.2479109116
 20
14.0903473125
 30
0.0
 10
14.2261061158
 20
14.0765653645
 30
0.0
 10
14.2048459203
 20
14.0608477301
 30
0.0
 10
14.188814821
 20
14.0477979938
 30
0.0
 10
14.1729277577
 20
14.0336575893
 30
0.0
 10
14.1571945665
 20
14.0184359942
 30
0.0
 10
14.1416264137
 20
14.002144316
 30
0.0
 10
14.1262340479
 20
13.9847940581
 30
0.0
 10
14.1110281663
 20
13.9663975772
 30
0.0
 10
14.0960193501
 20
13.9469679084
 30
0.0
 10
14.0812181316
 20
13.9265187756
 30
0.0
 10
14.0666348383
 20
13.9050646726
 30
0.0
 10
14.0522797172
 20
13.8826207654
 30
0.0
 10
14.0381628959
 20
13.8592029151
 30
0.0
 10
14.0242942706
 20
13.8348277074
 30
0.0
 10
14.01068368
 20
13.8095123986
 30
0.0
 10
13.9973406433
 20
13.7832748242
 30
0.0
 10
13.9797245032
 20
13.7466813393
 30
0.0
 10
13.9584752366
 20
13.6987261231
 30
0.0
 10
13.9344663588
 20
13.6384353054
 30
0.0
 10
13.9195924447
 20
13.5968828101
 30
0.0
 10
13.9123553965
 20
13.5755929509
 30
0.0
  0
SPLINE
  5
2C6
100
AcDbEntity
  8
LAYER_FEATURE
100
AcDbSpline
 62
7
  6
CONTINUOUS
 70
0
 71
3
 72
79
 73
75
 74
0
 42
0.0000001
 43
0.0000001
 44
0.0000000001
 40
0.0
 40
0.0
 40
0.0
 40
0.0
 40
0.0173115127
 40
0.0340659335
 40
0.0502394984
 40
0.0658114438
 40
0.0807647675
 40
0.0950865828
 40
0.1087687333
 40
0.1218084788
 40
0.1342093193
 40
0.1459819742
 40
0.1571455249
 40
0.1677287093
 40
0.1777713073
 40
0.1873254779
 40
0.191940892
 40
0.1964599766
 40
0.200893088
 40
0.2052514108
 40
0.2095468931
 40
0.2137921733
 40
0.2180004612
 40
0.2221854083
 40
0.2263609518
 40
0.2305411451
 40
0.2347399834
 40
0.2389712337
 40
0.243248272
 40
0.2475839418
 40
0.251990439
 40
0.2564792106
 40
0.2657422624
 40
0.2754513739
 40
0.2856676058
 40
0.2964388858
 40
0.3078011886
 40
0.3197799091
 40
0.3323912268
 40
0.3456433545
 40
0.3595376274
 40
0.3740694298
 40
0.3892289729
 40
0.4050019448
 40
0.4213700614
 40
0.4383115295
 40
0.4558014426
 40
0.4738121211
 40
0.49231341
 40
0.511272945
 40
0.5306563938
 40
0.5504276742
 40
0.570549157
 40
0.5909818549
 40
0.6116856023
 40
0.6326192297
 40
0.6537407301
 40
0.6750074209
 40
0.6963761027
 40
0.717803215
 40
0.7392449925
 40
0.7606576183
 40
0.781997378
 40
0.803220813
 40
0.8242848773
 40
0.845147094
 40
0.8657657152
 40
0.8860998849
 40
0.9061098077
 40
0.9257569247
 40
0.9450040925
 40
0.9638158079
 40
0.9821582799
 40
1.0
 40
1.0
 40
1.0
 40
1.0
 10
16.0924621506
 20
13.5309486903
 30
0.0
 10
16.098862395
 20
13.5516598887
 30
0.0
 10
16.1120275488
 20
13.5922425804
 30
0.0
 10
16.1332427154
 20
13.651478039
 30
0.0
 10
16.1555625007
 20
13.7079721073
 30
0.0
 10
16.1789333648
 20
13.7615891913
 30
0.0
 10
16.2032995271
 20
13.8122014178
 30
0.0
 10
16.228603114
 20
13.8596882063
 30
0.0
 10
16.2547843761
 20
13.9039366972
 30
0.0
 10
16.2817820087
 20
13.9448419395
 30
0.0
 10
16.3095334615
 20
13.9823070151
 30
0.0
 10
16.337975413
 20
14.0162430965
 30
0.0
 10
16.3670437374
 20
14.0465690809
 30
0.0
 10
16.3966750914
 20
14.0732118178
 30
0.0
 10
16.4268022237
 20
14.0961031939
 30
0.0
 10
16.45256445
 20
14.1121870862
 30
0.0
 10
16.4733130129
 20
14.1230305234
 30
0.0
 10
16.4887715815
 20
14.1300987868
 30
0.0
 10
16.5042952552
 20
14.136190493
 30
0.0
 10
16.5198749172
 20
14.1413017575
 30
0.0
 10
16.5355009485
 20
14.1454288559
 30
0.0
 10
16.5511636226
 20
14.148568947
 30
0.0
 10
16.5668530924
 20
14.1507196664
 30
0.0
 10
16.5825593743
 20
14.151879424
 30
0.0
 10
16.5982724108
 20
14.1520473989
 30
0.0
 10
16.6139821067
 20
14.151223366
 30
0.0
 10
16.6296783937
 20
14.1494080562
 30
0.0
 10
16.6453512485
 20
14.1466027456
 30
0.0
 10
16.6609907939
 20
14.142809516
 30
0.0
 10
16.6765871776
 20
14.1380311917
 30
0.0
 10
16.6921311218
 20
14.1322708276
 30
0.0
 10
16.7129891465
 20
14.1231930692
 30
0.0
 10
16.7389389098
 20
14.1092994786
 30
0.0
 10
16.7693627312
 20
14.0889524053
 30
0.0
 10
16.7993345774
 20
14.064812778
 30
0.0
 10
16.8287864159
 20
14.0369444761
 30
0.0
 10
16.8576548172
 20
14.0054160856
 30
0.0
 10
16.8858754354
 20
13.9703036343
 30
0.0
 10
16.9133845888
 20
13.9316906565
 30
0.0
 10
16.9401191097
 20
13.8896686755
 30
0.0
 10
16.9660168392
 20
13.8443372689
 30
0.0
 10
16.9910169483
 20
13.7958040252
 30
0.0
 10
17.0150602716
 20
13.7441843767
 30
0.0
 10
17.0380896004
 20
13.6896013644
 30
0.0
 10
17.0600499113
 20
13.6321853365
 30
0.0
 10
17.080888577
 20
13.5720736219
 30
0.0
 10
17.1005555492
 20
13.5094101821
 30
0.0
 10
17.1190035152
 20
13.4443452488
 30
0.0
 10
17.1361880528
 20
13.3770349492
 30
0.0
 10
17.1520677502
 20
13.3076409097
 30
0.0
 10
17.1666043143
 20
13.2363298486
 30
0.0
 10
17.1797626749
 20
13.1632731607
 30
0.0
 10
17.1915110734
 20
13.088646496
 30
0.0
 10
17.20182115
 20
13.0126293302
 30
0.0
 10
17.2106680204
 20
12.9354045248
 30
0.0
 10
17.2180303263
 20
12.8571578771
 30
0.0
 10
17.2238902904
 20
12.7780776659
 30
0.0
 10
17.22823376
 20
12.6983541943
 30
0.0
 10
17.2310502417
 20
12.618179328
 30
0.0
 10
17.232332939
 20
12.5377460296
 30
0.0
 10
17.2320787572
 20
12.4572478883
 30
0.0
 10
17.2302883102
 20
12.3768786505
 30
0.0
 10
17.2269659203
 20
12.2968317498
 30
0.0
 10
17.2221196048
 20
12.2172998383
 30
0.0
 10
17.2157610686
 20
12.1384743171
 30
0.0
 10
17.2079056695
 20
12.0605448704
 30
0.0
 10
17.1985723757
 20
11.9836990065
 30
0.0
 10
17.1877837194
 20
11.9081215995
 30
0.0
 10
17.1755657422
 20
11.8339944448
 30
0.0
 10
17.1619479252
 20
11.7614957931
 30
0.0
 10
17.1469631537
 20
11.6907999651
 30
0.0
 10
17.1306475132
 20
11.6220767377
 30
0.0
 10
17.1130405708
 20
11.5554917947
 30
0.0
 10
17.1002860482
 20
11.512006825
 30
0.0
 10
17.0936897807
 20
11.4906612955
 30
0.0
  0
SPLINE
  5
2C7
100
AcDbEntity
  8
LAYER_FEATURE
100
AcDbSpline
 62
7
  6
CONTINUOUS
 70
0
 71
3
 72
37
 73
33
 74
0
 42
0.0000001
 43
0.0000001
 44
0.0000000001
 40
0.0
 40
0.0
 40
0.0
 40
0.0
 40
0.0879643884
 40
0.1726563725
 40
0.2137279333
 40
0.2539252434
 40
0.2932329985
 40
0.3316376655
 40
0.3691277208
 40
0.4056937598
 40
0.4413286826
 40
0.4760279105
 40
0.5097895407
 40
0.5426145918
 40
0.5745073007
 40
0.605475348
 40
0.6355301637
 40
0.6646873096
 40
0.6929667933
 40
0.7203934259
 40
0.7469972557
 40
0.7728139315
 40
0.7978850388
 40
0.8222584554
 40
0.8459885955
 40
0.8691365045
 40
0.8917698493
 40
0.9139626995
 40
0.9357950259
 40
0.9573519746
 40
0.978722878
 40
1.0
 40
1.0
 40
1.0
 40
1.0
 10
16.0873346022
 20
13.5856722297
 30
0.0
 10
16.0950441756
 20
13.6106204185
 30
0.0
 10
16.1109601179
 20
13.6593511266
 30
0.0
 10
16.1327579077
 20
13.7189502007
 30
0.0
 10
16.1510006471
 20
13.7647166093
 30
0.0
 10
16.1649095674
 20
13.7976995443
 30
0.0
 10
16.179173948
 20
13.8296653969
 30
0.0
 10
16.1937826517
 20
13.8605890469
 30
0.0
 10
16.2087241246
 20
13.890446111
 30
0.0
 10
16.2239866313
 20
13.9192130629
 30
0.0
 10
16.2395581867
 20
13.9468672411
 30
0.0
 10
16.2554265451
 20
13.973386892
 30
0.0
 10
16.2715792817
 20
13.9987511424
 30
0.0
 10
16.2880037876
 20
14.0229400221
 30
0.0
 10
16.3046872214
 20
14.045934522
 30
0.0
 10
16.3216165993
 20
14.0677165522
 30
0.0
 10
16.3387788119
 20
14.0882689396
 30
0.0
 10
16.35616056
 20
14.107575499
 30
0.0
 10
16.3737484313
 20
14.1256209846
 30
0.0
 10
16.3915289326
 20
14.1423910538
 30
0.0
 10
16.4094884219
 20
14.157872335
 30
0.0
 10
16.4276131426
 20
14.1720523929
 30
0.0
 10
16.445889256
 20
14.1849196537
 30
0.0
 10
16.4643027658
 20
14.1964634622
 30
0.0
 10
16.4828394865
 20
14.2066740994
 30
0.0
 10
16.50148506
 20
14.2155426932
 30
0.0
 10
16.5202248579
 20
14.2230612889
 30
0.0
 10
16.5390439563
 20
14.2292229801
 30
0.0
 10
16.5579269964
 20
14.2340218587
 30
0.0
 10
16.5768587277
 20
14.2374531256
 30
0.0
 10
16.595821905
 20
14.2395133227
 30
0.0
 10
16.6084867109
 20
14.2399716634
 30
0.0
 10
16.6148028299
 20
14.239971659
 30
0.0
  0
SPLINE
  5
2C8
100
AcDbEntity
  8
LAYER_FEATURE
100
AcDbSpline
 62
7
  6
CONTINUOUS
 70
0
 71
3
 72
58
 73
54
 74
0
 42
0.0000001
 43
0.0000001
 44
0.0000000001
 40
0.0
 40
0.0
 40
0.0
 40
0.0
 40
0.0163582853
 40
0.0330514796
 40
0.050064855
 40
0.0673835119
 40
0.0849915532
 40
0.1028725904
 40
0.1393839949
 40
0.1767770756
 40
0.2149030239
 40
0.2536074775
 40
0.2927317882
 40
0.332114252
 40
0.3715913092
 40
0.4109987215
 40
0.4501727496
 40
0.4889513322
 40
0.5271752772
 40
0.5646894896
 40
0.6013442345
 40
0.6193049136
 40
0.6369977091
 40
0.6544060234
 40
0.6715138622
 40
0.688305887
 40
0.7047674712
 40
0.7208847602
 40
0.7366447361
 40
0.7520352911
 40
0.7670453043
 40
0.7816647266
 40
0.7958846765
 40
0.8096975466
 40
0.8230971245
 40
0.8360787297
 40
0.8486393691
 40
0.8607779109
 40
0.8724952824
 40
0.883794695
 40
0.8946818968
 40
0.9051654534
 40
0.9152570567
 40
0.9249718509
 40
0.9343287663
 40
0.9433508412
 40
0.9520655025
 40
0.9605047596
 40
0.9687052614
 40
0.9767081568
 40
0.984558703
 40
0.9923055922
 40
1.0
 40
1.0
 40
1.0
 40
1.0
 10
13.8381752341
 20
13.5856722297
 30
0.0
 10
13.8332365944
 20
13.5696907858
 30
0.0
 10
13.8235887966
 20
13.5372976334
 30
0.0
 10
13.8099317753
 20
13.4879561741
 30
0.0
 10
13.7969553689
 20
13.4374167828
 30
0.0
 10
13.784675582
 20
13.3857418686
 30
0.0
 10
13.7731073745
 20
13.3329943341
 30
0.0
 10
13.7585503945
 20
13.2608209239
 30
0.0
 10
13.7422695304
 20
13.1683709465
 30
0.0
 10
13.7259083893
 20
13.0549717023
 30
0.0
 10
13.7126706179
 20
12.938908502
 30
0.0
 10
13.7026214541
 20
12.8207500373
 30
0.0
 10
13.6958104201
 20
12.7010742692
 30
0.0
 10
13.6922710657
 20
12.5804670525
 30
0.0
 10
13.6920208445
 20
12.4595187896
 30
0.0
 10
13.6950610038
 20
12.3388216118
 30
0.0
 10
13.7013765389
 20
12.2189663697
 30
0.0
 10
13.7109363245
 20
12.1005398096
 30
0.0
 10
13.7236932709
 20
11.9841212368
 30
0.0
 10
13.7395845082
 20
11.8702811015
 30
0.0
 10
13.7554794662
 20
11.7774072021
 30
0.0
 10
13.7697340683
 20
11.7048527862
 30
0.0
 10
13.7810830888
 20
11.6517920142
 30
0.0
 10
13.7931481017
 20
11.5997842851
 30
0.0
 10
13.8059143911
 20
11.548893161
 30
0.0
 10
13.8193662691
 20
11.4991809997
 30
0.0
 10
13.8334872419
 20
11.450708657
 30
0.0
 10
13.8482599936
 20
11.4035354685
 30
0.0
 10
13.8636664212
 20
11.3577191587
 30
0.0
 10
13.8796876495
 20
11.3133157688
 30
0.0
 10
13.8963040623
 20
11.2703795857
 30
0.0
 10
13.913495334
 20
11.2289630768
 30
0.0
 10
13.9312404587
 20
11.189116825
 30
0.0
 10
13.9495177831
 20
11.1508894662
 30
0.0
 10
13.968305043
 20
11.1143276283
 30
0.0
 10
13.9875794012
 20
11.0794758728
 30
0.0
 10
14.0073174817
 20
11.0463766384
 30
0.0
 10
14.0274954244
 20
11.0150702011
 30
0.0
 10
14.0480889314
 20
10.9855946381
 30
0.0
 10
14.0690733176
 20
10.957985802
 30
0.0
 10
14.0904235628
 20
10.9322773051
 30
0.0
 10
14.112114364
 20
10.9085005218
 30
0.0
 10
14.1341201707
 20
10.8866846016
 30
0.0
 10
14.1564152142
 20
10.8668565112
 30
0.0
 10
14.178973511
 20
10.8490411036
 30
0.0
 10
14.2017688143
 20
10.8332611913
 30
0.0
 10
14.2247745196
 20
10.8195376136
 30
0.0
 10
14.247963473
 20
10.8078892645
 30
0.0
 10
14.2713078361
 20
10.7983330397
 30
0.0
 10
14.2947785282
 20
10.790883643
 30
0.0
 10
14.3183461799
 20
10.7855532685
 30
0.0
 10
14.3419769962
 20
10.7823511716
 30
0.0
 10
14.3577755637
 20
10.7816383213
 30
0.0
 10
14.3656434618
 20
10.7816383327
 30
0.0
  0
SPLINE
  5
2C9
100
AcDbEntity
  8
LAYER_FEATURE
100
AcDbSpline
 62
7
  6
CONTINUOUS
 70
0
 71
3
 72
39
 73
35
 74
0
 42
0.0000001
 43
0.0000001
 44
0.0000000001
 40
0.0
 40
0.0
 40
0.0
 40
0.0
 40
0.0464673079
 40
0.0919441171
 40
0.1363979962
 40
0.1798013665
 40
0.2221280285
 40
0.2633551221
 40
0.3034628817
 40
0.3424349775
 40
0.3802588523
 40
0.4169260563
 40
0.4524326714
 40
0.4867797685
 40
0.5199739052
 40
0.5520276957
 40
0.5829604474
 40
0.6127988701
 40
0.6415778222
 40
0.6693410791
 40
0.6961421128
 40
0.7220448219
 40
0.7471241447
 40
0.7714664296
 40
0.7951694654
 40
0.818342055
 40
0.841103019
 40
0.863579567
 40
0.8859050398
 40
0.9082161542
 40
0.9306499534
 40
0.9533407262
 40
0.9764171653
 40
1.0
 40
1.0
 40
1.0
 40
1.0
 10
13.886756511
 20
13.5309486903
 30
0.0
 10
13.8911080365
 20
13.5450302318
 30
0.0
 10
13.8999836489
 20
13.5728120867
 30
0.0
 10
13.9139737206
 20
13.6137536276
 30
0.0
 10
13.9284851168
 20
13.6534806212
 30
0.0
 10
13.9435016295
 20
13.6919489874
 30
0.0
 10
13.9590068962
 20
13.7291166893
 30
0.0
 10
13.9749838324
 20
13.7649428216
 30
0.0
 10
13.9914149117
 20
13.7993880916
 30
0.0
 10
14.0082821281
 20
13.832414719
 30
0.0
 10
14.0255670291
 20
13.8639865001
 30
0.0
 10
14.0432507555
 20
13.8940688437
 30
0.0
 10
14.061314058
 20
13.9226288135
 30
0.0
 10
14.079737324
 20
13.9496351667
 30
0.0
 10
14.0985006325
 20
13.9750583605
 30
0.0
 10
14.1175837823
 20
13.998870566
 30
0.0
 10
14.1369663356
 20
14.0210456715
 30
0.0
 10
14.1566276341
 20
14.0415592954
 30
0.0
 10
14.1765468261
 20
14.0603887699
 30
0.0
 10
14.1967028929
 20
14.0775130902
 30
0.0
 10
14.2170746318
 20
14.0929128725
 30
0.0
 10
14.2376406228
 20
14.106570303
 30
0.0
 10
14.2583791309
 20
14.1184691333
 30
0.0
 10
14.2792679996
 20
14.1285946641
 30
0.0
 10
14.3002845073
 20
14.1369337795
 30
0.0
 10
14.3214052112
 20
14.1434750856
 30
0.0
 10
14.3426058394
 20
14.1482091323
 30
0.0
 10
14.3638612759
 20
14.1511287595
 30
0.0
 10
14.3851456964
 20
14.1522293835
 30
0.0
 10
14.4064328898
 20
14.1515092222
 30
0.0
 10
14.4276964747
 20
14.1489694677
 30
0.0
 10
14.4489108953
 20
14.1446139754
 30
0.0
 10
14.4700494216
 20
14.1384500074
 30
0.0
 10
14.4839062407
 20
14.1332047906
 30
0.0
 10
14.4907998805
 20
14.1303015606
 30
0.0
  0
SPLINE
  5
2CA
100
AcDbEntity
  8
LAYER_FEATURE
100
AcDbSpline
 62
7
  6
CONTINUOUS
 70
0
 71
3
 72
61
 73
57
 74
0
 42
0.0000001
 43
0.0000001
 44
0.0000000001
 40
0.0
 40
0.0
 40
0.0
 40
0.0
 40
0.0169389739
 40
0.0342483934
 40
0.0519108086
 40
0.0699082179
 40
0.0882215545
 40
0.1068310737
 40
0.1257162945
 40
0.1448561078
 40
0.1838109758
 40
0.2235176184
 40
0.2637901232
 40
0.3044377986
 40
0.3452668325
 40
0.3860819168
 40
0.4266878571
 40
0.4668911862
 40
0.5065017929
 40
0.5453345867
 40
0.5644039301
 40
0.5832125947
 40
0.6017396445
 40
0.6199648009
 40
0.6378685072
 40
0.6554319984
 40
0.6726373744
 40
0.6894676794
 40
0.7059069873
 40
0.7219404954
 40
0.7375546275
 40
0.7527371484
 40
0.7674772926
 40
0.7817659079
 40
0.7955956193
 40
0.8089610153
 40
0.8218588617
 40
0.8342883464
 40
0.8462513588
 40
0.8577528095
 40
0.86880099
 40
0.8794079741
 40
0.8895900535
 40
0.8993681925
 40
0.9087684792
 40
0.9178225267
 40
0.926567766
 40
0.9350475478
 40
0.9433109637
 40
0.9514123015
 40
0.9594100865
 40
0.9673657209
 40
0.9753418183
 40
0.9834004011
 40
0.9916011653
 40
1.0
 40
1.0
 40
1.0
 40
1.0
 10
13.886756511
 20
13.5309486903
 30
0.0
 10
13.8817257035
 20
13.5146689911
 30
0.0
 10
13.8719157075
 20
13.481640755
 30
0.0
 10
13.8580907717
 20
13.4312823159
 30
0.0
 10
13.8450113106
 20
13.3796260568
 30
0.0
 10
13.8326958614
 20
13.3267451845
 30
0.0
 10
13.8211617864
 20
13.2727139709
 30
0.0
 10
13.8104253937
 20
13.217608659
 30
0.0
 10
13.8005017577
 20
13.1615067122
 30
0.0
 10
13.7883018183
 20
13.0850349017
 30
0.0
 10
13.7752127149
 20
12.9875101203
 30
0.0
 10
13.7630317561
 20
12.8684748856
 30
0.0
 10
13.7543554143
 20
12.7474257752
 30
0.0
 10
13.7492328732
 20
12.6250449426
 30
0.0
 10
13.7476932008
 20
12.5020209715
 30
0.0
 10
13.7497451347
 20
12.3790464481
 30
0.0
 10
13.7553770398
 20
12.2568136778
 30
0.0
 10
13.7645569522
 20
12.1360103899
 30
0.0
 10
13.7772328274
 20
12.0173173376
 30
0.0
 10
13.7907295671
 20
11.920141014
 30
0.0
 10
13.8032501211
 20
11.8439953204
 30
0.0
 10
13.8134072117
 20
11.7881697638
 30
0.0
 10
13.8243728457
 20
11.7333631466
 30
0.0
 10
13.8361316312
 20
11.679652535
 30
0.0
 10
13.8486669411
 20
11.6271136366
 30
0.0
 10
13.8619610868
 20
11.5758204401
 30
0.0
 10
13.8759953065
 20
11.525845175
 30
0.0
 10
13.890749803
 20
11.4772581906
 30
0.0
 10
13.9062037728
 20
11.4301278581
 30
0.0
 10
13.9223354393
 20
11.3845204708
 30
0.0
 10
13.9391220888
 20
11.340500148
 30
0.0
 10
13.9565401084
 20
11.2981287399
 30
0.0
 10
13.9745650263
 20
11.2574657375
 30
0.0
 10
13.9931715591
 20
11.2185681875
 30
0.0
 10
14.0123336614
 20
11.1814906115
 30
0.0
 10
14.0320245793
 20
11.1462849312
 30
0.0
 10
14.0522169102
 20
11.1130004001
 30
0.0
 10
14.0728826673
 20
11.081683546
 30
0.0
 10
14.0939933493
 20
11.0523781258
 30
0.0
 10
14.1155200142
 20
11.0251250978
 30
0.0
 10
14.1374333539
 20
10.9999626167
 30
0.0
 10
14.1597037586
 20
10.9769260548
 30
0.0
 10
14.1823013662
 20
10.9560480585
 30
0.0
 10
14.2051960751
 20
10.9373586408
 30
0.0
 10
14.2283574925
 20
10.9208852976
 30
0.0
 10
14.2517547965
 20
10.9066531217
 30
0.0
 10
14.2753564889
 20
10.8946848678
 30
0.0
 10
14.2991300538
 20
10.8850008925
 30
0.0
 10
14.3230415786
 20
10.877618891
 30
0.0
 10
14.3470554756
 20
10.8725533893
 30
0.0
 10
14.3711344384
 20
10.869815031
 30
0.0
 10
14.3952398626
 20
10.8694098631
 30
0.0
 10
14.4193323437
 20
10.8713387365
 30
0.0
 10
14.443373477
 20
10.8755975742
 30
0.0
 10
14.4673233396
 20
10.8821764178
 30
0.0
 10
14.4829912977
 20
10.8880205924
 30
0.0
 10
14.4907778028
 20
10.8912991289
 30
0.0
  0
SPLINE
  5
2CB
100
AcDbEntity
  8
LAYER_FEATURE
100
AcDbSpline
 62
7
  6
CONTINUOUS
 70
0
 71
3
 72
15
 73
11
 74
0
 42
0.0000001
 43
0.0000001
 44
0.0000000001
 40
0.0
 40
0.0
 40
0.0
 40
0.0
 40
0.1186688907
 40
0.2438307562
 40
0.3732470495
 40
0.5045228559
 40
0.6352090542
 40
0.7628755028
 40
0.8851854963
 40
1.0
 40
1.0
 40
1.0
 40
1.0
 10
13.8689163489
 20
13.4323228195
 30
0.0
 10
13.8687863852
 20
13.4317888358
 30
0.0
 10
13.8685619907
 20
13.4306809884
 30
0.0
 10
13.8683314331
 20
13.4289668076
 30
0.0
 10
13.8682011573
 20
13.4271835515
 30
0.0
 10
13.8681741382
 20
13.4253702315
 30
0.0
 10
13.8682509557
 20
13.4235664375
 30
0.0
 10
13.8684299113
 20
13.4218115256
 30
0.0
 10
13.868706932
 20
13.4201438575
 30
0.0
 10
13.8689623598
 20
13.4190745272
 30
0.0
 10
13.8691075748
 20
13.4185630192
 30
0.0
  0
SPLINE
  5
2CC
100
AcDbEntity
  8
LAYER_FEATURE
100
AcDbSpline
 62
7
  6
CONTINUOUS
 70
0
 71
3
 72
13
 73
9
 74
0
 42
0.0000001
 43
0.0000001
 44
0.0000000001
 40
0.0
 40
0.0
 40
0.0
 40
0.0
 40
0.262020359
 40
0.5207457136
 40
0.6466172418
 40
0.768984951
 40
0.8870317205
 40
1.0
 40
1.0
 40
1.0
 40
1.0
 10
13.8824647508
 20
13.3447371237
 30
0.0
 10
13.8826135142
 20
13.3484876122
 30
0.0
 10
13.8826423472
 20
13.3559543639
 30
0.0
 10
13.8820229232
 20
13.3652050423
 30
0.0
 10
13.8811275928
 20
13.3724134956
 30
0.0
 10
13.8802751097
 20
13.377592365
 30
0.0
 10
13.8792429879
 20
13.3825497564
 30
0.0
 10
13.8784210894
 20
13.385756924
 30
0.0
 10
13.8779791345
 20
13.3873136738
 30
0.0
  0
SPLINE
  5
2CD
100
AcDbEntity
  8
LAYER_FEATURE
100
AcDbSpline
 62
7
  6
CONTINUOUS
 70
0
 71
3
 72
15
 73
11
 74
0
 42
0.0000001
 43
0.0000001
 44
0.0000000001
 40
0.0
 40
0.0
 40
0.0
 40
0.0
 40
0.1248185446
 40
0.2544898325
 40
0.3866402624
 40
0.5188009064
 40
0.6485092633
 40
0.7733826885
 40
0.8911974111
 40
1.0
 40
1.0
 40
1.0
 40
1.0
 10
13.8319971608
 20
13.2774640667
 30
0.0
 10
13.83189213
 20
13.2769005454
 30
0.0
 10
13.8317181573
 20
13.2757438318
 30
0.0
 10
13.8315629941
 20
13.2739739975
 30
0.0
 10
13.8315105427
 20
13.27216438
 30
0.0
 10
13.8315620225
 20
13.2703545864
 30
0.0
 10
13.8317162474
 20
13.2685841362
 30
0.0
 10
13.8319697865
 20
13.2668915781
 30
0.0
 10
13.8323168863
 20
13.2653138305
 30
0.0
 10
13.8326190829
 20
13.2643163343
 30
0.0
 10
13.8327871257
 20
13.2638457659
 30
0.0
  0
SPLINE
  5
2CE
100
AcDbEntity
  8
LAYER_FEATURE
100
AcDbSpline
 62
7
  6
CONTINUOUS
 70
0
 71
3
 72
14
 73
10
 74
0
 42
0.0000001
 43
0.0000001
 44
0.0000000001
 40
0.0
 40
0.0
 40
0.0
 40
0.0
 40
0.2689543383
 40
0.4009088372
 40
0.5299352314
 40
0.6551532751
 40
0.7757332104
 40
0.8909100854
 40
1.0
 40
1.0
 40
1.0
 40
1.0
 10
13.849279199
 20
13.1943244902
 30
0.0
 10
13.849263638
 20
13.1980614727
 30
0.0
 10
13.8490446291
 20
13.2036340302
 30
0.0
 10
13.8483508786
 20
13.2109657138
 30
0.0
 10
13.8476422992
 20
13.216286281
 30
0.0
 10
13.8467483713
 20
13.221418494
 30
0.0
 10
13.8456765287
 20
13.2263199772
 30
0.0
 10
13.8444358418
 20
13.2309498906
 30
0.0
 10
13.8434751654
 20
13.2339161631
 30
0.0
 10
13.8429654063
 20
13.235343636
 30
0.0
  0
SPLINE
  5
2CF
100
AcDbEntity
  8
LAYER_FEATURE
100
AcDbSpline
 62
7
  6
CONTINUOUS
 70
0
 71
3
 72
15
 73
11
 74
0
 42
0.0000001
 43
0.0000001
 44
0.0000000001
 40
0.0
 40
0.0
 40
0.0
 40
0.0
 40
0.1311309619
 40
0.2653835234
 40
0.4002696996
 40
0.5332659385
 40
0.6619173971
 40
0.7839145655
 40
0.8971811026
 40
1.0
 40
1.0
 40
1.0
 40
1.0
 10
13.8020621126
 20
13.1129641313
 30
0.0
 10
13.8019829131
 20
13.1123783982
 30
0.0
 10
13.8018608018
 20
13.1111875563
 30
0.0
 10
13.8017830257
 20
13.1093840955
 30
0.0
 10
13.8018090714
 20
13.1075706731
 30
0.0
 10
13.8019383896
 20
13.1057869662
 30
0.0
 10
13.8021680422
 20
13.1040718908
 30
0.0
 10
13.8024929255
 20
13.1024626481
 30
0.0
 10
13.8029056888
 20
13.1009942027
 30
0.0
 10
13.8032516891
 20
13.1000816608
 30
0.0
 10
13.8034408822
 20
13.0996585879
 30
0.0
  0
SPLINE
  5
2D0
100
AcDbEntity
  8
LAYER_FEATURE
100
AcDbSpline
 62
7
  6
CONTINUOUS
 70
0
 71
3
 72
14
 73
10
 74
0
 42
0.0000001
 43
0.0000001
 44
0.0000000001
 40
0.0
 40
0.0
 40
0.0
 40
0.0
 40
0.2762074924
 40
0.4099115034
 40
0.5394431581
 40
0.6639513042
 40
0.7826559957
 40
0.8948660305
 40
1.0
 40
1.0
 40
1.0
 40
1.0
 10
13.8228604554
 20
13.0353162024
 30
0.0
 10
13.8226836139
 20
13.0389928231
 30
0.0
 10
13.8222286651
 20
13.0444432272
 30
0.0
 10
13.8212163061
 20
13.0515618363
 30
0.0
 10
13.8202811966
 20
13.056645422
 30
0.0
 10
13.8191701796
 20
13.0614886593
 30
0.0
 10
13.817892461
 20
13.0660517019
 30
0.0
 10
13.8164588286
 20
13.0702966232
 30
0.0
 10
13.8153698409
 20
13.0729831008
 30
0.0
 10
13.8147978858
 20
13.0742621043
 30
0.0
  0
SPLINE
  5
2D1
100
AcDbEntity
  8
LAYER_FEATURE
100
AcDbSpline
 62
7
  6
CONTINUOUS
 70
0
 71
3
 72
16
 73
12
 74
0
 42
0.0000001
 43
0.0000001
 44
0.0000000001
 40
0.0
 40
0.0
 40
0.0
 40
0.0
 40
0.044997096
 40
0.0910352497
 40
0.187830276
 40
0.293479302
 40
0.4100087369
 40
0.5386199553
 40
0.6798579279
 40
0.8337652009
 40
1.0
 40
1.0
 40
1.0
 40
1.0
 10
13.8020245432
 20
12.9797947074
 30
0.0
 10
13.8023927168
 20
12.9798401814
 30
0.0
 10
13.8031328595
 20
12.9799760241
 30
0.0
 10
13.8046176698
 20
12.9804250115
 30
0.0
 10
13.8064704091
 20
12.9813338154
 30
0.0
 10
13.8085917987
 20
12.9829069162
 30
0.0
 10
13.8106391702
 20
12.9849620176
 30
0.0
 10
13.8125995266
 20
12.9874809044
 30
0.0
 10
13.8144601877
 20
12.9904435768
 30
0.0
 10
13.8162072933
 20
12.9938264822
 30
0.0
 10
13.8172486961
 20
12.9962541628
 30
0.0
 10
13.8177511183
 20
12.9975292436
 30
0.0
  0
SPLINE
  5
2D2
100
AcDbEntity
  8
LAYER_FEATURE
100
AcDbSpline
 62
7
  6
CONTINUOUS
 70
0
 71
3
 72
17
 73
13
 74
0
 42
0.0000001
 43
0.0000001
 44
0.0000000001
 40
0.0
 40
0.0
 40
0.0
 40
0.0
 40
0.0370368182
 40
0.0758368365
 40
0.1172457984
 40
0.1619323094
 40
0.2627117979
 40
0.3801738953
 40
0.5142709414
 40
0.6637517095
 40
0.8265379401
 40
1.0
 40
1.0
 40
1.0
 40
1.0
 10
13.7869823578
 20
12.9779368109
 30
0.0
 10
13.7868623823
 20
12.9779219924
 30
0.0
 10
13.7866191482
 20
12.9778678259
 30
0.0
 10
13.7862645982
 20
12.9777193675
 30
0.0
 10
13.7859166719
 20
12.9775040693
 30
0.0
 10
13.7854451983
 20
12.9771146614
 30
0.0
 10
13.7848868514
 20
12.9764544963
 30
0.0
 10
13.7842963667
 20
12.9754637929
 30
0.0
 10
13.7837689144
 20
12.9742628069
 30
0.0
 10
13.7833155241
 20
12.9728762847
 30
0.0
 10
13.7829457302
 20
12.9713331337
 30
0.0
 10
13.7827650743
 20
12.9702496489
 30
0.0
 10
13.7826892097
 20
12.9696885792
 30
0.0
  0
SPLINE
  5
2D3
100
AcDbEntity
  8
LAYER_FEATURE
100
AcDbSpline
 62
7
  6
CONTINUOUS
 70
0
 71
3
 72
53
 73
49
 74
0
 42
0.0000001
 43
0.0000001
 44
0.0000000001
 40
0.0
 40
0.0
 40
0.0
 40
0.0
 40
0.0395009246
 40
0.0794547109
 40
0.1197488699
 40
0.1602687948
 40
0.2008988822
 40
0.2415229862
 40
0.2820249874
 40
0.3222893662
 40
0.3622017797
 40
0.4016496449
 40
0.4405227251
 40
0.4787137549
 40
0.5161190593
 40
0.55263923
 40
0.5881798387
 40
0.6226521877
 40
0.6559741851
 40
0.6880712667
 40
0.703640213
 40
0.7188789921
 40
0.7337809311
 40
0.7483400606
 40
0.7625511735
 40
0.7764099005
 40
0.7899127593
 40
0.8030572251
 40
0.8158418304
 40
0.8282662473
 40
0.8403313764
 40
0.8520394722
 40
0.8633942705
 40
0.8744011046
 40
0.885067057
 40
0.8954011281
 40
0.9054143805
 40
0.9151201009
 40
0.9245339738
 40
0.9336742151
 40
0.9425616787
 40
0.9512199367
 40
0.9596752846
 40
0.9679566519
 40
0.9760954267
 40
0.9841251655
 40
0.9920811754
 40
1.0
 40
1.0
 40
1.0
 40
1.0
 10
13.7826892097
 20
12.9696885792
 30
0.0
 10
13.7792072435
 20
12.9394322933
 30
0.0
 10
13.7729458484
 20
12.8784850085
 30
0.0
 10
13.765681112
 20
12.7864345647
 30
0.0
 10
13.7605057325
 20
12.6934557897
 30
0.0
 10
13.7574373101
 20
12.5998622238
 30
0.0
 10
13.7564861742
 20
12.5059688195
 30
0.0
 10
13.757655588
 20
12.4120917085
 30
0.0
 10
13.7609415557
 20
12.3185469032
 30
0.0
 10
13.7663329866
 20
12.2256493051
 30
0.0
 10
13.77381165
 20
12.1337116048
 30
0.0
 10
13.7833522281
 20
12.0430432209
 30
0.0
 10
13.7949225027
 20
11.9539492466
 30
0.0
 10
13.808483317
 20
11.8667293927
 30
0.0
 10
13.823988856
 20
11.7816769761
 30
0.0
 10
13.8413867383
 20
11.6990778704
 30
0.0
 10
13.8606181699
 20
11.6192096202
 30
0.0
 10
13.8816183424
 20
11.5423400851
 30
0.0
 10
13.9043163023
 20
11.4687278994
 30
0.0
 10
13.9247851179
 20
11.4097186435
 30
0.0
 10
13.9419815045
 20
11.364365942
 30
0.0
 10
13.9551231742
 20
11.3316621032
 30
0.0
 10
13.9686287281
 20
11.2999513484
 30
0.0
 10
13.9824869254
 20
11.2692602369
 30
0.0
 10
13.9966861227
 20
11.2396145811
 30
0.0
 10
14.0112143925
 20
11.2110392534
 30
0.0
 10
14.0260595558
 20
11.1835582332
 30
0.0
 10
14.0412092148
 20
11.1571945878
 30
0.0
 10
14.056650701
 20
11.1319704161
 30
0.0
 10
14.0723711259
 20
11.1079068496
 30
0.0
 10
14.0883574297
 20
11.085024067
 30
0.0
 10
14.1045963537
 20
11.0633412498
 30
0.0
 10
14.1210744417
 20
11.042876557
 30
0.0
 10
14.1377781138
 20
11.0236471688
 30
0.0
 10
14.1546936659
 20
11.0056692773
 30
0.0
 10
14.1718072231
 20
10.9889580289
 30
0.0
 10
14.1891048164
 20
10.9735275949
 30
0.0
 10
14.2065723895
 20
10.9593912029
 30
0.0
 10
14.224195726
 20
10.9465610707
 30
0.0
 10
14.2419604745
 20
10.9350484597
 30
0.0
 10
14.2598521392
 20
10.9248637377
 30
0.0
 10
14.2778559945
 20
10.9160163114
 30
0.0
 10
14.2959570159
 20
10.9085145749
 30
0.0
 10
14.3141399109
 20
10.9023659533
 30
0.0
 10
14.3323888866
 20
10.8975767955
 30
0.0
 10
14.350688206
 20
10.8941521637
 30
0.0
 10
14.3690200803
 20
10.8920958096
 30
0.0
 10
14.3812647579
 20
10.8916383417
 30
0.0
 10
14.3873703261
 20
10.8916383328
 30
0.0
  0
SPLINE
  5
2D4
100
AcDbEntity
  8
LAYER_FEATURE
100
AcDbSpline
 62
7
  6
CONTINUOUS
 70
0
 71
3
 72
15
 73
11
 74
0
 42
0.0000001
 43
0.0000001
 44
0.0000000001
 40
0.0
 40
0.0
 40
0.0
 40
0.0
 40
0.1126201789
 40
0.2332966346
 40
0.3599532662
 40
0.490291179
 40
0.6218949065
 40
0.7523081315
 40
0.8791066464
 40
1.0
 40
1.0
 40
1.0
 40
1.0
 10
13.9123553965
 20
13.5755929509
 30
0.0
 10
13.9122016943
 20
13.5750955705
 30
0.0
 10
13.9119289271
 20
13.5740508295
 30
0.0
 10
13.9116259311
 20
13.5724135743
 30
0.0
 10
13.9114195015
 20
13.5706788797
 30
0.0
 10
13.9113143311
 20
13.5688846416
 30
0.0
 10
13.911312754
 20
13.5670699843
 30
0.0
 10
13.9114148332
 20
13.565274534
 30
0.0
 10
13.9116182302
 20
13.5635375795
 30
0.0
 10
13.9118244708
 20
13.5624102605
 30
0.0
 10
13.9119454787
 20
13.5618646886
 30
0.0
  0
SPLINE
  5
2D5
100
AcDbEntity
  8
LAYER_FEATURE
100
AcDbSpline
 62
7
  6
CONTINUOUS
 70
0
 71
3
 72
12
 73
8
 74
0
 42
0.0000001
 43
0.0000001
 44
0.0000000001
 40
0.0
 40
0.0
 40
0.0
 40
0.0
 40
0.2553118693
 40
0.5118504079
 40
0.7623760336
 40
0.883217806
 40
1.0
 40
1.0
 40
1.0
 40
1.0
 10
13.9219997832
 20
13.4846625769
 30
0.0
 10
13.9223138791
 20
13.4883791651
 30
0.0
 10
13.9226666356
 20
13.4958561829
 30
0.0
 10
13.9224069657
 20
13.5069990202
 30
0.0
 10
13.9215361689
 20
13.51614031
 30
0.0
 10
13.920442575
 20
13.5231888676
 30
0.0
 10
13.9197681797
 20
13.5265955194
 30
0.0
 10
13.9193987525
 20
13.5282611065
 30
0.0
  0
SPLINE
  5
2D6
100
AcDbEntity
  8
LAYER_FEATURE
100
AcDbSpline
 62
7
  6
CONTINUOUS
 70
0
 71
3
 72
37
 73
33
 74
0
 42
0.0000001
 43
0.0000001
 44
0.0000000001
 40
0.0
 40
0.0
 40
0.0
 40
0.0
 40
0.0879643961
 40
0.172656366
 40
0.2137279342
 40
0.2539252452
 40
0.2932329961
 40
0.3316376653
 40
0.3691277228
 40
0.4056937574
 40
0.4413286816
 40
0.4760279131
 40
0.5097895384
 40
0.5426145898
 40
0.5745073037
 40
0.6054753468
 40
0.6355301605
 40
0.6646873123
 40
0.6929667938
 40
0.7203934219
 40
0.7469972575
 40
0.7728139336
 40
0.7978850347
 40
0.822258456
 40
0.8459885983
 40
0.8691365012
 40
0.8917698488
 40
0.9139627016
 40
0.9357950243
 40
0.9573519736
 40
0.9787228784
 40
1.0
 40
1.0
 40
1.0
 40
1.0
 10
13.8381752341
 20
13.5856722297
 30
0.0
 10
13.8458848082
 20
13.6106204207
 30
0.0
 10
13.8618007488
 20
13.6593511273
 30
0.0
 10
13.8835985418
 20
13.7189502005
 30
0.0
 10
13.9018412785
 20
13.7647166082
 30
0.0
 10
13.9157501974
 20
13.7976995452
 30
0.0
 10
13.9300145822
 20
13.8296653955
 30
0.0
 10
13.9446232839
 20
13.8605890464
 30
0.0
 10
13.9595647533
 20
13.8904461124
 30
0.0
 10
13.974827266
 20
13.9192130609
 30
0.0
 10
13.9903988198
 20
13.94686724
 30
0.0
 10
14.0062671727
 20
13.9733868944
 30
0.0
 10
14.0224199162
 20
13.9987511401
 30
0.0
 10
14.038844422
 20
14.0229400198
 30
0.0
 10
14.0555278485
 20
14.0459345254
 30
0.0
 10
14.0724572325
 20
14.0677165507
 30
0.0
 10
14.0896194479
 20
14.0882689353
 30
0.0
 10
14.1070011875
 20
14.1075755029
 30
0.0
 10
14.1245890619
 20
14.1256209857
 30
0.0
 10
14.1423695702
 20
14.1423910467
 30
0.0
 10
14.1603290506
 20
14.1578723386
 30
0.0
 10
14.1784537706
 20
14.1720523982
 30
0.0
 10
14.1967298944
 20
14.1849196432
 30
0.0
 10
14.215143396
 20
14.1964634643
 30
0.0
 10
14.2336801132
 20
14.20667411
 30
0.0
 10
14.2523256976
 20
14.2155426797
 30
0.0
 10
14.2710654894
 20
14.2230612879
 30
0.0
 10
14.2898845839
 20
14.2292229954
 30
0.0
 10
14.3087676316
 20
14.2340218452
 30
0.0
 10
14.3276993595
 20
14.237453118
 30
0.0
 10
14.3466625356
 20
14.2395133492
 30
0.0
 10
14.3593273429
 20
14.2399716439
 30
0.0
 10
14.3656434618
 20
14.2399716531
 30
0.0
  0
SPLINE
  5
2D7
100
AcDbEntity
  8
02___PRT_ALL_AXES
100
AcDbSpline
 62
7
  6
CONTINUOUS
 70
0
 71
3
 72
33
 73
29
 74
0
 42
0.0000001
 43
0.0000001
 44
0.0000000001
 40
0.0
 40
0.0
 40
0.0
 40
0.0
 40
0.0252557075
 40
0.0513912771
 40
0.078374523
 40
0.1061692217
 40
0.1347355285
 40
0.1640303482
 40
0.1940076658
 40
0.2246188472
 40
0.255812916
 40
0.28753681
 40
0.3197356237
 40
0.3523528376
 40
0.418606669
 40
0.485825151
 40
0.553519603
 40
0.6211953295
 40
0.6883578703
 40
0.7545192555
 40
0.7870769201
 40
0.8192075479
 40
0.8508548496
 40
0.8819641811
 40
0.912482786
 40
0.9423600077
 40
0.971547629
 40
1.0
 40
1.0
 40
1.0
 40
1.0
 10
16.1644386251
 20
13.2195854476
 30
0.0
 10
16.1687888358
 20
13.2094195428
 30
0.0
 10
16.1772866267
 20
13.1885804518
 30
0.0
 10
16.1892420231
 20
13.1564109196
 30
0.0
 10
16.2006039833
 20
13.122851294
 30
0.0
 10
16.2113478586
 20
13.087974084
 30
0.0
 10
16.2214505628
 20
13.0518540539
 30
0.0
 10
16.2308902977
 20
13.0145688698
 30
0.0
 10
16.2396467019
 20
12.9761986961
 30
0.0
 10
16.2477008715
 20
12.9368260854
 30
0.0
 10
16.2550354214
 20
12.8965357592
 30
0.0
 10
16.2616344857
 20
12.8554144964
 30
0.0
 10
16.2674839005
 20
12.8135506731
 30
0.0
 10
16.2743015474
 20
12.756568373
 30
0.0
 10
16.2808430387
 20
12.6841259804
 30
0.0
 10
16.2855075149
 20
12.5961546391
 30
0.0
 10
16.2869860793
 20
12.5074492099
 30
0.0
 10
16.2852659805
 20
12.4187726149
 30
0.0
 10
16.2803620703
 20
12.3308875322
 30
0.0
 10
16.2736225736
 20
12.2585546382
 30
0.0
 10
16.2666485002
 20
12.2016883735
 30
0.0
 10
16.2606849285
 20
12.1599310065
 30
0.0
 10
16.2539737599
 20
12.118929692
 30
0.0
 10
16.2465293976
 20
12.0787725357
 30
0.0
 10
16.2383679506
 20
12.0395460586
 30
0.0
 10
16.2295070095
 20
12.0013345553
 30
0.0
 10
16.219965797
 20
11.9642205918
 30
0.0
 10
16.2130736518
 20
11.9399403276
 30
0.0
 10
16.2095124316
 20
11.9280030594
 30
0.0
  0
ENDSEC
  0
SECTION
  2
OBJECTS
  0
DICTIONARY
  5
C
100
AcDbDictionary
280
0
281
1
  3
ACAD_GROUP
350
D
  3
ACAD_MLINESTYLE
350
17
  3
ACAD_LAYOUT
350
1A
  3
ACAD_PLOTSETTINGS
350
19
  3
ACAD_PLOTSTYLENAME
350
E
  0
DICTIONARY
  5
D
102
{ACAD_REACTORS
330
C
102
}
100
AcDbDictionary
280
0
281
1
  0
ACDBDICTIONARYWDFLT
  5
E
102
{ACAD_REACTORS
330
C
102
}
100
AcDbDictionary
281
1
  3
Normal
350
F
100
AcDbDictionaryWithDefault
340
F
  0
DICTIONARY
  5
17
102
{ACAD_REACTORS
330
C
102
}
100
AcDbDictionary
280
0
281
1
  3
Standard
350
18
  0
DICTIONARY
  5
19
102
{ACAD_REACTORS
330
C
102
}
100
AcDbDictionary
281
1
  0
DICTIONARY
  5
1A
102
{ACAD_REACTORS
330
C
102
}
100
AcDbDictionary
281
1
  3
Model
350
2D8
  3
Layout1
350
2D9
  0
ACDBPLACEHOLDER
  5
F
102
{ACAD_REACTORS
330
E
102
}
  0
MLINESTYLE
  5
18
102
{ACAD_REACTORS
330
17
102
}
100
AcDbMlineStyle
  2
STANDARD
 70
0
  3

 62
256
 51
90.0
 52
90.0
 71
2
 49
0.5
 62
256
  6
BYLAYER
 49
-0.5
 62
256
  6
BYLAYER
  0
LAYOUT
  5
2D8
102
{ACAD_REACTORS
330
1A
102
}
100
AcDbPlotSettings
  1

  2
none_device
  4
ANSI_C_(22.00_x_17.00_Inches)
  6

 40
0.0
 41
0.0
 42
0.0
 43
0.0
 44
558.8
 45
431.8
 46
0.0
 47
0.0
 48
0.0
 49
0.0
140
0.0
141
0.0
142
1.0
143
1.0
 70
1024
 72
0
 73
0
 74
0
  7

 75
0
147
1.0
148
0.0
149
0.0
100
AcDbLayout
  1
Model
 70
0
 71
0
 10
0.0
 20
0.0
 11
22.0
 21
17.0
 12
0.0
 22
0.0
 32
0.0
 14
0.0
 24
0.0
 34
0.0
 15
0.0
 25
0.0
 35
0.0
146
0.0
 13
0.0
 23
0.0
 33
0.0
 16
1.0
 26
0.0
 36
0.0
 17
0.0
 27
1.0
 37
0.0
 76
0
330
222
345
0
346
0
  0
LAYOUT
  5
2D9
102
{ACAD_REACTORS
330
1A
102
}
100
AcDbPlotSettings
  1

  2
none_device
  4
ANSI_C_(22.00_x_17.00_Inches)
  6

 40
0.0
 41
0.0
 42
0.0
 43
0.0
 44
558.8
 45
431.8
 46
0.0
 47
0.0
 48
0.0
 49
0.0
140
0.0
141
0.0
142
1.0
143
1.0
 70
0
 72
0
 73
0
 74
0
  7

 75
0
147
1.0
148
0.0
149
0.0
100
AcDbLayout
  1
Layout1
 70
0
 71
1
 10
0.0
 20
0.0
 11
22.0
 21
17.0
 12
0.0
 22
0.0
 32
0.0
 14
0.0
 24
0.0
 34
0.0
 15
0.0
 25
0.0
 35
0.0
146
0.0
 13
0.0
 23
0.0
 33
0.0
 16
1.0
 26
0.0
 36
0.0
 17
0.0
 27
1.0
 37
0.0
 76
0
330
223
345
0
346
0
  0
ENDSEC
  0
EOF