999
DXF file: _cgs_temp_output.dxf
999
Pro/ENGINEER 2016360 by Parametric Technology Corporation
  0
SECTION
  2
HEADER
  9
$ACADVER
  1
AC1021
  9
$DWGCODEPAGE
  3
ANSI_1252
  9
$EXTMAX
 10
22.0
 20
17.0
 30
0.0
  9
$EXTMIN
 10
0.0
 20
0.0
 30
0.0
  9
$LIMMIN
 10
0.0
 20
0.0
  9
$LIMMAX
 10
22.0
 20
17.0
  9
$VIEWCTR
 10
11.0
 20
8.5
  9
$VIEWSIZE
 40
17.0
  9
$CLAYER
  8
0
  9
$LTSCALE
 40
1.21
  9
$CELTYPE
  6
BYLAYER
  9
$DIMSCALE
 40
1.0
  9
$DIMASZ
 40
0.1875
  9
$DIMEXO
 40
0.0625
  9
$DIMDLI
 40
0.836
  9
$DIMEXE
 40
0.125
  9
$DIMCEN
 40
0.198
  9
$DIMLFAC
 40
1.0
  9
$DIMBLK
  1
_CLOSED
  9
$DIMALT
 70
0
  9
$DIMALTF
 40
25.4
  9
$DIMTXT
 40
0.15625
  9
$DIMTOL
 70
0
  9
$DIMLIM
 70
0
  9
$DIMTFAC
 40
1.0
  9
$DIMGAP
 40
0.09
  9
$DIMDSEP
 70
46
  9
$AUNITS
 70
0
  9
$PDMODE
 70
3
  9
$PDSIZE
 40
0.3125
  9
$HANDSEED
  5
2DB
  9
$TILEMODE
 70
1
  9
$MEASUREMENT
 70
0
  9
$INSUNITS
 70
1
  0
ENDSEC
  0
SECTION
  2
CLASSES
  0
CLASS
  1
ACDBDICTIONARYWDFLT
  2
AcDbDictionaryWithDefault
  3
AutoCAD 2000
 90
0
 91
1
280
0
281
0
  0
CLASS
  1
ACDBPLACEHOLDER
  2
AcDbPlaceHolder
  3
AutoCAD 2000
 90
0
 91
1
280
0
281
0
  0
CLASS
  1
LAYOUT
  2
AcDbLayout
  3
AutoCAD 2000
 90
0
 91
0
280
0
281
0
  0
ENDSEC
  0
SECTION
  2
TABLES
  0
TABLE
  2
VPORT
  5
8
100
AcDbSymbolTable
 70
2
  0
VPORT
  5
1F4
100
AcDbSymbolTableRecord
100
AcDbViewportTableRecord
  2
*ACTIVE
 70
0
 10
0.0
 20
0.0
 11
1.0
 21
1.0
 12
11.0
 22
8.5
 13
0.0
 23
0.0
 14
1.0
 24
1.0
 15
0.0
 25
0.0
 16
0.0
 26
0.0
 36
1.0
 17
0.0
 27
0.0
 37
0.0
 40
17.0
 41
1.2941176471
 42
50.0
 43
0.0
 44
0.0
 50
0.0
 51
0.0
 71
0
 72
100
 73
1
 74
1
 75
0
 76
0
 77
0
 78
0
  0
ENDTAB
  0
TABLE
  2
LTYPE
  5
5
100
AcDbSymbolTable
 70
6
  0
LTYPE
  5
14
100
AcDbSymbolTableRecord
100
AcDbLinetypeTableRecord
  2
BYBLOCK
 70
0
  3

 72
65
 73
0
 40
0.0
  0
LTYPE
  5
15
100
AcDbSymbolTableRecord
100
AcDbLinetypeTableRecord
  2
BYLAYER
 70
0
  3

 72
65
 73
0
 40
0.0
  0
LTYPE
  5
16
100
AcDbSymbolTableRecord
100
AcDbLinetypeTableRecord
  2
CONTINUOUS
 70
64
  3
Solid line
 72
65
 73
0
 40
0.0
  0
LTYPE
  5
1F5
100
AcDbSymbolTableRecord
100
AcDbLinetypeTableRecord
  2
CENTER
 70
64
  3
____ _ ____ _ ____ _ ____ _ ____ _ ____ _ ____
 72
65
 73
4
 40
0.6
 49
0.375
 74
0
 49
-0.075
 74
0
 49
0.075
 74
0
 49
-0.075
 74
0
  0
LTYPE
  5
1F6
100
AcDbSymbolTableRecord
100
AcDbLinetypeTableRecord
  2
HIDDEN
 70
64
  3
- - - - - - - - - - - - - - - - - - - -
 72
65
 73
2
 40
0.2
 49
0.1
 74
0
 49
-0.1
 74
0
  0
LTYPE
  5
1F7
100
AcDbSymbolTableRecord
100
AcDbLinetypeTableRecord
  2
PHANTOM
 70
64
  3
_____ _ _ _____ _ _ _____ _ _ _____
 72
65
 73
6
 40
0.8
 49
0.45
 74
0
 49
-0.05
 74
0
 49
0.1
 74
0
 49
-0.05
 74
0
 49
0.1
 74
0
 49
-0.05
 74
0
  0
LTYPE
  5
1F8
100
AcDbSymbolTableRecord
100
AcDbLinetypeTableRecord
  2
DOT
 70
64
  3
. . . . . . . . . . . . . . . . . . . .
 72
65
 73
2
 40
0.2
 49
0.1
 74
0
 49
-0.1
 74
0
  0
LTYPE
  5
1F9
100
AcDbSymbolTableRecord
100
AcDbLinetypeTableRecord
  2
DASHED
 70
64
  3
- - - - - - - - - - - - - - - - - - - -
 72
65
 73
2
 40
0.2
 49
0.1
 74
0
 49
-0.1
 74
0
  0
ENDTAB
  0
TABLE
  2
LAYER
  5
2
100
AcDbSymbolTable
 70
36
  0
LAYER
  5
10
100
AcDbSymbolTableRecord
100
AcDbLayerTableRecord
  2
0
 70
0
 62
7
  6
CONTINUOUS
370
-3
390
F
  0
LAYER
  5
1FA
100
AcDbSymbolTableRecord
100
AcDbLayerTableRecord
  2
DEFAULT_1
 70
0
 62
7
  6
CENTER
370
-3
390
F
  0
LAYER
  5
1FB
100
AcDbSymbolTableRecord
100
AcDbLayerTableRecord
  2
DEFAULT_2
 70
0
 62
8
  6
HIDDEN
370
-3
390
F
  0
LAYER
  5
1FC
100
AcDbSymbolTableRecord
100
AcDbLayerTableRecord
  2
DEFAULT_3
 70
0
 62
7
  6
PHANTOM
370
-3
390
F
  0
LAYER
  5
1FD
100
AcDbSymbolTableRecord
100
AcDbLayerTableRecord
  2
01_ALL_DTM_PLN
 70
0
 62
7
  6
CONTINUOUS
370
-3
390
F
  0
LAYER
  5
1FE
100
AcDbSymbolTableRecord
100
AcDbLayerTableRecord
  2
01__ASM_ALL_DTM_PLN
 70
0
 62
7
  6
CONTINUOUS
370
-3
390
F
  0
LAYER
  5
1FF
100
AcDbSymbolTableRecord
100
AcDbLayerTableRecord
  2
01__ASM_DEF_DTM_PLN
 70
0
 62
7
  6
CONTINUOUS
370
-3
390
F
  0
LAYER
  5
200
100
AcDbSymbolTableRecord
100
AcDbLayerTableRecord
  2
01___PRT_ALL_DTM_PLN
 70
0
 62
7
  6
CONTINUOUS
370
-3
390
F
  0
LAYER
  5
201
100
AcDbSymbolTableRecord
100
AcDbLayerTableRecord
  2
01___PRT_DEF_DTM_PLN
 70
0
 62
7
  6
CONTINUOUS
370
-3
390
F
  0
LAYER
  5
202
100
AcDbSymbolTableRecord
100
AcDbLayerTableRecord
  2
02_ALL_AXES
 70
0
 62
7
  6
CONTINUOUS
370
-3
390
F
  0
LAYER
  5
203
100
AcDbSymbolTableRecord
100
AcDbLayerTableRecord
  2
02__ASM_ALL_AXES
 70
0
 62
7
  6
CONTINUOUS
370
-3
390
F
  0
LAYER
  5
204
100
AcDbSymbolTableRecord
100
AcDbLayerTableRecord
  2
02___PRT_ALL_AXES
 70
0
 62
7
  6
CONTINUOUS
370
-3
390
F
  0
LAYER
  5
205
100
AcDbSymbolTableRecord
100
AcDbLayerTableRecord
  2
03_ALL_CURVES
 70
0
 62
7
  6
CONTINUOUS
370
-3
390
F
  0
LAYER
  5
206
100
AcDbSymbolTableRecord
100
AcDbLayerTableRecord
  2
03__ASM_ALL_CURVES
 70
0
 62
7
  6
CONTINUOUS
370
-3
390
F
  0
LAYER
  5
207
100
AcDbSymbolTableRecord
100
AcDbLayerTableRecord
  2
03___PRT_ALL_CURVES
 70
0
 62
7
  6
CONTINUOUS
370
-3
390
F
  0
LAYER
  5
208
100
AcDbSymbolTableRecord
100
AcDbLayerTableRecord
  2
04_ALL_DTM_PNT
 70
0
 62
7
  6
CONTINUOUS
370
-3
390
F
  0
LAYER
  5
209
100
AcDbSymbolTableRecord
100
AcDbLayerTableRecord
  2
04__ASM_ALL_DTM_PNT
 70
0
 62
7
  6
CONTINUOUS
370
-3
390
F
  0
LAYER
  5
20A
100
AcDbSymbolTableRecord
100
AcDbLayerTableRecord
  2
04___PRT_ALL_DTM_PNT
 70
0
 62
7
  6
CONTINUOUS
370
-3
390
F
  0
LAYER
  5
20B
100
AcDbSymbolTableRecord
100
AcDbLayerTableRecord
  2
05_ALL_DTM_CSYS
 70
0
 62
7
  6
CONTINUOUS
370
-3
390
F
  0
LAYER
  5
20C
100
AcDbSymbolTableRecord
100
AcDbLayerTableRecord
  2
05__ASM_ALL_DTM_CSYS
 70
0
 62
7
  6
CONTINUOUS
370
-3
390
F
  0
LAYER
  5
20D
100
AcDbSymbolTableRecord
100
AcDbLayerTableRecord
  2
05__ASM_DEF_DTM_CSYS
 70
0
 62
7
  6
CONTINUOUS
370
-3
390
F
  0
LAYER
  5
20E
100
AcDbSymbolTableRecord
100
AcDbLayerTableRecord
  2
05___PRT_ALL_DTM_CSYS
 70
0
 62
7
  6
CONTINUOUS
370
-3
390
F
  0
LAYER
  5
20F
100
AcDbSymbolTableRecord
100
AcDbLayerTableRecord
  2
05___PRT_DEF_DTM_CSYS
 70
0
 62
7
  6
CONTINUOUS
370
-3
390
F
  0
LAYER
  5
210
100
AcDbSymbolTableRecord
100
AcDbLayerTableRecord
  2
06_ALL_SURFS
 70
0
 62
7
  6
CONTINUOUS
370
-3
390
F
  0
LAYER
  5
211
100
AcDbSymbolTableRecord
100
AcDbLayerTableRecord
  2
06__ASM_ALL_SURFS
 70
0
 62
7
  6
CONTINUOUS
370
-3
390
F
  0
LAYER
  5
212
100
AcDbSymbolTableRecord
100
AcDbLayerTableRecord
  2
06___PRT_ALL_SURFS
 70
0
 62
7
  6
CONTINUOUS
370
-3
390
F
  0
LAYER
  5
213
100
AcDbSymbolTableRecord
100
AcDbLayerTableRecord
  2
07__ASM_ALL_SKELETONS
 70
0
 62
7
  6
CONTINUOUS
370
-3
390
F
  0
LAYER
  5
214
100
AcDbSymbolTableRecord
100
AcDbLayerTableRecord
  2
LAYER_AXIS
 70
0
 62
7
  6
CONTINUOUS
370
-3
390
F
  0
LAYER
  5
215
100
AcDbSymbolTableRecord
100
AcDbLayerTableRecord
  2
LAYER_CHAMFER_FEAT
 70
0
 62
7
  6
CONTINUOUS
370
-3
390
F
  0
LAYER
  5
216
100
AcDbSymbolTableRecord
100
AcDbLayerTableRecord
  2
LAYER_CUT_FEAT
 70
0
 62
7
  6
CONTINUOUS
370
-3
390
F
  0
LAYER
  5
217
100
AcDbSymbolTableRecord
100
AcDbLayerTableRecord
  2
LAYER_DATUM
 70
0
 62
7
  6
CONTINUOUS
370
-3
390
F
  0
LAYER
  5
218
100
AcDbSymbolTableRecord
100
AcDbLayerTableRecord
  2
LAYER_DIM
 70
0
 62
7
  6
CONTINUOUS
370
-3
390
F
  0
LAYER
  5
219
100
AcDbSymbolTableRecord
100
AcDbLayerTableRecord
  2
LAYER_FEATURE
 70
0
 62
7
  6
CONTINUOUS
370
-3
390
F
  0
LAYER
  5
21A
100
AcDbSymbolTableRecord
100
AcDbLayerTableRecord
  2
LAYER_GEOM_FEAT
 70
0
 62
7
  6
CONTINUOUS
370
-3
390
F
  0
LAYER
  5
21B
100
AcDbSymbolTableRecord
100
AcDbLayerTableRecord
  2
LAYER_NOGEOM_FEAT
 70
0
 62
7
  6
CONTINUOUS
370
-3
390
F
  0
LAYER
  5
21C
100
AcDbSymbolTableRecord
100
AcDbLayerTableRecord
  2
LAYER_PARAMETER_DIM
 70
0
 62
7
  6
CONTINUOUS
370
-3
390
F
  0
LAYER
  5
21D
100
AcDbSymbolTableRecord
100
AcDbLayerTableRecord
  2
LAYER_PROTRUSION_FEAT
 70
0
 62
7
  6
CONTINUOUS
370
-3
390
F
  0
LAYER
  5
21E
100
AcDbSymbolTableRecord
100
AcDbLayerTableRecord
  2
LAYER_QUILT
 70
0
 62
7
  6
CONTINUOUS
370
-3
390
F
  0
LAYER
  5
21F
100
AcDbSymbolTableRecord
100
AcDbLayerTableRecord
  2
LAYER_ROUND_FEAT
 70
0
 62
7
  6
CONTINUOUS
370
-3
390
F
  0
ENDTAB
  0
TABLE
  2
STYLE
  5
3
100
AcDbSymbolTable
 70
1
  0
STYLE
  5
11
100
AcDbSymbolTableRecord
100
AcDbTextStyleTableRecord
  2
STANDARD
 70
0
 40
0.0
 41
0.8
 50
0.0
 71
0
 42
0.2
  3
txt
  4

  0
STYLE
  5
220
100
AcDbSymbolTableRecord
100
AcDbTextStyleTableRecord
  2
TEXTSTYLE_1
 70
0
 40
0.0
 41
0.8
 50
0.0
 71
0
 42
0.2
  3
gdt
  4

  0
ENDTAB
  0
TABLE
  2
VIEW
  5
6
100
AcDbSymbolTable
 70
0
  0
ENDTAB
  0
TABLE
  2
UCS
  5
7
100
AcDbSymbolTable
 70
0
  0
ENDTAB
  0
TABLE
  2
APPID
  5
9
100
AcDbSymbolTable
 70
1
  0
APPID
  5
221
100
AcDbSymbolTableRecord
100
AcDbRegAppTableRecord
  2
ACAD
 70
0
  0
ENDTAB
  0
TABLE
  2
BLOCK_RECORD
  5
1
100
AcDbSymbolTable
 70
0
  0
BLOCK_RECORD
  5
222
100
AcDbSymbolTableRecord
100
AcDbBlockTableRecord
  2
*Model_Space
  0
BLOCK_RECORD
  5
223
100
AcDbSymbolTableRecord
100
AcDbBlockTableRecord
  2
*Paper_Space
  0
ENDTAB
  0
TABLE
  2
DIMSTYLE
  5
A
100
AcDbSymbolTable
 70
1
100
AcDbDimStyleTable
 71
0
  0
DIMSTYLE
105
224
100
AcDbSymbolTableRecord
100
AcDbDimStyleTableRecord
  2
STANDARD
 70
0
  3

  4

 40
1.0
 41
0.1875
 42
0.0625
 43
0.38
 44
0.125
 45
0.0
 46
0.0
 47
0.0001
 48
0.0001
140
0.15625
141
0.09
142
0.0
143
25.4
144
1.0
145
0.0
146
1.0
147
0.09
 71
0.0
 72
0.0
 73
1
 74
1
 75
0
 76
0
 77
0
 78
4
 79
1
170
0
171
3
172
0
173
0
174
0
175
0
176
0
177
0
178
0
270
2
179
4
271
4
272
4
273
2
274
2
275
0
280
0
281
0
282
0
283
1
284
4
285
0
286
0
287
3
288
0
340
11
278
46
  0
ENDTAB
  0
ENDSEC
  0
SECTION
  2
BLOCKS
  0
BLOCK
  5
20
100
AcDbEntity
  8
0
100
AcDbBlockBegin
  2
*Model_Space
 70
0
 10
0.0
 20
0.0
 30
0.0
  3
*Model_Space
  1

  0
ENDBLK
  5
21
100
AcDbEntity
  8
0
100
AcDbBlockEnd
  0
BLOCK
  5
1C
100
AcDbEntity
  8
0
100
AcDbBlockBegin
  2
*Paper_Space
 70
0
 10
0.0
 20
0.0
 30
0.0
  3
*Paper_Space
  1

  0
ENDBLK
  5
1D
100
AcDbEntity
  8
0
100
AcDbBlockEnd
  0
ENDSEC
  0
SECTION
  2
ENTITIES
  0
MTEXT
  5
225
100
AcDbEntity
  8
0
100
AcDbMText
 62
7
  6
CONTINUOUS
  7
STANDARD
 71
1
 72
1
 10
15.9560215477
 20
0.9479130325
 30
0.0
 11
1.0
 21
0.0
 31
0.0
 44
0.9
  1
SCALE: 1:0.333
 40
0.3
 41
3.36
  0
LINE
  5
226
100
AcDbEntity
  8
0
100
AcDbLine
 62
7
  6
CONTINUOUS
 10
0.0
 20
0.0
 11
0.0
 21
17.0
  0
LINE
  5
227
100
AcDbEntity
  8
0
100
AcDbLine
 62
7
  6
CONTINUOUS
 10
0.0
 20
0.0
 11
22.0
 21
0.0
  0
LINE
  5
228
100
AcDbEntity
  8
0
100
AcDbLine
 62
7
  6
CONTINUOUS
 10
0.0
 20
17.0
 11
22.0
 21
17.0
  0
LINE
  5
229
100
AcDbEntity
  8
0
100
AcDbLine
 62
7
  6
CONTINUOUS
 10
22.0
 20
0.0
 11
22.0
 21
17.0
  0
LINE
  5
22A
100
AcDbEntity
  8
LAYER_FEATURE
100
AcDbLine
 62
7
  6
CONTINUOUS
 10
6.6003672762
 20
3.7909532301
 11
6.558956229
 21
3.7909532301
  0
LINE
  5
22B
100
AcDbEntity
  8
LAYER_FEATURE
100
AcDbLine
 62
7
  6
CONTINUOUS
 10
5.6603672762
 20
3.7909532301
 11
5.7017783234
 21
3.7909532301
  0
LINE
  5
22C
100
AcDbEntity
  8
02___PRT_ALL_AXES
100
AcDbLine
 62
7
  6
CONTINUOUS
 10
5.7253672762
 20
3.9009532301
 11
6.5353672762
 21
3.9009532301
  0
LINE
  5
22D
100
AcDbEntity
  8
LAYER_FEATURE
100
AcDbLine
 62
7
  6
CONTINUOUS
 10
5.6603672762
 20
7.2492865634
 11
5.6603672762
 21
3.7909532301
  0
LINE
  5
22E
100
AcDbEntity
  8
LAYER_FEATURE
100
AcDbLine
 62
7
  6
CONTINUOUS
 10
5.7017783234
 20
7.2492865634
 11
5.7017783234
 21
3.7909532301
  0
LINE
  5
22F
100
AcDbEntity
  8
LAYER_FEATURE
100
AcDbLine
 62
7
  6
CONTINUOUS
 10
5.7253672762
 20
7.1612513931
 11
5.7253672762
 21
3.8789884004
  0
LINE
  5
230
100
AcDbEntity
  8
LAYER_FEATURE
100
AcDbLine
 62
7
  6
CONTINUOUS
 10
6.558956229
 20
7.2492865634
 11
6.5353672762
 21
7.1612513931
  0
LINE
  5
231
100
AcDbEntity
  8
LAYER_FEATURE
100
AcDbLine
 62
7
  6
CONTINUOUS
 10
6.558956229
 20
3.7909532301
 11
6.5353672762
 21
3.8789884004
  0
LINE
  5
232
100
AcDbEntity
  8
LAYER_FEATURE
100
AcDbLine
 62
7
  6
CONTINUOUS
 10
5.7017783234
 20
3.7909532301
 11
5.7253672762
 21
3.8789884004
  0
LINE
  5
233
100
AcDbEntity
  8
LAYER_FEATURE
100
AcDbLine
 62
7
  6
CONTINUOUS
 10
5.7017783234
 20
7.2492865634
 11
5.7253672762
 21
7.1612513931
  0
LINE
  5
234
100
AcDbEntity
  8
LAYER_FEATURE
100
AcDbLine
 62
7
  6
CONTINUOUS
 10
6.5353672762
 20
7.1612513931
 11
6.5353672762
 21
3.8789884004
  0
LINE
  5
235
100
AcDbEntity
  8
LAYER_FEATURE
100
AcDbLine
 62
7
  6
CONTINUOUS
 10
6.558956229
 20
7.2492865634
 11
6.558956229
 21
3.7909532301
  0
LINE
  5
236
100
AcDbEntity
  8
LAYER_FEATURE
100
AcDbLine
 62
7
  6
CONTINUOUS
 10
6.6003672762
 20
7.2492865634
 11
6.6003672762
 21
3.7909532301
  0
LINE
  5
237
100
AcDbEntity
  8
LAYER_FEATURE
100
AcDbLine
 62
7
  6
CONTINUOUS
 10
5.7253672762
 20
7.0217010739
 11
6.5353672762
 21
7.0217010739
  0
LINE
  5
238
100
AcDbEntity
  8
LAYER_CUT_FEAT
100
AcDbLine
 62
7
  6
CONTINUOUS
 10
5.7253672762
 20
7.0223910553
 11
6.5353672762
 21
7.0223910553
  0
LINE
  5
239
100
AcDbEntity
  8
LAYER_FEATURE
100
AcDbLine
 62
7
  6
CONTINUOUS
 10
5.7253672762
 20
7.0717933983
 11
6.5353672762
 21
7.0717933983
  0
LINE
  5
23A
100
AcDbEntity
  8
LAYER_FEATURE
100
AcDbLine
 62
7
  6
CONTINUOUS
 10
5.7253672762
 20
7.0800839243
 11
6.5353672762
 21
7.0800839243
  0
LINE
  5
23B
100
AcDbEntity
  8
LAYER_CUT_FEAT
100
AcDbLine
 62
7
  6
CONTINUOUS
 10
5.7253672762
 20
7.0803921976
 11
6.5353672762
 21
7.0803921976
  0
LINE
  5
23C
100
AcDbEntity
  8
LAYER_FEATURE
100
AcDbLine
 62
7
  6
CONTINUOUS
 10
5.7253672762
 20
7.1138329326
 11
6.5353672762
 21
7.1138329326
  0
LINE
  5
23D
100
AcDbEntity
  8
LAYER_FEATURE
100
AcDbLine
 62
7
  6
CONTINUOUS
 10
5.7253672762
 20
7.1188493219
 11
6.5353672762
 21
7.1188493219
  0
LINE
  5
23E
100
AcDbEntity
  8
LAYER_CUT_FEAT
100
AcDbLine
 62
7
  6
CONTINUOUS
 10
5.7253672762
 20
7.1189266333
 11
6.5353672762
 21
7.1189266333
  0
LINE
  5
23F
100
AcDbEntity
  8
LAYER_FEATURE
100
AcDbLine
 62
7
  6
CONTINUOUS
 10
5.7253672762
 20
7.1358306008
 11
6.5353672762
 21
7.1358306008
  0
LINE
  5
240
100
AcDbEntity
  8
LAYER_FEATURE
100
AcDbLine
 62
7
  6
CONTINUOUS
 10
5.7253672762
 20
7.1375097694
 11
6.5353672762
 21
7.1375097694
  0
LINE
  5
241
100
AcDbEntity
  8
LAYER_FEATURE
100
AcDbLine
 62
7
  6
CONTINUOUS
 10
6.6003672762
 20
7.2492865634
 11
6.558956229
 21
7.2492865634
  0
LINE
  5
242
100
AcDbEntity
  8
LAYER_FEATURE
100
AcDbLine
 62
7
  6
CONTINUOUS
 10
5.6603672762
 20
7.2492865634
 11
5.7017783234
 21
7.2492865634
  0
LINE
  5
243
100
AcDbEntity
  8
LAYER_FEATURE
100
AcDbLine
 62
7
  6
CONTINUOUS
 10
5.6008720839
 20
10.8708811147
 11
5.6422831311
 21
10.8708811147
  0
LINE
  5
244
100
AcDbEntity
  8
LAYER_FEATURE
100
AcDbLine
 62
7
  6
CONTINUOUS
 10
6.4994610366
 20
10.8708811147
 11
6.5408720839
 21
10.8708811147
  0
LINE
  5
245
100
AcDbEntity
  8
02___PRT_ALL_AXES
100
AcDbLine
 62
7
  6
CONTINUOUS
 10
5.6658720839
 20
10.9808811147
 11
6.4758720839
 21
10.9808811147
  0
LINE
  5
246
100
AcDbEntity
  8
LAYER_FEATURE
100
AcDbLine
 62
7
  6
CONTINUOUS
 10
5.6658720839
 20
11.9942799522
 11
6.4758720839
 21
11.9942799522
  0
LINE
  5
247
100
AcDbEntity
  8
LAYER_FEATURE
100
AcDbLine
 62
7
  6
CONTINUOUS
 10
5.6008720839
 20
10.8708811147
 11
5.6008720839
 21
14.329214448
  0
LINE
  5
248
100
AcDbEntity
  8
LAYER_FEATURE
100
AcDbLine
 62
7
  6
CONTINUOUS
 10
6.4758720839
 20
12.0720559501
 11
5.6658720839
 21
12.0720559501
  0
LINE
  5
249
100
AcDbEntity
  8
LAYER_FEATURE
100
AcDbLine
 62
7
  6
CONTINUOUS
 10
6.4758720839
 20
12.1098112833
 11
5.6658720839
 21
12.1098112833
  0
LINE
  5
24A
100
AcDbEntity
  8
LAYER_FEATURE
100
AcDbLine
 62
7
  6
CONTINUOUS
 10
5.6658720839
 20
12.1374355906
 11
6.4758720839
 21
12.1374355906
  0
LINE
  5
24B
100
AcDbEntity
  8
LAYER_FEATURE
100
AcDbLine
 62
7
  6
CONTINUOUS
 10
5.6422831311
 20
10.8708811147
 11
5.6422831311
 21
14.329214448
  0
LINE
  5
24C
100
AcDbEntity
  8
LAYER_FEATURE
100
AcDbLine
 62
7
  6
CONTINUOUS
 10
5.6658720839
 20
10.9589163916
 11
5.6658720839
 21
14.2411791712
  0
LINE
  5
24D
100
AcDbEntity
  8
LAYER_FEATURE
100
AcDbLine
 62
7
  6
CONTINUOUS
 10
5.6658720839
 20
12.166212643
 11
6.4758720839
 21
12.166212643
  0
LINE
  5
24E
100
AcDbEntity
  8
LAYER_FEATURE
100
AcDbLine
 62
7
  6
CONTINUOUS
 10
6.4758720839
 20
12.2375406208
 11
5.6658720839
 21
12.2375406208
  0
LINE
  5
24F
100
AcDbEntity
  8
LAYER_FEATURE
100
AcDbLine
 62
7
  6
CONTINUOUS
 10
6.4758720839
 20
12.2765377373
 11
5.6658720839
 21
12.2765377373
  0
LINE
  5
250
100
AcDbEntity
  8
LAYER_FEATURE
100
AcDbLine
 62
7
  6
CONTINUOUS
 10
5.6658720839
 20
12.3140767097
 11
6.4758720839
 21
12.3140767097
  0
LINE
  5
251
100
AcDbEntity
  8
LAYER_FEATURE
100
AcDbLine
 62
7
  6
CONTINUOUS
 10
5.6658720839
 20
12.3436010624
 11
6.4758720839
 21
12.3436010624
  0
LINE
  5
252
100
AcDbEntity
  8
LAYER_FEATURE
100
AcDbLine
 62
7
  6
CONTINUOUS
 10
6.4758720839
 20
12.4075840294
 11
5.6658720839
 21
12.4075840294
  0
LINE
  5
253
100
AcDbEntity
  8
LAYER_FEATURE
100
AcDbLine
 62
7
  6
CONTINUOUS
 10
6.4758720839
 20
12.4473325178
 11
5.6658720839
 21
12.4473325178
  0
LINE
  5
254
100
AcDbEntity
  8
LAYER_FEATURE
100
AcDbLine
 62
7
  6
CONTINUOUS
 10
5.6658720839
 20
12.4943140809
 11
6.4758720839
 21
12.4943140809
  0
LINE
  5
255
100
AcDbEntity
  8
LAYER_FEATURE
100
AcDbLine
 62
7
  6
CONTINUOUS
 10
6.4758720839
 20
14.2411792777
 11
6.4994610366
 21
14.329214448
  0
LINE
  5
256
100
AcDbEntity
  8
LAYER_FEATURE
100
AcDbLine
 62
7
  6
CONTINUOUS
 10
5.6658720839
 20
12.524214448
 11
6.4758720839
 21
12.524214448
  0
LINE
  5
257
100
AcDbEntity
  8
LAYER_FEATURE
100
AcDbLine
 62
7
  6
CONTINUOUS
 10
6.4758720839
 20
12.5800477814
 11
5.6658720839
 21
12.5800477814
  0
LINE
  5
258
100
AcDbEntity
  8
LAYER_FEATURE
100
AcDbLine
 62
7
  6
CONTINUOUS
 10
6.4758720839
 20
10.958916285
 11
6.4994610366
 21
10.8708811147
  0
LINE
  5
259
100
AcDbEntity
  8
LAYER_FEATURE
100
AcDbLine
 62
7
  6
CONTINUOUS
 10
5.6422831311
 20
10.8708811147
 11
5.6658720839
 21
10.958916285
  0
LINE
  5
25A
100
AcDbEntity
  8
LAYER_FEATURE
100
AcDbLine
 62
7
  6
CONTINUOUS
 10
6.4758720839
 20
12.6200477814
 11
5.6658720839
 21
12.6200477814
  0
LINE
  5
25B
100
AcDbEntity
  8
LAYER_FEATURE
100
AcDbLine
 62
7
  6
CONTINUOUS
 10
5.6658720839
 20
12.6758811147
 11
6.4758720839
 21
12.6758811147
  0
LINE
  5
25C
100
AcDbEntity
  8
LAYER_FEATURE
100
AcDbLine
 62
7
  6
CONTINUOUS
 10
5.6422831311
 20
14.329214448
 11
5.6658720839
 21
14.2411792777
  0
LINE
  5
25D
100
AcDbEntity
  8
LAYER_FEATURE
100
AcDbLine
 62
7
  6
CONTINUOUS
 10
6.4758720839
 20
10.958916285
 11
6.4758720839
 21
14.2411792777
  0
LINE
  5
25E
100
AcDbEntity
  8
LAYER_FEATURE
100
AcDbLine
 62
7
  6
CONTINUOUS
 10
6.4994610366
 20
10.8708811147
 11
6.4994610366
 21
14.329214448
  0
LINE
  5
25F
100
AcDbEntity
  8
LAYER_FEATURE
100
AcDbLine
 62
7
  6
CONTINUOUS
 10
6.5408720839
 20
10.8708811147
 11
6.5408720839
 21
14.329214448
  0
LINE
  5
260
100
AcDbEntity
  8
02___PRT_ALL_AXES
100
AcDbLine
 62
7
  6
CONTINUOUS
 10
5.6658720839
 20
14.219214448
 11
6.4758720839
 21
14.219214448
  0
LINE
  5
261
100
AcDbEntity
  8
LAYER_FEATURE
100
AcDbLine
 62
7
  6
CONTINUOUS
 10
5.6008720839
 20
14.329214448
 11
5.6422831311
 21
14.329214448
  0
LINE
  5
262
100
AcDbEntity
  8
LAYER_FEATURE
100
AcDbLine
 62
7
  6
CONTINUOUS
 10
6.4994610366
 20
14.329214448
 11
6.5408720839
 21
14.329214448
  0
LINE
  5
263
100
AcDbEntity
  8
LAYER_FEATURE
100
AcDbLine
 62
7
  6
CONTINUOUS
 10
15.0381858575
 20
10.7816383262
 11
15.0763279579
 21
10.7816383262
  0
LINE
  5
264
100
AcDbEntity
  8
LAYER_FEATURE
100
AcDbLine
 62
7
  6
CONTINUOUS
 10
15.8658410916
 20
10.7816383262
 11
15.9039831919
 21
10.7816383262
  0
LINE
  5
265
100
AcDbEntity
  8
02___PRT_ALL_AXES
100
AcDbLine
 62
7
  6
CONTINUOUS
 10
15.0980548221
 20
10.8916383262
 11
15.6298574737
 21
10.8916383262
  0
LINE
  5
266
100
AcDbEntity
  8
02___PRT_ALL_AXES
100
AcDbLine
 62
7
  6
CONTINUOUS
 10
15.8493469445
 20
11.0768943611
 11
15.8243094263
 21
11.0819480356
  0
LINE
  5
267
100
AcDbEntity
  8
LAYER_FEATURE
100
AcDbLine
 62
7
  6
CONTINUOUS
 10
14.6255082249
 20
13.4614408565
 11
14.6326842793
 21
13.4846625769
  0
LINE
  5
268
100
AcDbEntity
  8
LAYER_FEATURE
100
AcDbLine
 62
7
  6
CONTINUOUS
 10
14.5284356144
 20
12.9975292436
 11
14.5335449514
 21
13.0353162024
  0
LINE
  5
269
100
AcDbEntity
  8
LAYER_FEATURE
100
AcDbLine
 62
7
  6
CONTINUOUS
 10
14.5532389345
 20
13.1582441502
 11
14.5599636951
 21
13.1943244902
  0
LINE
  5
26A
100
AcDbEntity
  8
LAYER_FEATURE
100
AcDbLine
 62
7
  6
CONTINUOUS
 10
14.5848936306
 20
13.3108171338
 11
14.5931492469
 21
13.3447371237
  0
LINE
  5
26B
100
AcDbEntity
  8
LAYER_FEATURE
100
AcDbLine
 62
7
  6
CONTINUOUS
 10
14.5254823819
 20
13.0742621043
 11
14.5141253782
 21
13.0996585879
  0
LINE
  5
26C
100
AcDbEntity
  8
LAYER_FEATURE
100
AcDbLine
 62
7
  6
CONTINUOUS
 10
14.5536499024
 20
13.235343636
 11
14.5434716218
 21
13.2638457659
  0
LINE
  5
26D
100
AcDbEntity
  8
LAYER_FEATURE
100
AcDbLine
 62
7
  6
CONTINUOUS
 10
14.5886636306
 20
13.3873136738
 11
14.5797920709
 21
13.4185630192
  0
LINE
  5
26E
100
AcDbEntity
  8
LAYER_FEATURE
100
AcDbLine
 62
7
  6
CONTINUOUS
 10
14.6300832486
 20
13.5282611065
 11
14.6226299748
 21
13.5618646886
  0
LINE
  5
26F
100
AcDbEntity
  8
LAYER_FEATURE
100
AcDbLine
 62
7
  6
CONTINUOUS
 10
14.4933737057
 20
12.9696885792
 11
15.2166714944
 21
12.9696885792
  0
LINE
  5
270
100
AcDbEntity
  8
LAYER_FEATURE
100
AcDbLine
 62
7
  6
CONTINUOUS
 10
15.2198162844
 20
12.9975292436
 11
14.5284356144
 21
12.9975292436
  0
LINE
  5
271
100
AcDbEntity
  8
LAYER_FEATURE
100
AcDbLine
 62
7
  6
CONTINUOUS
 10
15.2242556867
 20
13.0353162024
 11
14.5335449514
 21
13.0353162024
  0
LINE
  5
272
100
AcDbEntity
  8
LAYER_FEATURE
100
AcDbLine
 62
7
  6
CONTINUOUS
 10
14.4976668538
 20
12.9779368109
 11
14.5127090393
 21
12.9797947074
  0
LINE
  5
273
100
AcDbEntity
  8
LAYER_CUT_FEAT
100
AcDbLine
 62
7
  6
CONTINUOUS
 10
15.6456536692
 20
13.2177408262
 11
15.6548171974
 21
13.2188286475
  0
LINE
  5
274
100
AcDbEntity
  8
LAYER_FEATURE
100
AcDbLine
 62
7
  6
CONTINUOUS
 10
14.5127466087
 20
13.1129641313
 11
15.2346605193
 21
13.1129641313
  0
LINE
  5
275
100
AcDbEntity
  8
LAYER_FEATURE
100
AcDbLine
 62
7
  6
CONTINUOUS
 10
14.5171836064
 20
13.1406594443
 11
15.2388752422
 21
13.1406594443
  0
LINE
  5
276
100
AcDbEntity
  8
LAYER_CUT_FEAT
100
AcDbLine
 62
7
  6
CONTINUOUS
 10
14.5215025
 20
13.1476467406
 11
15.2399385816
 21
13.1476467406
  0
LINE
  5
277
100
AcDbEntity
  8
LAYER_FEATURE
100
AcDbLine
 62
7
  6
CONTINUOUS
 10
15.2415513145
 20
13.1582441502
 11
14.5532389345
 21
13.1582441502
  0
LINE
  5
278
100
AcDbEntity
  8
LAYER_FEATURE
100
AcDbLine
 62
7
  6
CONTINUOUS
 10
15.2474453973
 20
13.1943244902
 11
14.5599636951
 21
13.1943244902
  0
LINE
  5
279
100
AcDbEntity
  8
LAYER_FEATURE
100
AcDbLine
 62
7
  6
CONTINUOUS
 10
14.5426816569
 20
13.2774640667
 11
15.2624020674
 21
13.2774640667
  0
LINE
  5
27A
100
AcDbEntity
  8
LAYER_FEATURE
100
AcDbLine
 62
7
  6
CONTINUOUS
 10
14.5482982997
 20
13.3037095243
 11
15.2674974488
 21
13.3037095243
  0
LINE
  5
27B
100
AcDbEntity
  8
LAYER_CUT_FEAT
100
AcDbLine
 62
7
  6
CONTINUOUS
 10
14.5523585947
 20
13.3094884411
 11
15.2687031323
 21
13.3094884411
  0
LINE
  5
27C
100
AcDbEntity
  8
LAYER_FEATURE
100
AcDbLine
 62
7
  6
CONTINUOUS
 10
15.2689803439
 20
13.3108171338
 11
14.5848936306
 21
13.3108171338
  0
LINE
  5
27D
100
AcDbEntity
  8
LAYER_FEATURE
100
AcDbLine
 62
7
  6
CONTINUOUS
 10
15.2760572358
 20
13.3447371237
 11
14.5931492469
 21
13.3447371237
  0
LINE
  5
27E
100
AcDbEntity
  8
LAYER_FEATURE
100
AcDbLine
 62
7
  6
CONTINUOUS
 10
14.5796008449
 20
13.4323228195
 11
15.296185179
 21
13.4323228195
  0
LINE
  5
27F
100
AcDbEntity
  8
LAYER_FEATURE
100
AcDbLine
 62
7
  6
CONTINUOUS
 10
14.5863265001
 20
13.4567883697
 11
15.3023104506
 21
13.4567883697
  0
LINE
  5
280
100
AcDbEntity
  8
0
100
AcDbLine
 62
7
  6
CONTINUOUS
 10
14.5900771361
 20
13.4614408565
 11
15.3034752617
 21
13.4614408565
  0
LINE
  5
281
100
AcDbEntity
  8
LAYER_FEATURE
100
AcDbLine
 62
7
  6
CONTINUOUS
 10
15.3095139403
 20
13.4846625769
 11
14.6326842793
 21
13.4846625769
  0
LINE
  5
282
100
AcDbEntity
  8
LAYER_FEATURE
100
AcDbLine
 62
7
  6
CONTINUOUS
 10
14.6230398925
 20
13.5755929509
 11
15.3353833616
 21
13.5755929509
  0
LINE
  5
283
100
AcDbEntity
  8
02___PRT_ALL_AXES
100
AcDbLine
 62
7
  6
CONTINUOUS
 10
15.8493469445
 20
13.9447156247
 11
15.8240209489
 21
13.9396037227
  0
LINE
  5
284
100
AcDbEntity
  8
02___PRT_ALL_AXES
100
AcDbLine
 62
7
  6
CONTINUOUS
 10
15.0980548221
 20
14.1299716596
 11
15.6298618288
 21
14.1299716596
  0
LINE
  5
285
100
AcDbEntity
  8
LAYER_FEATURE
100
AcDbLine
 62
7
  6
CONTINUOUS
 10
15.0381858575
 20
14.2399716596
 11
15.0763279579
 21
14.2399716596
  0
LINE
  5
286
100
AcDbEntity
  8
LAYER_FEATURE
100
AcDbLine
 62
7
  6
CONTINUOUS
 10
15.8658410916
 20
14.2399716596
 11
15.9039831919
 21
14.2399716596
  0
CIRCLE
  5
287
100
AcDbEntity
  8
LAYER_FEATURE
100
AcDbCircle
 62
7
  6
CONTINUOUS
 10
15.5603552569
 20
5.4606247044
 40
1.7291666667
  0
CIRCLE
  5
288
100
AcDbEntity
  8
LAYER_FEATURE
100
AcDbCircle
 62
7
  6
CONTINUOUS
 10
15.5603552569
 20
5.4606247044
 40
1.6411314964
  0
CIRCLE
  5
289
100
AcDbEntity
  8
02___PRT_ALL_AXES
100
AcDbCircle
 62
7
  6
CONTINUOUS
 10
15.5603552569
 20
5.4606247044
 40
1.4383333333
  0
CIRCLE
  5
28A
100
AcDbEntity
  8
LAYER_CHAMFER_FEAT
100
AcDbCircle
 62
7
  6
CONTINUOUS
 10
15.5603552569
 20
5.4606247044
 40
1.3333333333
  0
CIRCLE
  5
28B
100
AcDbEntity
  8
LAYER_CHAMFER_FEAT
100
AcDbCircle
 62
7
  6
CONTINUOUS
 10
15.5603552569
 20
5.4606247044
 40
1.3133333333
  0
ARC
  5
28C
100
AcDbEntity
  8
02___PRT_ALL_AXES
100
AcDbCircle
 62
7
  6
CONTINUOUS
 10
15.5603552569
 20
5.4606247044
 40
0.7083333333
100
AcDbArc
 50
152.9665029899
 51
232.0334970101
  0
ARC
  5
28D
100
AcDbEntity
  8
02___PRT_ALL_AXES
100
AcDbCircle
 62
7
  6
CONTINUOUS
 10
15.5603552569
 20
5.4606247044
 40
0.7083333333
100
AcDbArc
 50
57.9665029899
 51
137.0334970101
  0
ARC
  5
28E
100
AcDbEntity
  8
LAYER_CUT_FEAT
100
AcDbCircle
 62
7
  6
CONTINUOUS
 10
15.5603552569
 20
5.4606247044
 40
0.7083333333
100
AcDbArc
 50
247.9665029899
 51
42.0334970101
  0
ARC
  5
28F
100
AcDbEntity
  8
02___PRT_ALL_AXES
100
AcDbCircle
 62
7
  6
CONTINUOUS
 10
15.5603552569
 20
5.4606247044
 40
0.685024396
100
AcDbArc
 50
136.2981765847
 51
153.7018234153
  0
ARC
  5
290
100
AcDbEntity
  8
LAYER_CUT_FEAT
100
AcDbCircle
 62
7
  6
CONTINUOUS
 10
15.5603552569
 20
5.4606247044
 40
0.6617154587
100
AcDbArc
 50
58.9849431335
 51
231.0150568665
  0
ARC
  5
291
100
AcDbEntity
  8
LAYER_CUT_FEAT
100
AcDbCircle
 62
7
  6
CONTINUOUS
 10
15.5603552569
 20
5.4606247044
 40
0.6617154587
100
AcDbArc
 50
248.9849431335
 51
41.0150568665
  0
ARC
  5
292
100
AcDbEntity
  8
LAYER_CUT_FEAT
100
AcDbCircle
 62
7
  6
CONTINUOUS
 10
15.9888803301
 20
5.9713209999
 40
0.1041666667
100
AcDbArc
 50
312.7915186562
 51
147.2084813438
  0
ARC
  5
293
100
AcDbEntity
  8
02___PRT_ALL_AXES
100
AcDbCircle
 62
7
  6
CONTINUOUS
 10
15.2270219236
 20
4.8832744353
 40
0.1041666667
100
AcDbArc
 50
142.7915186562
 51
337.2084813438
  0
ARC
  5
294
100
AcDbEntity
  8
02___PRT_ALL_AXES
100
AcDbCircle
 62
7
  6
CONTINUOUS
 10
15.0142538941
 20
5.8430089953
 40
0.1041666667
100
AcDbArc
 50
60.7700162156
 51
229.2299837844
  0
ARC
  5
295
100
AcDbEntity
  8
02___PRT_ALL_AXES
100
AcDbCircle
 62
7
  6
CONTINUOUS
 10
18.9286112941
 20
62.5202281727
 40
50.7988355278
100
AcDbArc
 50
266.2255484747
 51
266.3874622213
  0
ARC
  5
296
100
AcDbEntity
  8
02___PRT_ALL_AXES
100
AcDbCircle
 62
7
  6
CONTINUOUS
 10
13.3138355122
 20
-17.2559639145
 40
29.2562029855
100
AcDbArc
 50
85.1272661898
 51
85.6899192995
  0
ARC
  5
297
100
AcDbEntity
  8
LAYER_FEATURE
100
AcDbCircle
 62
7
  6
CONTINUOUS
 10
17.882576644
 20
12.5872950558
 40
3.4105838861
100
AcDbArc
 50
170.6625300049
 51
171.1337291295
  0
ARC
  5
298
100
AcDbEntity
  8
LAYER_FEATURE
100
AcDbCircle
 62
7
  6
CONTINUOUS
 10
17.4662378769
 20
12.6655339649
 40
2.9869113514
100
AcDbArc
 50
167.6632311907
 51
168.1780800863
  0
ARC
  5
299
100
AcDbEntity
  8
LAYER_FEATURE
100
AcDbCircle
 62
7
  6
CONTINUOUS
 10
17.01496365
 20
12.775991297
 40
2.5222535677
100
AcDbArc
 50
164.3407202818
 51
164.9171022548
  0
ARC
  5
29A
100
AcDbEntity
  8
LAYER_CHAMFER_FEAT
100
AcDbCircle
 62
7
  6
CONTINUOUS
 10
16.059416513
 20
11.6543994036
 40
0.5215967532
100
AcDbArc
 50
221.1160418027
 51
222.3906741965
  0
ARC
  5
29B
100
AcDbEntity
  8
LAYER_CHAMFER_FEAT
100
AcDbCircle
 62
7
  6
CONTINUOUS
 10
16.0569958252
 20
13.3693596898
 40
0.5183600278
100
AcDbArc
 50
137.6008244791
 51
139.0399608729
  0
ARC
  5
29C
100
AcDbEntity
  8
LAYER_FEATURE
100
AcDbCircle
 62
7
  6
CONTINUOUS
 10
15.8827320016
 20
13.7245154903
 40
0.2231469291
100
AcDbArc
 50
96.6964452423
 51
98.6113779744
  0
ARC
  5
29D
100
AcDbEntity
  8
02___PRT_ALL_AXES
100
AcDbCircle
 62
7
  6
CONTINUOUS
 10
15.893574003
 20
13.7263567366
 40
0.2227928089
100
AcDbArc
 50
92.9264063014
 51
101.4499615571
  0
ARC
  5
29E
100
AcDbEntity
  8
LAYER_FEATURE
100
AcDbCircle
 62
7
  6
CONTINUOUS
 10
15.882677756
 20
11.2967139378
 40
0.2227625444
100
AcDbArc
 50
261.3824947229
 51
263.9659614452
  0
ARC
  5
29F
100
AcDbEntity
  8
LAYER_FEATURE
100
AcDbCircle
 62
7
  6
CONTINUOUS
 10
14.5549459282
 20
13.329590919
 40
0.0353457196
100
AcDbArc
 50
325.227015233
 51
327.9169906067
  0
SPLINE
  5
2A0
100
AcDbEntity
  8
02___PRT_ALL_AXES
100
AcDbSpline
 62
7
  6
CONTINUOUS
 70
0
 71
3
 72
38
 73
34
 74
0
 42
0.0000001
 43
0.0000001
 44
0.0000000001
 40
0.0
 40
0.0
 40
0.0
 40
0.0
 40
0.0901050531
 40
0.1337971053
 40
0.1765486426
 40
0.2183372652
 40
0.2591430921
 40
0.298948587
 40
0.3377386762
 40
0.3755010435
 40
0.4122263576
 40
0.4479085156
 40
0.4825449278
 40
0.5161368507
 40
0.5486897757
 40
0.5802138071
 40
0.6107240984
 40
0.6402413446
 40
0.6687923238
 40
0.6964104173
 40
0.7231361564
 40
0.7490177668
 40
0.7741116672
 40
0.7984828229
 40
0.8222049465
 40
0.8453604707
 40
0.8680402083
 40
0.8903426086
 40
0.9123726162
 40
0.9342401323
 40
0.9560581275
 40
0.9779405218
 40
1.0
 40
1.0
 40
1.0
 40
1.0
 10
16.3319893651
 20
11.6167226552
 30
0.0
 10
16.3250287532
 20
11.5941981067
 30
0.0
 10
16.3141118465
 20
11.5609253816
 30
0.0
 10
16.2984439627
 20
11.5174683179
 30
0.0
 10
16.2864349037
 20
11.4861372014
 30
0.0
 10
16.2740587498
 20
11.4557632215
 30
0.0
 10
16.2613269498
 20
11.426374537
 30
0.0
 10
16.248251401
 20
11.3979985615
 30
0.0
 10
16.2348442545
 20
11.3706617024
 30
0.0
 10
16.2211179666
 20
11.3443894133
 30
0.0
 10
16.2070852867
 20
11.3192061217
 30
0.0
 10
16.1927592191
 20
11.2951352347
 30
0.0
 10
16.1781530064
 20
11.2721991235
 30
0.0
 10
16.1632801075
 20
11.2504191032
 30
0.0
 10
16.1481542108
 20
11.229815394
 30
0.0
 10
16.1327891821
 20
11.2104071332
 30
0.0
 10
16.1171990478
 20
11.1922123759
 30
0.0
 10
16.101397974
 20
11.1752480924
 30
0.0
 10
16.0854002828
 20
11.1595301395
 30
0.0
 10
16.0692204083
 20
11.1450733033
 30
0.0
 10
16.0528728993
 20
11.1318913223
 30
0.0
 10
16.0363724274
 20
11.1199969068
 30
0.0
 10
16.0197338418
 20
11.1094017157
 30
0.0
 10
16.002972181
 20
11.1001164089
 30
0.0
 10
15.98610274
 20
11.0921506477
 30
0.0
 10
15.9691411457
 20
11.0855130586
 30
0.0
 10
15.9521034445
 20
11.0802111049
 30
0.0
 10
15.9350061363
 20
11.0762510235
 30
0.0
 10
15.9178661455
 20
11.073637687
 30
0.0
 10
15.9007009118
 20
11.0723744144
 30
0.0
 10
15.8835277183
 20
11.0724628838
 30
0.0
 10
15.8663655306
 20
11.0739027266
 30
0.0
 10
15.8550045955
 20
11.0757523993
 30
0.0
 10
15.8493469445
 20
11.0768943612
 30
0.0
  0
SPLINE
  5
2A1
100
AcDbEntity
  8
02___PRT_ALL_AXES
100
AcDbSpline
 62
7
  6
CONTINUOUS
 70
0
 71
3
 72
14
 73
10
 74
0
 42
0.0000001
 43
0.0000001
 44
0.0000000001
 40
0.0
 40
0.0
 40
0.0
 40
0.0
 40
0.1064351455
 40
0.2187216028
 40
0.3366427936
 40
0.4599419642
 40
0.588303448
 40
0.7213725058
 40
1.0
 40
1.0
 40
1.0
 40
1.0
 10
15.3902354396
 20
12.4048878092
 30
0.0
 10
15.3895169993
 20
12.4035424441
 30
0.0
 10
15.3881194667
 20
12.4007351299
 30
0.0
 10
15.3861862026
 20
12.396313689
 30
0.0
 10
15.3843665471
 20
12.391584477
 30
0.0
 10
15.3826679354
 20
12.3865669012
 30
0.0
 10
15.3810972072
 20
12.3812810383
 30
0.0
 10
15.3791523936
 20
12.3737894084
 30
0.0
 10
15.3779528255
 20
12.3680080876
 30
0.0
 10
15.3772521884
 20
12.3640774133
 30
0.0
  0
SPLINE
  5
2A2
100
AcDbEntity
  8
02___PRT_ALL_AXES
100
AcDbSpline
 62
7
  6
CONTINUOUS
 70
0
 71
3
 72
20
 73
16
 74
0
 42
0.0000001
 43
0.0000001
 44
0.0000000001
 40
0.0
 40
0.0
 40
0.0
 40
0.0
 40
0.1678718991
 40
0.3232612472
 40
0.4656156809
 40
0.5318631251
 40
0.5948394044
 40
0.6546116563
 40
0.711292336
 40
0.765045152
 40
0.8160920508
 40
0.8647195813
 40
0.9112846431
 40
0.956217501
 40
1.0
 40
1.0
 40
1.0
 40
1.0
 10
15.3840882112
 20
12.2507457294
 30
0.0
 10
15.3849458864
 20
12.2483171834
 30
0.0
 10
15.3867364888
 20
12.2436875529
 30
0.0
 10
15.3897799167
 20
12.2372177714
 30
0.0
 10
15.3925727127
 20
12.2323714912
 30
0.0
 10
15.3949259161
 20
12.2289308115
 30
0.0
 10
15.3966946939
 20
12.2266310031
 30
0.0
 10
15.3985056749
 20
12.2245551326
 30
0.0
 10
15.4003548794
 20
12.2227081056
 30
0.0
 10
15.4022382602
 20
12.2210943956
 30
0.0
 10
15.4041518026
 20
12.2197181272
 30
0.0
 10
15.4060912745
 20
12.2185829392
 30
0.0
 10
15.4080525759
 20
12.2176922434
 30
0.0
 10
15.410030589
 20
12.2170492206
 30
0.0
 10
15.4113698267
 20
12.2167847422
 30
0.0
 10
15.4120356755
 20
12.21669608
 30
0.0
  0
SPLINE
  5
2A3
100
AcDbEntity
  8
02___PRT_ALL_AXES
100
AcDbSpline
 62
7
  6
CONTINUOUS
 70
0
 71
3
 72
22
 73
18
 74
0
 42
0.0000001
 43
0.0000001
 44
0.0000000001
 40
0.0
 40
0.0
 40
0.0
 40
0.0
 40
0.1713499225
 40
0.2519697166
 40
0.3290705891
 40
0.4025797597
 40
0.4724568459
 40
0.5387009602
 40
0.601355824
 40
0.6605174035
 40
0.7163427576
 40
0.7690607019
 40
0.8189811025
 40
0.8665026609
 40
0.9121166041
 40
0.9564004291
 40
1.0
 40
1.0
 40
1.0
 40
1.0
 10
15.7278319498
 20
11.8223317413
 30
0.0
 10
15.7287454317
 20
11.819642816
 30
0.0
 10
15.7302132935
 20
11.8157282806
 30
0.0
 10
15.7324221334
 20
11.8107405267
 30
0.0
 10
15.7341188551
 20
11.8073029282
 30
0.0
 10
15.7358844727
 20
11.8041019882
 30
0.0
 10
15.737714169
 20
11.8011466225
 30
0.0
 10
15.7396029309
 20
11.7984451132
 30
0.0
 10
15.7415456616
 20
11.7960049747
 30
0.0
 10
15.7435372235
 20
11.7938330369
 30
0.0
 10
15.745572507
 20
11.791935505
 30
0.0
 10
15.7476463456
 20
11.7903179552
 30
0.0
 10
15.7497535446
 20
11.7889854748
 30
0.0
 10
15.7518886791
 20
11.7879428067
 30
0.0
 10
15.7540460199
 20
11.7871942197
 30
0.0
 10
15.7562184232
 20
11.786743326
 30
0.0
 10
15.7576768673
 20
11.786642687
 30
0.0
 10
15.7583994612
 20
11.7866426797
 30
0.0
  0
SPLINE
  5
2A4
100
AcDbEntity
  8
LAYER_CHAMFER_FEAT
100
AcDbSpline
 62
7
  6
CONTINUOUS
 70
0
 71
3
 72
15
 73
11
 74
0
 42
0.0000001
 43
0.0000001
 44
0.0000000001
 40
0.0
 40
0.0
 40
0.0
 40
0.0
 40
0.1375061211
 40
0.2714667129
 40
0.4018485709
 40
0.5286396893
 40
0.651835306
 40
0.7714433908
 40
0.887486038
 40
1.0
 40
1.0
 40
1.0
 40
1.0
 10
15.5704823824
 20
11.4663691134
 30
0.0
 10
15.5744021086
 20
11.4583815512
 30
0.0
 10
15.5823258881
 20
11.4427024307
 30
0.0
 10
15.5946320356
 20
11.4197937133
 30
0.0
 10
15.6071943284
 20
11.3978191786
 30
0.0
 10
15.6200018451
 20
11.3767979193
 30
0.0
 10
15.6330438215
 20
11.3567476841
 30
0.0
 10
15.6463092679
 20
11.3376855165
 30
0.0
 10
15.6597867152
 20
11.3196280121
 30
0.0
 10
15.6690476664
 20
11.3080926142
 30
0.0
 10
15.673712903
 20
11.302503426
 30
0.0
  0
SPLINE
  5
2A5
100
AcDbEntity
  8
LAYER_CUT_FEAT
100
AcDbSpline
 62
7
  6
CONTINUOUS
 70
0
 71
3
 72
25
 73
21
 74
0
 42
0.0000001
 43
0.0000001
 44
0.0000000001
 40
0.0
 40
0.0
 40
0.0
 40
0.0
 40
0.0173482021
 40
0.0348887287
 40
0.0528062835
 40
0.0712712506
 40
0.110389483
 40
0.1532501898
 40
0.2004804674
 40
0.2524288911
 40
0.3092260071
 40
0.3708350839
 40
0.4370901724
 40
0.507723793
 40
0.5823873422
 40
0.6606666542
 40
0.7420941403
 40
0.8261598253
 40
0.9123177724
 40
1.0
 40
1.0
 40
1.0
 40
1.0
 10
15.6109199695
 20
13.2681007885
 30
0.0
 10
15.6103142052
 20
13.268100791
 30
0.0
 10
15.6090948223
 20
13.2680303357
 30
0.0
 10
15.6072744623
 20
13.2677144112
 30
0.0
 10
15.6054624669
 20
13.2671889662
 30
0.0
 10
15.6030171525
 20
13.2661927195
 30
0.0
 10
15.5999839664
 20
13.2643895217
 30
0.0
 10
15.5965242745
 20
13.2614691428
 30
0.0
 10
15.5931911774
 20
13.2577794392
 30
0.0
 10
15.5900060634
 20
13.253350259
 30
0.0
 10
15.5869897807
 20
13.2482150624
 30
0.0
 10
15.5841643649
 20
13.2424128903
 30
0.0
 10
15.5815512609
 20
13.2359883704
 30
0.0
 10
15.5791708862
 20
13.2289915168
 30
0.0
 10
15.5770420963
 20
13.2214772591
 30
0.0
 10
15.5751819002
 20
13.2135049303
 30
0.0
 10
15.5736052134
 20
13.2051377172
 30
0.0
 10
15.5723247392
 20
13.1964421027
 30
0.0
 10
15.5713507623
 20
13.187487397
 30
0.0
 10
15.5709138594
 20
13.181431458
 30
0.0
 10
15.570747215
 20
13.1783743095
 30
0.0
  0
SPLINE
  5
2A6
100
AcDbEntity
  8
02___PRT_ALL_AXES
100
AcDbSpline
 62
7
  6
CONTINUOUS
 70
0
 71
3
 72
34
 73
30
 74
0
 42
0.0000001
 43
0.0000001
 44
0.0000000001
 40
0.0
 40
0.0
 40
0.0
 40
0.0
 40
0.0190386735
 40
0.0383107152
 40
0.0579355096
 40
0.0780244943
 40
0.0986794322
 40
0.119991376
 40
0.1420402246
 40
0.1648947463
 40
0.1886130197
 40
0.2132430829
 40
0.2388236667
 40
0.2653849746
 40
0.2929495157
 40
0.3215328539
 40
0.3511442545
 40
0.3817873154
 40
0.4134605573
 40
0.4461579052
 40
0.4798690769
 40
0.5145800033
 40
0.5502731831
 40
0.5869279594
 40
0.6630207165
 40
0.7426444846
 40
0.8255439437
 40
0.9114328837
 40
1.0
 40
1.0
 40
1.0
 40
1.0
 10
15.654817197
 20
11.8027813002
 30
0.0
 10
15.6516088043
 20
11.8030249836
 30
0.0
 10
15.6451711277
 20
11.8038044289
 30
0.0
 10
15.6355795412
 20
11.8058290073
 30
0.0
 10
15.6260239513
 20
11.808710411
 30
0.0
 10
15.6165175114
 20
11.8124438591
 30
0.0
 10
15.6070716023
 20
11.8170236446
 30
0.0
 10
15.5976975633
 20
11.8224431669
 30
0.0
 10
15.5884063293
 20
11.8286950317
 30
0.0
 10
15.5792086148
 20
11.8357710237
 30
0.0
 10
15.5701149783
 20
11.8436621596
 30
0.0
 10
15.5611358806
 20
11.8523586616
 30
0.0
 10
15.5522816908
 20
11.8618499055
 30
0.0
 10
15.5435626729
 20
11.8721243825
 30
0.0
 10
15.5349890092
 20
11.8831697187
 30
0.0
 10
15.5265707841
 20
11.8949726584
 30
0.0
 10
15.5183179372
 20
11.9075190364
 30
0.0
 10
15.5102402519
 20
11.9207937924
 30
0.0
 10
15.5023473531
 20
11.9347809992
 30
0.0
 10
15.4946486887
 20
11.9494638676
 30
0.0
 10
15.4871534679
 20
11.9648247483
 30
0.0
 10
15.4798707096
 20
11.9808451476
 30
0.0
 10
15.4728090938
 20
11.9975058472
 30
0.0
 10
15.463585122
 20
12.0208380617
 30
0.0
 10
15.4526977582
 20
12.05148513
 30
0.0
 10
15.4408020344
 20
12.0900289031
 30
0.0
 10
15.4299747477
 20
12.1306018298
 30
0.0
 10
15.4202684593
 20
12.1730078431
 30
0.0
 10
15.4146550393
 20
12.2019587516
 30
0.0
 10
15.4120356755
 20
12.21669608
 30
0.0
  0
SPLINE
  5
2A7
100
AcDbEntity
  8
LAYER_FEATURE
100
AcDbSpline
 62
7
  6
CONTINUOUS
 70
0
 71
3
 72
19
 73
15
 74
0
 42
0.0000001
 43
0.0000001
 44
0.0000000001
 40
0.0
 40
0.0
 40
0.0
 40
0.0
 40
0.056501898
 40
0.113161838
 40
0.1701362185
 40
0.2275782771
 40
0.2856365775
 40
0.3444538569
 40
0.4041658681
 40
0.4649006513
 40
0.5898740732
 40
0.7202645856
 40
0.8567821734
 40
1.0
 40
1.0
 40
1.0
 40
1.0
 10
15.0763279579
 20
14.2399716499
 30
0.0
 10
15.0813548564
 20
14.239971645
 30
0.0
 10
15.0914251052
 20
14.2396817995
 30
0.0
 10
15.106513538
 20
14.2383782228
 30
0.0
 10
15.1215865617
 20
14.2362065571
 30
0.0
 10
15.136635595
 20
14.2331679762
 30
0.0
 10
15.1516530372
 20
14.2292643802
 30
0.0
 10
15.1666309977
 20
14.224497987
 30
0.0
 10
15.1815621768
 20
14.2188713897
 30
0.0
 10
15.2015857982
 20
14.2101449034
 30
0.0
 10
15.2265064035
 20
14.1970132213
 30
0.0
 10
15.2557972823
 20
14.1780249423
 30
0.0
 10
15.2847063417
 20
14.1557014594
 30
0.0
 10
15.3032282954
 20
14.1390413278
 30
0.0
 10
15.3124139336
 20
14.1302106969
 30
0.0
  0
SPLINE
  5
2A8
100
AcDbEntity
  8
LAYER_FEATURE
100
AcDbSpline
 62
7
  6
CONTINUOUS
 70
0
 71
3
 72
19
 73
15
 74
0
 42
0.0000001
 43
0.0000001
 44
0.0000000001
 40
0.0
 40
0.0
 40
0.0
 40
0.0
 40
0.0565057971
 40
0.1131695197
 40
0.1701474635
 40
0.2275927329
 40
0.2856538339
 40
0.3444733532
 40
0.4041870273
 40
0.4649227613
 40
0.589895851
 40
0.7202826881
 40
0.8567930414
 40
1.0
 40
1.0
 40
1.0
 40
1.0
 10
15.0763279579
 20
10.7816383359
 30
0.0
 10
15.081352848
 20
10.781638331
 30
0.0
 10
15.0914190594
 20
10.7819279699
 30
0.0
 10
15.1065014616
 20
10.7832304693
 30
0.0
 10
15.1215684636
 20
10.7854004395
 30
0.0
 10
15.1366115225
 20
10.788436542
 30
0.0
 10
15.1516230041
 20
10.7923370694
 30
0.0
 10
15.1665950818
 20
10.7970996133
 30
0.0
 10
15.1815204056
 20
10.8027217626
 30
0.0
 10
15.2015361413
 20
10.8114412222
 30
0.0
 10
15.2264470367
 20
10.8245623898
 30
0.0
 10
15.255726962
 20
10.8435356265
 30
0.0
 10
15.2846255233
 20
10.8658415162
 30
0.0
 10
15.3031411706
 20
10.8824887872
 30
0.0
 10
15.3123237379
 20
10.8913126039
 30
0.0
  0
SPLINE
  5
2A9
100
AcDbEntity
  8
LAYER_FEATURE
100
AcDbSpline
 62
7
  6
CONTINUOUS
 70
0
 71
3
 72
58
 73
54
 74
0
 42
0.0000001
 43
0.0000001
 44
0.0000000001
 40
0.0
 40
0.0
 40
0.0
 40
0.0
 40
0.0076944077
 40
0.0154412968
 40
0.023291843
 40
0.0312947386
 40
0.0394952405
 40
0.0479344973
 40
0.0566491583
 40
0.0656712333
 40
0.0750281492
 40
0.0847429443
 40
0.0948345481
 40
0.1053181041
 40
0.1162053042
 40
0.1275047156
 40
0.1392220874
 40
0.1513606307
 40
0.1639212719
 40
0.176902878
 40
0.190302455
 40
0.2041153232
 40
0.2183352716
 40
0.2329546937
 40
0.2479647082
 40
0.2633552649
 40
0.2791152416
 40
0.2952325299
 40
0.3116941131
 40
0.3284861372
 40
0.3455939758
 40
0.3630022905
 40
0.3806950867
 40
0.398655766
 40
0.4353105104
 40
0.472824723
 40
0.511048668
 40
0.5498272502
 40
0.5890012787
 40
0.628408691
 40
0.6678857481
 40
0.7072682124
 40
0.7463925224
 40
0.7850969756
 40
0.8232229251
 40
0.8606160058
 40
0.8971274088
 40
0.9150084463
 40
0.932616489
 40
0.9499351414
 40
0.9669485329
 40
0.9836416934
 40
1.0
 40
1.0
 40
1.0
 40
1.0
 10
15.9039831919
 20
14.2399716498
 30
0.0
 10
15.9118510899
 20
14.2399716563
 30
0.0
 10
15.9276496574
 20
14.2392588178
 30
0.0
 10
15.951280474
 20
14.2360567197
 30
0.0
 10
15.9748481259
 20
14.2307263459
 30
0.0
 10
15.9983188175
 20
14.2232769467
 30
0.0
 10
16.02166318
 20
14.2137207206
 30
0.0
 10
16.0448521342
 20
14.2020723745
 30
0.0
 10
16.0678578403
 20
14.188348799
 30
0.0
 10
16.0906531439
 20
14.1725688864
 30
0.0
 10
16.11321144
 20
14.1547534756
 30
0.0
 10
16.1355064822
 20
14.1349253807
 30
0.0
 10
16.1575122872
 20
14.1131094577
 30
0.0
 10
16.1792030888
 20
14.0893326775
 30
0.0
 10
16.2005533376
 20
14.0636241882
 30
0.0
 10
16.221537726
 20
14.0360153568
 30
0.0
 10
16.2421312324
 20
14.0065397926
 30
0.0
 10
16.262309173
 20
13.9752333496
 30
0.0
 10
16.2820472506
 20
13.9421341085
 30
0.0
 10
16.3013216062
 20
13.9072823496
 30
0.0
 10
16.320108868
 20
13.8707205149
 30
0.0
 10
16.3383861959
 20
13.8324931625
 30
0.0
 10
16.3561313234
 20
13.792646916
 30
0.0
 10
16.3733225961
 20
13.7512304078
 30
0.0
 10
16.3899390064
 20
13.7082942206
 30
0.0
 10
16.4059602307
 20
13.6638908252
 30
0.0
 10
16.4213666562
 20
13.6180745127
 30
0.0
 10
16.4361394097
 20
13.5709013256
 30
0.0
 10
16.4502603848
 20
13.5224289862
 30
0.0
 10
16.4637122647
 20
13.4727168274
 30
0.0
 10
16.4764785548
 20
13.4218257039
 30
0.0
 10
16.4885435668
 20
13.3698179736
 30
0.0
 10
16.4998925848
 20
13.3167571997
 30
0.0
 10
16.5141471863
 20
13.2442027833
 30
0.0
 10
16.5300421471
 20
13.1513288844
 30
0.0
 10
16.5459333824
 20
13.037488749
 30
0.0
 10
16.5586903273
 20
12.9210701763
 30
0.0
 10
16.5682501196
 20
12.8026436168
 30
0.0
 10
16.574565651
 20
12.6827883742
 30
0.0
 10
16.5776058027
 20
12.5620911961
 30
0.0
 10
16.5773555905
 20
12.4411429329
 30
0.0
 10
16.5738162408
 20
12.3205357162
 30
0.0
 10
16.5670051955
 20
12.2008599491
 30
0.0
 10
16.5569560314
 20
12.0827014843
 30
0.0
 10
16.5437182696
 20
11.966638282
 30
0.0
 10
16.5273571269
 20
11.8532390382
 30
0.0
 10
16.5110762554
 20
11.7607890634
 30
0.0
 10
16.4965192779
 20
11.6886156524
 30
0.0
 10
16.4849510719
 20
11.6358681205
 30
0.0
 10
16.4726712863
 20
11.5841931923
 30
0.0
 10
16.4596948799
 20
11.5336538245
 30
0.0
 10
16.4460378633
 20
11.4843123602
 30
0.0
 10
16.4363900658
 20
11.4519192209
 30
0.0
 10
16.4314514196
 20
11.4359377561
 30
0.0
  0
SPLINE
  5
2AA
100
AcDbEntity
  8
LAYER_FEATURE
100
AcDbSpline
 62
7
  6
CONTINUOUS
 70
0
 71
3
 72
38
 73
34
 74
0
 42
0.0000001
 43
0.0000001
 44
0.0000000001
 40
0.0
 40
0.0
 40
0.0
 40
0.0
 40
0.0212770466
 40
0.0426478758
 40
0.0642047512
 40
0.0860369972
 40
0.1082297681
 40
0.1308630401
 40
0.1540108647
 40
0.1777409152
 40
0.2021142543
 40
0.2271852749
 40
0.2530018507
 40
0.2796055914
 40
0.3070321349
 40
0.3353115102
 40
0.3644685519
 40
0.3945232728
 40
0.4254912056
 40
0.4573837966
 40
0.4902087415
 40
0.5239702523
 40
0.5586693516
 40
0.5943041532
 40
0.6308700673
 40
0.668359986
 40
0.7067645167
 40
0.7460721402
 40
0.7862693076
 40
0.827340711
 40
0.8692692201
 40
0.9120359366
 40
1.0
 40
1.0
 40
1.0
 40
1.0
 10
15.9039831919
 20
10.781638336
 30
0.0
 10
15.9102993107
 20
10.7816383412
 30
0.0
 10
15.9229641176
 20
10.7820966394
 30
0.0
 10
15.9419272958
 20
10.7841568552
 30
0.0
 10
15.9608590213
 20
10.7875881463
 30
0.0
 10
15.9797420668
 20
10.7923869985
 30
0.0
 10
15.9985611694
 20
10.7985486818
 30
0.0
 10
16.0173009559
 20
10.8060673076
 30
0.0
 10
16.0359465332
 20
10.8149358891
 30
0.0
 10
16.0544832649
 20
10.8251465071
 30
0.0
 10
16.0728967621
 20
10.8366903383
 30
0.0
 10
16.091172873
 20
10.8495576012
 30
0.0
 10
16.1092976078
 20
10.8637376397
 30
0.0
 10
16.1272570911
 20
10.8792189297
 30
0.0
 10
16.1450375816
 20
10.8959890107
 30
0.0
 10
16.1626254658
 20
10.914034482
 30
0.0
 10
16.1800072169
 20
10.9333410392
 30
0.0
 10
16.1971694138
 20
10.9538934408
 30
0.0
 10
16.2140988006
 20
10.9756754635
 30
0.0
 10
16.230782242
 20
10.9986699572
 30
0.0
 10
16.2472067352
 20
11.0228588464
 30
0.0
 10
16.2633594741
 20
11.0482230957
 30
0.0
 10
16.2792278404
 20
11.0747427407
 30
0.0
 10
16.2947993906
 20
11.1023969223
 30
0.0
 10
16.310061893
 20
11.1311638769
 30
0.0
 10
16.3250033734
 20
11.1610209374
 30
0.0
 10
16.3396120736
 20
11.191944585
 30
0.0
 10
16.3538764629
 20
11.2239104507
 30
0.0
 10
16.3677853287
 20
11.2568933461
 30
0.0
 10
16.3813276637
 20
11.2908672024
 30
0.0
 10
16.3944928668
 20
11.3258053555
 30
0.0
 10
16.4116904343
 20
11.3740902861
 30
0.0
 10
16.4237418476
 20
11.4109895719
 30
0.0
 10
16.4314514196
 20
11.4359377561
 30
0.0
  0
SPLINE
  5
2AB
100
AcDbEntity
  8
LAYER_FEATURE
100
AcDbSpline
 62
7
  6
CONTINUOUS
 70
0
 71
3
 72
33
 73
29
 74
0
 42
0.0000001
 43
0.0000001
 44
0.0000000001
 40
0.0
 40
0.0
 40
0.0
 40
0.0
 40
0.0861564845
 40
0.1693309776
 40
0.2493894949
 40
0.3262170274
 40
0.3997219897
 40
0.4352093562
 40
0.46984401
 40
0.5036226011
 40
0.5365439401
 40
0.5686091977
 40
0.5998221475
 40
0.6301892846
 40
0.6597201217
 40
0.6884274316
 40
0.7163274464
 40
0.7434402209
 40
0.769789867
 40
0.7954048233
 40
0.8203182092
 40
0.8681817405
 40
0.8912389099
 40
0.9137776175
 40
0.9358568037
 40
0.9575404701
 40
0.9788972732
 40
1.0
 40
1.0
 40
1.0
 40
1.0
 10
15.4439620056
 20
13.4039549157
 30
0.0
 10
15.4499561471
 20
13.4233519649
 30
0.0
 10
15.4623078901
 20
13.4613016832
 30
0.0
 10
15.4823062999
 20
13.5165722358
 30
0.0
 10
15.5034061686
 20
13.5690719188
 30
0.0
 10
15.52554926
 20
13.618655538
 30
0.0
 10
15.5450431826
 20
13.6578807349
 30
0.0
 10
15.5611372377
 20
13.6876568336
 30
0.0
 10
15.5732883399
 20
13.7089149529
 30
0.0
 10
15.5856528093
 20
13.7293461934
 30
0.0
 10
15.5982222945
 20
13.7489365718
 30
0.0
 10
15.6109881945
 20
13.7676725856
 30
0.0
 10
15.623941764
 20
13.7855413821
 30
0.0
 10
15.6370742085
 20
13.8025306544
 30
0.0
 10
15.6503766016
 20
13.8186287118
 30
0.0
 10
15.6638399025
 20
13.8338244947
 30
0.0
 10
15.6774550285
 20
13.8481074732
 30
0.0
 10
15.6912128475
 20
13.8614678321
 30
0.0
 10
15.7051038324
 20
13.8738961321
 30
0.0
 10
15.7191196304
 20
13.885384252
 30
0.0
 10
15.7377087781
 20
13.8992496084
 30
0.0
 10
15.7567691287
 20
13.9114480974
 30
0.0
 10
15.77623106
 20
13.9217753687
 30
0.0
 10
15.7907240427
 20
13.9284503493
 30
0.0
 10
15.8052827459
 20
13.9341446128
 30
0.0
 10
15.8198977205
 20
13.9388540026
 30
0.0
 10
15.8345576637
 20
13.94257438
 30
0.0
 10
15.8444031891
 20
13.9444023215
 30
0.0
 10
15.8493198346
 20
13.9451468097
 30
0.0
  0
SPLINE
  5
2AC
100
AcDbEntity
  8
LAYER_FEATURE
100
AcDbSpline
 62
7
  6
CONTINUOUS
 70
0
 71
3
 72
53
 73
49
 74
0
 42
0.0000001
 43
0.0000001
 44
0.0000000001
 40
0.0
 40
0.0
 40
0.0
 40
0.0
 40
0.0325870828
 40
0.0664073941
 40
0.101345798
 40
0.1372778947
 40
0.1740715989
 40
0.2115884202
 40
0.2496846491
 40
0.2882124932
 40
0.3270211779
 40
0.3659580067
 40
0.4048694139
 40
0.4436020059
 40
0.4820036046
 40
0.5199243043
 40
0.5572175395
 40
0.5937411988
 40
0.6293587783
 40
0.6639405984
 40
0.6808054279
 40
0.6973665011
 40
0.7136101468
 40
0.7295233964
 40
0.7450940424
 40
0.7603107032
 40
0.7751628899
 40
0.7896410806
 40
0.8037368045
 40
0.8174427344
 40
0.8307527936
 40
0.8436622753
 40
0.8561679727
 40
0.868268329
 40
0.8799636078
 40
0.8912560853
 40
0.9021502688
 40
0.9126531363
 40
0.9227743983
 40
0.9325267813
 40
0.9419263233
 40
0.9509926683
 40
0.95974934
 40
0.9682239563
 40
0.9764483506
 40
0.9844585531
 40
0.9922945811
 40
1.0
 40
1.0
 40
1.0
 40
1.0
 10
15.4439620056
 20
13.4039549157
 30
0.0
 10
15.435893156
 20
13.377844109
 30
0.0
 10
15.4205186661
 20
13.3242992417
 30
0.0
 10
15.4000464867
 20
13.2417912632
 30
0.0
 10
15.3818048928
 20
13.1558918194
 30
0.0
 10
15.3658794356
 20
13.0670001824
 30
0.0
 10
15.3523442605
 20
12.9755277143
 30
0.0
 10
15.3412626081
 20
12.8818986316
 30
0.0
 10
15.3326862305
 20
12.7865471873
 30
0.0
 10
15.3266551664
 20
12.6899158314
 30
0.0
 10
15.3231976064
 20
12.5924530446
 30
0.0
 10
15.3223297082
 20
12.4946112353
 30
0.0
 10
15.324055505
 20
12.3968446007
 30
0.0
 10
15.3283669553
 20
12.2996069818
 30
0.0
 10
15.335243913
 20
12.2033497287
 30
0.0
 10
15.3446542363
 20
12.1085195404
 30
0.0
 10
15.3565539948
 20
12.0155564576
 30
0.0
 10
15.3708876175
 20
11.9248913834
 30
0.0
 10
15.3875881596
 20
11.8369454093
 30
0.0
 10
15.4035431781
 20
11.7656779821
 30
0.0
 10
15.4174620428
 20
11.7103652196
 30
0.0
 10
15.4283541701
 20
11.6701566706
 30
0.0
 10
15.4397733677
 20
11.6309250702
 30
0.0
 10
15.4517064531
 20
11.5927158455
 30
0.0
 10
15.4641395382
 20
11.5555733616
 30
0.0
 10
15.4770581829
 20
11.519540691
 30
0.0
 10
15.4904473867
 20
11.4846596107
 30
0.0
 10
15.504291618
 20
11.4509705434
 30
0.0
 10
15.5185748329
 20
11.4185125135
 30
0.0
 10
15.533280501
 20
11.3873230992
 30
0.0
 10
15.5483916272
 20
11.3574383852
 30
0.0
 10
15.5638907731
 20
11.3288929164
 30
0.0
 10
15.5797600962
 20
11.3017196664
 30
0.0
 10
15.5959813794
 20
11.2759500049
 30
0.0
 10
15.6125360638
 20
11.2516136685
 30
0.0
 10
15.6294052885
 20
11.2287387382
 30
0.0
 10
15.6465699184
 20
11.2073516156
 30
0.0
 10
15.664010583
 20
11.1874770181
 30
0.0
 10
15.6817077157
 20
11.1691379947
 30
0.0
 10
15.699641576
 20
11.1523559483
 30
0.0
 10
15.7177922584
 20
11.1371506715
 30
0.0
 10
15.7361396859
 20
11.1235403937
 30
0.0
 10
15.7546635314
 20
11.111541817
 30
0.0
 10
15.7733432048
 20
11.1011701521
 30
0.0
 10
15.7921574764
 20
11.0924391547
 30
0.0
 10
15.8110851825
 20
11.0853609336
 30
0.0
 10
15.8301019448
 20
11.0799462179
 30
0.0
 10
15.8429103746
 20
11.0774343183
 30
0.0
 10
15.8492995898
 20
11.0764662381
 30
0.0
  0
SPLINE
  5
2AD
100
AcDbEntity
  8
LAYER_FEATURE
100
AcDbSpline
 62
7
  6
CONTINUOUS
 70
0
 71
3
 72
58
 73
54
 74
0
 42
0.0000001
 43
0.0000001
 44
0.0000000001
 40
0.0
 40
0.0
 40
0.0
 40
0.0
 40
0.0163583066
 40
0.0330514671
 40
0.0500648586
 40
0.067383511
 40
0.0849915537
 40
0.1028725912
 40
0.1393839942
 40
0.1767770749
 40
0.2149030244
 40
0.2536074776
 40
0.2927317876
 40
0.3321142519
 40
0.371591309
 40
0.4109987213
 40
0.4501727498
 40
0.488951332
 40
0.527175277
 40
0.5646894896
 40
0.601344234
 40
0.6193049133
 40
0.6369977095
 40
0.6544060242
 40
0.6715138628
 40
0.6883058869
 40
0.7047674701
 40
0.7208847584
 40
0.7366447351
 40
0.7520352918
 40
0.7670453063
 40
0.7816647284
 40
0.7958846768
 40
0.809697545
 40
0.823097122
 40
0.8360787281
 40
0.8486393693
 40
0.8607779126
 40
0.8724952844
 40
0.8837946958
 40
0.8946818959
 40
0.9051654519
 40
0.9152570557
 40
0.9249718508
 40
0.9343287667
 40
0.9433508417
 40
0.9520655027
 40
0.9605047595
 40
0.9687052614
 40
0.976708157
 40
0.9845587032
 40
0.9923055923
 40
1.0
 40
1.0
 40
1.0
 40
1.0
 10
15.3383728639
 20
13.5856722297
 30
0.0
 10
15.3334342177
 20
13.5696907649
 30
0.0
 10
15.3237864202
 20
13.5372976257
 30
0.0
 10
15.3101294036
 20
13.4879561613
 30
0.0
 10
15.2971529972
 20
13.4374167935
 30
0.0
 10
15.2848732116
 20
13.3857418653
 30
0.0
 10
15.2733050056
 20
13.3329943334
 30
0.0
 10
15.2587480281
 20
13.2608209224
 30
0.0
 10
15.2424671566
 20
13.1683709476
 30
0.0
 10
15.2261060139
 20
13.0549717038
 30
0.0
 10
15.2128682521
 20
12.9389085015
 30
0.0
 10
15.202819088
 20
12.8207500367
 30
0.0
 10
15.1960080427
 20
12.7010742697
 30
0.0
 10
15.192468693
 20
12.5804670529
 30
0.0
 10
15.1922184808
 20
12.4595187897
 30
0.0
 10
15.1952586325
 20
12.3388216116
 30
0.0
 10
15.2015741639
 20
12.218966369
 30
0.0
 10
15.2111339562
 20
12.1005398095
 30
0.0
 10
15.2238909011
 20
11.9841212368
 30
0.0
 10
15.2397821363
 20
11.8702811014
 30
0.0
 10
15.2556770972
 20
11.7774072025
 30
0.0
 10
15.2699316987
 20
11.7048527861
 30
0.0
 10
15.2812807167
 20
11.6517920123
 30
0.0
 10
15.2933457287
 20
11.5997842819
 30
0.0
 10
15.3061120188
 20
11.5488931584
 30
0.0
 10
15.3195638986
 20
11.4991809996
 30
0.0
 10
15.3336848738
 20
11.4507086602
 30
0.0
 10
15.3484576273
 20
11.4035354732
 30
0.0
 10
15.3638640528
 20
11.3577191607
 30
0.0
 10
15.3798852771
 20
11.3133157652
 30
0.0
 10
15.3965016874
 20
11.270379578
 30
0.0
 10
15.4136929601
 20
11.2289630698
 30
0.0
 10
15.4314380876
 20
11.1891168233
 30
0.0
 10
15.4497154155
 20
11.1508894709
 30
0.0
 10
15.4685026773
 20
11.1143276362
 30
0.0
 10
15.4877770329
 20
11.0794758773
 30
0.0
 10
15.5075151105
 20
11.0463766362
 30
0.0
 10
15.5276930511
 20
11.0150701932
 30
0.0
 10
15.5482865575
 20
10.985594629
 30
0.0
 10
15.5692709458
 20
10.9579857976
 30
0.0
 10
15.5906211946
 20
10.9322773083
 30
0.0
 10
15.6123119963
 20
10.9085005282
 30
0.0
 10
15.6343178013
 20
10.8866846051
 30
0.0
 10
15.6566128435
 20
10.8668565103
 30
0.0
 10
15.6791711396
 20
10.8490410994
 30
0.0
 10
15.7019664432
 20
10.8332611869
 30
0.0
 10
15.7249721493
 20
10.8195376113
 30
0.0
 10
15.7481611035
 20
10.8078892652
 30
0.0
 10
15.7715054659
 20
10.7983330392
 30
0.0
 10
15.7949761576
 20
10.7908836399
 30
0.0
 10
15.8185438095
 20
10.7855532661
 30
0.0
 10
15.8421746261
 20
10.782351168
 30
0.0
 10
15.8579731936
 20
10.7816383295
 30
0.0
 10
15.8658410916
 20
10.781638336
 30
0.0
  0
SPLINE
  5
2AE
100
AcDbEntity
  8
02___PRT_ALL_AXES
100
AcDbSpline
 62
7
  6
CONTINUOUS
 70
0
 71
3
 72
58
 73
54
 74
0
 42
0.0000001
 43
0.0000001
 44
0.0000000001
 40
0.0
 40
0.0
 40
0.0
 40
0.0
 40
0.007722091
 40
0.0154679856
 40
0.0232908866
 40
0.0312420749
 40
0.039369783
 40
0.0477183356
 40
0.0563275927
 40
0.0652326752
 40
0.0744639287
 40
0.0840470606
 40
0.0940033944
 40
0.1043501886
 40
0.1151009812
 40
0.1262659346
 40
0.137852167
 40
0.1498640564
 40
0.162303517
 40
0.1751702444
 40
0.188461934
 40
0.2021744723
 40
0.2163021048
 40
0.2308375857
 40
0.2457723092
 40
0.2610964266
 40
0.2767989492
 40
0.2928678417
 40
0.3092901051
 40
0.3260518528
 40
0.3431383796
 40
0.3605342269
 40
0.3782232426
 40
0.3961886365
 40
0.4328773363
 40
0.470456444
 40
0.5087736959
 40
0.5476711382
 40
0.5869864508
 40
0.626554219
 40
0.6662071798
 40
0.7057774513
 40
0.7450977526
 40
0.7840026318
 40
0.8223297133
 40
0.8599209693
 40
0.896624041
 40
0.9145974194
 40
0.932294923
 40
0.9496997722
 40
0.9667957122
 40
0.9835674555
 40
1.0
 40
1.0
 40
1.0
 40
1.0
 10
15.8821997124
 20
13.948859009
 30
0.0
 10
15.888787807
 20
13.9491924644
 30
0.0
 10
15.9020225105
 20
13.949262212
 30
0.0
 10
15.9218713785
 20
13.9475585816
 30
0.0
 10
15.9416814973
 20
13.9440501886
 30
0.0
 10
15.9614234886
 20
13.9387433217
 30
0.0
 10
15.9810716757
 20
13.931647177
 30
0.0
 10
16.0006007073
 20
13.9227732804
 30
0.0
 10
16.0199863991
 20
13.9121351731
 30
0.0
 10
16.0392052756
 20
13.8997481709
 30
0.0
 10
16.0582344322
 20
13.8856292701
 30
0.0
 10
16.0770513393
 20
13.869797141
 30
0.0
 10
16.0956337299
 20
13.8522721753
 30
0.0
 10
16.1139595344
 20
13.8330765516
 30
0.0
 10
16.1320068641
 20
13.8122342988
 30
0.0
 10
16.1497540277
 20
13.789771345
 30
0.0
 10
16.1671795581
 20
13.7657155394
 30
0.0
 10
16.1842622556
 20
13.7400966617
 30
0.0
 10
16.2009812329
 20
13.712946416
 30
0.0
 10
16.21731596
 20
13.6842984112
 30
0.0
 10
16.2332463082
 20
13.6541881331
 30
0.0
 10
16.2487525891
 20
13.6226529079
 30
0.0
 10
16.263815597
 20
13.5897318627
 30
0.0
 10
16.2784166406
 20
13.5554658761
 30
0.0
 10
16.2925375743
 20
13.5198975252
 30
0.0
 10
16.3061608279
 20
13.4830710316
 30
0.0
 10
16.3192694344
 20
13.4450322052
 30
0.0
 10
16.3318470547
 20
13.4058283853
 30
0.0
 10
16.3438780021
 20
13.3655083799
 30
0.0
 10
16.3553472634
 20
13.3241224079
 30
0.0
 10
16.3662405304
 20
13.2817220224
 30
0.0
 10
16.3765441823
 20
13.2383600918
 30
0.0
 10
16.3862454328
 20
13.1940905447
 30
0.0
 10
16.3984457795
 20
13.1335058413
 30
0.0
 10
16.4120739302
 20
13.0558888349
 30
0.0
 10
16.4257385314
 20
12.9606750887
 30
0.0
 10
16.436757606
 20
12.8632202019
 30
0.0
 10
16.4450759053
 20
12.7640101046
 30
0.0
 10
16.4506517051
 20
12.6635386252
 30
0.0
 10
16.4534570301
 20
12.5623062743
 30
0.0
 10
16.4534778202
 20
12.460817344
 30
0.0
 10
16.4507139725
 20
12.3595774523
 30
0.0
 10
16.4451793417
 20
12.2590909294
 30
0.0
 10
16.4369016876
 20
12.1598583628
 30
0.0
 10
16.4259225353
 20
12.062373695
 30
0.0
 10
16.4122969362
 20
11.9671230058
 30
0.0
 10
16.3987008091
 20
11.8894704775
 30
0.0
 10
16.3865255403
 20
11.8288538593
 30
0.0
 10
16.3768424583
 20
11.7845580595
 30
0.0
 10
16.3665566025
 20
11.7411683005
 30
0.0
 10
16.3556807251
 20
11.6987383583
 30
0.0
 10
16.3442284793
 20
11.6573215193
 30
0.0
 10
16.3361338576
 20
11.6301342377
 30
0.0
 10
16.3319893651
 20
11.6167226552
 30
0.0
  0
SPLINE
  5
2AF
100
AcDbEntity
  8
LAYER_CHAMFER_FEAT
100
AcDbSpline
 62
7
  6
CONTINUOUS
 70
0
 71
3
 72
50
 73
46
 74
0
 42
0.0000001
 43
0.0000001
 44
0.0000000001
 40
0.0
 40
0.0
 40
0.0
 40
0.0
 40
0.0101614954
 40
0.0206687975
 40
0.0315256052
 40
0.0427339295
 40
0.0542942466
 40
0.0662056254
 40
0.0784658557
 40
0.091071564
 40
0.1040183094
 40
0.1173006623
 40
0.1309122869
 40
0.1448460173
 40
0.1590939182
 40
0.1736473336
 40
0.2036315892
 40
0.2347184928
 40
0.2668178335
 40
0.2998320752
 40
0.3336573672
 40
0.368184517
 40
0.4032998417
 40
0.4388860136
 40
0.4748228323
 40
0.510988002
 40
0.5472578689
 40
0.583508164
 40
0.6196147333
 40
0.6554542695
 40
0.6909050573
 40
0.7258477144
 40
0.7601659775
 40
0.7937474822
 40
0.8264846249
 40
0.8582754318
 40
0.889024561
 40
0.9039813863
 40
0.9186456247
 40
0.933007723
 40
0.9470587841
 40
0.9607906003
 40
0.9741956223
 40
0.9872675119
 40
1.0
 40
1.0
 40
1.0
 40
1.0
 10
15.6737129013
 20
13.7191065689
 30
0.0
 10
15.6686424247
 20
13.7130318771
 30
0.0
 10
15.6585841132
 20
13.7004607746
 30
0.0
 10
15.6439853651
 20
13.6807178193
 30
0.0
 10
15.6296387534
 20
13.6597947669
 30
0.0
 10
15.6155588757
 20
13.6377130306
 30
0.0
 10
15.6017596595
 20
13.614494634
 30
0.0
 10
15.5882549025
 20
13.5901629199
 30
0.0
 10
15.575058102
 20
13.5647423206
 30
0.0
 10
15.5621824927
 20
13.5382583784
 30
0.0
 10
15.5496410154
 20
13.5107377097
 30
0.0
 10
15.5374462761
 20
13.4822080044
 30
0.0
 10
15.5256105366
 20
13.4526979759
 30
0.0
 10
15.5141457473
 20
13.4222373579
 30
0.0
 10
15.5030633839
 20
13.3908567383
 30
0.0
 10
15.4886691075
 20
13.3473998968
 30
0.0
 10
15.4717481759
 20
13.2909795541
 30
0.0
 10
15.453334463
 20
13.2207897408
 30
0.0
 10
15.436689692
 20
13.1477381866
 30
0.0
 10
15.421881352
 20
13.0721194788
 30
0.0
 10
15.4089693429
 20
12.9942377576
 30
0.0
 10
15.3980060497
 20
12.9144067685
 30
0.0
 10
15.3890358625
 20
12.832948193
 30
0.0
 10
15.3820952069
 20
12.7501904077
 30
0.0
 10
15.3772121789
 20
12.6664671116
 30
0.0
 10
15.3744066348
 20
12.5821159556
 30
0.0
 10
15.3736899026
 20
12.4974771613
 30
0.0
 10
15.3750649407
 20
12.4128921264
 30
0.0
 10
15.3785261204
 20
12.328702028
 30
0.0
 10
15.3840594551
 20
12.2452464296
 30
0.0
 10
15.3916424505
 20
12.1628618844
 30
0.0
 10
15.4012444081
 20
12.0818805685
 30
0.0
 10
15.4128263424
 20
12.0026288798
 30
0.0
 10
15.4263413564
 20
11.9254261971
 30
0.0
 10
15.4417346488
 20
11.8505831973
 30
0.0
 10
15.4589438899
 20
11.7784018033
 30
0.0
 10
15.4748836826
 20
11.72018463
 30
0.0
 10
15.4885180275
 20
11.6751926617
 30
0.0
 10
15.499058151
 20
11.6426029424
 30
0.0
 10
15.509995915
 20
11.6108896497
 30
0.0
 10
15.5213203784
 20
11.5800846475
 30
0.0
 10
15.533020091
 20
11.5502190782
 30
0.0
 10
15.5450833135
 20
11.5213227593
 30
0.0
 10
15.5574977718
 20
11.4934252588
 30
0.0
 10
15.5661144982
 20
11.4752699256
 30
0.0
 10
15.5704823824
 20
11.4663691134
 30
0.0
  0
SPLINE
  5
2B0
100
AcDbEntity
  8
LAYER_CHAMFER_FEAT
100
AcDbSpline
 62
7
  6
CONTINUOUS
 70
0
 71
3
 72
19
 73
15
 74
0
 42
0.0000001
 43
0.0000001
 44
0.0000000001
 40
0.0
 40
0.0
 40
0.0
 40
0.0
 40
0.1466134518
 40
0.28541641
 40
0.4169902435
 40
0.5420964978
 40
0.6025372265
 40
0.6617364182
 40
0.719844224
 40
0.7770222454
 40
0.8334425243
 40
0.8892860042
 40
0.9447408098
 40
1.0
 40
1.0
 40
1.0
 40
1.0
 10
15.674183363
 20
11.3027481658
 30
0.0
 10
15.6818708928
 20
11.2943290176
 30
0.0
 10
15.6973964648
 20
11.2784364759
 30
0.0
 10
15.7218083794
 20
11.2570407429
 30
0.0
 10
15.7466310037
 20
11.2388160923
 30
0.0
 10
15.7678560859
 20
11.2261710437
 30
0.0
 10
15.7849414575
 20
11.2177679919
 30
0.0
 10
15.7976690943
 20
11.2123586298
 30
0.0
 10
15.8104476978
 20
11.2077747
 30
0.0
 10
15.8232693493
 20
11.204019406
 30
0.0
 10
15.836125536
 20
11.2010955517
 30
0.0
 10
15.8490079884
 20
11.1990054747
 30
0.0
 10
15.8619073481
 20
11.1977507261
 30
0.0
 10
15.8705192219
 20
11.1974716709
 30
0.0
 10
15.8748162604
 20
11.1974716641
 30
0.0
  0
SPLINE
  5
2B1
100
AcDbEntity
  8
LAYER_CHAMFER_FEAT
100
AcDbSpline
 62
7
  6
CONTINUOUS
 70
0
 71
3
 72
19
 73
15
 74
0
 42
0.0000001
 43
0.0000001
 44
0.0000000001
 40
0.0
 40
0.0
 40
0.0
 40
0.0
 40
0.0552604813
 40
0.1107165336
 40
0.1665611978
 40
0.2229825187
 40
0.2801614572
 40
0.3382699903
 40
0.3974696858
 40
0.457910737
 40
0.5830168176
 40
0.7145893875
 40
0.853389988
 40
1.0
 40
1.0
 40
1.0
 40
1.0
 10
15.8748162604
 20
13.8241383217
 30
0.0
 10
15.870519714
 20
13.8241383285
 30
0.0
 10
15.8619088323
 20
13.8238593013
 30
0.0
 10
15.8490109463
 20
13.8226048903
 30
0.0
 10
15.8361299758
 20
13.8205152396
 30
0.0
 10
15.8232752431
 20
13.8175920998
 30
0.0
 10
15.810455049
 20
13.8138376419
 30
0.0
 10
15.797677884
 20
13.8092547589
 30
0.0
 10
15.784951654
 20
13.8038466548
 30
0.0
 10
15.7678682225
 20
13.7954454946
 30
0.0
 10
15.7466454712
 20
13.7828033765
 30
0.0
 10
15.7218254503
 20
13.7645828575
 30
0.0
 10
15.6974160094
 20
13.7431919324
 30
0.0
 10
15.6818918775
 20
13.7273028977
 30
0.0
 10
15.6742050646
 20
13.7188855859
 30
0.0
  0
LINE
  5
2B2
100
AcDbEntity
  8
LAYER_CUT_FEAT
100
AcDbLine
 62
7
  6
CONTINUOUS
 10
15.6456536692
 20
13.2177408262
 11
15.575185327
 21
13.2124744053
  0
SPLINE
  5
2B3
100
AcDbEntity
  8
LAYER_FEATURE
100
AcDbSpline
 62
7
  6
CONTINUOUS
 70
0
 71
3
 72
38
 73
34
 74
0
 42
0.0000001
 43
0.0000001
 44
0.0000000001
 40
0.0
 40
0.0
 40
0.0
 40
0.0
 40
0.0879640634
 40
0.1307307799
 40
0.172659289
 40
0.2137306924
 40
0.2539278598
 40
0.2932354833
 40
0.331640014
 40
0.3691299327
 40
0.4056958468
 40
0.4413306484
 40
0.4760297477
 40
0.5097912585
 40
0.5426162034
 40
0.5745087944
 40
0.6054767272
 40
0.6355314481
 40
0.6646884898
 40
0.6929678651
 40
0.7203944086
 40
0.7469981493
 40
0.7728147251
 40
0.7978857457
 40
0.8222590848
 40
0.8459891353
 40
0.8691369599
 40
0.8917702319
 40
0.9139630028
 40
0.9357952488
 40
0.9573521242
 40
0.9787229534
 40
1.0
 40
1.0
 40
1.0
 40
1.0
 10
15.3383728639
 20
13.5856722297
 30
0.0
 10
15.3460824359
 20
13.6106204139
 30
0.0
 10
15.3581338492
 20
13.6475196997
 30
0.0
 10
15.3753314167
 20
13.6958046304
 30
0.0
 10
15.3884966198
 20
13.7307427834
 30
0.0
 10
15.4020389548
 20
13.7647166397
 30
0.0
 10
15.4159478206
 20
13.7976995351
 30
0.0
 10
15.4302122099
 20
13.8296654008
 30
0.0
 10
15.4448209101
 20
13.8605890484
 30
0.0
 10
15.4597623905
 20
13.8904461089
 30
0.0
 10
15.4750248929
 20
13.9192130635
 30
0.0
 10
15.490596443
 20
13.9468672451
 30
0.0
 10
15.5064648094
 20
13.9733868901
 30
0.0
 10
15.5226175483
 20
13.9987511394
 30
0.0
 10
15.5390420415
 20
14.0229400286
 30
0.0
 10
15.5557254829
 20
14.0459345223
 30
0.0
 10
15.5726548697
 20
14.067716545
 30
0.0
 10
15.5898170666
 20
14.0882689466
 30
0.0
 10
15.6071988177
 20
14.1075755038
 30
0.0
 10
15.6247867019
 20
14.1256209751
 30
0.0
 10
15.6425671924
 20
14.1423910562
 30
0.0
 10
15.6605266757
 20
14.1578723461
 30
0.0
 10
15.6786514105
 20
14.1720523846
 30
0.0
 10
15.6969275214
 20
14.1849196475
 30
0.0
 10
15.7153410186
 20
14.1964634787
 30
0.0
 10
15.7338777503
 20
14.2066740968
 30
0.0
 10
15.7525233276
 20
14.2155426782
 30
0.0
 10
15.7712631141
 20
14.2230613041
 30
0.0
 10
15.7900822167
 20
14.2292229874
 30
0.0
 10
15.8089652622
 20
14.2340218395
 30
0.0
 10
15.8278969877
 20
14.2374531307
 30
0.0
 10
15.8468601659
 20
14.2395133464
 30
0.0
 10
15.8595249727
 20
14.2399716446
 30
0.0
 10
15.8658410916
 20
14.2399716498
 30
0.0
  0
SPLINE
  5
2B4
100
AcDbEntity
  8
02___PRT_ALL_AXES
100
AcDbSpline
 62
7
  6
CONTINUOUS
 70
0
 71
3
 72
32
 73
28
 74
0
 42
0.0000001
 43
0.0000001
 44
0.0000000001
 40
0.0
 40
0.0
 40
0.0
 40
0.0
 40
0.0747135629
 40
0.1497772214
 40
0.2247179204
 40
0.2990637375
 40
0.3723492736
 40
0.4441208754
 40
0.5139420633
 40
0.5479927228
 40
0.5814029119
 40
0.6141255463
 40
0.6461157888
 40
0.6773312904
 40
0.7077324511
 40
0.737282709
 40
0.7659488609
 40
0.7937014257
 40
0.8205150548
 40
0.8463690047
 40
0.8712476825
 40
0.8951412875
 40
0.9180465382
 40
0.9399675967
 40
0.9609169188
 40
0.980916814
 40
1.0
 40
1.0
 40
1.0
 40
1.0
 10
15.3902354396
 20
12.4048878092
 30
0.0
 10
15.389044394
 20
12.4251120818
 30
0.0
 10
15.387352593
 20
12.4656996112
 30
0.0
 10
15.3868623644
 20
12.5266429211
 30
0.0
 10
15.3884118531
 20
12.587469568
 30
0.0
 10
15.3919895097
 20
12.6477277099
 30
0.0
 10
15.3975685254
 20
12.7069712438
 30
0.0
 10
15.4051071745
 20
12.764760551
 30
0.0
 10
15.4130401301
 20
12.8117360765
 30
0.0
 10
15.42034714
 20
12.8482395113
 30
0.0
 10
15.426232174
 20
12.8747622868
 30
0.0
 10
15.4325564307
 20
12.9006089862
 30
0.0
 10
15.439308224
 20
12.9257317611
 30
0.0
 10
15.4464749784
 20
12.9500840016
 30
0.0
 10
15.4540433812
 20
12.9736205814
 30
0.0
 10
15.4619993787
 20
12.996297904
 30
0.0
 10
15.4703282158
 20
13.018073998
 30
0.0
 10
15.4790144676
 20
13.0389085961
 30
0.0
 10
15.4880420787
 20
13.0587632141
 30
0.0
 10
15.4973944065
 20
13.0776012225
 30
0.0
 10
15.5070542691
 20
13.095387919
 30
0.0
 10
15.5170039957
 20
13.1120905741
 30
0.0
 10
15.5272255067
 20
13.1276785299
 30
0.0
 10
15.5377002934
 20
13.1421230874
 30
0.0
 10
15.5484098363
 20
13.1553979739
 30
0.0
 10
15.559334413
 20
13.1674779632
 30
0.0
 10
15.5669219683
 20
13.1748895001
 30
0.0
 10
15.570747215
 20
13.1783743095
 30
0.0
  0
SPLINE
  5
2B5
100
AcDbEntity
  8
LAYER_FEATURE
100
AcDbSpline
 62
7
  6
CONTINUOUS
 70
0
 71
3
 72
58
 73
54
 74
0
 42
0.0000001
 43
0.0000001
 44
0.0000000001
 40
0.0
 40
0.0
 40
0.0
 40
0.0
 40
0.0163583
 40
0.033051471
 40
0.0500648574
 40
0.0673835114
 40
0.0849915535
 40
0.1028725909
 40
0.1393839941
 40
0.1767770752
 40
0.2149030243
 40
0.2536074773
 40
0.2927317876
 40
0.3321142519
 40
0.3715913088
 40
0.4109987214
 40
0.4501727498
 40
0.4889513312
 40
0.5271752767
 40
0.5646894904
 40
0.601344234
 40
0.6193049122
 40
0.6369977078
 40
0.6544060228
 40
0.6715138624
 40
0.6883058876
 40
0.7047674716
 40
0.7208847596
 40
0.736644735
 40
0.7520352903
 40
0.7670453039
 40
0.7816647265
 40
0.7958846763
 40
0.8096975461
 40
0.823097124
 40
0.8360787296
 40
0.8486393693
 40
0.860777911
 40
0.8724952819
 40
0.8837946938
 40
0.8946818953
 40
0.9051654528
 40
0.9152570574
 40
0.9249718519
 40
0.9343287667
 40
0.9433508406
 40
0.952065501
 40
0.960504758
 40
0.9687052606
 40
0.9767081569
 40
0.9845587033
 40
0.9923055923
 40
1.0
 40
1.0
 40
1.0
 40
1.0
 10
14.5107176298
 20
13.5856722297
 30
0.0
 10
14.5057789857
 20
13.5696907713
 30
0.0
 10
14.496131188
 20
13.537297628
 30
0.0
 10
14.48247417
 20
13.4879561652
 30
0.0
 10
14.4694977637
 20
13.4374167901
 30
0.0
 10
14.4572179777
 20
13.3857418663
 30
0.0
 10
14.4456497714
 20
13.3329943335
 30
0.0
 10
14.4310927929
 20
13.260820923
 30
0.0
 10
14.4148119223
 20
13.1683709476
 30
0.0
 10
14.3984507822
 20
13.0549717032
 30
0.0
 10
14.3852130185
 20
12.9389085014
 30
0.0
 10
14.375163851
 20
12.8207500372
 30
0.0
 10
14.3683528083
 20
12.7010742698
 30
0.0
 10
14.3648134629
 20
12.5804670529
 30
0.0
 10
14.3645632473
 20
12.4595187896
 30
0.0
 10
14.3676033941
 20
12.3388216113
 30
0.0
 10
14.3739189294
 20
12.2189663694
 30
0.0
 10
14.3834787275
 20
12.1005398108
 30
0.0
 10
14.3962356676
 20
11.9841212368
 30
0.0
 10
14.4121268966
 20
11.8702810997
 30
0.0
 10
14.4280218616
 20
11.7774072022
 30
0.0
 10
14.4422764679
 20
11.7048527892
 30
0.0
 10
14.453625487
 20
11.6517920171
 30
0.0
 10
14.4656904976
 20
11.5997842857
 30
0.0
 10
14.478456785
 20
11.548893159
 30
0.0
 10
14.4919086621
 20
11.4991809963
 30
0.0
 10
14.5060296355
 20
11.4507086545
 30
0.0
 10
14.52080239
 20
11.4035354687
 30
0.0
 10
14.5362088186
 20
11.3577191606
 30
0.0
 10
14.5522300458
 20
11.3133157701
 30
0.0
 10
14.5688464577
 20
11.2703795856
 30
0.0
 10
14.5860377289
 20
11.2289630757
 30
0.0
 10
14.6037828538
 20
11.1891168241
 30
0.0
 10
14.622060179
 20
11.150889466
 30
0.0
 10
14.6408474392
 20
11.1143276281
 30
0.0
 10
14.6601217963
 20
11.0794758713
 30
0.0
 10
14.6798598763
 20
11.046376636
 30
0.0
 10
14.7000378192
 20
11.0150701993
 30
0.0
 10
14.720631327
 20
10.9855946387
 30
0.0
 10
14.7416157144
 20
10.9579858053
 30
0.0
 10
14.7629659608
 20
10.9322773094
 30
0.0
 10
14.78465676
 20
10.9085005219
 30
0.0
 10
14.8066625641
 20
10.8866845953
 30
0.0
 10
14.8289576078
 20
10.8668565034
 30
0.0
 10
14.8515159056
 20
10.8490410991
 30
0.0
 10
14.8743112105
 20
10.8332611934
 30
0.0
 10
14.8973169171
 20
10.819537622
 30
0.0
 10
14.9205058708
 20
10.8078892743
 30
0.0
 10
14.9438502316
 20
10.7983330405
 30
0.0
 10
14.9673209223
 20
10.7908836318
 30
0.0
 10
14.9908885747
 20
10.7855532581
 30
0.0
 10
15.014519392
 20
10.7823511542
 30
0.0
 10
15.0303179596
 20
10.7816383436
 30
0.0
 10
15.0381858575
 20
10.7816383359
 30
0.0
  0
SPLINE
  5
2B6
100
AcDbEntity
  8
LAYER_FEATURE
100
AcDbSpline
 62
7
  6
CONTINUOUS
 70
0
 71
3
 72
38
 73
34
 74
0
 42
0.0000001
 43
0.0000001
 44
0.0000000001
 40
0.0
 40
0.0
 40
0.0
 40
0.0
 40
0.0879640716
 40
0.1307307847
 40
0.1726592835
 40
0.2137306933
 40
0.2539278613
 40
0.2932354821
 40
0.331640013
 40
0.3691299341
 40
0.4056958476
 40
0.4413306462
 40
0.4760297484
 40
0.5097912612
 40
0.5426162009
 40
0.5745087936
 40
0.6054767306
 40
0.6355314471
 40
0.6646884872
 40
0.6929678677
 40
0.7203944107
 40
0.7469981459
 40
0.7728147257
 40
0.7978857495
 40
0.8222590824
 40
0.8459891342
 40
0.8691369629
 40
0.8917702321
 40
0.9139630012
 40
0.9357952498
 40
0.9573521255
 40
0.9787229532
 40
1.0
 40
1.0
 40
1.0
 40
1.0
 10
14.5107176298
 20
13.5856722297
 30
0.0
 10
14.5184272026
 20
13.6106204162
 30
0.0
 10
14.5304786169
 20
13.6475197032
 30
0.0
 10
14.5476761823
 20
13.6958046328
 30
0.0
 10
14.5608413874
 20
13.7307427828
 30
0.0
 10
14.5743837207
 20
13.7647166386
 30
0.0
 10
14.588292585
 20
13.7976995361
 30
0.0
 10
14.6025569769
 20
13.8296654
 30
0.0
 10
14.6171656775
 20
13.8605890472
 30
0.0
 10
14.632107155
 20
13.8904461098
 30
0.0
 10
14.6473696578
 20
13.919213064
 30
0.0
 10
14.662941212
 20
13.9468672429
 30
0.0
 10
14.6788095751
 20
13.9733868905
 30
0.0
 10
14.6949623105
 20
13.9987511419
 30
0.0
 10
14.7113868111
 20
14.0229400255
 30
0.0
 10
14.7280702503
 20
14.0459345209
 30
0.0
 10
14.7449996312
 20
14.0677165488
 30
0.0
 10
14.7621618343
 20
14.0882689447
 30
0.0
 10
14.7795435872
 20
14.1075754997
 30
0.0
 10
14.797131465
 20
14.1256209784
 30
0.0
 10
14.8149119555
 20
14.1423910595
 30
0.0
 10
14.8328714472
 20
14.1578723387
 30
0.0
 10
14.850996176
 20
14.172052385
 30
0.0
 10
14.8692722819
 20
14.1849196563
 30
0.0
 10
14.8876857893
 20
14.1964634705
 30
0.0
 10
14.906222518
 20
14.2066740921
 30
0.0
 10
14.9248680893
 20
14.2155426887
 30
0.0
 10
14.943607881
 20
14.2230613021
 30
0.0
 10
14.9624269855
 20
14.2292229763
 30
0.0
 10
14.9813100264
 20
14.2340218459
 30
0.0
 10
15.0002417529
 20
14.237453142
 30
0.0
 10
15.0192049332
 20
14.2395133228
 30
0.0
 10
15.0318697387
 20
14.2399716561
 30
0.0
 10
15.0381858575
 20
14.2399716499
 30
0.0
  0
SPLINE
  5
2B7
100
AcDbEntity
  8
LAYER_FEATURE
100
AcDbSpline
 62
7
  6
CONTINUOUS
 70
0
 71
3
 72
11
 73
7
 74
0
 42
0.0000001
 43
0.0000001
 44
0.0000000001
 40
0.0
 40
0.0
 40
0.0
 40
0.0
 40
0.2143563533
 40
0.4516990029
 40
0.7134695137
 40
1.0
 40
1.0
 40
1.0
 40
1.0
 10
14.5452860067
 20
13.1476231887
 30
0.0
 10
14.546042486
 20
13.1482067304
 30
0.0
 10
14.5475317898
 20
13.1495747075
 30
0.0
 10
14.5495710898
 20
13.152023644
 30
0.0
 10
14.5515097277
 20
13.1549465309
 30
0.0
 10
14.5526730726
 20
13.157099278
 30
0.0
 10
14.5532389345
 20
13.1582441502
 30
0.0
  0
SPLINE
  5
2B8
100
AcDbEntity
  8
LAYER_FEATURE
100
AcDbSpline
 62
7
  6
CONTINUOUS
 70
0
 71
3
 72
16
 73
12
 74
0
 42
0.0000001
 43
0.0000001
 44
0.0000000001
 40
0.0
 40
0.0
 40
0.0
 40
0.0
 40
0.0386809073
 40
0.0783982028
 40
0.1643481123
 40
0.2636793149
 40
0.3791768102
 40
0.5115933316
 40
0.6603261751
 40
0.8238477145
 40
1.0
 40
1.0
 40
1.0
 40
1.0
 10
14.5215025
 20
13.1476467187
 30
0.0
 10
14.5213899525
 20
13.1476467161
 30
0.0
 10
14.521161326
 20
13.1476258212
 30
0.0
 10
14.5206981971
 20
13.1474983367
 30
0.0
 10
14.5201212903
 20
13.147167278
 30
0.0
 10
14.519490217
 20
13.1465522564
 30
0.0
 10
14.5189031861
 20
13.145724829
 30
0.0
 10
14.5183682712
 20
13.1446991612
 30
0.0
 10
14.5178939217
 20
13.1434933261
 30
0.0
 10
14.5174890753
 20
13.1421296483
 30
0.0
 10
14.5172775178
 20
13.1411633068
 30
0.0
 10
14.5171836064
 20
13.1406594443
 30
0.0
  0
SPLINE
  5
2B9
100
AcDbEntity
  8
LAYER_FEATURE
100
AcDbSpline
 62
7
  6
CONTINUOUS
 70
0
 71
3
 72
16
 73
12
 74
0
 42
0.0000001
 43
0.0000001
 44
0.0000000001
 40
0.0
 40
0.0
 40
0.0
 40
0.0
 40
0.0405213235
 40
0.0819323052
 40
0.1703890048
 40
0.2706761806
 40
0.385689778
 40
0.5165888789
 40
0.663310308
 40
0.8249534988
 40
1.0
 40
1.0
 40
1.0
 40
1.0
 10
14.5523585947
 20
13.3094884426
 30
0.0
 10
14.5522573646
 20
13.3094884408
 30
0.0
 10
14.5520522996
 20
13.30947159
 30
0.0
 10
14.5516375368
 20
13.309369167
 30
0.0
 10
14.551118508
 20
13.3091036791
 30
0.0
 10
14.5505411065
 20
13.3086034526
 30
0.0
 10
14.5499971555
 20
13.3079264637
 30
0.0
 10
14.5494924399
 20
13.3070826581
 30
0.0
 10
14.5490331241
 20
13.3060841584
 30
0.0
 10
14.5486260483
 20
13.3049458648
 30
0.0
 10
14.548401713
 20
13.3041344206
 30
0.0
 10
14.5482982997
 20
13.3037095243
 30
0.0
  0
SPLINE
  5
2BA
100
AcDbEntity
  8
LAYER_CHAMFER_FEAT
100
AcDbSpline
 62
7
  6
CONTINUOUS
 70
0
 71
3
 72
39
 73
35
 74
0
 42
0.0000001
 43
0.0000001
 44
0.0000000001
 40
0.0
 40
0.0
 40
0.0
 40
0.0
 40
0.0439505114
 40
0.0865559051
 40
0.1278044838
 40
0.1676923365
 40
0.2062207622
 40
0.2433985105
 40
0.2792420463
 40
0.3137765156
 40
0.347036667
 40
0.3790678456
 40
0.4099270395
 40
0.4396839048
 40
0.4684216915
 40
0.49623793
 40
0.523244755
 40
0.5495686819
 40
0.5753496656
 40
0.6007393139
 40
0.6258982158
 40
0.6509925013
 40
0.6761898869
 40
0.7016555666
 40
0.7275483438
 40
0.754017349
 40
0.781199574
 40
0.809218285
 40
0.8381822589
 40
0.8681856992
 40
0.8993086511
 40
0.9316177704
 40
0.9651672795
 40
1.0
 40
1.0
 40
1.0
 40
1.0
 10
16.2159925782
 20
13.5552408724
 30
0.0
 10
16.2113716164
 20
13.5646574025
 30
0.0
 10
16.2020140717
 20
13.5830776956
 30
0.0
 10
16.1873922461
 20
13.6098517161
 30
0.0
 10
16.1724180901
 20
13.6353123968
 30
0.0
 10
16.1571095908
 20
13.6594291085
 30
0.0
 10
16.1414846044
 20
13.682173368
 30
0.0
 10
16.1255615
 20
13.7035181086
 30
0.0
 10
16.1093588264
 20
13.723437984
 30
0.0
 10
16.0928953786
 20
13.7419092858
 30
0.0
 10
16.0761901329
 20
13.7589099443
 30
0.0
 10
16.0592622291
 20
13.7744194973
 30
0.0
 10
16.0421309654
 20
13.7884190508
 30
0.0
 10
16.02481582
 20
13.8008912327
 30
0.0
 10
16.0073365204
 20
13.8118201589
 30
0.0
 10
15.9897131338
 20
13.821191384
 30
0.0
 10
15.9719662184
 20
13.8289919177
 30
0.0
 10
15.9541169932
 20
13.8352103202
 30
0.0
 10
15.936187487
 20
13.8398368965
 30
0.0
 10
15.9182006103
 20
13.8428640181
 30
0.0
 10
15.9001800702
 20
13.8442864524
 30
0.0
 10
15.8821501222
 20
13.8441016611
 30
0.0
 10
15.864135188
 20
13.8423099748
 30
0.0
 10
15.8461594288
 20
13.8389145659
 30
0.0
 10
15.8282463854
 20
13.8339212535
 30
0.0
 10
15.8104187627
 20
13.8273381849
 30
0.0
 10
15.7926983947
 20
13.8191754723
 30
0.0
 10
15.7751063337
 20
13.8094449209
 30
0.0
 10
15.7576630128
 20
13.7981598585
 30
0.0
 10
15.740388407
 20
13.7853350506
 30
0.0
 10
15.7233021962
 20
13.7709867634
 30
0.0
 10
15.7064237156
 20
13.7551325951
 30
0.0
 10
15.6897726203
 20
13.7377922559
 30
0.0
 10
15.6790399806
 20
13.7254886838
 30
0.0
 10
15.6737129013
 20
13.7191065689
 30
0.0
  0
SPLINE
  5
2BB
100
AcDbEntity
  8
LAYER_FEATURE
100
AcDbSpline
 62
7
  6
CONTINUOUS
 70
0
 71
3
 72
15
 73
11
 74
0
 42
0.0000001
 43
0.0000001
 44
0.0000000001
 40
0.0
 40
0.0
 40
0.0
 40
0.0
 40
0.085851709
 40
0.1774225667
 40
0.2792248012
 40
0.3941414306
 40
0.5236377513
 40
0.6681055709
 40
0.8272097206
 40
1.0
 40
1.0
 40
1.0
 40
1.0
 10
14.5900771362
 20
13.4614408498
 30
0.0
 10
14.589896097
 20
13.4614408379
 30
0.0
 10
14.589520072
 20
13.4613845857
 30
0.0
 10
14.5889781307
 20
13.4611396562
 30
0.0
 10
14.5884572149
 20
13.4607434213
 30
0.0
 10
14.5879611599
 20
13.4602037947
 30
0.0
 10
14.5874934725
 20
13.4595277022
 30
0.0
 10
14.5870586569
 20
13.4587229507
 30
0.0
 10
14.5866616535
 20
13.4577990357
 30
0.0
 10
14.5864340795
 20
13.4571364966
 30
0.0
 10
14.5863265001
 20
13.4567883697
 30
0.0
  0
SPLINE
  5
2BC
100
AcDbEntity
  8
LAYER_CHAMFER_FEAT
100
AcDbSpline
 62
7
  6
CONTINUOUS
 70
0
 71
3
 72
26
 73
22
 74
0
 42
0.0000001
 43
0.0000001
 44
0.0000000001
 40
0.0
 40
0.0
 40
0.0
 40
0.0
 40
0.0835123682
 40
0.16391073
 40
0.2411706246
 40
0.3152881362
 40
0.3862822565
 40
0.4541980978
 40
0.5191103228
 40
0.5811270593
 40
0.6403940794
 40
0.69709904
 40
0.7514753404
 40
0.803804928
 40
0.8544191374
 40
0.8792073487
 40
0.9037123652
 40
0.9279878298
 40
0.952089344
 40
0.9760740145
 40
1.0
 40
1.0
 40
1.0
 40
1.0
 10
16.1927300318
 20
13.5395743342
 30
0.0
 10
16.1872332911
 20
13.5507755142
 30
0.0
 10
16.1760767574
 20
13.5725824373
 30
0.0
 10
16.1584986276
 20
13.6040455884
 30
0.0
 10
16.1404216634
 20
13.6335929008
 30
0.0
 10
16.1218771584
 20
13.6611725615
 30
0.0
 10
16.1028966738
 20
13.6867368144
 30
0.0
 10
16.0835123201
 20
13.7102412074
 30
0.0
 10
16.0637565315
 20
13.7316447645
 30
0.0
 10
16.0436620276
 20
13.7509098486
 30
0.0
 10
16.0232617037
 20
13.7680020393
 30
0.0
 10
16.0025889234
 20
13.7828898804
 30
0.0
 10
15.9816769544
 20
13.795544829
 30
0.0
 10
15.9605621535
 20
13.8059405501
 30
0.0
 10
15.9426995052
 20
13.8127496029
 30
0.0
 10
15.9283881729
 20
13.8170102093
 30
0.0
 10
15.9177031756
 20
13.8196093053
 30
0.0
 10
15.9069987501
 20
13.8216320903
 30
0.0
 10
15.8962794138
 20
13.8230777269
 30
0.0
 10
15.885550537
 20
13.8239453885
 30
0.0
 10
15.878390933
 20
13.8241383161
 30
0.0
 10
15.8748162604
 20
13.8241383217
 30
0.0
  0
SPLINE
  5
2BD
100
AcDbEntity
  8
LAYER_FEATURE
100
AcDbSpline
 62
7
  6
CONTINUOUS
 70
0
 71
3
 72
79
 73
75
 74
0
 42
0.0000001
 43
0.0000001
 44
0.0000000001
 40
0.0
 40
0.0
 40
0.0
 40
0.0
 40
0.0178417206
 40
0.0361841933
 40
0.0549959065
 40
0.0742430751
 40
0.0938901922
 40
0.1139001155
 40
0.1342342849
 40
0.1548529055
 40
0.1757151221
 40
0.1967791869
 40
0.2180026222
 40
0.2393423816
 40
0.2607550073
 40
0.2821967848
 40
0.303623897
 40
0.3249925786
 40
0.3462592697
 40
0.3673807706
 40
0.388314398
 40
0.4090181446
 40
0.4294508419
 40
0.4495723254
 40
0.4693436068
 40
0.4887270553
 40
0.5076865894
 40
0.5261878778
 40
0.544198557
 40
0.5616884708
 40
0.5786299387
 40
0.5949980548
 40
0.6107710266
 40
0.6259305698
 40
0.6404623721
 40
0.6543566451
 40
0.6676087733
 40
0.6802200913
 40
0.692198811
 40
0.7035611129
 40
0.7143323935
 40
0.7245486264
 40
0.7342577383
 40
0.743520789
 40
0.7480095615
 40
0.7524160573
 40
0.7567517284
 40
0.761028766
 40
0.7652600163
 40
0.769458855
 40
0.773639048
 40
0.7778145914
 40
0.7819995388
 40
0.7862078266
 40
0.7904531063
 40
0.7947485898
 40
0.7991069111
 40
0.8035400236
 40
0.8080591081
 40
0.8126745209
 40
0.8222286916
 40
0.8322712913
 40
0.8428544767
 40
0.8540180261
 40
0.8657906793
 40
0.8781915203
 40
0.8912312671
 40
0.9049134182
 40
0.9192352327
 40
0.9341885552
 40
0.9497605019
 40
0.9659340653
 40
0.982688487
 40
1.0
 40
1.0
 40
1.0
 40
1.0
 10
15.3816425126
 20
13.5309486903
 30
0.0
 10
15.3750462449
 20
13.5096031603
 30
0.0
 10
15.3622917223
 20
13.466118189
 30
0.0
 10
15.3446847795
 20
13.3995332475
 30
0.0
 10
15.3283691389
 20
13.3308100211
 30
0.0
 10
15.3133843652
 20
13.260114195
 30
0.0
 10
15.2997665514
 20
13.1876155407
 30
0.0
 10
15.2875485769
 20
13.1134883851
 30
0.0
 10
15.2767599185
 20
13.0379109788
 30
0.0
 10
15.267426621
 20
12.9610651165
 30
0.0
 10
15.2595712198
 20
12.8831356702
 30
0.0
 10
15.2532126894
 20
12.8043101476
 30
0.0
 10
15.2483663781
 20
12.7247782352
 30
0.0
 10
15.2450439845
 20
12.6447313348
 30
0.0
 10
15.2432535318
 20
12.5643620974
 30
0.0
 10
15.2429993488
 20
12.4838639564
 30
0.0
 10
15.2442820529
 20
12.4034306584
 30
0.0
 10
15.247098539
 20
12.3232557924
 30
0.0
 10
15.2514420044
 20
12.2435323197
 30
0.0
 10
15.2573019617
 20
12.164452107
 30
0.0
 10
15.2646642685
 20
12.0862054596
 30
0.0
 10
15.2735111446
 20
12.0089806565
 30
0.0
 10
15.2838212249
 20
11.932963492
 30
0.0
 10
15.2955696194
 20
11.8583368252
 30
0.0
 10
15.308727974
 20
11.7852801344
 30
0.0
 10
15.3232645404
 20
11.7139690739
 30
0.0
 10
15.3391442414
 20
11.6445750374
 30
0.0
 10
15.3563287812
 20
11.5772647392
 30
0.0
 10
15.3747767443
 20
11.5121998039
 30
0.0
 10
15.3944437135
 20
11.4495363616
 30
0.0
 10
15.415282381
 20
11.3894246475
 30
0.0
 10
15.4372426931
 20
11.3320086211
 30
0.0
 10
15.4602720221
 20
11.2774256094
 30
0.0
 10
15.4843153445
 20
11.2258059607
 30
0.0
 10
15.5093154545
 20
11.1772727173
 30
0.0
 10
15.535213184
 20
11.13194131
 30
0.0
 10
15.5619477039
 20
11.089919327
 30
0.0
 10
15.5894568551
 20
11.0513063476
 30
0.0
 10
15.6176774759
 20
11.0161939004
 30
0.0
 10
15.6465458806
 20
10.9846655153
 30
0.0
 10
15.6759977168
 20
10.9567972094
 30
0.0
 10
15.705969561
 20
10.9326575766
 30
0.0
 10
15.7363933773
 20
10.9123104914
 30
0.0
 10
15.7623431542
 20
10.89841693
 30
0.0
 10
15.7832011644
 20
10.889339141
 30
0.0
 10
15.7987451241
 20
10.8835788169
 30
0.0
 10
15.8143414928
 20
10.878800448
 30
0.0
 10
15.8299810473
 20
10.8750072479
 30
0.0
 10
15.8456539
 20
10.8722019367
 30
0.0
 10
15.861350185
 20
10.8703865977
 30
0.0
 10
15.877059883
 20
10.8695626149
 30
0.0
 10
15.8927729195
 20
10.8697305372
 30
0.0
 10
15.9084792005
 20
10.8708903281
 30
0.0
 10
15.9241686685
 20
10.8730410462
 30
0.0
 10
15.9398313507
 20
10.8761811073
 30
0.0
 10
15.9554573675
 20
10.8803082549
 30
0.0
 10
15.971037046
 20
10.8854194708
 30
0.0
 10
15.9865607084
 20
10.891511207
 30
0.0
 10
16.0020192774
 20
10.8985794662
 30
0.0
 10
16.0227678497
 20
10.9094228831
 30
0.0
 10
16.0485300718
 20
10.9255067849
 30
0.0
 10
16.0786572005
 20
10.9483981707
 30
0.0
 10
16.1082885507
 20
10.9750409141
 30
0.0
 10
16.1373568794
 20
11.0053668904
 30
0.0
 10
16.1657988369
 20
11.0393029632
 30
0.0
 10
16.1935502864
 20
11.0767680417
 30
0.0
 10
16.2205479158
 20
11.1176732897
 30
0.0
 10
16.246729176
 20
11.1619217834
 30
0.0
 10
16.2720327659
 20
11.2094085683
 30
0.0
 10
16.2963989319
 20
11.2600207921
 30
0.0
 10
16.3197697923
 20
11.3136378761
 30
0.0
 10
16.3420895776
 20
11.3701319453
 30
0.0
 10
16.3633047433
 20
11.4293674039
 30
0.0
 10
16.3764698982
 20
11.4699500967
 30
0.0
 10
16.3828701427
 20
11.4906612955
 30
0.0
  0
SPLINE
  5
2BE
100
AcDbEntity
  8
LAYER_FEATURE
100
AcDbSpline
 62
7
  6
CONTINUOUS
 70
0
 71
3
 72
58
 73
54
 74
0
 42
0.0000001
 43
0.0000001
 44
0.0000000001
 40
0.0
 40
0.0
 40
0.0
 40
0.0
 40
0.0163583066
 40
0.0330514671
 40
0.0500648586
 40
0.067383511
 40
0.0849915537
 40
0.1028725912
 40
0.1393839942
 40
0.1767770749
 40
0.2149030244
 40
0.2536074776
 40
0.2927317876
 40
0.3321142519
 40
0.371591309
 40
0.4109987213
 40
0.4501727498
 40
0.488951332
 40
0.527175277
 40
0.5646894896
 40
0.601344234
 40
0.6193049133
 40
0.6369977095
 40
0.6544060242
 40
0.6715138628
 40
0.6883058869
 40
0.7047674701
 40
0.7208847584
 40
0.7366447351
 40
0.7520352918
 40
0.7670453063
 40
0.7816647284
 40
0.7958846768
 40
0.809697545
 40
0.823097122
 40
0.8360787281
 40
0.8486393693
 40
0.8607779126
 40
0.8724952844
 40
0.8837946958
 40
0.8946818959
 40
0.9051654519
 40
0.9152570557
 40
0.9249718508
 40
0.9343287667
 40
0.9433508417
 40
0.9520655027
 40
0.9605047595
 40
0.9687052614
 40
0.976708157
 40
0.9845587032
 40
0.9923055923
 40
1.0
 40
1.0
 40
1.0
 40
1.0
 10
15.3765149642
 20
13.5856722297
 30
0.0
 10
15.371576318
 20
13.5696907649
 30
0.0
 10
15.3619285205
 20
13.5372976257
 30
0.0
 10
15.3482715039
 20
13.4879561613
 30
0.0
 10
15.3352950975
 20
13.4374167935
 30
0.0
 10
15.3230153119
 20
13.3857418653
 30
0.0
 10
15.3114471059
 20
13.3329943334
 30
0.0
 10
15.2968901285
 20
13.2608209224
 30
0.0
 10
15.2806092569
 20
13.1683709476
 30
0.0
 10
15.2642481142
 20
13.0549717038
 30
0.0
 10
15.2510103524
 20
12.9389085015
 30
0.0
 10
15.2409611883
 20
12.8207500367
 30
0.0
 10
15.234150143
 20
12.7010742697
 30
0.0
 10
15.2306107933
 20
12.5804670529
 30
0.0
 10
15.2303605811
 20
12.4595187897
 30
0.0
 10
15.2334007328
 20
12.3388216116
 30
0.0
 10
15.2397162642
 20
12.218966369
 30
0.0
 10
15.2492760565
 20
12.1005398095
 30
0.0
 10
15.2620330014
 20
11.9841212368
 30
0.0
 10
15.2779242367
 20
11.8702811014
 30
0.0
 10
15.2938191975
 20
11.7774072025
 30
0.0
 10
15.308073799
 20
11.7048527861
 30
0.0
 10
15.319422817
 20
11.6517920123
 30
0.0
 10
15.331487829
 20
11.5997842819
 30
0.0
 10
15.3442541191
 20
11.5488931584
 30
0.0
 10
15.357705999
 20
11.4991809996
 30
0.0
 10
15.3718269741
 20
11.4507086602
 30
0.0
 10
15.3865997276
 20
11.4035354732
 30
0.0
 10
15.4020061531
 20
11.3577191607
 30
0.0
 10
15.4180273774
 20
11.3133157652
 30
0.0
 10
15.4346437877
 20
11.270379578
 30
0.0
 10
15.4518350604
 20
11.2289630698
 30
0.0
 10
15.4695801879
 20
11.1891168233
 30
0.0
 10
15.4878575158
 20
11.1508894709
 30
0.0
 10
15.5066447776
 20
11.1143276362
 30
0.0
 10
15.5259191333
 20
11.0794758773
 30
0.0
 10
15.5456572108
 20
11.0463766362
 30
0.0
 10
15.5658351514
 20
11.0150701932
 30
0.0
 10
15.5864286578
 20
10.985594629
 30
0.0
 10
15.6074130462
 20
10.9579857976
 30
0.0
 10
15.628763295
 20
10.9322773083
 30
0.0
 10
15.6504540966
 20
10.9085005282
 30
0.0
 10
15.6724599016
 20
10.8866846051
 30
0.0
 10
15.6947549438
 20
10.8668565103
 30
0.0
 10
15.7173132399
 20
10.8490410994
 30
0.0
 10
15.7401085435
 20
10.8332611869
 30
0.0
 10
15.7631142496
 20
10.8195376113
 30
0.0
 10
15.7863032038
 20
10.8078892652
 30
0.0
 10
15.8096475663
 20
10.7983330392
 30
0.0
 10
15.8331182579
 20
10.7908836399
 30
0.0
 10
15.8566859098
 20
10.7855532661
 30
0.0
 10
15.8803167264
 20
10.782351168
 30
0.0
 10
15.8961152939
 20
10.7816383295
 30
0.0
 10
15.9039831919
 20
10.781638336
 30
0.0
  0
SPLINE
  5
2BF
100
AcDbEntity
  8
02___PRT_ALL_AXES
100
AcDbSpline
 62
7
  6
CONTINUOUS
 70
0
 71
3
 72
29
 73
25
 74
0
 42
0.0000001
 43
0.0000001
 44
0.0000000001
 40
0.0
 40
0.0
 40
0.0
 40
0.0
 40
0.0165947389
 40
0.0334204552
 40
0.0506966707
 40
0.0686219566
 40
0.0873682039
 40
0.1070782141
 40
0.127865787
 40
0.1498181757
 40
0.1729985904
 40
0.197449212
 40
0.2231943984
 40
0.2502426767
 40
0.3082050587
 40
0.3711835822
 40
0.4388663738
 40
0.5108311467
 40
0.5865686313
 40
0.6655008531
 40
0.7469960391
 40
0.8303818237
 40
0.9149552884
 40
1.0
 40
1.0
 40
1.0
 40
1.0
 10
15.7583994612
 20
11.7866426797
 30
0.0
 10
15.7590793011
 20
11.7866426728
 30
0.0
 10
15.7604500418
 20
11.786731642
 30
0.0
 10
15.7624936084
 20
11.7871302822
 30
0.0
 10
15.7645248539
 20
11.7877926191
 30
0.0
 10
15.7665377962
 20
11.7887157947
 30
0.0
 10
15.7685275603
 20
11.789896481
 30
0.0
 10
15.7704894562
 20
11.7913309713
 30
0.0
 10
15.7724190972
 20
11.793015141
 30
0.0
 10
15.7743120914
 20
11.7949445626
 30
0.0
 10
15.7761641068
 20
11.7971143151
 30
0.0
 10
15.7779708304
 20
11.7995189578
 30
0.0
 10
15.779727993
 20
11.8021525628
 30
0.0
 10
15.7820527374
 20
11.8060509999
 30
0.0
 10
15.7847887064
 20
11.8114702785
 30
0.0
 10
15.7877368605
 20
11.8186196461
 30
0.0
 10
15.7903932748
 20
11.8264897338
 30
0.0
 10
15.7927313853
 20
11.8350024793
 30
0.0
 10
15.7947277256
 20
11.8440737066
 30
0.0
 10
15.7963620891
 20
11.853613012
 30
0.0
 10
15.7976178944
 20
11.863525104
 30
0.0
 10
15.7984823739
 20
11.8737107639
 30
0.0
 10
15.7989467859
 20
11.8840677708
 30
0.0
 10
15.7989864974
 20
11.891018527
 30
0.0
 10
15.7989383725
 20
11.8945022378
 30
0.0
  0
SPLINE
  5
2C0
100
AcDbEntity
  8
02___PRT_ALL_AXES
100
AcDbSpline
 62
7
  6
CONTINUOUS
 70
0
 71
3
 72
53
 73
49
 74
0
 42
0.0000001
 43
0.0000001
 44
0.0000000001
 40
0.0
 40
0.0
 40
0.0
 40
0.0
 40
0.0077385301
 40
0.0156305072
 40
0.0237166567
 40
0.032034001
 40
0.040615562
 40
0.0494902653
 40
0.0586829981
 40
0.0682147792
 40
0.0781029995
 40
0.0883616977
 40
0.0990018447
 40
0.1100316239
 40
0.1214566926
 40
0.1332804249
 40
0.1455041336
 40
0.1581272676
 40
0.1711475864
 40
0.184561315
 40
0.1983632789
 40
0.212547026
 40
0.2271049363
 40
0.2420283182
 40
0.2573074938
 40
0.2729318758
 40
0.2888900354
 40
0.3051697676
 40
0.3217581504
 40
0.3386415992
 40
0.3732351542
 40
0.4088315845
 40
0.4453030348
 40
0.4825152121
 40
0.52032854
 40
0.558599266
 40
0.5971805219
 40
0.6359233477
 40
0.6746777062
 40
0.7132934825
 40
0.7516214865
 40
0.7895144628
 40
0.8268281109
 40
0.8634221458
 40
0.8991613882
 40
0.9339169092
 40
0.9675672626
 40
1.0
 40
1.0
 40
1.0
 40
1.0
 10
15.8493469445
 20
11.0768943612
 30
0.0
 10
15.8430066637
 20
11.0781741076
 30
0.0
 10
15.8303040877
 20
11.0813029071
 30
0.0
 10
15.8114857567
 20
11.0875970122
 30
0.0
 10
15.7927672264
 20
11.0955212436
 30
0.0
 10
15.7741717807
 20
11.1050641468
 30
0.0
 10
15.7557197162
 20
11.1162131517
 30
0.0
 10
15.7374314811
 20
11.1289541036
 30
0.0
 10
15.7193269816
 20
11.1432714457
 30
0.0
 10
15.7014259135
 20
11.1591481493
 30
0.0
 10
15.68374777
 20
11.1765656986
 30
0.0
 10
15.6663118846
 20
11.1955040387
 30
0.0
 10
15.6491374267
 20
11.2159415384
 30
0.0
 10
15.6322433884
 20
11.2378549616
 30
0.0
 10
15.6156485497
 20
11.2612194469
 30
0.0
 10
15.5993714439
 20
11.2860085072
 30
0.0
 10
15.5834303299
 20
11.3121940466
 30
0.0
 10
15.5678431544
 20
11.3397463788
 30
0.0
 10
15.552627519
 20
11.3686342519
 30
0.0
 10
15.5378006514
 20
11.3988248774
 30
0.0
 10
15.5233793678
 20
11.4302839587
 30
0.0
 10
15.5093800493
 20
11.4629757324
 30
0.0
 10
15.495818621
 20
11.496863013
 30
0.0
 10
15.482710527
 20
11.5319072366
 30
0.0
 10
15.4700707082
 20
11.5680685057
 30
0.0
 10
15.4579135864
 20
11.6053056311
 30
0.0
 10
15.4462530267
 20
11.643576188
 30
0.0
 10
15.4351023617
 20
11.6828365241
 30
0.0
 10
15.4244742392
 20
11.7230419833
 30
0.0
 10
15.4109070298
 20
11.7782946403
 30
0.0
 10
15.3953747104
 20
11.8494120323
 30
0.0
 10
15.379146779
 20
11.9370883163
 30
0.0
 10
15.3652563199
 20
12.0273799156
 30
0.0
 10
15.3537670625
 20
12.1198748951
 30
0.0
 10
15.3447316893
 20
12.2141520939
 30
0.0
 10
15.3381916357
 20
12.3097817862
 30
0.0
 10
15.3341769284
 20
12.4063280522
 30
0.0
 10
15.3327059804
 20
12.5033507011
 30
0.0
 10
15.3337855284
 20
12.6004073398
 30
0.0
 10
15.3374106412
 20
12.697055417
 30
0.0
 10
15.3435646733
 20
12.7928542743
 30
0.0
 10
15.3522193807
 20
12.8873671929
 30
0.0
 10
15.3633350798
 20
12.9801634036
 30
0.0
 10
15.376860783
 20
13.0708201613
 30
0.0
 10
15.3927344285
 20
13.1589244969
 30
0.0
 10
15.4108834295
 20
13.2440759273
 30
0.0
 10
15.4312241892
 20
13.3258856724
 30
0.0
 10
15.4464818923
 20
13.3789873375
 30
0.0
 10
15.4544855955
 20
13.4048873306
 30
0.0
  0
SPLINE
  5
2C1
100
AcDbEntity
  8
LAYER_CUT_FEAT
100
AcDbSpline
 62
7
  6
CONTINUOUS
 70
0
 71
3
 72
59
 73
55
 74
0
 42
0.0000001
 43
0.0000001
 44
0.0000000001
 40
0.0
 40
0.0
 40
0.0
 40
0.0
 40
0.0078473648
 40
0.0157162227
 40
0.0236813477
 40
0.0318139011
 40
0.0401797558
 40
0.0488379119
 40
0.0578397234
 40
0.0672286849
 40
0.0770406478
 40
0.0873043104
 40
0.0980418458
 40
0.1092695705
 40
0.1209985945
 40
0.1332354257
 40
0.1459825095
 40
0.1592387007
 40
0.1729996711
 40
0.1872582614
 40
0.202004782
 40
0.2172272728
 40
0.2329117334
 40
0.2490423204
 40
0.2656015219
 40
0.2825703117
 40
0.2999282878
 40
0.317653796
 40
0.3541134497
 40
0.3917571618
 40
0.4303774665
 40
0.4697563353
 40
0.5096677973
 40
0.5498804323
 40
0.590159774
 40
0.6302706873
 40
0.669979733
 40
0.7090575467
 40
0.7472812878
 40
0.7844371717
 40
0.8025518946
 40
0.8203250112
 40
0.8377335907
 40
0.8547558219
 40
0.8713711275
 40
0.8875602876
 40
0.9033055766
 40
0.918590916
 40
0.9334020496
 40
0.9477267264
 40
0.9615549707
 40
0.9748791673
 40
0.9876948219
 40
1.0
 40
1.0
 40
1.0
 40
1.0
 10
15.6548171971
 20
13.2188286736
 30
0.0
 10
15.6586222141
 20
13.2191176895
 30
0.0
 10
15.6662797804
 20
13.2192921287
 30
0.0
 10
15.6777752708
 20
13.2183223617
 30
0.0
 10
15.6892419611
 20
13.2161241107
 30
0.0
 10
15.7006558816
 20
13.2127032729
 30
0.0
 10
15.7119963975
 20
13.2080687074
 30
0.0
 10
15.7232436068
 20
13.2022312273
 30
0.0
 10
15.7343788118
 20
13.1952032978
 30
0.0
 10
15.7453839802
 20
13.1869987872
 30
0.0
 10
15.7562415153
 20
13.1776329581
 30
0.0
 10
15.766934051
 20
13.1671225466
 30
0.0
 10
15.7774443631
 20
13.1554858713
 30
0.0
 10
15.7877553473
 20
13.142742932
 30
0.0
 10
15.7978500517
 20
13.1289154836
 30
0.0
 10
15.807711719
 20
13.1140270652
 30
0.0
 10
15.8173238427
 20
13.0981030067
 30
0.0
 10
15.8266702256
 20
13.0811704154
 30
0.0
 10
15.8357350333
 20
13.0632581469
 30
0.0
 10
15.8445028422
 20
13.0443967656
 30
0.0
 10
15.8529586865
 20
13.024618498
 30
0.0
 10
15.8610881006
 20
13.0039571796
 30
0.0
 10
15.8688771493
 20
12.9824481903
 30
0.0
 10
15.8763124593
 20
12.9601283932
 30
0.0
 10
15.8833812568
 20
12.9370360595
 30
0.0
 10
15.8900713601
 20
12.9132108366
 30
0.0
 10
15.8963713332
 20
12.8886935393
 30
0.0
 10
15.9043107555
 20
12.8548197099
 30
0.0
 10
15.9131548637
 20
12.8110371405
 30
0.0
 10
15.9219605673
 20
12.7569222116
 30
0.0
 10
15.9289952992
 20
12.7011179741
 30
0.0
 10
15.9342103575
 20
12.6440077501
 30
0.0
 10
15.9375696209
 20
12.5859831414
 30
0.0
 10
15.939049804
 20
12.5274424477
 30
0.0
 10
15.9386406387
 20
12.4687875328
 30
0.0
 10
15.9363449772
 20
12.4104210655
 30
0.0
 10
15.9321787258
 20
12.3527437463
 30
0.0
 10
15.9261707421
 20
12.2961511909
 30
0.0
 10
15.9183626374
 20
12.2410322252
 30
0.0
 10
15.9103345172
 20
12.1962704169
 30
0.0
 10
15.9030307383
 20
12.1615080466
 30
0.0
 10
15.8971864177
 20
12.1362569119
 30
0.0
 10
15.8909397089
 20
12.1116500021
 30
0.0
 10
15.8843012981
 20
12.087729493
 30
0.0
 10
15.8772826319
 20
12.0645364768
 30
0.0
 10
15.8698957793
 20
12.0421107498
 30
0.0
 10
15.8621534385
 20
12.0204907787
 30
0.0
 10
15.8540689008
 20
11.9997136189
 30
0.0
 10
15.8456560293
 20
11.9798148589
 30
0.0
 10
15.836929223
 20
11.960828514
 30
0.0
 10
15.8279033989
 20
11.9427871078
 30
0.0
 10
15.8185938432
 20
11.9257212118
 30
0.0
 10
15.8090166127
 20
11.9096604771
 30
0.0
 10
15.8023279056
 20
11.899433337
 30
0.0
 10
15.7989383725
 20
11.8945022378
 30
0.0
  0
SPLINE
  5
2C2
100
AcDbEntity
  8
02___PRT_ALL_AXES
100
AcDbSpline
 62
7
  6
CONTINUOUS
 70
0
 71
3
 72
25
 73
21
 74
0
 42
0.0000001
 43
0.0000001
 44
0.0000000001
 40
0.0
 40
0.0
 40
0.0
 40
0.0
 40
0.0855338239
 40
0.1681803392
 40
0.2478120771
 40
0.3243189443
 40
0.3976123412
 40
0.4676276314
 40
0.5343277559
 40
0.5977075094
 40
0.6577987085
 40
0.7146763375
 40
0.7684656463
 40
0.8193500967
 40
0.8675795727
 40
0.9134775989
 40
0.9356837044
 40
0.9574640901
 40
0.9788807803
 40
1.0
 40
1.0
 40
1.0
 40
1.0
 10
15.4544855955
 20
13.4048873306
 30
0.0
 10
15.4603489118
 20
13.4238610291
 30
0.0
 10
15.472423578
 20
13.4610023871
 30
0.0
 10
15.4919411956
 20
13.515137661
 30
0.0
 10
15.5125133292
 20
13.5666325204
 30
0.0
 10
15.5340860304
 20
13.6153518435
 30
0.0
 10
15.5566030717
 20
13.661168652
 30
0.0
 10
15.580006058
 20
13.7039637022
 30
0.0
 10
15.604234766
 20
13.7436259198
 30
0.0
 10
15.6292275015
 20
13.7800525643
 30
0.0
 10
15.6549214589
 20
13.8131493389
 30
0.0
 10
15.681253252
 20
13.8428303697
 30
0.0
 10
15.7081588757
 20
13.869017674
 30
0.0
 10
15.7355753944
 20
13.8916410282
 30
0.0
 10
15.7634353208
 20
13.9106351064
 30
0.0
 10
15.7872320704
 20
13.9235324356
 30
0.0
 10
15.8063640946
 20
13.9318929653
 30
0.0
 10
15.8206172666
 20
13.9371576777
 30
0.0
 10
15.8349199293
 20
13.9414802056
 30
0.0
 10
15.8445404768
 20
13.9437454714
 30
0.0
 10
15.8493469446
 20
13.9447156224
 30
0.0
  0
SPLINE
  5
2C3
100
AcDbEntity
  8
LAYER_CHAMFER_FEAT
100
AcDbSpline
 62
7
  6
CONTINUOUS
 70
0
 71
3
 72
79
 73
75
 74
0
 42
0.0000001
 43
0.0000001
 44
0.0000000001
 40
0.0
 40
0.0
 40
0.0
 40
0.0
 40
0.0113884859
 40
0.0222283963
 40
0.0325469932
 40
0.0375227434
 40
0.042382579
 40
0.0517771425
 40
0.0607895049
 40
0.0651745241
 40
0.0694902341
 40
0.0737466699
 40
0.077954423
 40
0.0821245518
 40
0.0862684983
 40
0.0903979746
 40
0.0945248464
 40
0.0986610074
 40
0.1028182523
 40
0.1070081545
 40
0.1112419542
 40
0.1155304552
 40
0.1198839476
 40
0.1288213211
 40
0.1381270301
 40
0.1478601942
 40
0.1580692248
 40
0.1687924431
 40
0.1800589872
 40
0.1918898184
 40
0.2042987087
 40
0.2172931463
 40
0.2308751347
 40
0.2450418832
 40
0.2597863946
 40
0.2750979649
 40
0.2909626075
 40
0.3073634149
 40
0.3242808698
 40
0.3416931153
 40
0.3595761909
 40
0.3779042437
 40
0.3966497165
 40
0.41578352
 40
0.435275191
 40
0.4550930401
 40
0.4752042901
 40
0.495575208
 40
0.5161712321
 40
0.5369570934
 40
0.557896935
 40
0.5789544283
 40
0.6000928871
 40
0.6212753809
 40
0.6424648464
 40
0.6636241997
 40
0.6847164471
 40
0.7057047973
 40
0.7265527741
 40
0.7472243295
 40
0.7676839597
 40
0.7878968232
 40
0.8078288609
 40
0.8274469213
 40
0.8467188902
 40
0.8656138267
 40
0.8841021072
 40
0.9021555792
 40
0.9197477275
 40
0.9368538585
 40
0.9534512923
 40
0.9695196212
 40
0.9850408726
 40
1.0
 40
1.0
 40
1.0
 40
1.0
 10
15.673712903
 20
11.302503426
 30
0.0
 10
15.6806651275
 20
11.2941743111
 30
0.0
 10
15.694700906
 20
11.2782972103
 30
0.0
 10
15.71670062
 20
11.2564171374
 30
0.0
 10
15.7355723
 20
11.2401382826
 30
0.0
 10
15.7508333147
 20
11.2284795132
 30
0.0
 10
15.7658389005
 20
11.2179626979
 30
0.0
 10
15.7847902392
 20
11.2064079496
 30
0.0
 10
15.8043426151
 20
11.1968790043
 30
0.0
 10
15.820040819
 20
11.1906711786
 30
0.0
 10
15.8317477921
 20
11.1867388374
 30
0.0
 10
15.843487689
 20
11.183490848
 30
0.0
 10
15.8552545094
 20
11.1809288801
 30
0.0
 10
15.8670419283
 20
11.1790546424
 30
0.0
 10
15.8788435901
 20
11.1778691791
 30
0.0
 10
15.8906530974
 20
11.1773733168
 30
0.0
 10
15.9024640126
 20
11.1775673032
 30
0.0
 10
15.9142698996
 20
11.1784510553
 30
0.0
 10
15.9260643322
 20
11.1800240053
 30
0.0
 10
15.9378409561
 20
11.1822851743
 30
0.0
 10
15.9495933703
 20
11.1852331737
 30
0.0
 10
15.9613156221
 20
11.1888663415
 30
0.0
 10
15.977031724
 20
11.1946708275
 30
0.0
 10
15.9966178272
 20
11.2036976464
 30
0.0
 10
16.0196760873
 20
11.2171347727
 30
0.0
 10
16.0424546076
 20
11.2332385428
 30
0.0
 10
16.0649081709
 20
11.2519711683
 30
0.0
 10
16.0869950315
 20
11.2732920119
 30
0.0
 10
16.1086730272
 20
11.297156218
 30
0.0
 10
16.1299004518
 20
11.3235146218
 30
0.0
 10
16.1506358308
 20
11.3523134024
 30
0.0
 10
16.170838158
 20
11.3834939609
 30
0.0
 10
16.1904670562
 20
11.4169928715
 30
0.0
 10
16.2094829681
 20
11.4527419187
 30
0.0
 10
16.2278473232
 20
11.490668187
 30
0.0
 10
16.2455226902
 20
11.5306941891
 30
0.0
 10
16.262472909
 20
11.5727380183
 30
0.0
 10
16.2786632074
 20
11.6167135205
 30
0.0
 10
16.2940603039
 20
11.6625304785
 30
0.0
 10
16.3086324995
 20
11.7100948065
 30
0.0
 10
16.3223497594
 20
11.7593087533
 30
0.0
 10
16.3351837875
 20
11.8100711127
 30
0.0
 10
16.3471080932
 20
11.8622774392
 30
0.0
 10
16.358098052
 20
11.9158202711
 30
0.0
 10
16.3681309618
 20
11.9705893578
 30
0.0
 10
16.3771860916
 20
12.0264718921
 30
0.0
 10
16.3852447283
 20
12.0833527476
 30
0.0
 10
16.3922902156
 20
12.1411147195
 30
0.0
 10
16.3983079902
 20
12.1996387707
 30
0.0
 10
16.4032856122
 20
12.2588042793
 30
0.0
 10
16.4072127913
 20
12.3184892907
 30
0.0
 10
16.4100814086
 20
12.3785707709
 30
0.0
 10
16.4118855332
 20
12.4389248626
 30
0.0
 10
16.4126214354
 20
12.4994271422
 30
0.0
 10
16.4122875936
 20
12.5599528786
 30
0.0
 10
16.4108846979
 20
12.6203772917
 30
0.0
 10
16.4084156486
 20
12.6805758119
 30
0.0
 10
16.4048855503
 20
12.7404243388
 30
0.0
 10
16.400301701
 20
12.7997994985
 30
0.0
 10
16.3946735768
 20
12.8585789005
 30
0.0
 10
16.3880128126
 20
12.9166413924
 30
0.0
 10
16.3803331773
 20
12.9738673121
 30
0.0
 10
16.3716505447
 20
13.0301387375
 30
0.0
 10
16.3619828597
 20
13.0853397327
 30
0.0
 10
16.3513500995
 20
13.139356591
 30
0.0
 10
16.3397742308
 20
13.1920780732
 30
0.0
 10
16.3272791618
 20
13.2433956419
 30
0.0
 10
16.3138906872
 20
13.2932036922
 30
0.0
 10
16.2996364352
 20
13.3413997716
 30
0.0
 10
16.2845457851
 20
13.3878848158
 30
0.0
 10
16.268649851
 20
13.4325632935
 30
0.0
 10
16.251981226
 20
13.4753436824
 30
0.0
 10
16.234574498
 20
13.5161375782
 30
0.0
 10
16.2222707112
 20
13.5424473825
 30
0.0
 10
16.2159925782
 20
13.5552408724
 30
0.0
  0
SPLINE
  5
2C4
100
AcDbEntity
  8
LAYER_CHAMFER_FEAT
100
AcDbSpline
 62
7
  6
CONTINUOUS
 70
0
 71
3
 72
61
 73
57
 74
0
 42
0.0000001
 43
0.0000001
 44
0.0000000001
 40
0.0
 40
0.0
 40
0.0
 40
0.0
 40
0.0077261468
 40
0.0155162353
 40
0.0234322844
 40
0.0315326929
 40
0.0398709327
 40
0.0484947025
 40
0.0574455266
 40
0.066758718
 40
0.0764636042
 40
0.0865839158
 40
0.0971382573
 40
0.1081406023
 40
0.1196007758
 40
0.131524902
 40
0.143915809
 40
0.1567733873
 40
0.1700949042
 40
0.1838752769
 40
0.1981073115
 40
0.2127819096
 40
0.2278882492
 40
0.2434139436
 40
0.2593451817
 40
0.2756668537
 40
0.2923626624
 40
0.3094152252
 40
0.3268061668
 40
0.3445162045
 40
0.3625252274
 40
0.3808123714
 40
0.4181328754
 40
0.4562997547
 40
0.4951257414
 40
0.534417624
 40
0.5739780703
 40
0.6136074008
 40
0.6531053368
 40
0.6922727427
 40
0.7309133812
 40
0.7688356988
 40
0.7874700332
 40
0.8058560447
 40
0.8239719468
 40
0.8417966103
 40
0.8593096332
 40
0.8764914128
 40
0.8933232238
 40
0.9097873001
 40
0.9258669278
 40
0.9415465328
 40
0.9568118213
 40
0.9716498071
 40
0.9860491736
 40
1.0
 40
1.0
 40
1.0
 40
1.0
 10
15.8748162604
 20
11.1974716641
 30
0.0
 10
15.8814042398
 20
11.1974716537
 30
0.0
 10
15.8946439666
 20
11.1981305981
 30
0.0
 10
15.9144345783
 20
11.2010893012
 30
0.0
 10
15.9341595319
 20
11.2060127712
 30
0.0
 10
15.9537842813
 20
11.2128901471
 30
0.0
 10
15.9732791902
 20
11.2217073754
 30
0.0
 10
15.9926151933
 20
11.2324478087
 30
0.0
 10
16.0117646176
 20
11.2450925941
 30
0.0
 10
16.030700497
 20
11.2596208233
 30
0.0
 10
16.0493963719
 20
11.2760095189
 30
0.0
 10
16.0678260794
 20
11.2942335355
 30
0.0
 10
16.0859636765
 20
11.3142654414
 30
0.0
 10
16.103783423
 20
11.3360754184
 30
0.0
 10
16.1212598161
 20
11.3596311921
 30
0.0
 10
16.138367648
 20
11.3848979947
 30
0.0
 10
16.1550820736
 20
11.4118385593
 30
0.0
 10
16.1713786807
 20
11.4404131371
 30
0.0
 10
16.1872335565
 20
11.4705795334
 30
0.0
 10
16.2026233493
 20
11.5022931578
 30
0.0
 10
16.217525326
 20
11.5355070841
 30
0.0
 10
16.2319174224
 20
11.5701721181
 30
0.0
 10
16.2457782907
 20
11.6062368706
 30
0.0
 10
16.2590873435
 20
11.6436478359
 30
0.0
 10
16.2718247907
 20
11.6823494743
 30
0.0
 10
16.2839716761
 20
11.7222842984
 30
0.0
 10
16.2955099109
 20
11.7633929619
 30
0.0
 10
16.3064223018
 20
11.8056143475
 30
0.0
 10
16.3166925894
 20
11.8488856746
 30
0.0
 10
16.3263054369
 20
11.8931425388
 30
0.0
 10
16.3352465972
 20
11.9383192259
 30
0.0
 10
16.3463291162
 20
12.0001079043
 30
0.0
 10
16.3583784825
 20
12.0791721444
 30
0.0
 10
16.3698766288
 20
12.1759816005
 30
0.0
 10
16.3784407467
 20
12.2747818306
 30
0.0
 10
16.3840195412
 20
12.3749848832
 30
0.0
 10
16.3865795694
 20
12.4759954166
 30
0.0
 10
16.3861054869
 20
12.5772128944
 30
0.0
 10
16.3826001289
 20
12.6780355307
 30
0.0
 10
16.376084518
 20
12.7778642002
 30
0.0
 10
16.3665976749
 20
12.8761047682
 30
0.0
 10
16.3562038295
 20
12.9566261824
 30
0.0
 10
16.3464221485
 20
13.0197783136
 30
0.0
 10
16.3384264819
 20
13.0661098516
 30
0.0
 10
16.3297410377
 20
13.1116143698
 30
0.0
 10
16.3203786933
 20
13.1562242797
 30
0.0
 10
16.3103534338
 20
13.1998731647
 30
0.0
 10
16.2996802035
 20
13.242496098
 30
0.0
 10
16.288374915
 20
13.2840296829
 30
0.0
 10
16.2764544162
 20
13.324412168
 30
0.0
 10
16.2639364622
 20
13.3635835245
 30
0.0
 10
16.2508396872
 20
13.4014855813
 30
0.0
 10
16.2371835831
 20
13.438061987
 30
0.0
 10
16.2229883883
 20
13.4732586628
 30
0.0
 10
16.2082753714
 20
13.5070228772
 30
0.0
 10
16.1979705861
 20
13.5288952073
 30
0.0
 10
16.1927300318
 20
13.5395743342
 30
0.0
  0
SPLINE
  5
2C5
100
AcDbEntity
  8
LAYER_FEATURE
100
AcDbSpline
 62
7
  6
CONTINUOUS
 70
0
 71
3
 72
35
 73
31
 74
0
 42
0.0000001
 43
0.0000001
 44
0.0000000001
 40
0.0
 40
0.0
 40
0.0
 40
0.0
 40
0.0217685282
 40
0.0436233082
 40
0.0656493387
 40
0.0879291787
 40
0.1105418927
 40
0.133562207
 40
0.1570598278
 40
0.1810989867
 40
0.2310133449
 40
0.2570050969
 40
0.283737968
 40
0.3112479583
 40
0.3395659811
 40
0.3687182122
 40
0.3987263465
 40
0.4296079415
 40
0.4613767603
 40
0.4940429936
 40
0.5276135684
 40
0.5620924297
 40
0.5974807007
 40
0.633776937
 40
0.6709773447
 40
0.7090758876
 40
0.7480644746
 40
0.8286662015
 40
0.9126862419
 40
1.0
 40
1.0
 40
1.0
 40
1.0
 10
15.0980548221
 20
14.1299716571
 30
0.0
 10
15.092448681
 20
14.1299716639
 30
0.0
 10
15.0812104124
 20
14.1295861983
 30
0.0
 10
15.0643800516
 20
14.1278534128
 30
0.0
 10
15.0475745821
 20
14.1249671658
 30
0.0
 10
15.0308077124
 20
14.1209300614
 30
0.0
 10
15.0140915494
 20
14.1157456611
 30
0.0
 10
14.9974385324
 20
14.1094184254
 30
0.0
 10
14.9808600543
 20
14.1019532397
 30
0.0
 10
14.958595392
 20
14.0903473381
 30
0.0
 10
14.9367906282
 20
14.0765653438
 30
0.0
 10
14.9155304058
 20
14.0608477444
 30
0.0
 10
14.8994993199
 20
14.0477979908
 30
0.0
 10
14.8836122609
 20
14.0336575829
 30
0.0
 10
14.8678790511
 20
14.0184360057
 30
0.0
 10
14.8523109161
 20
14.0021443108
 30
0.0
 10
14.8369185475
 20
13.984794056
 30
0.0
 10
14.821712652
 20
13.9663975856
 30
0.0
 10
14.8067038544
 20
13.946967903
 30
0.0
 10
14.7919026278
 20
13.926518776
 30
0.0
 10
14.7773193266
 20
13.9050646781
 30
0.0
 10
14.762964221
 20
13.8826207614
 30
0.0
 10
14.74884739
 20
13.8592029166
 30
0.0
 10
14.734978762
 20
13.8348277105
 30
0.0
 10
14.7213681821
 20
13.8095123966
 30
0.0
 10
14.7080251357
 20
13.7832748256
 30
0.0
 10
14.6904090013
 20
13.7466813425
 30
0.0
 10
14.6691597293
 20
13.6987261248
 30
0.0
 10
14.6451508567
 20
13.6384353054
 30
0.0
 10
14.6302769399
 20
13.5968828075
 30
0.0
 10
14.6230398925
 20
13.5755929509
 30
0.0
  0
SPLINE
  5
2C6
100
AcDbEntity
  8
LAYER_CUT_FEAT
100
AcDbSpline
 62
7
  6
CONTINUOUS
 70
0
 71
3
 72
22
 73
18
 74
0
 42
0.0000001
 43
0.0000001
 44
0.0000000001
 40
0.0
 40
0.0
 40
0.0
 40
0.0
 40
0.1751711092
 40
0.2578880864
 40
0.3370556007
 40
0.4124869072
 40
0.4840358254
 40
0.5515999403
 40
0.6151296344
 40
0.6746385054
 40
0.7302164424
 40
0.7820458102
 40
0.8304202025
 40
0.8757635244
 40
0.9186443716
 40
0.9597772232
 40
1.0
 40
1.0
 40
1.0
 40
1.0
 10
15.6456536692
 20
13.2177408262
 30
0.0
 10
15.6447860884
 20
13.2214339327
 30
0.0
 10
15.6433397294
 20
13.2268346485
 30
0.0
 10
15.6410556765
 20
13.2337691475
 30
0.0
 10
15.6392515561
 20
13.2385832917
 30
0.0
 10
15.6373311428
 20
13.2430906047
 30
0.0
 10
15.6353021826
 20
13.2472728262
 30
0.0
 10
15.6331728566
 20
13.2511130242
 30
0.0
 10
15.6309516051
 20
13.2545957468
 30
0.0
 10
15.6286470434
 20
13.2577070259
 30
0.0
 10
15.6262678293
 20
13.2604343596
 30
0.0
 10
15.6238225597
 20
13.2627665934
 30
0.0
 10
15.6213197001
 20
13.2646936824
 30
0.0
 10
15.6187679033
 20
13.2662063305
 30
0.0
 10
15.6161761383
 20
13.2672956722
 30
0.0
 10
15.6135562776
 20
13.2679535186
 30
0.0
 10
15.6117910657
 20
13.2681007849
 30
0.0
 10
15.6109199695
 20
13.2681007885
 30
0.0
  0
SPLINE
  5
2C7
100
AcDbEntity
  8
LAYER_FEATURE
100
AcDbSpline
 62
7
  6
CONTINUOUS
 70
0
 71
3
 72
79
 73
75
 74
0
 42
0.0000001
 43
0.0000001
 44
0.0000000001
 40
0.0
 40
0.0
 40
0.0
 40
0.0
 40
0.017311513
 40
0.0340659347
 40
0.0502394981
 40
0.0658114448
 40
0.0807647673
 40
0.0950865818
 40
0.1087687329
 40
0.1218084797
 40
0.1342093207
 40
0.1459819739
 40
0.1571455233
 40
0.1677287087
 40
0.1777713084
 40
0.1873254791
 40
0.1919408919
 40
0.1964599764
 40
0.2008930889
 40
0.2052514102
 40
0.2095468937
 40
0.2137921734
 40
0.2180004612
 40
0.2221854086
 40
0.226360952
 40
0.230541145
 40
0.2347399837
 40
0.238971234
 40
0.2432482716
 40
0.2475839427
 40
0.2519904385
 40
0.256479211
 40
0.2657422617
 40
0.2754513736
 40
0.2856676065
 40
0.2964388871
 40
0.307801189
 40
0.3197799087
 40
0.3323912267
 40
0.3456433549
 40
0.3595376279
 40
0.3740694302
 40
0.3892289734
 40
0.4050019452
 40
0.4213700613
 40
0.4383115292
 40
0.455801443
 40
0.4738121222
 40
0.4923134106
 40
0.5112729447
 40
0.5306563932
 40
0.5504276746
 40
0.5705491581
 40
0.5909818554
 40
0.611685602
 40
0.6326192294
 40
0.6537407303
 40
0.6750074214
 40
0.696376103
 40
0.7178032152
 40
0.7392449927
 40
0.7606576184
 40
0.7819973778
 40
0.8032208131
 40
0.8242848779
 40
0.8451470945
 40
0.8657657151
 40
0.8860998845
 40
0.9061098078
 40
0.9257569249
 40
0.9450040935
 40
0.9638158067
 40
0.9821582794
 40
1.0
 40
1.0
 40
1.0
 40
1.0
 10
15.3816425126
 20
13.5309486903
 30
0.0
 10
15.3880427571
 20
13.5516598891
 30
0.0
 10
15.4012079119
 20
13.5922425819
 30
0.0
 10
15.4224230776
 20
13.6514780406
 30
0.0
 10
15.4447428629
 20
13.7079721097
 30
0.0
 10
15.4681137233
 20
13.7615891937
 30
0.0
 10
15.4924798893
 20
13.8122014176
 30
0.0
 10
15.5177834793
 20
13.8596882024
 30
0.0
 10
15.5439647394
 20
13.9039366961
 30
0.0
 10
15.5709623688
 20
13.9448419441
 30
0.0
 10
15.5987138183
 20
13.9823070226
 30
0.0
 10
15.6271557758
 20
14.0162430954
 30
0.0
 10
15.6562241045
 20
14.0465690717
 30
0.0
 10
15.6858554547
 20
14.0732118151
 30
0.0
 10
15.7159825834
 20
14.0961032009
 30
0.0
 10
15.7417448055
 20
14.1121871027
 30
0.0
 10
15.7624933778
 20
14.1230305196
 30
0.0
 10
15.7779519469
 20
14.1300987788
 30
0.0
 10
15.7934756093
 20
14.136190515
 30
0.0
 10
15.8090552878
 20
14.1413017309
 30
0.0
 10
15.8246813045
 20
14.1454288785
 30
0.0
 10
15.8403439868
 20
14.1485689397
 30
0.0
 10
15.8560334547
 20
14.1507196577
 30
0.0
 10
15.8717397357
 20
14.1518794486
 30
0.0
 10
15.8874527722
 20
14.1520473709
 30
0.0
 10
15.9031624702
 20
14.1512233881
 30
0.0
 10
15.9188587552
 20
14.1494080491
 30
0.0
 10
15.9345316079
 20
14.146602738
 30
0.0
 10
15.9501711624
 20
14.1428095378
 30
0.0
 10
15.9657675311
 20
14.1380311689
 30
0.0
 10
15.9813114908
 20
14.1322708448
 30
0.0
 10
16.002169501
 20
14.1231930558
 30
0.0
 10
16.0281192779
 20
14.1092994944
 30
0.0
 10
16.0585430942
 20
14.0889524092
 30
0.0
 10
16.0885149384
 20
14.0648127764
 30
0.0
 10
16.1179667746
 20
14.0369444705
 30
0.0
 10
16.1468351793
 20
14.0054160854
 30
0.0
 10
16.1750558002
 20
13.9703036382
 30
0.0
 10
16.2025649513
 20
13.9316906588
 30
0.0
 10
16.2292994712
 20
13.8896686759
 30
0.0
 10
16.2551972007
 20
13.8443372685
 30
0.0
 10
16.2801973107
 20
13.7958040251
 30
0.0
 10
16.3042406331
 20
13.7441843764
 30
0.0
 10
16.3272699621
 20
13.6896013647
 30
0.0
 10
16.3492302742
 20
13.6321853383
 30
0.0
 10
16.3700689417
 20
13.5720736242
 30
0.0
 10
16.3897359109
 20
13.5094101819
 30
0.0
 10
16.408183874
 20
13.4443452466
 30
0.0
 10
16.4253684138
 20
13.3770349485
 30
0.0
 10
16.4412481148
 20
13.3076409119
 30
0.0
 10
16.4557846812
 20
13.2363298514
 30
0.0
 10
16.4689430358
 20
13.1632731606
 30
0.0
 10
16.4806914303
 20
13.0886464938
 30
0.0
 10
16.4910015106
 20
13.0126293293
 30
0.0
 10
16.4998483867
 20
12.9354045262
 30
0.0
 10
16.5072106936
 20
12.8571578788
 30
0.0
 10
16.5130706509
 20
12.7780776661
 30
0.0
 10
16.5174141162
 20
12.6983541935
 30
0.0
 10
16.5202306023
 20
12.6181793274
 30
0.0
 10
16.5215133064
 20
12.5377460294
 30
0.0
 10
16.5212591234
 20
12.4572478884
 30
0.0
 10
16.5194686707
 20
12.376878651
 30
0.0
 10
16.5161462771
 20
12.2968317506
 30
0.0
 10
16.5112999658
 20
12.2172998382
 30
0.0
 10
16.5049414354
 20
12.1384743156
 30
0.0
 10
16.4970860342
 20
12.0605448693
 30
0.0
 10
16.4877527367
 20
11.983699007
 30
0.0
 10
16.4769640783
 20
11.9081216008
 30
0.0
 10
16.4647461038
 20
11.8339944451
 30
0.0
 10
16.45112829
 20
11.7614957908
 30
0.0
 10
16.4361435163
 20
11.6907999647
 30
0.0
 10
16.4198278757
 20
11.6220767383
 30
0.0
 10
16.4022209329
 20
11.5554917968
 30
0.0
 10
16.3894664103
 20
11.5120068256
 30
0.0
 10
16.3828701427
 20
11.4906612955
 30
0.0
  0
SPLINE
  5
2C8
100
AcDbEntity
  8
LAYER_FEATURE
100
AcDbSpline
 62
7
  6
CONTINUOUS
 70
0
 71
3
 72
38
 73
34
 74
0
 42
0.0000001
 43
0.0000001
 44
0.0000000001
 40
0.0
 40
0.0
 40
0.0
 40
0.0
 40
0.0879640634
 40
0.1307307799
 40
0.172659289
 40
0.2137306924
 40
0.2539278598
 40
0.2932354833
 40
0.331640014
 40
0.3691299327
 40
0.4056958468
 40
0.4413306484
 40
0.4760297477
 40
0.5097912585
 40
0.5426162034
 40
0.5745087944
 40
0.6054767272
 40
0.6355314481
 40
0.6646884898
 40
0.6929678651
 40
0.7203944086
 40
0.7469981493
 40
0.7728147251
 40
0.7978857457
 40
0.8222590848
 40
0.8459891353
 40
0.8691369599
 40
0.8917702319
 40
0.9139630028
 40
0.9357952488
 40
0.9573521242
 40
0.9787229534
 40
1.0
 40
1.0
 40
1.0
 40
1.0
 10
15.3765149642
 20
13.5856722297
 30
0.0
 10
15.3842245362
 20
13.6106204139
 30
0.0
 10
15.3962759495
 20
13.6475196997
 30
0.0
 10
15.4134735171
 20
13.6958046304
 30
0.0
 10
15.4266387201
 20
13.7307427834
 30
0.0
 10
15.4401810551
 20
13.7647166397
 30
0.0
 10
15.4540899209
 20
13.7976995351
 30
0.0
 10
15.4683543102
 20
13.8296654008
 30
0.0
 10
15.4829630104
 20
13.8605890484
 30
0.0
 10
15.4979044908
 20
13.8904461089
 30
0.0
 10
15.5131669933
 20
13.9192130635
 30
0.0
 10
15.5287385434
 20
13.9468672451
 30
0.0
 10
15.5446069098
 20
13.9733868901
 30
0.0
 10
15.5607596486
 20
13.9987511394
 30
0.0
 10
15.5771841418
 20
14.0229400286
 30
0.0
 10
15.5938675832
 20
14.0459345223
 30
0.0
 10
15.61079697
 20
14.067716545
 30
0.0
 10
15.6279591669
 20
14.0882689466
 30
0.0
 10
15.645340918
 20
14.1075755038
 30
0.0
 10
15.6629288022
 20
14.1256209751
 30
0.0
 10
15.6807092927
 20
14.1423910562
 30
0.0
 10
15.698668776
 20
14.1578723461
 30
0.0
 10
15.7167935108
 20
14.1720523846
 30
0.0
 10
15.7350696217
 20
14.1849196475
 30
0.0
 10
15.7534831189
 20
14.1964634787
 30
0.0
 10
15.7720198506
 20
14.2066740968
 30
0.0
 10
15.7906654279
 20
14.2155426782
 30
0.0
 10
15.8094052144
 20
14.2230613041
 30
0.0
 10
15.828224317
 20
14.2292229874
 30
0.0
 10
15.8471073625
 20
14.2340218395
 30
0.0
 10
15.866039088
 20
14.2374531307
 30
0.0
 10
15.8850022662
 20
14.2395133464
 30
0.0
 10
15.8976670731
 20
14.2399716446
 30
0.0
 10
15.9039831919
 20
14.2399716498
 30
0.0
  0
SPLINE
  5
2C9
100
AcDbEntity
  8
02___PRT_ALL_AXES
100
AcDbSpline
 62
7
  6
CONTINUOUS
 70
0
 71
3
 72
15
 73
11
 74
0
 42
0.0000001
 43
0.0000001
 44
0.0000000001
 40
0.0
 40
0.0
 40
0.0
 40
0.0
 40
0.1348101753
 40
0.2656296579
 40
0.392978085
 40
0.5174479551
 40
0.6396811816
 40
0.760366158
 40
0.8802254653
 40
1.0
 40
1.0
 40
1.0
 40
1.0
 10
15.7278319498
 20
11.8223317413
 30
0.0
 10
15.724897637
 20
11.8205088466
 30
0.0
 10
15.7189980134
 20
11.8171019181
 30
0.0
 10
15.7099407249
 20
11.812682121
 30
0.0
 10
15.7008269837
 20
11.8090405096
 30
0.0
 10
15.6916676452
 20
11.8061823631
 30
0.0
 10
15.6824731841
 20
11.8041117614
 30
0.0
 10
15.673254418
 20
11.8028319074
 30
0.0
 10
15.6640235238
 20
11.8023447728
 30
0.0
 10
15.6578775397
 20
11.8025488614
 30
0.0
 10
15.654817197
 20
11.8027813002
 30
0.0
  0
SPLINE
  5
2CA
100
AcDbEntity
  8
LAYER_FEATURE
100
AcDbSpline
 62
7
  6
CONTINUOUS
 70
0
 71
3
 72
58
 73
54
 74
0
 42
0.0000001
 43
0.0000001
 44
0.0000000001
 40
0.0
 40
0.0
 40
0.0
 40
0.0
 40
0.0163583
 40
0.033051471
 40
0.0500648574
 40
0.0673835114
 40
0.0849915535
 40
0.1028725909
 40
0.1393839941
 40
0.1767770752
 40
0.2149030243
 40
0.2536074773
 40
0.2927317876
 40
0.3321142519
 40
0.3715913088
 40
0.4109987214
 40
0.4501727498
 40
0.4889513312
 40
0.5271752767
 40
0.5646894904
 40
0.601344234
 40
0.6193049122
 40
0.6369977078
 40
0.6544060228
 40
0.6715138624
 40
0.6883058876
 40
0.7047674716
 40
0.7208847596
 40
0.736644735
 40
0.7520352903
 40
0.7670453039
 40
0.7816647265
 40
0.7958846763
 40
0.8096975461
 40
0.823097124
 40
0.8360787296
 40
0.8486393693
 40
0.860777911
 40
0.8724952819
 40
0.8837946938
 40
0.8946818953
 40
0.9051654528
 40
0.9152570574
 40
0.9249718519
 40
0.9343287667
 40
0.9433508406
 40
0.952065501
 40
0.960504758
 40
0.9687052606
 40
0.9767081569
 40
0.9845587033
 40
0.9923055923
 40
1.0
 40
1.0
 40
1.0
 40
1.0
 10
14.5488597301
 20
13.5856722297
 30
0.0
 10
14.543921086
 20
13.5696907713
 30
0.0
 10
14.5342732883
 20
13.537297628
 30
0.0
 10
14.5206162703
 20
13.4879561652
 30
0.0
 10
14.507639864
 20
13.4374167901
 30
0.0
 10
14.495360078
 20
13.3857418663
 30
0.0
 10
14.4837918717
 20
13.3329943335
 30
0.0
 10
14.4692348932
 20
13.260820923
 30
0.0
 10
14.4529540226
 20
13.1683709476
 30
0.0
 10
14.4365928825
 20
13.0549717032
 30
0.0
 10
14.4233551188
 20
12.9389085014
 30
0.0
 10
14.4133059513
 20
12.8207500372
 30
0.0
 10
14.4064949086
 20
12.7010742698
 30
0.0
 10
14.4029555632
 20
12.5804670529
 30
0.0
 10
14.4027053476
 20
12.4595187896
 30
0.0
 10
14.4057454944
 20
12.3388216113
 30
0.0
 10
14.4120610297
 20
12.2189663694
 30
0.0
 10
14.4216208278
 20
12.1005398108
 30
0.0
 10
14.4343777679
 20
11.9841212368
 30
0.0
 10
14.450268997
 20
11.8702810997
 30
0.0
 10
14.4661639619
 20
11.7774072022
 30
0.0
 10
14.4804185682
 20
11.7048527892
 30
0.0
 10
14.4917675873
 20
11.6517920171
 30
0.0
 10
14.5038325979
 20
11.5997842857
 30
0.0
 10
14.5165988853
 20
11.548893159
 30
0.0
 10
14.5300507625
 20
11.4991809963
 30
0.0
 10
14.5441717358
 20
11.4507086545
 30
0.0
 10
14.5589444903
 20
11.4035354687
 30
0.0
 10
14.5743509189
 20
11.3577191606
 30
0.0
 10
14.5903721461
 20
11.3133157701
 30
0.0
 10
14.606988558
 20
11.2703795856
 30
0.0
 10
14.6241798292
 20
11.2289630757
 30
0.0
 10
14.6419249541
 20
11.1891168241
 30
0.0
 10
14.6602022793
 20
11.150889466
 30
0.0
 10
14.6789895395
 20
11.1143276281
 30
0.0
 10
14.6982638966
 20
11.0794758713
 30
0.0
 10
14.7180019766
 20
11.046376636
 30
0.0
 10
14.7381799195
 20
11.0150701993
 30
0.0
 10
14.7587734273
 20
10.9855946387
 30
0.0
 10
14.7797578147
 20
10.9579858053
 30
0.0
 10
14.8011080611
 20
10.9322773094
 30
0.0
 10
14.8227988603
 20
10.9085005219
 30
0.0
 10
14.8448046644
 20
10.8866845953
 30
0.0
 10
14.8670997081
 20
10.8668565034
 30
0.0
 10
14.8896580059
 20
10.8490410991
 30
0.0
 10
14.9124533108
 20
10.8332611934
 30
0.0
 10
14.9354590174
 20
10.819537622
 30
0.0
 10
14.9586479711
 20
10.8078892743
 30
0.0
 10
14.9819923319
 20
10.7983330405
 30
0.0
 10
15.0054630226
 20
10.7908836318
 30
0.0
 10
15.029030675
 20
10.7855532581
 30
0.0
 10
15.0526614923
 20
10.7823511542
 30
0.0
 10
15.0684600599
 20
10.7816383436
 30
0.0
 10
15.0763279579
 20
10.7816383359
 30
0.0
  0
SPLINE
  5
2CB
100
AcDbEntity
  8
LAYER_FEATURE
100
AcDbSpline
 62
7
  6
CONTINUOUS
 70
0
 71
3
 72
39
 73
35
 74
0
 42
0.0000001
 43
0.0000001
 44
0.0000000001
 40
0.0
 40
0.0
 40
0.0
 40
0.0
 40
0.0464765002
 40
0.0919612686
 40
0.1364220621
 40
0.1798311069
 40
0.2221621991
 40
0.2633924529
 40
0.3035020619
 40
0.3424746919
 40
0.380297788
 40
0.4169629231
 40
0.4524662084
 40
0.4868087542
 40
0.5199971905
 40
0.5520442318
 40
0.5829693143
 40
0.6127992949
 40
0.6415692037
 40
0.6693230372
 40
0.6961145335
 40
0.7220078976
 40
0.7470784017
 40
0.7714127607
 40
0.795109167
 40
0.8182768503
 40
0.8410350571
 40
0.8635113991
 40
0.8858395821
 40
0.9081566335
 40
0.9305998334
 40
0.9533036232
 40
0.9763967693
 40
1.0
 40
1.0
 40
1.0
 40
1.0
 10
14.5974410071
 20
13.5309486903
 30
0.0
 10
14.6017962962
 20
13.5450424111
 30
0.0
 10
14.6106797116
 20
13.572847913
 30
0.0
 10
14.624682673
 20
13.6138236222
 30
0.0
 10
14.6392078279
 20
13.6535825721
 30
0.0
 10
14.6542389522
 20
13.6920806077
 30
0.0
 10
14.6697596187
 20
13.7292755593
 30
0.0
 10
14.6857526982
 20
13.7651264296
 30
0.0
 10
14.7022006266
 20
13.7995938242
 30
0.0
 10
14.7190853426
 20
13.832639872
 30
0.0
 10
14.7363883439
 20
13.8642282896
 30
0.0
 10
14.7540907128
 20
13.8943244136
 30
0.0
 10
14.7721731469
 20
13.922895234
 30
0.0
 10
14.7906159923
 20
13.9499094295
 30
0.0
 10
14.8093992678
 20
13.975337399
 30
0.0
 10
14.8285027163
 20
13.9991512663
 30
0.0
 10
14.8479058371
 20
14.0213248826
 30
0.0
 10
14.867587918
 20
14.0418338216
 30
0.0
 10
14.8875280651
 20
14.0606553589
 30
0.0
 10
14.9077051989
 20
14.0777684587
 30
0.0
 10
14.9280980566
 20
14.0931537204
 30
0.0
 10
14.9486851522
 20
14.1067933244
 30
0.0
 10
14.9694446939
 20
14.1186709973
 30
0.0
 10
14.9903544675
 20
14.1287720038
 30
0.0
 10
15.0113916786
 20
14.137083216
 30
0.0
 10
15.0325328009
 20
14.1435932589
 30
0.0
 10
15.0537534769
 20
14.1482927204
 30
0.0
 10
15.0750285102
 20
14.1511744557
 30
0.0
 10
15.0963319927
 20
14.1522339096
 30
0.0
 10
15.1176376311
 20
14.1514693495
 30
0.0
 10
15.138918972
 20
14.1488820647
 30
0.0
 10
15.160150405
 20
14.1444760135
 30
0.0
 10
15.1813051512
 20
14.1382585286
 30
0.0
 10
15.1951711625
 20
14.1329765165
 30
0.0
 10
15.2020693154
 20
14.1300545118
 30
0.0
  0
SPLINE
  5
2CC
100
AcDbEntity
  8
LAYER_FEATURE
100
AcDbSpline
 62
7
  6
CONTINUOUS
 70
0
 71
3
 72
62
 73
58
 74
0
 42
0.0000001
 43
0.0000001
 44
0.0000000001
 40
0.0
 40
0.0
 40
0.0
 40
0.0
 40
0.0169423531
 40
0.0342553404
 40
0.0519215608
 40
0.0699229449
 40
0.0882404256
 40
0.1068542287
 40
0.125743852
 40
0.1448881618
 40
0.1838522049
 40
0.2235680974
 40
0.2638497193
 40
0.3045061671
 40
0.3453434165
 40
0.3861659512
 40
0.4267783766
 40
0.4669870333
 40
0.5066016296
 40
0.5261286457
 40
0.5454381849
 40
0.5645081648
 40
0.5833170393
 40
0.6018438583
 40
0.6200683307
 40
0.6379708895
 40
0.6555327611
 40
0.6727360396
 40
0.6895637658
 40
0.7060000134
 40
0.7220299825
 40
0.7376401036
 40
0.7528181521
 40
0.7675533772
 40
0.7818366463
 40
0.7956606098
 40
0.8090198882
 40
0.8219112869
 40
0.8343340419
 40
0.8462901007
 40
0.8577844433
 40
0.8688254432
 40
0.8794252702
 40
0.8896003271
 40
0.8993717068
 40
0.9087656426
 40
0.9178139099
 40
0.9265541149
 40
0.9350297922
 40
0.9432902167
 40
0.9513898496
 40
0.9593873665
 40
0.9673442856
 40
0.9753232939
 40
0.9833864396
 40
0.9915933988
 40
1.0
 40
1.0
 40
1.0
 40
1.0
 10
14.5974410071
 20
13.5309486903
 30
0.0
 10
14.5924080123
 20
13.5146619132
 30
0.0
 10
14.5825938729
 20
13.481619158
 30
0.0
 10
14.5687634933
 20
13.4312382528
 30
0.0
 10
14.5556792397
 20
13.3795584955
 30
0.0
 10
14.5433596781
 20
13.3266531455
 30
0.0
 10
14.5318221888
 20
13.2725966085
 30
0.0
 10
14.5210831011
 20
13.2174652124
 30
0.0
 10
14.5111575045
 20
13.16133653
 30
0.0
 10
14.4989559391
 20
13.0848281146
 30
0.0
 10
14.48586676
 20
12.9872567027
 30
0.0
 10
14.4736888131
 20
12.868164993
 30
0.0
 10
14.4650186359
 20
12.7470594255
 30
0.0
 10
14.4599054208
 20
12.6246230627
 30
0.0
 10
14.458378204
 20
12.5015453702
 30
0.0
 10
14.4604456568
 20
12.3785199144
 30
0.0
 10
14.4660960304
 20
12.2562395656
 30
0.0
 10
14.475297282
 20
12.1353940634
 30
0.0
 10
14.4859305203
 20
12.0359811944
 30
0.0
 10
14.4961961229
 20
11.957714361
 30
0.0
 10
14.5047076821
 20
11.9000735004
 30
0.0
 10
14.514055891
 20
11.8432946064
 30
0.0
 10
14.5242276121
 20
11.787457615
 30
0.0
 10
14.5352084467
 20
11.7326413235
 30
0.0
 10
14.5469828803
 20
11.6789230255
 30
0.0
 10
14.5595342732
 20
11.6263784659
 30
0.0
 10
14.5728448933
 20
11.5750817153
 30
0.0
 10
14.5868959411
 20
11.5251050678
 30
0.0
 10
14.6016675785
 20
11.4765189351
 30
0.0
 10
14.61713896
 20
11.4293917454
 30
0.0
 10
14.6332882659
 20
11.3837898435
 30
0.0
 10
14.6500927381
 20
11.3397773943
 30
0.0
 10
14.6675287178
 20
11.2974162885
 30
0.0
 10
14.6855716884
 20
11.256766053
 30
0.0
 10
14.704196321
 20
11.217883765
 30
0.0
 10
14.7233765235
 20
11.180823971
 30
0.0
 10
14.7430854958
 20
11.1456386113
 30
0.0
 10
14.7632957887
 20
11.1123769523
 30
0.0
 10
14.7839793689
 20
11.0810855281
 30
0.0
 10
14.8051076897
 20
11.0518080965
 30
0.0
 10
14.8266517644
 20
11.024585611
 30
0.0
 10
14.8485822402
 20
10.9994562168
 30
0.0
 10
14.8708694652
 20
10.9764552746
 30
0.0
 10
14.8934835364
 20
10.9556154188
 30
0.0
 10
14.9163943096
 20
10.9369666475
 30
0.0
 10
14.9395713467
 20
10.920536439
 30
0.0
 10
14.962983775
 20
10.9063498669
 30
0.0
 10
14.9866000379
 20
10.8944296631
 30
0.0
 10
15.0103875491
 20
10.8847961539
 30
0.0
 10
15.0343123146
 20
10.8774669906
 30
0.0
 10
15.0583386563
 20
10.8724566344
 30
0.0
 10
15.0824291778
 20
10.8697756372
 30
0.0
 10
15.1065451953
 20
10.8694299339
 30
0.0
 10
15.1306472462
 20
10.8714202447
 30
0.0
 10
15.1546968886
 20
10.875742359
 30
0.0
 10
15.1786541947
 20
10.8823861732
 30
0.0
 10
15.1943250992
 20
10.8882736737
 30
0.0
 10
15.2021130406
 20
10.8915739993
 30
0.0
  0
SPLINE
  5
2CD
100
AcDbEntity
  8
LAYER_FEATURE
100
AcDbSpline
 62
7
  6
CONTINUOUS
 70
0
 71
3
 72
15
 73
11
 74
0
 42
0.0000001
 43
0.0000001
 44
0.0000000001
 40
0.0
 40
0.0
 40
0.0
 40
0.0
 40
0.1186688907
 40
0.2438307562
 40
0.3732470495
 40
0.5045228559
 40
0.6352090542
 40
0.7628755028
 40
0.8851854963
 40
1.0
 40
1.0
 40
1.0
 40
1.0
 10
14.5796008449
 20
13.4323228195
 30
0.0
 10
14.5794708813
 20
13.4317888358
 30
0.0
 10
14.5792464867
 20
13.4306809884
 30
0.0
 10
14.5790159292
 20
13.4289668076
 30
0.0
 10
14.5788856534
 20
13.4271835515
 30
0.0
 10
14.5788586343
 20
13.4253702315
 30
0.0
 10
14.5789354518
 20
13.4235664375
 30
0.0
 10
14.5791144074
 20
13.4218115256
 30
0.0
 10
14.579391428
 20
13.4201438575
 30
0.0
 10
14.5796468559
 20
13.4190745272
 30
0.0
 10
14.5797920709
 20
13.4185630192
 30
0.0
  0
SPLINE
  5
2CE
100
AcDbEntity
  8
LAYER_FEATURE
100
AcDbSpline
 62
7
  6
CONTINUOUS
 70
0
 71
3
 72
13
 73
9
 74
0
 42
0.0000001
 43
0.0000001
 44
0.0000000001
 40
0.0
 40
0.0
 40
0.0
 40
0.0
 40
0.262020359
 40
0.5207457136
 40
0.6466172418
 40
0.768984951
 40
0.8870317205
 40
1.0
 40
1.0
 40
1.0
 40
1.0
 10
14.5931492469
 20
13.3447371237
 30
0.0
 10
14.5932980103
 20
13.3484876122
 30
0.0
 10
14.5933268432
 20
13.3559543639
 30
0.0
 10
14.5927074193
 20
13.3652050423
 30
0.0
 10
14.5918120889
 20
13.3724134956
 30
0.0
 10
14.5909596058
 20
13.377592365
 30
0.0
 10
14.589927484
 20
13.3825497564
 30
0.0
 10
14.5891055854
 20
13.385756924
 30
0.0
 10
14.5886636306
 20
13.3873136738
 30
0.0
  0
SPLINE
  5
2CF
100
AcDbEntity
  8
LAYER_FEATURE
100
AcDbSpline
 62
7
  6
CONTINUOUS
 70
0
 71
3
 72
15
 73
11
 74
0
 42
0.0000001
 43
0.0000001
 44
0.0000000001
 40
0.0
 40
0.0
 40
0.0
 40
0.0
 40
0.1248185446
 40
0.2544898325
 40
0.3866402624
 40
0.5188009064
 40
0.6485092633
 40
0.7733826885
 40
0.8911974111
 40
1.0
 40
1.0
 40
1.0
 40
1.0
 10
14.5426816569
 20
13.2774640667
 30
0.0
 10
14.5425766261
 20
13.2769005454
 30
0.0
 10
14.5424026533
 20
13.2757438318
 30
0.0
 10
14.5422474901
 20
13.2739739975
 30
0.0
 10
14.5421950388
 20
13.27216438
 30
0.0
 10
14.5422465185
 20
13.2703545864
 30
0.0
 10
14.5424007435
 20
13.2685841362
 30
0.0
 10
14.5426542826
 20
13.2668915781
 30
0.0
 10
14.5430013824
 20
13.2653138305
 30
0.0
 10
14.543303579
 20
13.2643163343
 30
0.0
 10
14.5434716218
 20
13.2638457659
 30
0.0
  0
SPLINE
  5
2D0
100
AcDbEntity
  8
LAYER_FEATURE
100
AcDbSpline
 62
7
  6
CONTINUOUS
 70
0
 71
3
 72
14
 73
10
 74
0
 42
0.0000001
 43
0.0000001
 44
0.0000000001
 40
0.0
 40
0.0
 40
0.0
 40
0.0
 40
0.2689543383
 40
0.4009088372
 40
0.5299352314
 40
0.6551532751
 40
0.7757332104
 40
0.8909100854
 40
1.0
 40
1.0
 40
1.0
 40
1.0
 10
14.5599636951
 20
13.1943244902
 30
0.0
 10
14.5599481341
 20
13.1980614727
 30
0.0
 10
14.5597291251
 20
13.2036340302
 30
0.0
 10
14.5590353746
 20
13.2109657138
 30
0.0
 10
14.5583267953
 20
13.216286281
 30
0.0
 10
14.5574328674
 20
13.221418494
 30
0.0
 10
14.5563610248
 20
13.2263199772
 30
0.0
 10
14.5551203379
 20
13.2309498906
 30
0.0
 10
14.5541596614
 20
13.2339161631
 30
0.0
 10
14.5536499024
 20
13.235343636
 30
0.0
  0
SPLINE
  5
2D1
100
AcDbEntity
  8
LAYER_FEATURE
100
AcDbSpline
 62
7
  6
CONTINUOUS
 70
0
 71
3
 72
38
 73
34
 74
0
 42
0.0000001
 43
0.0000001
 44
0.0000000001
 40
0.0
 40
0.0
 40
0.0
 40
0.0
 40
0.0879640716
 40
0.1307307847
 40
0.1726592835
 40
0.2137306933
 40
0.2539278613
 40
0.2932354821
 40
0.331640013
 40
0.3691299341
 40
0.4056958476
 40
0.4413306462
 40
0.4760297484
 40
0.5097912612
 40
0.5426162009
 40
0.5745087936
 40
0.6054767306
 40
0.6355314471
 40
0.6646884872
 40
0.6929678677
 40
0.7203944107
 40
0.7469981459
 40
0.7728147257
 40
0.7978857495
 40
0.8222590824
 40
0.8459891342
 40
0.8691369629
 40
0.8917702321
 40
0.9139630012
 40
0.9357952498
 40
0.9573521255
 40
0.9787229532
 40
1.0
 40
1.0
 40
1.0
 40
1.0
 10
14.5488597301
 20
13.5856722297
 30
0.0
 10
14.5565693029
 20
13.6106204162
 30
0.0
 10
14.5686207172
 20
13.6475197032
 30
0.0
 10
14.5858182826
 20
13.6958046328
 30
0.0
 10
14.5989834877
 20
13.7307427828
 30
0.0
 10
14.6125258211
 20
13.7647166386
 30
0.0
 10
14.6264346853
 20
13.7976995361
 30
0.0
 10
14.6406990772
 20
13.8296654
 30
0.0
 10
14.6553077778
 20
13.8605890472
 30
0.0
 10
14.6702492554
 20
13.8904461098
 30
0.0
 10
14.6855117581
 20
13.919213064
 30
0.0
 10
14.7010833123
 20
13.9468672429
 30
0.0
 10
14.7169516754
 20
13.9733868905
 30
0.0
 10
14.7331044108
 20
13.9987511419
 30
0.0
 10
14.7495289114
 20
14.0229400255
 30
0.0
 10
14.7662123506
 20
14.0459345209
 30
0.0
 10
14.7831417315
 20
14.0677165488
 30
0.0
 10
14.8003039346
 20
14.0882689447
 30
0.0
 10
14.8176856875
 20
14.1075754997
 30
0.0
 10
14.8352735653
 20
14.1256209784
 30
0.0
 10
14.8530540558
 20
14.1423910595
 30
0.0
 10
14.8710135475
 20
14.1578723387
 30
0.0
 10
14.8891382763
 20
14.172052385
 30
0.0
 10
14.9074143822
 20
14.1849196563
 30
0.0
 10
14.9258278896
 20
14.1964634705
 30
0.0
 10
14.9443646183
 20
14.2066740921
 30
0.0
 10
14.9630101896
 20
14.2155426887
 30
0.0
 10
14.9817499813
 20
14.2230613021
 30
0.0
 10
15.0005690858
 20
14.2292229763
 30
0.0
 10
15.0194521267
 20
14.2340218459
 30
0.0
 10
15.0383838532
 20
14.237453142
 30
0.0
 10
15.0573470335
 20
14.2395133228
 30
0.0
 10
15.070011839
 20
14.2399716561
 30
0.0
 10
15.0763279579
 20
14.2399716499
 30
0.0
  0
SPLINE
  5
2D2
100
AcDbEntity
  8
LAYER_FEATURE
100
AcDbSpline
 62
7
  6
CONTINUOUS
 70
0
 71
3
 72
15
 73
11
 74
0
 42
0.0000001
 43
0.0000001
 44
0.0000000001
 40
0.0
 40
0.0
 40
0.0
 40
0.0
 40
0.1311309619
 40
0.2653835234
 40
0.4002696996
 40
0.5332659385
 40
0.6619173971
 40
0.7839145655
 40
0.8971811026
 40
1.0
 40
1.0
 40
1.0
 40
1.0
 10
14.5127466087
 20
13.1129641313
 30
0.0
 10
14.5126674092
 20
13.1123783982
 30
0.0
 10
14.5125452979
 20
13.1111875563
 30
0.0
 10
14.5124675218
 20
13.1093840955
 30
0.0
 10
14.5124935675
 20
13.1075706731
 30
0.0
 10
14.5126228857
 20
13.1057869662
 30
0.0
 10
14.5128525383
 20
13.1040718908
 30
0.0
 10
14.5131774216
 20
13.1024626481
 30
0.0
 10
14.5135901849
 20
13.1009942027
 30
0.0
 10
14.5139361851
 20
13.1000816608
 30
0.0
 10
14.5141253782
 20
13.0996585879
 30
0.0
  0
SPLINE
  5
2D3
100
AcDbEntity
  8
LAYER_FEATURE
100
AcDbSpline
 62
7
  6
CONTINUOUS
 70
0
 71
3
 72
14
 73
10
 74
0
 42
0.0000001
 43
0.0000001
 44
0.0000000001
 40
0.0
 40
0.0
 40
0.0
 40
0.0
 40
0.2762074924
 40
0.4099115034
 40
0.5394431581
 40
0.6639513042
 40
0.7826559957
 40
0.8948660305
 40
1.0
 40
1.0
 40
1.0
 40
1.0
 10
14.5335449514
 20
13.0353162024
 30
0.0
 10
14.53336811
 20
13.0389928231
 30
0.0
 10
14.5329131612
 20
13.0444432272
 30
0.0
 10
14.5319008022
 20
13.0515618363
 30
0.0
 10
14.5309656927
 20
13.056645422
 30
0.0
 10
14.5298546757
 20
13.0614886593
 30
0.0
 10
14.5285769571
 20
13.0660517019
 30
0.0
 10
14.5271433247
 20
13.0702966232
 30
0.0
 10
14.526054337
 20
13.0729831008
 30
0.0
 10
14.5254823819
 20
13.0742621043
 30
0.0
  0
SPLINE
  5
2D4
100
AcDbEntity
  8
LAYER_FEATURE
100
AcDbSpline
 62
7
  6
CONTINUOUS
 70
0
 71
3
 72
16
 73
12
 74
0
 42
0.0000001
 43
0.0000001
 44
0.0000000001
 40
0.0
 40
0.0
 40
0.0
 40
0.0
 40
0.044997096
 40
0.0910352497
 40
0.187830276
 40
0.293479302
 40
0.4100087369
 40
0.5386199553
 40
0.6798579279
 40
0.8337652009
 40
1.0
 40
1.0
 40
1.0
 40
1.0
 10
14.5127090393
 20
12.9797947074
 30
0.0
 10
14.5130772129
 20
12.9798401814
 30
0.0
 10
14.5138173556
 20
12.9799760241
 30
0.0
 10
14.5153021659
 20
12.9804250115
 30
0.0
 10
14.5171549052
 20
12.9813338154
 30
0.0
 10
14.5192762948
 20
12.9829069162
 30
0.0
 10
14.5213236663
 20
12.9849620176
 30
0.0
 10
14.5232840227
 20
12.9874809044
 30
0.0
 10
14.5251446837
 20
12.9904435768
 30
0.0
 10
14.5268917894
 20
12.9938264822
 30
0.0
 10
14.5279331922
 20
12.9962541628
 30
0.0
 10
14.5284356144
 20
12.9975292436
 30
0.0
  0
SPLINE
  5
2D5
100
AcDbEntity
  8
LAYER_FEATURE
100
AcDbSpline
 62
7
  6
CONTINUOUS
 70
0
 71
3
 72
17
 73
13
 74
0
 42
0.0000001
 43
0.0000001
 44
0.0000000001
 40
0.0
 40
0.0
 40
0.0
 40
0.0
 40
0.0370368182
 40
0.0758368365
 40
0.1172457984
 40
0.1619323094
 40
0.2627117979
 40
0.3801738953
 40
0.5142709414
 40
0.6637517095
 40
0.8265379401
 40
1.0
 40
1.0
 40
1.0
 40
1.0
 10
14.4976668538
 20
12.9779368109
 30
0.0
 10
14.4975468783
 20
12.9779219924
 30
0.0
 10
14.4973036443
 20
12.9778678259
 30
0.0
 10
14.4969490943
 20
12.9777193675
 30
0.0
 10
14.496601168
 20
12.9775040693
 30
0.0
 10
14.4961296943
 20
12.9771146614
 30
0.0
 10
14.4955713475
 20
12.9764544963
 30
0.0
 10
14.4949808627
 20
12.9754637929
 30
0.0
 10
14.4944534105
 20
12.9742628069
 30
0.0
 10
14.4940000202
 20
12.9728762847
 30
0.0
 10
14.4936302263
 20
12.9713331337
 30
0.0
 10
14.4934495704
 20
12.9702496489
 30
0.0
 10
14.4933737057
 20
12.9696885792
 30
0.0
  0
SPLINE
  5
2D6
100
AcDbEntity
  8
LAYER_FEATURE
100
AcDbSpline
 62
7
  6
CONTINUOUS
 70
0
 71
3
 72
53
 73
49
 74
0
 42
0.0000001
 43
0.0000001
 44
0.0000000001
 40
0.0
 40
0.0
 40
0.0
 40
0.0
 40
0.0395009159
 40
0.0794547152
 40
0.1197488698
 40
0.1602687945
 40
0.2008988822
 40
0.2415229863
 40
0.2820249874
 40
0.3222893658
 40
0.3622017806
 40
0.4016496438
 40
0.440522726
 40
0.4787137546
 40
0.5161190588
 40
0.5526392316
 40
0.5881798366
 40
0.62265219
 40
0.6559741838
 40
0.6880712674
 40
0.703640211
 40
0.7188789927
 40
0.733780933
 40
0.7483400592
 40
0.7625511729
 40
0.776409902
 40
0.7899127593
 40
0.8030572241
 40
0.8158418311
 40
0.8282662481
 40
0.8403313758
 40
0.8520394724
 40
0.8633942709
 40
0.8744011045
 40
0.8850670572
 40
0.8954011281
 40
0.9054143802
 40
0.9151201015
 40
0.9245339741
 40
0.9336742144
 40
0.9425616791
 40
0.9512199375
 40
0.9596752843
 40
0.9679566516
 40
0.9760954274
 40
0.9841251657
 40
0.9920811753
 40
1.0
 40
1.0
 40
1.0
 40
1.0
 10
14.4933737057
 20
12.9696885792
 30
0.0
 10
14.4898917404
 20
12.9394323
 30
0.0
 10
14.4836303463
 20
12.8784850117
 30
0.0
 10
14.4763656041
 20
12.7864345683
 30
0.0
 10
14.4711902328
 20
12.6934557864
 30
0.0
 10
14.4681218009
 20
12.5998622242
 30
0.0
 10
14.4671706743
 20
12.5059688196
 30
0.0
 10
14.4683400832
 20
12.4120917083
 30
0.0
 10
14.4716260472
 20
12.318546903
 30
0.0
 10
14.4770174905
 20
12.2256493051
 30
0.0
 10
14.4844961346
 20
12.133711604
 30
0.0
 10
14.494036735
 20
12.0430432214
 30
0.0
 10
14.5056069912
 20
11.9539492458
 30
0.0
 10
14.5191678145
 20
11.8667293925
 30
0.0
 10
14.5346733567
 20
11.7816769763
 30
0.0
 10
14.5520712239
 20
11.6990778685
 30
0.0
 10
14.5713026792
 20
11.6192096221
 30
0.0
 10
14.5923028252
 20
11.5423400819
 30
0.0
 10
14.6150008082
 20
11.4687279011
 30
0.0
 10
14.6354696061
 20
11.4097186424
 30
0.0
 10
14.6526660076
 20
11.364365945
 30
0.0
 10
14.6658076682
 20
11.3316621017
 30
0.0
 10
14.6793132181
 20
11.2999513446
 30
0.0
 10
14.6931714269
 20
11.2692602392
 30
0.0
 10
14.70737062
 20
11.2396145818
 30
0.0
 10
14.721898884
 20
11.2110392499
 30
0.0
 10
14.7367440524
 20
11.1835582327
 30
0.0
 10
14.751893714
 20
11.1571945896
 30
0.0
 10
14.7673351951
 20
11.1319704142
 30
0.0
 10
14.7830556199
 20
11.1079068472
 30
0.0
 10
14.7990419285
 20
11.0850240683
 30
0.0
 10
14.815280849
 20
11.063341249
 30
0.0
 10
14.8317589367
 20
11.0428765554
 30
0.0
 10
14.848462611
 20
11.0236471689
 30
0.0
 10
14.8653781611
 20
11.0056692759
 30
0.0
 10
14.8824917187
 20
10.988958028
 30
0.0
 10
14.8997893146
 20
10.9735275966
 30
0.0
 10
14.9172568837
 20
10.9593911995
 30
0.0
 10
14.934880221
 20
10.9465610684
 30
0.0
 10
14.9526449738
 20
10.9350484646
 30
0.0
 10
14.9705366342
 20
10.9248637347
 30
0.0
 10
14.9885404883
 20
10.9160163048
 30
0.0
 10
15.0066415138
 20
10.9085145792
 30
0.0
 10
15.0248244087
 20
10.9023659592
 30
0.0
 10
15.0430733801
 20
10.8975767835
 30
0.0
 10
15.0613727026
 20
10.8941521607
 30
0.0
 10
15.0797045774
 20
10.8920958311
 30
0.0
 10
15.0919492538
 20
10.8916383238
 30
0.0
 10
15.0980548221
 20
10.8916383264
 30
0.0
  0
SPLINE
  5
2D7
100
AcDbEntity
  8
LAYER_FEATURE
100
AcDbSpline
 62
7
  6
CONTINUOUS
 70
0
 71
3
 72
15
 73
11
 74
0
 42
0.0000001
 43
0.0000001
 44
0.0000000001
 40
0.0
 40
0.0
 40
0.0
 40
0.0
 40
0.1126201789
 40
0.2332966346
 40
0.3599532662
 40
0.490291179
 40
0.6218949065
 40
0.7523081315
 40
0.8791066464
 40
1.0
 40
1.0
 40
1.0
 40
1.0
 10
14.6230398925
 20
13.5755929509
 30
0.0
 10
14.6228861904
 20
13.5750955705
 30
0.0
 10
14.6226134232
 20
13.5740508295
 30
0.0
 10
14.6223104271
 20
13.5724135743
 30
0.0
 10
14.6221039976
 20
13.5706788797
 30
0.0
 10
14.6219988272
 20
13.5688846416
 30
0.0
 10
14.6219972501
 20
13.5670699843
 30
0.0
 10
14.6220993293
 20
13.565274534
 30
0.0
 10
14.6223027263
 20
13.5635375795
 30
0.0
 10
14.6225089669
 20
13.5624102605
 30
0.0
 10
14.6226299748
 20
13.5618646886
 30
0.0
  0
SPLINE
  5
2D8
100
AcDbEntity
  8
LAYER_FEATURE
100
AcDbSpline
 62
7
  6
CONTINUOUS
 70
0
 71
3
 72
13
 73
9
 74
0
 42
0.0000001
 43
0.0000001
 44
0.0000000001
 40
0.0
 40
0.0
 40
0.0
 40
0.0
 40
0.2553006401
 40
0.5118278956
 40
0.6383031982
 40
0.7623864849
 40
0.8832229423
 40
1.0
 40
1.0
 40
1.0
 40
1.0
 10
14.6326842793
 20
13.4846625769
 30
0.0
 10
14.6329983751
 20
13.4883791651
 30
0.0
 10
14.6333510494
 20
13.4958558685
 30
0.0
 10
14.6331339387
 20
13.5051868559
 30
0.0
 10
14.6325598481
 20
13.5125743399
 30
0.0
 10
14.6319375575
 20
13.5179658559
 30
0.0
 10
14.631127031
 20
13.5231889001
 30
0.0
 10
14.6304526758
 20
13.5265955194
 30
0.0
 10
14.6300832486
 20
13.5282611065
 30
0.0
  0
ENDSEC
  0
SECTION
  2
OBJECTS
  0
DICTIONARY
  5
C
100
AcDbDictionary
280
0
281
1
  3
ACAD_GROUP
350
D
  3
ACAD_MLINESTYLE
350
17
  3
ACAD_LAYOUT
350
1A
  3
ACAD_PLOTSETTINGS
350
19
  3
ACAD_PLOTSTYLENAME
350
E
  0
DICTIONARY
  5
D
102
{ACAD_REACTORS
330
C
102
}
100
AcDbDictionary
280
0
281
1
  0
ACDBDICTIONARYWDFLT
  5
E
102
{ACAD_REACTORS
330
C
102
}
100
AcDbDictionary
281
1
  3
Normal
350
F
100
AcDbDictionaryWithDefault
340
F
  0
DICTIONARY
  5
17
102
{ACAD_REACTORS
330
C
102
}
100
AcDbDictionary
280
0
281
1
  3
Standard
350
18
  0
DICTIONARY
  5
19
102
{ACAD_REACTORS
330
C
102
}
100
AcDbDictionary
281
1
  0
DICTIONARY
  5
1A
102
{ACAD_REACTORS
330
C
102
}
100
AcDbDictionary
281
1
  3
Model
350
2D9
  3
Layout1
350
2DA
  0
ACDBPLACEHOLDER
  5
F
102
{ACAD_REACTORS
330
E
102
}
  0
MLINESTYLE
  5
18
102
{ACAD_REACTORS
330
17
102
}
100
AcDbMlineStyle
  2
STANDARD
 70
0
  3

 62
256
 51
90.0
 52
90.0
 71
2
 49
0.5
 62
256
  6
BYLAYER
 49
-0.5
 62
256
  6
BYLAYER
  0
LAYOUT
  5
2D9
102
{ACAD_REACTORS
330
1A
102
}
100
AcDbPlotSettings
  1

  2
none_device
  4
ANSI_C_(22.00_x_17.00_Inches)
  6

 40
0.0
 41
0.0
 42
0.0
 43
0.0
 44
558.8
 45
431.8
 46
0.0
 47
0.0
 48
0.0
 49
0.0
140
0.0
141
0.0
142
1.0
143
1.0
 70
1024
 72
0
 73
0
 74
0
  7

 75
0
147
1.0
148
0.0
149
0.0
100
AcDbLayout
  1
Model
 70
0
 71
0
 10
0.0
 20
0.0
 11
22.0
 21
17.0
 12
0.0
 22
0.0
 32
0.0
 14
0.0
 24
0.0
 34
0.0
 15
0.0
 25
0.0
 35
0.0
146
0.0
 13
0.0
 23
0.0
 33
0.0
 16
1.0
 26
0.0
 36
0.0
 17
0.0
 27
1.0
 37
0.0
 76
0
330
222
345
0
346
0
  0
LAYOUT
  5
2DA
102
{ACAD_REACTORS
330
1A
102
}
100
AcDbPlotSettings
  1

  2
none_device
  4
ANSI_C_(22.00_x_17.00_Inches)
  6

 40
0.0
 41
0.0
 42
0.0
 43
0.0
 44
558.8
 45
431.8
 46
0.0
 47
0.0
 48
0.0
 49
0.0
140
0.0
141
0.0
142
1.0
143
1.0
 70
0
 72
0
 73
0
 74
0
  7

 75
0
147
1.0
148
0.0
149
0.0
100
AcDbLayout
  1
Layout1
 70
0
 71
1
 10
0.0
 20
0.0
 11
22.0
 21
17.0
 12
0.0
 22
0.0
 32
0.0
 14
0.0
 24
0.0
 34
0.0
 15
0.0
 25
0.0
 35
0.0
146
0.0
 13
0.0
 23
0.0
 33
0.0
 16
1.0
 26
0.0
 36
0.0
 17
0.0
 27
1.0
 37
0.0
 76
0
330
223
345
0
346
0
  0
ENDSEC
  0
EOF