999
DXF file: _cgs_temp_output.dxf
999
Pro/ENGINEER 2016360 by Parametric Technology Corporation
  0
SECTION
  2
HEADER
  9
$ACADVER
  1
AC1021
  9
$DWGCODEPAGE
  3
ANSI_1252
  9
$EXTMAX
 10
22.0
 20
17.0
 30
0.0
  9
$EXTMIN
 10
0.0
 20
0.0
 30
0.0
  9
$LIMMIN
 10
0.0
 20
0.0
  9
$LIMMAX
 10
22.0
 20
17.0
  9
$VIEWCTR
 10
11.0
 20
8.5
  9
$VIEWSIZE
 40
17.0
  9
$CLAYER
  8
0
  9
$LTSCALE
 40
1.21
  9
$CELTYPE
  6
BYLAYER
  9
$DIMSCALE
 40
1.0
  9
$DIMASZ
 40
0.1875
  9
$DIMEXO
 40
0.0625
  9
$DIMDLI
 40
0.836
  9
$DIMEXE
 40
0.125
  9
$DIMCEN
 40
0.198
  9
$DIMLFAC
 40
1.0
  9
$DIMBLK
  1
_CLOSED
  9
$DIMALT
 70
0
  9
$DIMALTF
 40
25.4
  9
$DIMTXT
 40
0.15625
  9
$DIMTOL
 70
0
  9
$DIMLIM
 70
0
  9
$DIMTFAC
 40
1.0
  9
$DIMGAP
 40
0.09
  9
$DIMDSEP
 70
46
  9
$AUNITS
 70
0
  9
$PDMODE
 70
3
  9
$PDSIZE
 40
0.3125
  9
$HANDSEED
  5
2EF
  9
$TILEMODE
 70
1
  9
$MEASUREMENT
 70
0
  9
$INSUNITS
 70
1
  0
ENDSEC
  0
SECTION
  2
CLASSES
  0
CLASS
  1
ACDBDICTIONARYWDFLT
  2
AcDbDictionaryWithDefault
  3
AutoCAD 2000
 90
0
 91
1
280
0
281
0
  0
CLASS
  1
ACDBPLACEHOLDER
  2
AcDbPlaceHolder
  3
AutoCAD 2000
 90
0
 91
1
280
0
281
0
  0
CLASS
  1
LAYOUT
  2
AcDbLayout
  3
AutoCAD 2000
 90
0
 91
0
280
0
281
0
  0
ENDSEC
  0
SECTION
  2
TABLES
  0
TABLE
  2
VPORT
  5
8
100
AcDbSymbolTable
 70
2
  0
VPORT
  5
1F4
100
AcDbSymbolTableRecord
100
AcDbViewportTableRecord
  2
*ACTIVE
 70
0
 10
0.0
 20
0.0
 11
1.0
 21
1.0
 12
11.0
 22
8.5
 13
0.0
 23
0.0
 14
1.0
 24
1.0
 15
0.0
 25
0.0
 16
0.0
 26
0.0
 36
1.0
 17
0.0
 27
0.0
 37
0.0
 40
17.0
 41
1.2941176471
 42
50.0
 43
0.0
 44
0.0
 50
0.0
 51
0.0
 71
0
 72
100
 73
1
 74
1
 75
0
 76
0
 77
0
 78
0
  0
ENDTAB
  0
TABLE
  2
LTYPE
  5
5
100
AcDbSymbolTable
 70
6
  0
LTYPE
  5
14
100
AcDbSymbolTableRecord
100
AcDbLinetypeTableRecord
  2
BYBLOCK
 70
0
  3

 72
65
 73
0
 40
0.0
  0
LTYPE
  5
15
100
AcDbSymbolTableRecord
100
AcDbLinetypeTableRecord
  2
BYLAYER
 70
0
  3

 72
65
 73
0
 40
0.0
  0
LTYPE
  5
16
100
AcDbSymbolTableRecord
100
AcDbLinetypeTableRecord
  2
CONTINUOUS
 70
64
  3
Solid line
 72
65
 73
0
 40
0.0
  0
LTYPE
  5
1F5
100
AcDbSymbolTableRecord
100
AcDbLinetypeTableRecord
  2
CENTER
 70
64
  3
____ _ ____ _ ____ _ ____ _ ____ _ ____ _ ____
 72
65
 73
4
 40
0.6
 49
0.375
 74
0
 49
-0.075
 74
0
 49
0.075
 74
0
 49
-0.075
 74
0
  0
LTYPE
  5
1F6
100
AcDbSymbolTableRecord
100
AcDbLinetypeTableRecord
  2
HIDDEN
 70
64
  3
- - - - - - - - - - - - - - - - - - - -
 72
65
 73
2
 40
0.2
 49
0.1
 74
0
 49
-0.1
 74
0
  0
LTYPE
  5
1F7
100
AcDbSymbolTableRecord
100
AcDbLinetypeTableRecord
  2
PHANTOM
 70
64
  3
_____ _ _ _____ _ _ _____ _ _ _____
 72
65
 73
6
 40
0.8
 49
0.45
 74
0
 49
-0.05
 74
0
 49
0.1
 74
0
 49
-0.05
 74
0
 49
0.1
 74
0
 49
-0.05
 74
0
  0
LTYPE
  5
1F8
100
AcDbSymbolTableRecord
100
AcDbLinetypeTableRecord
  2
DOT
 70
64
  3
. . . . . . . . . . . . . . . . . . . .
 72
65
 73
2
 40
0.2
 49
0.1
 74
0
 49
-0.1
 74
0
  0
LTYPE
  5
1F9
100
AcDbSymbolTableRecord
100
AcDbLinetypeTableRecord
  2
DASHED
 70
64
  3
- - - - - - - - - - - - - - - - - - - -
 72
65
 73
2
 40
0.2
 49
0.1
 74
0
 49
-0.1
 74
0
  0
ENDTAB
  0
TABLE
  2
LAYER
  5
2
100
AcDbSymbolTable
 70
36
  0
LAYER
  5
10
100
AcDbSymbolTableRecord
100
AcDbLayerTableRecord
  2
0
 70
0
 62
7
  6
CONTINUOUS
370
-3
390
F
  0
LAYER
  5
1FA
100
AcDbSymbolTableRecord
100
AcDbLayerTableRecord
  2
DEFAULT_1
 70
0
 62
7
  6
CENTER
370
-3
390
F
  0
LAYER
  5
1FB
100
AcDbSymbolTableRecord
100
AcDbLayerTableRecord
  2
DEFAULT_2
 70
0
 62
8
  6
HIDDEN
370
-3
390
F
  0
LAYER
  5
1FC
100
AcDbSymbolTableRecord
100
AcDbLayerTableRecord
  2
DEFAULT_3
 70
0
 62
7
  6
PHANTOM
370
-3
390
F
  0
LAYER
  5
1FD
100
AcDbSymbolTableRecord
100
AcDbLayerTableRecord
  2
01_ALL_DTM_PLN
 70
0
 62
7
  6
CONTINUOUS
370
-3
390
F
  0
LAYER
  5
1FE
100
AcDbSymbolTableRecord
100
AcDbLayerTableRecord
  2
01__ASM_ALL_DTM_PLN
 70
0
 62
7
  6
CONTINUOUS
370
-3
390
F
  0
LAYER
  5
1FF
100
AcDbSymbolTableRecord
100
AcDbLayerTableRecord
  2
01__ASM_DEF_DTM_PLN
 70
0
 62
7
  6
CONTINUOUS
370
-3
390
F
  0
LAYER
  5
200
100
AcDbSymbolTableRecord
100
AcDbLayerTableRecord
  2
01___PRT_ALL_DTM_PLN
 70
0
 62
7
  6
CONTINUOUS
370
-3
390
F
  0
LAYER
  5
201
100
AcDbSymbolTableRecord
100
AcDbLayerTableRecord
  2
01___PRT_DEF_DTM_PLN
 70
0
 62
7
  6
CONTINUOUS
370
-3
390
F
  0
LAYER
  5
202
100
AcDbSymbolTableRecord
100
AcDbLayerTableRecord
  2
02_ALL_AXES
 70
0
 62
7
  6
CONTINUOUS
370
-3
390
F
  0
LAYER
  5
203
100
AcDbSymbolTableRecord
100
AcDbLayerTableRecord
  2
02__ASM_ALL_AXES
 70
0
 62
7
  6
CONTINUOUS
370
-3
390
F
  0
LAYER
  5
204
100
AcDbSymbolTableRecord
100
AcDbLayerTableRecord
  2
02___PRT_ALL_AXES
 70
0
 62
7
  6
CONTINUOUS
370
-3
390
F
  0
LAYER
  5
205
100
AcDbSymbolTableRecord
100
AcDbLayerTableRecord
  2
03_ALL_CURVES
 70
0
 62
7
  6
CONTINUOUS
370
-3
390
F
  0
LAYER
  5
206
100
AcDbSymbolTableRecord
100
AcDbLayerTableRecord
  2
03__ASM_ALL_CURVES
 70
0
 62
7
  6
CONTINUOUS
370
-3
390
F
  0
LAYER
  5
207
100
AcDbSymbolTableRecord
100
AcDbLayerTableRecord
  2
03___PRT_ALL_CURVES
 70
0
 62
7
  6
CONTINUOUS
370
-3
390
F
  0
LAYER
  5
208
100
AcDbSymbolTableRecord
100
AcDbLayerTableRecord
  2
04_ALL_DTM_PNT
 70
0
 62
7
  6
CONTINUOUS
370
-3
390
F
  0
LAYER
  5
209
100
AcDbSymbolTableRecord
100
AcDbLayerTableRecord
  2
04__ASM_ALL_DTM_PNT
 70
0
 62
7
  6
CONTINUOUS
370
-3
390
F
  0
LAYER
  5
20A
100
AcDbSymbolTableRecord
100
AcDbLayerTableRecord
  2
04___PRT_ALL_DTM_PNT
 70
0
 62
7
  6
CONTINUOUS
370
-3
390
F
  0
LAYER
  5
20B
100
AcDbSymbolTableRecord
100
AcDbLayerTableRecord
  2
05_ALL_DTM_CSYS
 70
0
 62
7
  6
CONTINUOUS
370
-3
390
F
  0
LAYER
  5
20C
100
AcDbSymbolTableRecord
100
AcDbLayerTableRecord
  2
05__ASM_ALL_DTM_CSYS
 70
0
 62
7
  6
CONTINUOUS
370
-3
390
F
  0
LAYER
  5
20D
100
AcDbSymbolTableRecord
100
AcDbLayerTableRecord
  2
05__ASM_DEF_DTM_CSYS
 70
0
 62
7
  6
CONTINUOUS
370
-3
390
F
  0
LAYER
  5
20E
100
AcDbSymbolTableRecord
100
AcDbLayerTableRecord
  2
05___PRT_ALL_DTM_CSYS
 70
0
 62
7
  6
CONTINUOUS
370
-3
390
F
  0
LAYER
  5
20F
100
AcDbSymbolTableRecord
100
AcDbLayerTableRecord
  2
05___PRT_DEF_DTM_CSYS
 70
0
 62
7
  6
CONTINUOUS
370
-3
390
F
  0
LAYER
  5
210
100
AcDbSymbolTableRecord
100
AcDbLayerTableRecord
  2
06_ALL_SURFS
 70
0
 62
7
  6
CONTINUOUS
370
-3
390
F
  0
LAYER
  5
211
100
AcDbSymbolTableRecord
100
AcDbLayerTableRecord
  2
06__ASM_ALL_SURFS
 70
0
 62
7
  6
CONTINUOUS
370
-3
390
F
  0
LAYER
  5
212
100
AcDbSymbolTableRecord
100
AcDbLayerTableRecord
  2
06___PRT_ALL_SURFS
 70
0
 62
7
  6
CONTINUOUS
370
-3
390
F
  0
LAYER
  5
213
100
AcDbSymbolTableRecord
100
AcDbLayerTableRecord
  2
07__ASM_ALL_SKELETONS
 70
0
 62
7
  6
CONTINUOUS
370
-3
390
F
  0
LAYER
  5
214
100
AcDbSymbolTableRecord
100
AcDbLayerTableRecord
  2
LAYER_AXIS
 70
0
 62
7
  6
CONTINUOUS
370
-3
390
F
  0
LAYER
  5
215
100
AcDbSymbolTableRecord
100
AcDbLayerTableRecord
  2
LAYER_CHAMFER_FEAT
 70
0
 62
7
  6
CONTINUOUS
370
-3
390
F
  0
LAYER
  5
216
100
AcDbSymbolTableRecord
100
AcDbLayerTableRecord
  2
LAYER_CUT_FEAT
 70
0
 62
7
  6
CONTINUOUS
370
-3
390
F
  0
LAYER
  5
217
100
AcDbSymbolTableRecord
100
AcDbLayerTableRecord
  2
LAYER_DATUM
 70
0
 62
7
  6
CONTINUOUS
370
-3
390
F
  0
LAYER
  5
218
100
AcDbSymbolTableRecord
100
AcDbLayerTableRecord
  2
LAYER_DIM
 70
0
 62
7
  6
CONTINUOUS
370
-3
390
F
  0
LAYER
  5
219
100
AcDbSymbolTableRecord
100
AcDbLayerTableRecord
  2
LAYER_FEATURE
 70
0
 62
7
  6
CONTINUOUS
370
-3
390
F
  0
LAYER
  5
21A
100
AcDbSymbolTableRecord
100
AcDbLayerTableRecord
  2
LAYER_GEOM_FEAT
 70
0
 62
7
  6
CONTINUOUS
370
-3
390
F
  0
LAYER
  5
21B
100
AcDbSymbolTableRecord
100
AcDbLayerTableRecord
  2
LAYER_NOGEOM_FEAT
 70
0
 62
7
  6
CONTINUOUS
370
-3
390
F
  0
LAYER
  5
21C
100
AcDbSymbolTableRecord
100
AcDbLayerTableRecord
  2
LAYER_PARAMETER_DIM
 70
0
 62
7
  6
CONTINUOUS
370
-3
390
F
  0
LAYER
  5
21D
100
AcDbSymbolTableRecord
100
AcDbLayerTableRecord
  2
LAYER_PROTRUSION_FEAT
 70
0
 62
7
  6
CONTINUOUS
370
-3
390
F
  0
LAYER
  5
21E
100
AcDbSymbolTableRecord
100
AcDbLayerTableRecord
  2
LAYER_QUILT
 70
0
 62
7
  6
CONTINUOUS
370
-3
390
F
  0
LAYER
  5
21F
100
AcDbSymbolTableRecord
100
AcDbLayerTableRecord
  2
LAYER_ROUND_FEAT
 70
0
 62
7
  6
CONTINUOUS
370
-3
390
F
  0
ENDTAB
  0
TABLE
  2
STYLE
  5
3
100
AcDbSymbolTable
 70
1
  0
STYLE
  5
11
100
AcDbSymbolTableRecord
100
AcDbTextStyleTableRecord
  2
STANDARD
 70
0
 40
0.0
 41
0.8
 50
0.0
 71
0
 42
0.2
  3
txt
  4

  0
STYLE
  5
220
100
AcDbSymbolTableRecord
100
AcDbTextStyleTableRecord
  2
TEXTSTYLE_1
 70
0
 40
0.0
 41
0.8
 50
0.0
 71
0
 42
0.2
  3
gdt
  4

  0
ENDTAB
  0
TABLE
  2
VIEW
  5
6
100
AcDbSymbolTable
 70
0
  0
ENDTAB
  0
TABLE
  2
UCS
  5
7
100
AcDbSymbolTable
 70
0
  0
ENDTAB
  0
TABLE
  2
APPID
  5
9
100
AcDbSymbolTable
 70
1
  0
APPID
  5
221
100
AcDbSymbolTableRecord
100
AcDbRegAppTableRecord
  2
ACAD
 70
0
  0
ENDTAB
  0
TABLE
  2
BLOCK_RECORD
  5
1
100
AcDbSymbolTable
 70
0
  0
BLOCK_RECORD
  5
222
100
AcDbSymbolTableRecord
100
AcDbBlockTableRecord
  2
*Model_Space
  0
BLOCK_RECORD
  5
223
100
AcDbSymbolTableRecord
100
AcDbBlockTableRecord
  2
*Paper_Space
  0
ENDTAB
  0
TABLE
  2
DIMSTYLE
  5
A
100
AcDbSymbolTable
 70
1
100
AcDbDimStyleTable
 71
0
  0
DIMSTYLE
105
224
100
AcDbSymbolTableRecord
100
AcDbDimStyleTableRecord
  2
STANDARD
 70
0
  3

  4

 40
1.0
 41
0.1875
 42
0.0625
 43
0.38
 44
0.125
 45
0.0
 46
0.0
 47
0.0001
 48
0.0001
140
0.15625
141
0.09
142
0.0
143
25.4
144
1.0
145
0.0
146
1.0
147
0.09
 71
0.0
 72
0.0
 73
1
 74
1
 75
0
 76
0
 77
0
 78
4
 79
1
170
0
171
3
172
0
173
0
174
0
175
0
176
0
177
0
178
0
270
2
179
4
271
4
272
4
273
2
274
2
275
0
280
0
281
0
282
0
283
1
284
4
285
0
286
0
287
3
288
0
340
11
278
46
  0
ENDTAB
  0
ENDSEC
  0
SECTION
  2
BLOCKS
  0
BLOCK
  5
20
100
AcDbEntity
  8
0
100
AcDbBlockBegin
  2
*Model_Space
 70
0
 10
0.0
 20
0.0
 30
0.0
  3
*Model_Space
  1

  0
ENDBLK
  5
21
100
AcDbEntity
  8
0
100
AcDbBlockEnd
  0
BLOCK
  5
1C
100
AcDbEntity
  8
0
100
AcDbBlockBegin
  2
*Paper_Space
 70
0
 10
0.0
 20
0.0
 30
0.0
  3
*Paper_Space
  1

  0
ENDBLK
  5
1D
100
AcDbEntity
  8
0
100
AcDbBlockEnd
  0
ENDSEC
  0
SECTION
  2
ENTITIES
  0
MTEXT
  5
225
100
AcDbEntity
  8
0
100
AcDbMText
 62
7
  6
CONTINUOUS
  7
STANDARD
 71
1
 72
1
 10
15.9560215477
 20
0.9479130325
 30
0.0
 11
1.0
 21
0.0
 31
0.0
 44
0.9
  1
SCALE: 1:0.250
 40
0.3
 41
3.36
  0
LINE
  5
226
100
AcDbEntity
  8
0
100
AcDbLine
 62
7
  6
CONTINUOUS
 10
0.0
 20
0.0
 11
0.0
 21
17.0
  0
LINE
  5
227
100
AcDbEntity
  8
0
100
AcDbLine
 62
7
  6
CONTINUOUS
 10
0.0
 20
0.0
 11
22.0
 21
0.0
  0
LINE
  5
228
100
AcDbEntity
  8
0
100
AcDbLine
 62
7
  6
CONTINUOUS
 10
0.0
 20
17.0
 11
22.0
 21
17.0
  0
LINE
  5
229
100
AcDbEntity
  8
0
100
AcDbLine
 62
7
  6
CONTINUOUS
 10
22.0
 20
0.0
 11
22.0
 21
17.0
  0
LINE
  5
22A
100
AcDbEntity
  8
LAYER_FEATURE
100
AcDbLine
 62
7
  6
CONTINUOUS
 10
6.6408672762
 20
4.1373698968
 11
6.6098089908
 21
4.1373698968
  0
LINE
  5
22B
100
AcDbEntity
  8
LAYER_FEATURE
100
AcDbLine
 62
7
  6
CONTINUOUS
 10
5.6198672762
 20
4.1373698968
 11
5.6509255616
 21
4.1373698968
  0
LINE
  5
22C
100
AcDbEntity
  8
02___PRT_ALL_AXES
100
AcDbLine
 62
7
  6
CONTINUOUS
 10
5.6703672762
 20
4.2179948968
 11
6.5903672762
 21
4.2179948968
  0
LINE
  5
22D
100
AcDbEntity
  8
LAYER_FEATURE
100
AcDbLine
 62
7
  6
CONTINUOUS
 10
5.6198672762
 20
6.9028698968
 11
5.6198672762
 21
4.1373698968
  0
LINE
  5
22E
100
AcDbEntity
  8
LAYER_FEATURE
100
AcDbLine
 62
7
  6
CONTINUOUS
 10
5.6509255616
 20
6.9028698968
 11
5.6509255616
 21
4.1373698968
  0
LINE
  5
22F
100
AcDbEntity
  8
LAYER_FEATURE
100
AcDbLine
 62
7
  6
CONTINUOUS
 10
5.6703672762
 20
6.8303124301
 11
5.6703672762
 21
4.2099273634
  0
LINE
  5
230
100
AcDbEntity
  8
LAYER_FEATURE
100
AcDbLine
 62
7
  6
CONTINUOUS
 10
5.6509255616
 20
4.1373698968
 11
5.6703672762
 21
4.2099273634
  0
LINE
  5
231
100
AcDbEntity
  8
LAYER_FEATURE
100
AcDbLine
 62
7
  6
CONTINUOUS
 10
5.6509255616
 20
6.9028698968
 11
5.6703672762
 21
6.8303124301
  0
LINE
  5
232
100
AcDbEntity
  8
LAYER_FEATURE
100
AcDbLine
 62
7
  6
CONTINUOUS
 10
6.6098089908
 20
6.9028698968
 11
6.5903672762
 21
6.8303124301
  0
LINE
  5
233
100
AcDbEntity
  8
LAYER_FEATURE
100
AcDbLine
 62
7
  6
CONTINUOUS
 10
6.6098089908
 20
4.1373698968
 11
6.5903672762
 21
4.2099273634
  0
LINE
  5
234
100
AcDbEntity
  8
LAYER_FEATURE
100
AcDbLine
 62
7
  6
CONTINUOUS
 10
6.5903672762
 20
6.8303124301
 11
6.5903672762
 21
4.2099273634
  0
LINE
  5
235
100
AcDbEntity
  8
LAYER_FEATURE
100
AcDbLine
 62
7
  6
CONTINUOUS
 10
6.6098089908
 20
6.9028698968
 11
6.6098089908
 21
4.1373698968
  0
LINE
  5
236
100
AcDbEntity
  8
LAYER_FEATURE
100
AcDbLine
 62
7
  6
CONTINUOUS
 10
6.6408672762
 20
6.9028698968
 11
6.6408672762
 21
4.1373698968
  0
LINE
  5
237
100
AcDbEntity
  8
LAYER_FEATURE
100
AcDbLine
 62
7
  6
CONTINUOUS
 10
5.6703672762
 20
6.7397571405
 11
6.5903672762
 21
6.7397571405
  0
LINE
  5
238
100
AcDbEntity
  8
LAYER_CUT_FEAT
100
AcDbLine
 62
7
  6
CONTINUOUS
 10
5.6703672762
 20
6.7402058606
 11
6.5903672762
 21
6.7402058606
  0
LINE
  5
239
100
AcDbEntity
  8
LAYER_FEATURE
100
AcDbLine
 62
7
  6
CONTINUOUS
 10
5.6703672762
 20
6.7749078236
 11
6.5903672762
 21
6.7749078236
  0
LINE
  5
23A
100
AcDbEntity
  8
LAYER_FEATURE
100
AcDbLine
 62
7
  6
CONTINUOUS
 10
5.6703672762
 20
6.7807498167
 11
6.5903672762
 21
6.7807498167
  0
LINE
  5
23B
100
AcDbEntity
  8
LAYER_CUT_FEAT
100
AcDbLine
 62
7
  6
CONTINUOUS
 10
5.6703672762
 20
6.7809501624
 11
6.5903672762
 21
6.7809501624
  0
LINE
  5
23C
100
AcDbEntity
  8
LAYER_FEATURE
100
AcDbLine
 62
7
  6
CONTINUOUS
 10
5.6703672762
 20
6.8043997716
 11
6.5903672762
 21
6.8043997716
  0
LINE
  5
23D
100
AcDbEntity
  8
LAYER_FEATURE
100
AcDbLine
 62
7
  6
CONTINUOUS
 10
5.6703672762
 20
6.8079307678
 11
6.5903672762
 21
6.8079307678
  0
LINE
  5
23E
100
AcDbEntity
  8
LAYER_CUT_FEAT
100
AcDbLine
 62
7
  6
CONTINUOUS
 10
5.6703672762
 20
6.8079809918
 11
6.5903672762
 21
6.8079809918
  0
LINE
  5
23F
100
AcDbEntity
  8
LAYER_FEATURE
100
AcDbLine
 62
7
  6
CONTINUOUS
 10
5.6703672762
 20
6.8198208805
 11
6.5903672762
 21
6.8198208805
  0
LINE
  5
240
100
AcDbEntity
  8
LAYER_FEATURE
100
AcDbLine
 62
7
  6
CONTINUOUS
 10
5.6703672762
 20
6.8210021935
 11
6.5903672762
 21
6.8210021935
  0
LINE
  5
241
100
AcDbEntity
  8
LAYER_FEATURE
100
AcDbLine
 62
7
  6
CONTINUOUS
 10
6.6408672762
 20
6.9028698968
 11
6.6098089908
 21
6.9028698968
  0
LINE
  5
242
100
AcDbEntity
  8
LAYER_FEATURE
100
AcDbLine
 62
7
  6
CONTINUOUS
 10
5.6198672762
 20
6.9028698968
 11
5.6509255616
 21
6.9028698968
  0
LINE
  5
243
100
AcDbEntity
  8
LAYER_FEATURE
100
AcDbLine
 62
7
  6
CONTINUOUS
 10
5.5603720839
 20
11.2172977814
 11
5.5914303693
 21
11.2172977814
  0
LINE
  5
244
100
AcDbEntity
  8
LAYER_FEATURE
100
AcDbLine
 62
7
  6
CONTINUOUS
 10
6.5503137984
 20
11.2172977814
 11
6.5813720839
 21
11.2172977814
  0
LINE
  5
245
100
AcDbEntity
  8
02___PRT_ALL_AXES
100
AcDbLine
 62
7
  6
CONTINUOUS
 10
5.6108720839
 20
11.2979227814
 11
6.5308720839
 21
11.2979227814
  0
LINE
  5
246
100
AcDbEntity
  8
LAYER_FEATURE
100
AcDbLine
 62
7
  6
CONTINUOUS
 10
5.5603720839
 20
11.2172977814
 11
5.5603720839
 21
13.9827977814
  0
LINE
  5
247
100
AcDbEntity
  8
LAYER_FEATURE
100
AcDbLine
 62
7
  6
CONTINUOUS
 10
5.5914303693
 20
11.2172977814
 11
5.5914303693
 21
13.9827977814
  0
LINE
  5
248
100
AcDbEntity
  8
LAYER_FEATURE
100
AcDbLine
 62
7
  6
CONTINUOUS
 10
5.6108720839
 20
11.2898553331
 11
5.6108720839
 21
13.9102402297
  0
LINE
  5
249
100
AcDbEntity
  8
LAYER_FEATURE
100
AcDbLine
 62
7
  6
CONTINUOUS
 10
5.6108720839
 20
12.1439617046
 11
6.5308720839
 21
12.1439617046
  0
LINE
  5
24A
100
AcDbEntity
  8
LAYER_FEATURE
100
AcDbLine
 62
7
  6
CONTINUOUS
 10
6.5308720839
 20
12.2014111452
 11
5.6108720839
 21
12.2014111452
  0
LINE
  5
24B
100
AcDbEntity
  8
LAYER_FEATURE
100
AcDbLine
 62
7
  6
CONTINUOUS
 10
6.5308720839
 20
12.2299428407
 11
5.6108720839
 21
12.2299428407
  0
LINE
  5
24C
100
AcDbEntity
  8
LAYER_FEATURE
100
AcDbLine
 62
7
  6
CONTINUOUS
 10
5.6108720839
 20
12.2521443834
 11
6.5308720839
 21
12.2521443834
  0
LINE
  5
24D
100
AcDbEntity
  8
LAYER_FEATURE
100
AcDbLine
 62
7
  6
CONTINUOUS
 10
5.6108720839
 20
12.2739469987
 11
6.5308720839
 21
12.2739469987
  0
LINE
  5
24E
100
AcDbEntity
  8
LAYER_FEATURE
100
AcDbLine
 62
7
  6
CONTINUOUS
 10
6.5308720839
 20
12.3267646107
 11
5.6108720839
 21
12.3267646107
  0
LINE
  5
24F
100
AcDbEntity
  8
LAYER_FEATURE
100
AcDbLine
 62
7
  6
CONTINUOUS
 10
6.5308720839
 20
12.3561090388
 11
5.6108720839
 21
12.3561090388
  0
LINE
  5
250
100
AcDbEntity
  8
LAYER_FEATURE
100
AcDbLine
 62
7
  6
CONTINUOUS
 10
5.6108720839
 20
12.3852112883
 11
6.5308720839
 21
12.3852112883
  0
LINE
  5
251
100
AcDbEntity
  8
LAYER_FEATURE
100
AcDbLine
 62
7
  6
CONTINUOUS
 10
5.6108720839
 20
12.4075051212
 11
6.5308720839
 21
12.4075051212
  0
LINE
  5
252
100
AcDbEntity
  8
LAYER_FEATURE
100
AcDbLine
 62
7
  6
CONTINUOUS
 10
5.5914303693
 20
11.2172977814
 11
5.6108720839
 21
11.289855248
  0
LINE
  5
253
100
AcDbEntity
  8
LAYER_FEATURE
100
AcDbLine
 62
7
  6
CONTINUOUS
 10
6.5308720839
 20
12.4551122239
 11
5.6108720839
 21
12.4551122239
  0
LINE
  5
254
100
AcDbEntity
  8
LAYER_FEATURE
100
AcDbLine
 62
7
  6
CONTINUOUS
 10
6.5308720839
 20
12.4849478808
 11
5.6108720839
 21
12.4849478808
  0
LINE
  5
255
100
AcDbEntity
  8
LAYER_FEATURE
100
AcDbLine
 62
7
  6
CONTINUOUS
 10
5.5914303693
 20
13.9827977814
 11
5.6108720839
 21
13.9102403147
  0
LINE
  5
256
100
AcDbEntity
  8
LAYER_FEATURE
100
AcDbLine
 62
7
  6
CONTINUOUS
 10
5.6108720839
 20
12.5206319868
 11
6.5308720839
 21
12.5206319868
  0
LINE
  5
257
100
AcDbEntity
  8
LAYER_FEATURE
100
AcDbLine
 62
7
  6
CONTINUOUS
 10
5.6108720839
 20
12.5431727814
 11
6.5308720839
 21
12.5431727814
  0
LINE
  5
258
100
AcDbEntity
  8
LAYER_FEATURE
100
AcDbLine
 62
7
  6
CONTINUOUS
 10
6.5308720839
 20
12.5850477814
 11
5.6108720839
 21
12.5850477814
  0
LINE
  5
259
100
AcDbEntity
  8
LAYER_FEATURE
100
AcDbLine
 62
7
  6
CONTINUOUS
 10
6.5308720839
 20
13.9102403147
 11
6.5503137984
 21
13.9827977814
  0
LINE
  5
25A
100
AcDbEntity
  8
LAYER_FEATURE
100
AcDbLine
 62
7
  6
CONTINUOUS
 10
6.5308720839
 20
12.6150477814
 11
5.6108720839
 21
12.6150477814
  0
LINE
  5
25B
100
AcDbEntity
  8
LAYER_FEATURE
100
AcDbLine
 62
7
  6
CONTINUOUS
 10
5.6108720839
 20
12.6569227814
 11
6.5308720839
 21
12.6569227814
  0
LINE
  5
25C
100
AcDbEntity
  8
LAYER_FEATURE
100
AcDbLine
 62
7
  6
CONTINUOUS
 10
6.5308720839
 20
11.289855248
 11
6.5503137984
 21
11.2172977814
  0
LINE
  5
25D
100
AcDbEntity
  8
LAYER_FEATURE
100
AcDbLine
 62
7
  6
CONTINUOUS
 10
6.5308720839
 20
11.289855248
 11
6.5308720839
 21
13.9102403147
  0
LINE
  5
25E
100
AcDbEntity
  8
LAYER_FEATURE
100
AcDbLine
 62
7
  6
CONTINUOUS
 10
6.5503137984
 20
11.2172977814
 11
6.5503137984
 21
13.9827977814
  0
LINE
  5
25F
100
AcDbEntity
  8
LAYER_FEATURE
100
AcDbLine
 62
7
  6
CONTINUOUS
 10
6.5813720839
 20
11.2172977814
 11
6.5813720839
 21
13.9827977814
  0
LINE
  5
260
100
AcDbEntity
  8
02___PRT_ALL_AXES
100
AcDbLine
 62
7
  6
CONTINUOUS
 10
5.6108720839
 20
13.9021727814
 11
6.5308720839
 21
13.9021727814
  0
LINE
  5
261
100
AcDbEntity
  8
LAYER_FEATURE
100
AcDbLine
 62
7
  6
CONTINUOUS
 10
5.5603720839
 20
13.9827977814
 11
5.5914303693
 21
13.9827977814
  0
LINE
  5
262
100
AcDbEntity
  8
LAYER_FEATURE
100
AcDbLine
 62
7
  6
CONTINUOUS
 10
6.5503137984
 20
13.9827977814
 11
6.5813720839
 21
13.9827977814
  0
LINE
  5
263
100
AcDbEntity
  8
LAYER_FEATURE
100
AcDbLine
 62
7
  6
CONTINUOUS
 10
15.0008884855
 20
11.1280549929
 11
15.0294950607
 21
11.1280549929
  0
LINE
  5
264
100
AcDbEntity
  8
LAYER_FEATURE
100
AcDbLine
 62
7
  6
CONTINUOUS
 10
15.9126851851
 20
11.1280549929
 11
15.9412917603
 21
11.1280549929
  0
LINE
  5
265
100
AcDbEntity
  8
02___PRT_ALL_AXES
100
AcDbLine
 62
7
  6
CONTINUOUS
 10
15.0474020657
 20
11.2086799929
 11
15.7317418951
 21
11.2086799929
  0
LINE
  5
266
100
AcDbEntity
  8
02___PRT_ALL_AXES
100
AcDbLine
 62
7
  6
CONTINUOUS
 10
15.8960479255
 20
11.3486395336
 11
15.8655856384
 21
11.3547881655
  0
LINE
  5
267
100
AcDbEntity
  8
LAYER_FEATURE
100
AcDbLine
 62
7
  6
CONTINUOUS
 10
14.591463628
 20
12.9310078364
 11
14.595542297
 21
12.9591201226
  0
LINE
  5
268
100
AcDbEntity
  8
LAYER_FEATURE
100
AcDbLine
 62
7
  6
CONTINUOUS
 10
14.6110657896
 20
13.0510898438
 11
14.6162664343
 21
13.0779533233
  0
LINE
  5
269
100
AcDbEntity
  8
LAYER_FEATURE
100
AcDbLine
 62
7
  6
CONTINUOUS
 10
14.6354485428
 20
13.1652523773
 11
14.6417141838
 21
13.1905727282
  0
LINE
  5
26A
100
AcDbEntity
  8
LAYER_FEATURE
100
AcDbLine
 62
7
  6
CONTINUOUS
 10
14.666235708
 20
13.2783638068
 11
14.6716067347
 21
13.2957444556
  0
LINE
  5
26B
100
AcDbEntity
  8
LAYER_FEATURE
100
AcDbLine
 62
7
  6
CONTINUOUS
 10
14.5897521181
 20
12.9886706156
 11
14.5813646489
 21
13.0082935593
  0
LINE
  5
26C
100
AcDbEntity
  8
LAYER_FEATURE
100
AcDbLine
 62
7
  6
CONTINUOUS
 10
14.6117108364
 20
13.1088961472
 11
14.6041680724
 21
13.1306629759
  0
LINE
  5
26D
100
AcDbEntity
  8
LAYER_FEATURE
100
AcDbLine
 62
7
  6
CONTINUOUS
 10
14.6384430789
 20
13.222568867
 11
14.6318276603
 21
13.2462410988
  0
LINE
  5
26E
100
AcDbEntity
  8
LAYER_FEATURE
100
AcDbLine
 62
7
  6
CONTINUOUS
 10
14.6696559617
 20
13.3284433528
 11
14.6640403684
 21
13.3537616297
  0
LINE
  5
26F
100
AcDbEntity
  8
LAYER_CHAMFER_FEAT
100
AcDbLine
 62
7
  6
CONTINUOUS
 10
15.7547418678
 20
13.4873129512
 11
15.7544897913
 21
13.487035123
  0
LINE
  5
270
100
AcDbEntity
  8
LAYER_CHAMFER_FEAT
100
AcDbLine
 62
7
  6
CONTINUOUS
 10
15.7547418678
 20
13.4873129512
 11
15.7544914572
 21
13.4870251645
  0
LINE
  5
271
100
AcDbEntity
  8
LAYER_FEATURE
100
AcDbLine
 62
7
  6
CONTINUOUS
 10
14.5682126862
 20
12.9176434624
 11
14.5795554456
 21
12.9183899002
  0
LINE
  5
272
100
AcDbEntity
  8
LAYER_FEATURE
100
AcDbLine
 62
7
  6
CONTINUOUS
 10
14.5649585645
 20
12.9116791642
 11
15.3974530296
 21
12.9116791642
  0
LINE
  5
273
100
AcDbEntity
  8
LAYER_FEATURE
100
AcDbLine
 62
7
  6
CONTINUOUS
 10
15.3997238594
 20
12.9310078364
 11
14.591463628
 21
12.9310078364
  0
LINE
  5
274
100
AcDbEntity
  8
LAYER_FEATURE
100
AcDbLine
 62
7
  6
CONTINUOUS
 10
15.4034148022
 20
12.9591201226
 11
14.595542297
 21
12.9591201226
  0
LINE
  5
275
100
AcDbEntity
  8
LAYER_FEATURE
100
AcDbLine
 62
7
  6
CONTINUOUS
 10
14.5804235178
 20
13.0182715827
 11
15.4119016196
 21
13.0182715827
  0
LINE
  5
276
100
AcDbEntity
  8
LAYER_FEATURE
100
AcDbLine
 62
7
  6
CONTINUOUS
 10
14.5839191442
 20
13.0389815992
 11
15.4150533074
 21
13.0389815992
  0
LINE
  5
277
100
AcDbEntity
  8
LAYER_CUT_FEAT
100
AcDbLine
 62
7
  6
CONTINUOUS
 10
14.5871161111
 20
13.0440684121
 11
15.4159082536
 21
13.0440684121
  0
LINE
  5
278
100
AcDbEntity
  8
LAYER_FEATURE
100
AcDbLine
 62
7
  6
CONTINUOUS
 10
15.4171041742
 20
13.0510898438
 11
14.6110657896
 21
13.0510898438
  0
LINE
  5
279
100
AcDbEntity
  8
LAYER_FEATURE
100
AcDbLine
 62
7
  6
CONTINUOUS
 10
15.4216796782
 20
13.0779533233
 11
14.6162664343
 21
13.0779533233
  0
LINE
  5
27A
100
AcDbEntity
  8
LAYER_FEATURE
100
AcDbLine
 62
7
  6
CONTINUOUS
 10
14.6036382553
 20
13.1408389589
 11
15.4333729563
 21
13.1408389589
  0
LINE
  5
27B
100
AcDbEntity
  8
LAYER_FEATURE
100
AcDbLine
 62
7
  6
CONTINUOUS
 10
14.6079577398
 20
13.1604972206
 11
15.4374743547
 21
13.1604972206
  0
LINE
  5
27C
100
AcDbEntity
  8
LAYER_CUT_FEAT
100
AcDbLine
 62
7
  6
CONTINUOUS
 10
14.6109710622
 20
13.1647482551
 11
15.4383612686
 21
13.1647482551
  0
LINE
  5
27D
100
AcDbEntity
  8
LAYER_FEATURE
100
AcDbLine
 62
7
  6
CONTINUOUS
 10
15.4384664461
 20
13.1652523773
 11
14.6354485428
 21
13.1652523773
  0
LINE
  5
27E
100
AcDbEntity
  8
LAYER_FEATURE
100
AcDbLine
 62
7
  6
CONTINUOUS
 10
15.4438032703
 20
13.1905727282
 11
14.6417141838
 21
13.1905727282
  0
LINE
  5
27F
100
AcDbEntity
  8
LAYER_FEATURE
100
AcDbLine
 62
7
  6
CONTINUOUS
 10
14.6317149621
 20
13.2565035512
 11
15.4593546145
 21
13.2565035512
  0
LINE
  5
280
100
AcDbEntity
  8
LAYER_FEATURE
100
AcDbLine
 62
7
  6
CONTINUOUS
 10
14.6368109794
 20
13.2748946781
 11
15.4639590745
 21
13.2748946781
  0
LINE
  5
281
100
AcDbEntity
  8
0
100
AcDbLine
 62
7
  6
CONTINUOUS
 10
14.6396076427
 20
13.2783638068
 11
15.4648276164
 21
13.2783638068
  0
LINE
  5
282
100
AcDbEntity
  8
LAYER_FEATURE
100
AcDbLine
 62
7
  6
CONTINUOUS
 10
15.4694977959
 20
13.2957444556
 11
14.6716067347
 21
13.2957444556
  0
LINE
  5
283
100
AcDbEntity
  8
LAYER_FEATURE
100
AcDbLine
 62
7
  6
CONTINUOUS
 10
14.6643460237
 20
13.3639981141
 11
15.4890086821
 21
13.3639981141
  0
LINE
  5
284
100
AcDbEntity
  8
02___PRT_ALL_AXES
100
AcDbLine
 62
7
  6
CONTINUOUS
 10
15.8960479255
 20
13.6729704522
 11
15.8662465182
 21
13.666955215
  0
LINE
  5
285
100
AcDbEntity
  8
02___PRT_ALL_AXES
100
AcDbLine
 62
7
  6
CONTINUOUS
 10
15.0474020657
 20
13.8129299929
 11
15.7315069586
 21
13.8129299929
  0
LINE
  5
286
100
AcDbEntity
  8
LAYER_FEATURE
100
AcDbLine
 62
7
  6
CONTINUOUS
 10
15.0008884855
 20
13.8935549929
 11
15.0294950607
 21
13.8935549929
  0
LINE
  5
287
100
AcDbEntity
  8
LAYER_FEATURE
100
AcDbLine
 62
7
  6
CONTINUOUS
 10
15.9126851851
 20
13.8935549929
 11
15.9412917603
 21
13.8935549929
  0
CIRCLE
  5
288
100
AcDbEntity
  8
LAYER_FEATURE
100
AcDbCircle
 62
7
  6
CONTINUOUS
 10
15.5603552569
 20
5.4606247044
 40
1.38275
  0
CIRCLE
  5
289
100
AcDbEntity
  8
LAYER_FEATURE
100
AcDbCircle
 62
7
  6
CONTINUOUS
 10
15.5603552569
 20
5.4606247044
 40
1.3101925334
  0
CIRCLE
  5
28A
100
AcDbEntity
  8
02___PRT_ALL_AXES
100
AcDbCircle
 62
7
  6
CONTINUOUS
 10
15.5603552569
 20
5.4606247044
 40
1.16575
  0
CIRCLE
  5
28B
100
AcDbEntity
  8
LAYER_CHAMFER_FEAT
100
AcDbCircle
 62
7
  6
CONTINUOUS
 10
15.5603552569
 20
5.4606247044
 40
1.0775
  0
CIRCLE
  5
28C
100
AcDbEntity
  8
LAYER_CHAMFER_FEAT
100
AcDbCircle
 62
7
  6
CONTINUOUS
 10
15.5603552569
 20
5.4606247044
 40
1.0625
  0
ARC
  5
28D
100
AcDbEntity
  8
02___PRT_ALL_AXES
100
AcDbCircle
 62
7
  6
CONTINUOUS
 10
15.5603552569
 20
5.4606247044
 40
0.625
100
AcDbArc
 50
61.4843384185
 51
139.5156615815
  0
ARC
  5
28E
100
AcDbEntity
  8
02___PRT_ALL_AXES
100
AcDbCircle
 62
7
  6
CONTINUOUS
 10
15.5603552569
 20
5.4606247044
 40
0.625
100
AcDbArc
 50
22.4843384185
 51
50.5156615815
  0
ARC
  5
28F
100
AcDbEntity
  8
02___PRT_ALL_AXES
100
AcDbCircle
 62
7
  6
CONTINUOUS
 10
15.5603552569
 20
5.4606247044
 40
0.625
100
AcDbArc
 50
231.4843384185
 51
259.5156615815
  0
ARC
  5
290
100
AcDbEntity
  8
02___PRT_ALL_AXES
100
AcDbCircle
 62
7
  6
CONTINUOUS
 10
15.5603552569
 20
5.4606247044
 40
0.625
100
AcDbArc
 50
150.4843384185
 51
220.5156615815
  0
ARC
  5
291
100
AcDbEntity
  8
02___PRT_ALL_AXES
100
AcDbCircle
 62
7
  6
CONTINUOUS
 10
15.5603552569
 20
5.4606247044
 40
0.625
100
AcDbArc
 50
270.4843384185
 51
11.5156615815
  0
ARC
  5
292
100
AcDbEntity
  8
02___PRT_ALL_AXES
100
AcDbCircle
 62
7
  6
CONTINUOUS
 10
15.5603552569
 20
5.4606247044
 40
0.5944070198
100
AcDbArc
 50
50.0868713124
 51
61.9131286876
  0
ARC
  5
293
100
AcDbEntity
  8
02___PRT_ALL_AXES
100
AcDbCircle
 62
7
  6
CONTINUOUS
 10
15.5603552569
 20
5.4606247044
 40
0.5944070198
100
AcDbArc
 50
220.0868713124
 51
231.9131286876
  0
ARC
  5
294
100
AcDbEntity
  8
02___PRT_ALL_AXES
100
AcDbCircle
 62
7
  6
CONTINUOUS
 10
15.5603552569
 20
5.4606247044
 40
0.5638140395
100
AcDbArc
 50
21.7226277324
 51
140.2773722676
  0
ARC
  5
295
100
AcDbEntity
  8
LAYER_CUT_FEAT
100
AcDbCircle
 62
7
  6
CONTINUOUS
 10
15.5603552569
 20
5.4606247044
 40
0.5638140395
100
AcDbArc
 50
149.7226277324
 51
260.2773722676
  0
ARC
  5
296
100
AcDbEntity
  8
02___PRT_ALL_AXES
100
AcDbCircle
 62
7
  6
CONTINUOUS
 10
15.5603552569
 20
5.4606247044
 40
0.5638140395
100
AcDbArc
 50
269.7226277324
 51
12.2773722676
  0
ARC
  5
297
100
AcDbEntity
  8
02___PRT_ALL_AXES
100
AcDbCircle
 62
7
  6
CONTINUOUS
 10
15.8979679724
 20
5.9611561389
 40
0.0625
100
AcDbArc
 50
314.4577274778
 51
157.5422725222
  0
ARC
  5
298
100
AcDbEntity
  8
02___PRT_ALL_AXES
100
AcDbCircle
 62
7
  6
CONTINUOUS
 10
15.1409552658
 20
5.0263233
 40
0.0625
100
AcDbArc
 50
124.4577274778
 51
327.5422725222
  0
ARC
  5
299
100
AcDbEntity
  8
02___PRT_ALL_AXES
100
AcDbCircle
 62
7
  6
CONTINUOUS
 10
16.1377242533
 20
5.6371441212
 40
0.0625
100
AcDbArc
 50
244.963629888
 51
149.036370112
  0
ARC
  5
29A
100
AcDbEntity
  8
LAYER_CUT_FEAT
100
AcDbCircle
 62
7
  6
CONTINUOUS
 10
15.5077349773
 20
4.8591721555
 40
0.0625
100
AcDbArc
 50
132.963629888
 51
37.036370112
  0
ARC
  5
29B
100
AcDbEntity
  8
02___PRT_ALL_AXES
100
AcDbCircle
 62
7
  6
CONTINUOUS
 10
15.0657922102
 20
5.8069214779
 40
0.0625
100
AcDbArc
 50
12.963629888
 51
277.036370112
  0
ARC
  5
29C
100
AcDbEntity
  8
02___PRT_ALL_AXES
100
AcDbCircle
 62
7
  6
CONTINUOUS
 10
12.8054995941
 20
-25.7261937745
 40
37.7528420762
100
AcDbArc
 50
85.3418201998
 51
85.5312936713
  0
ARC
  5
29D
100
AcDbEntity
  8
02___PRT_ALL_AXES
100
AcDbCircle
 62
7
  6
CONTINUOUS
 10
17.9615823325
 20
-19.7755234555
 40
32.9528666381
100
AcDbArc
 50
93.6158306247
 51
93.8972838006
  0
ARC
  5
29E
100
AcDbEntity
  8
02___PRT_ALL_AXES
100
AcDbCircle
 62
7
  6
CONTINUOUS
 10
14.2189404108
 20
34.00060763
 40
21.0020639741
100
AcDbArc
 50
274.027315744
 51
274.6640189471
  0
ARC
  5
29F
100
AcDbEntity
  8
LAYER_FEATURE
100
AcDbCircle
 62
7
  6
CONTINUOUS
 10
17.2343198268
 20
12.5809726553
 40
2.6896832473
100
AcDbArc
 50
170.1956914866
 51
170.6430987533
  0
ARC
  5
2A0
100
AcDbEntity
  8
LAYER_FEATURE
100
AcDbCircle
 62
7
  6
CONTINUOUS
 10
16.9167017286
 20
12.6428961945
 40
2.3660535979
100
AcDbArc
 50
167.363709777
 51
167.8511072488
  0
ARC
  5
2A1
100
AcDbEntity
  8
LAYER_FEATURE
100
AcDbCircle
 62
7
  6
CONTINUOUS
 10
16.5770428602
 20
12.7273721221
 40
2.0160061261
100
AcDbArc
 50
164.2412312552
 51
164.7836118345
  0
ARC
  5
2A2
100
AcDbEntity
  8
LAYER_CHAMFER_FEAT
100
AcDbCircle
 62
7
  6
CONTINUOUS
 10
16.0696901806
 20
11.8202166947
 40
0.4253734045
100
AcDbArc
 50
220.9315464933
 51
222.1908348747
  0
ARC
  5
2A3
100
AcDbEntity
  8
LAYER_CHAMFER_FEAT
100
AcDbCircle
 62
7
  6
CONTINUOUS
 10
16.0660021971
 20
13.2046754569
 40
0.4204366302
100
AcDbArc
 50
137.8103513639
 51
138.9004411246
  0
ARC
  5
2A4
100
AcDbEntity
  8
02___PRT_ALL_AXES
100
AcDbCircle
 62
7
  6
CONTINUOUS
 10
15.9318781378
 20
11.5255146972
 40
0.1804678021
100
AcDbArc
 50
258.5483611376
 51
267.3064760366
  0
ARC
  5
2A5
100
AcDbEntity
  8
02___PRT_ALL_AXES
100
AcDbCircle
 62
7
  6
CONTINUOUS
 10
15.9318779469
 20
13.4960968814
 40
0.1804662014
100
AcDbArc
 50
92.6924886038
 51
101.4516799652
  0
ARC
  5
2A6
100
AcDbEntity
  8
LAYER_FEATURE
100
AcDbCircle
 62
7
  6
CONTINUOUS
 10
15.8946674226
 20
13.4978162294
 40
0.1786174553
100
AcDbArc
 50
84.2236313376
 51
85.6087666001
  0
ARC
  5
2A7
100
AcDbEntity
  8
LAYER_FEATURE
100
AcDbCircle
 62
7
  6
CONTINUOUS
 10
15.894669954
 20
11.5237616992
 40
0.178585304
100
AcDbArc
 50
274.7099893251
 51
275.7390136036
  0
ARC
  5
2A8
100
AcDbEntity
  8
02___PRT_ALL_AXES
100
AcDbCircle
 62
7
  6
CONTINUOUS
 10
15.8164891523
 20
11.9807413837
 40
0.0949363603
100
AcDbArc
 50
265.65244731
 51
275.3430998066
  0
ARC
  5
2A9
100
AcDbEntity
  8
LAYER_FEATURE
100
AcDbCircle
 62
7
  6
CONTINUOUS
 10
14.6127699594
 20
13.1797275092
 40
0.0269044158
100
AcDbArc
 50
326.0881515559
 51
327.4510011209
  0
SPLINE
  5
2AA
100
AcDbEntity
  8
02___PRT_ALL_AXES
100
AcDbSpline
 62
7
  6
CONTINUOUS
 70
0
 71
3
 72
24
 73
20
 74
0
 42
0.0000001
 43
0.0000001
 44
0.0000000001
 40
0.0
 40
0.0
 40
0.0
 40
0.0
 40
0.016701256
 40
0.0336272054
 40
0.0509916205
 40
0.0689887433
 40
0.1074847729
 40
0.1501896054
 40
0.197712954
 40
0.2503376655
 40
0.3081005055
 40
0.3708540705
 40
0.438310782
 40
0.5100740723
 40
0.5856612408
 40
0.6645211377
 40
0.7460485546
 40
0.8295974968
 40
1.0
 40
1.0
 40
1.0
 40
1.0
 10
15.7455296214
 20
13.1489014395
 30
0.0
 10
15.7451287272
 20
13.1489014366
 30
0.0
 10
15.7443206298
 20
13.1488499262
 30
0.0
 10
15.7431156294
 20
13.1486189261
 30
0.0
 10
15.7419175499
 20
13.1482351215
 30
0.0
 10
15.7402981757
 20
13.1475055777
 30
0.0
 10
15.7382971762
 20
13.1461852613
 30
0.0
 10
15.7360371769
 20
13.144061757
 30
0.0
 10
15.7338768881
 20
13.1413874956
 30
0.0
 10
15.7318332068
 20
13.1381877245
 30
0.0
 10
15.7299227071
 20
13.1344914081
 30
0.0
 10
15.7281627025
 20
13.1303326762
 30
0.0
 10
15.7265696742
 20
13.1257505194
 30
0.0
 10
15.725158921
 20
13.120788445
 30
0.0
 10
15.7239441273
 20
13.1154939268
 30
0.0
 10
15.722937173
 20
13.1099179446
 30
0.0
 10
15.7221478328
 20
13.1041141057
 30
0.0
 10
15.7213913493
 20
13.0960954164
 30
0.0
 10
15.7211790878
 20
13.0899951842
 30
0.0
 10
15.7211917431
 20
13.0859048902
 30
0.0
  0
SPLINE
  5
2AB
100
AcDbEntity
  8
02___PRT_ALL_AXES
100
AcDbSpline
 62
7
  6
CONTINUOUS
 70
0
 71
3
 72
34
 73
30
 74
0
 42
0.0000001
 43
0.0000001
 44
0.0000000001
 40
0.0
 40
0.0
 40
0.0
 40
0.0
 40
0.0884923258
 40
0.1736217367
 40
0.2552269356
 40
0.333173367
 40
0.3707438471
 40
0.4073642173
 40
0.4430275166
 40
0.4777295227
 40
0.5114689466
 40
0.544247669
 40
0.5760710641
 40
0.6069483094
 40
0.636892689
 40
0.6659219819
 40
0.6940588881
 40
0.7213313984
 40
0.7477732142
 40
0.7734242004
 40
0.8225268072
 40
0.8461111204
 40
0.8691318352
 40
0.8916632983
 40
0.9137864458
 40
0.9355881517
 40
0.9571602449
 40
0.978598266
 40
1.0
 40
1.0
 40
1.0
 40
1.0
 10
16.2872231759
 20
11.7861631724
 30
0.0
 10
16.2819229677
 20
11.7690116924
 30
0.0
 10
16.270974818
 20
11.7355266382
 30
0.0
 10
16.2531343003
 20
11.6869091503
 30
0.0
 10
16.2342396499
 20
11.6409953641
 30
0.0
 10
16.2174672277
 20
11.6046780921
 30
0.0
 10
16.2035447157
 20
11.577130998
 30
0.0
 10
16.1930070043
 20
11.5574918242
 30
0.0
 10
16.1822542616
 20
11.5386364882
 30
0.0
 10
16.1712951717
 20
11.5205803585
 30
0.0
 10
16.1601386954
 20
11.5033382288
 30
0.0
 10
16.1487938819
 20
11.4869242175
 30
0.0
 10
16.1372699325
 20
11.4713517604
 30
0.0
 10
16.1255761803
 20
11.4566335961
 30
0.0
 10
16.1137220395
 20
11.4427817867
 30
0.0
 10
16.1017170448
 20
11.4298077297
 30
0.0
 10
16.0895707437
 20
11.4177220399
 30
0.0
 10
16.0772931203
 20
11.406534896
 30
0.0
 10
16.0648929012
 20
11.396254984
 30
0.0
 10
16.0484527446
 20
11.3839514873
 30
0.0
 10
16.0315552043
 20
11.37325385
 30
0.0
 10
16.0142760568
 20
11.364377973
 30
0.0
 10
16.0014172417
 20
11.3587536613
 30
0.0
 10
15.9884980329
 20
11.3540793993
 30
0.0
 10
15.9755287413
 20
11.350359525
 30
0.0
 10
15.9625206524
 20
11.3475978947
 30
0.0
 10
15.9494848147
 20
11.3457974153
 30
0.0
 10
15.9364337019
 20
11.3449600373
 30
0.0
 10
15.9277342287
 20
11.3450445056
 30
0.0
 10
15.9233973155
 20
11.3452462772
 30
0.0
  0
SPLINE
  5
2AC
100
AcDbEntity
  8
02___PRT_ALL_AXES
100
AcDbSpline
 62
7
  6
CONTINUOUS
 70
0
 71
3
 72
33
 73
29
 74
0
 42
0.0000001
 43
0.0000001
 44
0.0000000001
 40
0.0
 40
0.0
 40
0.0
 40
0.0
 40
0.0264982368
 40
0.0548840209
 40
0.0850824998
 40
0.1169907329
 40
0.1504808744
 40
0.1854053727
 40
0.2588743644
 40
0.3359467956
 40
0.4150132938
 40
0.4943891017
 40
0.5723779875
 40
0.6473355929
 40
0.683200599
 40
0.717749232
 40
0.7508214448
 40
0.782274705
 40
0.8119875473
 40
0.8398639489
 40
0.8658389095
 40
0.8898857633
 40
0.9120258964
 40
0.9323414825
 40
0.9509914333
 40
0.9682283155
 40
0.9844111832
 40
1.0
 40
1.0
 40
1.0
 40
1.0
 10
15.5776398235
 20
12.3906729112
 30
0.0
 10
15.5770829901
 20
12.3897201017
 30
0.0
 10
15.5760057732
 20
12.3877015358
 30
0.0
 10
15.5745417318
 20
12.3844724747
 30
0.0
 10
15.5731816889
 20
12.3809556598
 30
0.0
 10
15.5719342503
 20
12.3771731739
 30
0.0
 10
15.5708071496
 20
12.3731484527
 30
0.0
 10
15.569451685
 20
12.3673954545
 30
0.0
 10
15.5681211711
 20
12.3597790661
 30
0.0
 10
15.5671171085
 20
12.3502628108
 30
0.0
 10
15.5667059441
 20
12.3404564301
 30
0.0
 10
15.5668981594
 20
12.3306052256
 30
0.0
 10
15.5676889211
 20
12.3209556332
 30
0.0
 10
15.5688458413
 20
12.3131705394
 30
0.0
 10
15.5700674096
 20
12.3072393759
 30
0.0
 10
15.5711024603
 20
12.303054298
 30
0.0
 10
15.5722631083
 20
12.2990932844
 30
0.0
 10
15.5735420963
 20
12.2953810465
 30
0.0
 10
15.5749313939
 20
12.2919406908
 30
0.0
 10
15.5764223867
 20
12.2887934932
 30
0.0
 10
15.5780059824
 20
12.285958766
 30
0.0
 10
15.5796728006
 20
12.2834537433
 30
0.0
 10
15.5814134077
 20
12.2812935713
 30
0.0
 10
15.5832186473
 20
12.2794914762
 30
0.0
 10
15.5850796689
 20
12.2780593387
 30
0.0
 10
15.5869880685
 20
12.277008572
 30
0.0
 10
15.5889324301
 20
12.2763510219
 30
0.0
 10
15.5902554633
 20
12.2761806494
 30
0.0
 10
15.5909045074
 20
12.2761648015
 30
0.0
  0
SPLINE
  5
2AD
100
AcDbEntity
  8
02___PRT_ALL_AXES
100
AcDbSpline
 62
7
  6
CONTINUOUS
 70
0
 71
3
 72
22
 73
18
 74
0
 42
0.0000001
 43
0.0000001
 44
0.0000000001
 40
0.0
 40
0.0
 40
0.0
 40
0.0
 40
0.176113259
 40
0.2596599623
 40
0.339783946
 40
0.4162162671
 40
0.4887311197
 40
0.5571493251
 40
0.621348913
 40
0.6812768518
 40
0.7369644471
 40
0.7885471531
 40
0.8362890056
 40
0.8806102123
 40
0.922112268
 40
0.9615881609
 40
1.0
 40
1.0
 40
1.0
 40
1.0
 10
15.8253295862
 20
11.8862175284
 30
0.0
 10
15.8257979632
 20
11.8835997945
 30
0.0
 10
15.8266097573
 20
11.8797595991
 30
0.0
 10
15.8279505051
 20
11.87480614
 30
0.0
 10
15.8290368327
 20
11.8713460165
 30
0.0
 10
15.830215976
 20
11.8680929711
 30
0.0
 10
15.8314820368
 20
11.8650632438
 30
0.0
 10
15.8328286951
 20
11.8622719455
 30
0.0
 10
15.8342493204
 20
11.8597329009
 30
0.0
 10
15.8357370602
 20
11.8574586033
 30
0.0
 10
15.8372849704
 20
11.8554601927
 30
0.0
 10
15.8388861453
 20
11.8537475169
 30
0.0
 10
15.8405338686
 20
11.8523293307
 30
0.0
 10
15.8422214508
 20
11.8512136824
 30
0.0
 10
15.8439421307
 20
11.8504083706
 30
0.0
 10
15.8456866867
 20
11.8499209813
 30
0.0
 10
15.846865475
 20
11.8498116178
 30
0.0
 10
15.8474454928
 20
11.8498116199
 30
0.0
  0
SPLINE
  5
2AE
100
AcDbEntity
  8
LAYER_CUT_FEAT
100
AcDbSpline
 62
7
  6
CONTINUOUS
 70
0
 71
3
 72
14
 73
10
 74
0
 42
0.0000001
 43
0.0000001
 44
0.0000000001
 40
0.0
 40
0.0
 40
0.0
 40
0.0
 40
0.2923362669
 40
0.4255092509
 40
0.5509150335
 40
0.6696032466
 40
0.7829057716
 40
0.8924290407
 40
1.0
 40
1.0
 40
1.0
 40
1.0
 10
15.9764261671
 20
12.0396978396
 30
0.0
 10
15.9772109887
 20
12.0387007837
 30
0.0
 10
15.9784519713
 20
12.0373185149
 30
0.0
 10
15.9802813912
 20
12.0357738306
 30
0.0
 10
15.9816360716
 20
12.0348480588
 30
0.0
 10
15.9830116038
 20
12.0341228554
 30
0.0
 10
15.9844040059
 20
12.0336016234
 30
0.0
 10
15.9858079707
 20
12.0332874322
 30
0.0
 10
15.9867516952
 20
12.0332172173
 30
0.0
 10
15.9872186062
 20
12.0332172198
 30
0.0
  0
SPLINE
  5
2AF
100
AcDbEntity
  8
LAYER_CHAMFER_FEAT
100
AcDbSpline
 62
7
  6
CONTINUOUS
 70
0
 71
3
 72
14
 73
10
 74
0
 42
0.0000001
 43
0.0000001
 44
0.0000000001
 40
0.0
 40
0.0
 40
0.0
 40
0.0
 40
0.2714512113
 40
0.4018358436
 40
0.5286296598
 40
0.6518278979
 40
0.7714385276
 40
0.8874836439
 40
1.0
 40
1.0
 40
1.0
 40
1.0
 10
15.6707941564
 20
11.6667702478
 30
0.0
 10
15.677047248
 20
11.654027787
 30
0.0
 10
15.6867421693
 20
11.6353730256
 30
0.0
 10
15.7004619078
 20
11.6113734275
 30
0.0
 10
15.7108120953
 20
11.5943855019
 30
0.0
 10
15.7213516135
 20
11.5781824365
 30
0.0
 10
15.7320717597
 20
11.5627778144
 30
0.0
 10
15.7429632199
 20
11.5481850957
 30
0.0
 10
15.7504472265
 20
11.5388630519
 30
0.0
 10
15.7542173208
 20
11.5343462891
 30
0.0
  0
SPLINE
  5
2B0
100
AcDbEntity
  8
02___PRT_ALL_AXES
100
AcDbSpline
 62
7
  6
CONTINUOUS
 70
0
 71
3
 72
20
 73
16
 74
0
 42
0.0000001
 43
0.0000001
 44
0.0000000001
 40
0.0
 40
0.0
 40
0.0
 40
0.0
 40
0.0426723887
 40
0.0860852169
 40
0.1309332314
 40
0.1778304248
 40
0.2272909913
 40
0.2797237318
 40
0.3354379696
 40
0.3946544135
 40
0.4575160398
 40
0.5241003704
 40
0.6684352386
 40
0.8273678691
 40
1.0
 40
1.0
 40
1.0
 40
1.0
 10
15.9024037735
 20
13.1352998857
 30
0.0
 10
15.9019474643
 20
13.1352998831
 30
0.0
 10
15.901025592
 20
13.1352328901
 30
0.0
 10
15.8996535776
 20
13.1349329229
 30
0.0
 10
15.8982922805
 20
13.1344351864
 30
0.0
 10
15.8969466383
 20
13.1337424251
 30
0.0
 10
15.8956205687
 20
13.1328577578
 30
0.0
 10
15.8943177755
 20
13.1317846261
 30
0.0
 10
15.8930418038
 20
13.1305267237
 30
0.0
 10
15.8917962432
 20
13.1290880795
 30
0.0
 10
15.8905845657
 20
13.1274732088
 30
0.0
 10
15.8889756839
 20
13.1250254301
 30
0.0
 10
15.8870882822
 20
13.1215413412
 30
0.0
 10
15.8850716501
 20
13.1168635592
 30
0.0
 10
15.8839150097
 20
13.1135083818
 30
0.0
 10
15.8833679991
 20
13.1117452796
 30
0.0
  0
SPLINE
  5
2B1
100
AcDbEntity
  8
02___PRT_ALL_AXES
100
AcDbSpline
 62
7
  6
CONTINUOUS
 70
0
 71
3
 72
33
 73
29
 74
0
 42
0.0000001
 43
0.0000001
 44
0.0000000001
 40
0.0
 40
0.0
 40
0.0
 40
0.0
 40
0.0187276723
 40
0.0376987832
 40
0.0570394722
 40
0.0768670897
 40
0.0972881791
 40
0.1183973257
 40
0.1402768018
 40
0.1629966926
 40
0.186615461
 40
0.2111807374
 40
0.2367302095
 40
0.2632925165
 40
0.2908881443
 40
0.319530271
 40
0.3492255196
 40
0.3799746118
 40
0.4117729518
 40
0.4446111754
 40
0.4784756105
 40
0.5133486711
 40
0.5860273694
 40
0.662446772
 40
0.7423563179
 40
0.8254685072
 40
0.91146452
 40
1.0
 40
1.0
 40
1.0
 40
1.0
 10
15.8092923766
 20
11.886078197
 30
0.0
 10
15.8063507678
 20
11.8863016233
 30
0.0
 10
15.8004467667
 20
11.8870269577
 30
0.0
 10
15.7916537577
 20
11.8889297882
 30
0.0
 10
15.7828961894
 20
11.8916486271
 30
0.0
 10
15.7741870939
 20
11.8951785378
 30
0.0
 10
15.7655376824
 20
11.899513656
 30
0.0
 10
15.7569590987
 20
11.9046472264
 30
0.0
 10
15.7484620699
 20
11.910571691
 30
0.0
 10
15.7400571169
 20
11.9172786893
 30
0.0
 10
15.7317546088
 20
11.9247590701
 30
0.0
 10
15.7235648159
 20
11.9330028604
 30
0.0
 10
15.7154979302
 20
11.941999232
 30
0.0
 10
15.7075640493
 20
11.9517364545
 30
0.0
 10
15.6997731698
 20
11.9622018869
 30
0.0
 10
15.6921351761
 20
11.973381979
 30
0.0
 10
15.6846598173
 20
11.9852622706
 30
0.0
 10
15.6773566816
 20
11.9978273868
 30
0.0
 10
15.6702351547
 20
12.0110610524
 30
0.0
 10
15.6633044567
 20
12.0249460999
 30
0.0
 10
15.6565734644
 20
12.0394645761
 30
0.0
 10
15.6477555136
 20
12.0599241369
 30
0.0
 10
15.6373252245
 20
12.0869758197
 30
0.0
 10
15.6259050973
 20
12.1212066006
 30
0.0
 10
15.6154736439
 20
12.1574640882
 30
0.0
 10
15.6060853363
 20
12.1955599329
 30
0.0
 10
15.5977893006
 20
12.2352963422
 30
0.0
 10
15.5930775033
 20
12.2623885518
 30
0.0
 10
15.5909045074
 20
12.2761648015
 30
0.0
  0
SPLINE
  5
2B2
100
AcDbEntity
  8
LAYER_FEATURE
100
AcDbSpline
 62
7
  6
CONTINUOUS
 70
0
 71
3
 72
19
 73
15
 74
0
 42
0.0000001
 43
0.0000001
 44
0.0000000001
 40
0.0
 40
0.0
 40
0.0
 40
0.0
 40
0.0569175517
 40
0.1139810122
 40
0.1713348986
 40
0.2291210485
 40
0.2874773184
 40
0.3465366075
 40
0.467229038
 40
0.5921699931
 40
0.7221710375
 40
0.7893014395
 40
0.8579435213
 40
1.0
 40
1.0
 40
1.0
 40
1.0
 10
15.0294950607
 20
13.8935549852
 30
0.0
 10
15.0333428609
 20
13.8935549814
 30
0.0
 10
15.0410500034
 20
13.8933426625
 30
0.0
 10
15.0525988549
 20
13.8923877079
 30
0.0
 10
15.0641369599
 20
13.8907967502
 30
0.0
 10
15.0756582451
 20
13.8885705961
 30
0.0
 10
15.0871576556
 20
13.8857103735
 30
0.0
 10
15.1025624084
 20
13.8810205136
 30
0.0
 10
15.1217874009
 20
13.8735245464
 30
0.0
 10
15.1444968752
 20
13.8620857627
 30
0.0
 10
15.1630315383
 20
13.8506077541
 30
0.0
 10
15.1777156705
 20
13.8402478695
 30
0.0
 10
15.1926356483
 20
13.8288329969
 30
0.0
 10
15.2034577582
 20
13.8195476544
 30
0.0
 10
15.2105366981
 20
13.8130580555
 30
0.0
  0
SPLINE
  5
2B3
100
AcDbEntity
  8
LAYER_FEATURE
100
AcDbSpline
 62
7
  6
CONTINUOUS
 70
0
 71
3
 72
19
 73
15
 74
0
 42
0.0000001
 43
0.0000001
 44
0.0000000001
 40
0.0
 40
0.0
 40
0.0
 40
0.0
 40
0.0569186479
 40
0.1139831725
 40
0.1713380645
 40
0.229125116
 40
0.2874821853
 40
0.3465420983
 40
0.4672352816
 40
0.5921761537
 40
0.72217617
 40
0.7893056977
 40
0.8579466083
 40
1.0
 40
1.0
 40
1.0
 40
1.0
 10
15.0294950607
 20
11.1280550007
 30
0.0
 10
15.0333424028
 20
11.1280549969
 30
0.0
 10
15.0410486247
 20
11.1282672816
 30
0.0
 10
15.0525961017
 20
11.12922199
 30
0.0
 10
15.0641328311
 20
11.130812591
 30
0.0
 10
15.0756527564
 20
11.1330381871
 30
0.0
 10
15.0871508007
 20
11.1358977593
 30
0.0
 10
15.1025537298
 20
11.1405864612
 30
0.0
 10
15.1217764428
 20
11.1480806453
 30
0.0
 10
15.1444833146
 20
11.1595167093
 30
0.0
 10
15.1630159383
 20
11.170992024
 30
0.0
 10
15.1776984693
 20
11.1813495052
 30
0.0
 10
15.1926168088
 20
11.1927616707
 30
0.0
 10
15.2034377965
 20
11.2020448495
 30
0.0
 10
15.2105160099
 20
11.2085329664
 30
0.0
  0
SPLINE
  5
2B4
100
AcDbEntity
  8
LAYER_FEATURE
100
AcDbSpline
 62
7
  6
CONTINUOUS
 70
0
 71
3
 72
54
 73
50
 74
0
 42
0.0000001
 43
0.0000001
 44
0.0000000001
 40
0.0
 40
0.0
 40
0.0
 40
0.0
 40
0.0076944498
 40
0.0154413813
 40
0.0232919705
 40
0.0312949099
 40
0.0394954566
 40
0.0479347596
 40
0.0566494683
 40
0.0656715927
 40
0.0750285598
 40
0.084743408
 40
0.094835067
 40
0.1053186804
 40
0.11620594
 40
0.1275054133
 40
0.1392228492
 40
0.1513614589
 40
0.1639221688
 40
0.176903846
 40
0.1903034963
 40
0.2041164401
 40
0.2183364663
 40
0.2329559684
 40
0.247966065
 40
0.263356706
 40
0.2791167689
 40
0.2952341454
 40
0.3116958187
 40
0.3284879346
 40
0.3455958669
 40
0.3630042768
 40
0.3986567007
 40
0.4353116457
 40
0.4728260636
 40
0.5110502178
 40
0.5498290122
 40
0.589003255
 40
0.6284108829
 40
0.667888156
 40
0.7072708358
 40
0.74639536
 40
0.785100025
 40
0.8232261831
 40
0.8606194684
 40
0.8971310711
 40
0.9326190815
 40
0.966949917
 40
1.0
 40
1.0
 40
1.0
 40
1.0
 10
15.9412917603
 20
13.8935549851
 30
0.0
 10
15.9475834245
 20
13.8935549903
 30
0.0
 10
15.9602169489
 20
13.89298496
 30
0.0
 10
15.9791136303
 20
13.8904243617
 30
0.0
 10
15.9979598013
 20
13.8861618609
 30
0.0
 10
16.0167284368
 20
13.8802048545
 30
0.0
 10
16.0353960515
 20
13.8725630974
 30
0.0
 10
16.0539393922
 20
13.8632483502
 30
0.0
 10
16.072336196
 20
13.8522741194
 30
0.0
 10
16.0905647489
 20
13.8396555126
 30
0.0
 10
16.1086037758
 20
13.825409194
 30
0.0
 10
16.1264322883
 20
13.8095534071
 30
0.0
 10
16.1440295087
 20
13.7921080283
 30
0.0
 10
16.1613748326
 20
13.7730946252
 30
0.0
 10
16.1784478292
 20
13.7525365065
 30
0.0
 10
16.1952282608
 20
13.7304587553
 30
0.0
 10
16.2116961187
 20
13.7068882475
 30
0.0
 10
16.2278316642
 20
13.6818536542
 30
0.0
 10
16.2436154676
 20
13.6553854274
 30
0.0
 10
16.2590284499
 20
13.6275157775
 30
0.0
 10
16.2740519215
 20
13.5982786438
 30
0.0
 10
16.288667618
 20
13.5677096579
 30
0.0
 10
16.3028577337
 20
13.5358461028
 30
0.0
 10
16.3166049523
 20
13.5027268681
 30
0.0
 10
16.3298924751
 20
13.4683924028
 30
0.0
 10
16.3427040497
 20
13.432884666
 30
0.0
 10
16.355023993
 20
13.3962470718
 30
0.0
 10
16.3668372112
 20
13.3585244372
 30
0.0
 10
16.3781292312
 20
13.3197629133
 30
0.0
 10
16.3888861835
 20
13.2800099737
 30
0.0
 10
16.3990949611
 20
13.2393141774
 30
0.0
 10
16.4120614405
 20
13.1834197389
 30
0.0
 10
16.42677632
 20
13.111535703
 30
0.0
 10
16.4419277222
 20
13.02300849
 30
0.0
 10
16.4546353517
 20
12.9319741931
 30
0.0
 10
16.4648366035
 20
12.8388787721
 30
0.0
 10
16.4724812125
 20
12.7441774308
 30
0.0
 10
16.477531507
 20
12.6483336821
 30
0.0
 10
16.4799626028
 20
12.5518166532
 30
0.0
 10
16.4797625175
 20
12.4550988461
 30
0.0
 10
16.4769322317
 20
12.3586537566
 30
0.0
 10
16.4714856933
 20
12.2629535255
 30
0.0
 10
16.4634497515
 20
12.1684665777
 30
0.0
 10
16.4528640099
 20
12.0756553033
 30
0.0
 10
16.4397806076
 20
11.9849736794
 30
0.0
 10
16.4242640179
 20
11.8968652221
 30
0.0
 10
16.4063904848
 20
11.8117598985
 30
0.0
 10
16.3862484232
 20
11.7300748937
 30
0.0
 10
16.3710673664
 20
11.6770937493
 30
0.0
 10
16.3630884014
 20
11.6512738093
 30
0.0
  0
SPLINE
  5
2B5
100
AcDbEntity
  8
LAYER_FEATURE
100
AcDbSpline
 62
7
  6
CONTINUOUS
 70
0
 71
3
 72
34
 73
30
 74
0
 42
0.0000001
 43
0.0000001
 44
0.0000000001
 40
0.0
 40
0.0
 40
0.0
 40
0.0
 40
0.021277618
 40
0.042649021
 40
0.0642064753
 40
0.0860393076
 40
0.1082326744
 40
0.1308665541
 40
0.1540150003
 40
0.1777456881
 40
0.2021196816
 40
0.2271913755
 40
0.2795982787
 40
0.3070255587
 40
0.3353056934
 40
0.364463518
 40
0.3945190459
 40
0.4254878103
 40
0.4573812577
 40
0.4902070841
 40
0.5239695015
 40
0.5586695326
 40
0.594305291
 40
0.6308721871
 40
0.6683631124
 40
0.7460728074
 40
0.8273395859
 40
0.9120335745
 40
1.0
 40
1.0
 40
1.0
 40
1.0
 10
15.9412917603
 20
11.1280550007
 30
0.0
 10
15.9463425247
 20
11.1280550049
 30
0.0
 10
15.9564700977
 20
11.1284214889
 30
0.0
 10
15.971634243
 20
11.1300689664
 30
0.0
 10
15.9867732369
 20
11.1328128418
 30
0.0
 10
16.0018733028
 20
11.1366503045
 30
0.0
 10
16.0169222375
 20
11.1415775732
 30
0.0
 10
16.0319077401
 20
11.1475899347
 30
0.0
 10
16.0468179301
 20
11.1546818187
 30
0.0
 10
16.0616409915
 20
11.1628468274
 30
0.0
 10
16.0763658516
 20
11.1720781582
 30
0.0
 10
16.0961423629
 20
11.1860019486
 30
0.0
 10
16.1153803962
 20
11.2018846495
 30
0.0
 10
16.1340535717
 20
11.2194965887
 30
0.0
 10
16.1481184335
 20
11.2339273591
 30
0.0
 10
16.1620178338
 20
11.2493659569
 30
0.0
 10
16.1757418401
 20
11.2658009827
 30
0.0
 10
16.1892796276
 20
11.2832192421
 30
0.0
 10
16.2026207556
 20
11.3016070828
 30
0.0
 10
16.2157548088
 20
11.3209500334
 30
0.0
 10
16.2286715498
 20
11.3412328757
 30
0.0
 10
16.2413608944
 20
11.3624396484
 30
0.0
 10
16.2538128628
 20
11.3845536522
 30
0.0
 10
16.2660177882
 20
11.4075575593
 30
0.0
 10
16.2821412372
 20
11.4397770127
 30
0.0
 10
16.3015742095
 20
11.4821894406
 30
0.0
 10
16.3234872217
 20
11.5357347304
 30
0.0
 10
16.3441959094
 20
11.5923552335
 30
0.0
 10
16.3569233446
 20
11.6313236782
 30
0.0
 10
16.3630884014
 20
11.6512738093
 30
0.0
  0
SPLINE
  5
2B6
100
AcDbEntity
  8
LAYER_FEATURE
100
AcDbSpline
 62
7
  6
CONTINUOUS
 70
0
 71
3
 72
23
 73
19
 74
0
 42
0.0000001
 43
0.0000001
 44
0.0000000001
 40
0.0
 40
0.0
 40
0.0
 40
0.0
 40
0.0834704286
 40
0.1643492617
 40
0.2425287547
 40
0.3179140795
 40
0.3904266445
 40
0.4600054397
 40
0.5266096042
 40
0.5902212064
 40
0.6508486018
 40
0.708530379
 40
0.7633399746
 40
0.8153909336
 40
0.8648426535
 40
0.911906201
 40
0.9568494124
 40
1.0
 40
1.0
 40
1.0
 40
1.0
 10
15.5678203296
 20
13.2353691122
 30
0.0
 10
15.5722174548
 20
13.2495982146
 30
0.0
 10
15.581254627
 20
13.2774993743
 30
0.0
 10
15.5957853535
 20
13.3182660475
 30
0.0
 10
15.6110517727
 20
13.3572186092
 30
0.0
 10
15.6270196343
 20
13.3942696207
 30
0.0
 10
15.6436532775
 20
13.4293364245
 30
0.0
 10
15.6609157132
 20
13.4623408567
 30
0.0
 10
15.6787687486
 20
13.4932095063
 30
0.0
 10
15.6971731658
 20
13.5218738381
 30
0.0
 10
15.7160889011
 20
13.5482703001
 30
0.0
 10
15.7354752729
 20
13.5723403572
 30
0.0
 10
15.7552911466
 20
13.5940304179
 30
0.0
 10
15.775495257
 20
13.6132916998
 30
0.0
 10
15.7960457469
 20
13.6300797249
 30
0.0
 10
15.816901776
 20
13.6443544609
 30
0.0
 10
15.8380167248
 20
13.6560777817
 30
0.0
 10
15.852497067
 20
13.6622810506
 30
0.0
 10
15.8597324493
 20
13.6649125025
 30
0.0
  0
SPLINE
  5
2B7
100
AcDbEntity
  8
LAYER_FEATURE
100
AcDbSpline
 62
7
  6
CONTINUOUS
 70
0
 71
3
 72
11
 73
7
 74
0
 42
0.0000001
 43
0.0000001
 44
0.0000000001
 40
0.0
 40
0.0
 40
0.0
 40
0.0
 40
0.2557729224
 40
0.5066385518
 40
0.7541647387
 40
1.0
 40
1.0
 40
1.0
 40
1.0
 10
15.8597324493
 20
13.6649125025
 30
0.0
 10
15.8649402528
 20
13.6668065398
 30
0.0
 10
15.8754126953
 20
13.6701447904
 30
0.0
 10
15.8913658836
 20
13.6737683378
 30
0.0
 10
15.9073632735
 20
13.6759453873
 30
0.0
 10
15.9180585294
 20
13.6764299808
 30
0.0
 10
15.9233847554
 20
13.6764299885
 30
0.0
  0
SPLINE
  5
2B8
100
AcDbEntity
  8
LAYER_FEATURE
100
AcDbSpline
 62
7
  6
CONTINUOUS
 70
0
 71
3
 72
50
 73
46
 74
0
 42
0.0000001
 43
0.0000001
 44
0.0000000001
 40
0.0
 40
0.0
 40
0.0
 40
0.0
 40
0.0319411965
 40
0.0650506738
 40
0.0992243322
 40
0.1343498089
 40
0.1703079058
 40
0.2069736593
 40
0.2442173431
 40
0.2819054489
 40
0.3199016038
 40
0.3580674807
 40
0.3962636824
 40
0.4343506219
 40
0.4721893976
 40
0.5096426801
 40
0.5465756033
 40
0.5828566817
 40
0.6183587645
 40
0.6529600168
 40
0.6865449986
 40
0.7190057955
 40
0.7502433096
 40
0.765375916
 40
0.7801703337
 40
0.7946173456
 40
0.8087086097
 40
0.8224367275
 40
0.8357953248
 40
0.848779142
 40
0.8613841401
 40
0.8736076162
 40
0.885448328
 40
0.8969066388
 40
0.9079846808
 40
0.9186865419
 40
0.9290184673
 40
0.9389890771
 40
0.9486096039
 40
0.9578941417
 40
0.9668598994
 40
0.9755274322
 40
0.9839208351
 40
0.9920678717
 40
1.0
 40
1.0
 40
1.0
 40
1.0
 10
15.5678203296
 20
13.2353691122
 30
0.0
 10
15.5615241922
 20
13.2149948042
 30
0.0
 10
15.5495033047
 20
13.1732496577
 30
0.0
 10
15.5334172538
 20
13.1089747958
 30
0.0
 10
15.5190032006
 20
13.0421281464
 30
0.0
 10
15.5063237373
 20
12.9729976542
 30
0.0
 10
15.4954335544
 20
12.9018797916
 30
0.0
 10
15.4863797961
 20
12.8290801886
 30
0.0
 10
15.4792015831
 20
12.7549117234
 30
0.0
 10
15.4739300018
 20
12.6796932986
 30
0.0
 10
15.4705878438
 20
12.6037484003
 30
0.0
 10
15.4691895716
 20
12.5274036913
 30
0.0
 10
15.4697412523
 20
12.4509875789
 30
0.0
 10
15.4722404707
 20
12.3748287832
 30
0.0
 10
15.4766764434
 20
12.2992549007
 30
0.0
 10
15.4830299508
 20
12.2245909719
 30
0.0
 10
15.4912735147
 20
12.1511580598
 30
0.0
 10
15.5013714812
 20
12.0792718469
 30
0.0
 10
15.5132801583
 20
12.0092412137
 30
0.0
 10
15.5269480935
 20
11.9413669854
 30
0.0
 10
15.5423162318
 20
11.8759401908
 30
0.0
 10
15.5593181943
 20
11.8132421419
 30
0.0
 10
15.5749480376
 20
11.7629716364
 30
0.0
 10
15.5882425405
 20
11.7243583556
 30
0.0
 10
15.5984688089
 20
11.6965513174
 30
0.0
 10
15.6090446453
 20
11.6696208355
 30
0.0
 10
15.6199587761
 20
11.6435957425
 30
0.0
 10
15.6311994568
 20
11.6185039914
 30
0.0
 10
15.6427546382
 20
11.5943724957
 30
0.0
 10
15.6546119473
 20
11.5712271334
 30
0.0
 10
15.6667587081
 20
11.5490927049
 30
0.0
 10
15.6791819545
 20
11.527992906
 30
0.0
 10
15.6918684644
 20
11.5079503139
 30
0.0
 10
15.7048047765
 20
11.4889863688
 30
0.0
 10
15.7179772188
 20
11.4711213593
 30
0.0
 10
15.7313719213
 20
11.4543743999
 30
0.0
 10
15.7449748421
 20
11.438763427
 30
0.0
 10
15.7587717975
 20
11.4243052128
 30
0.0
 10
15.7727484775
 20
11.4110153752
 30
0.0
 10
15.7868904478
 20
11.3989084049
 30
0.0
 10
15.801183174
 20
11.3879976587
 30
0.0
 10
15.8156118509
 20
11.3782954499
 30
0.0
 10
15.8301619096
 20
11.3698128943
 30
0.0
 10
15.844816972
 20
11.3625605875
 30
0.0
 10
15.8547680638
 20
11.3585026353
 30
0.0
 10
15.8597449897
 20
11.3566929181
 30
0.0
  0
SPLINE
  5
2B9
100
AcDbEntity
  8
LAYER_FEATURE
100
AcDbSpline
 62
7
  6
CONTINUOUS
 70
0
 71
3
 72
11
 73
7
 74
0
 42
0.0000001
 43
0.0000001
 44
0.0000000001
 40
0.0
 40
0.0
 40
0.0
 40
0.0
 40
0.2557707221
 40
0.5066360016
 40
0.754163134
 40
1.0
 40
1.0
 40
1.0
 40
1.0
 10
15.8597449897
 20
11.3566929181
 30
0.0
 10
15.8649517983
 20
11.3547996108
 30
0.0
 10
15.8754222378
 20
11.3514626984
 30
0.0
 10
15.8913722677
 20
11.347840591
 30
0.0
 10
15.9073664734
 20
11.3456644219
 30
0.0
 10
15.9180595874
 20
11.3451799896
 30
0.0
 10
15.9233847554
 20
11.3451799973
 30
0.0
  0
SPLINE
  5
2BA
100
AcDbEntity
  8
LAYER_FEATURE
100
AcDbSpline
 62
7
  6
CONTINUOUS
 70
0
 71
3
 72
54
 73
50
 74
0
 42
0.0000001
 43
0.0000001
 44
0.0000000001
 40
0.0
 40
0.0
 40
0.0
 40
0.0
 40
0.033050083
 40
0.0673809185
 40
0.1028689289
 40
0.1393805316
 40
0.1767738169
 40
0.214899975
 40
0.25360464
 40
0.2927291642
 40
0.332111844
 40
0.3715891171
 40
0.410996745
 40
0.4501709878
 40
0.4889497822
 40
0.5271739364
 40
0.5646883543
 40
0.6013432993
 40
0.6369957232
 40
0.6544041331
 40
0.6715120654
 40
0.6883041813
 40
0.7047658546
 40
0.7208832311
 40
0.736643294
 40
0.752033935
 40
0.7670440316
 40
0.7816635337
 40
0.7958835599
 40
0.8096965037
 40
0.823096154
 40
0.8360778312
 40
0.8486385411
 40
0.8607771508
 40
0.8724945867
 40
0.88379406
 40
0.8946813196
 40
0.905164933
 40
0.915256592
 40
0.9249714402
 40
0.9343284073
 40
0.9433505317
 40
0.9520652404
 40
0.9605045434
 40
0.9687050901
 40
0.9767080295
 40
0.9845586187
 40
0.9923055502
 40
1.0
 40
1.0
 40
1.0
 40
1.0
 10
15.490888544
 20
13.3703361765
 30
0.0
 10
15.4829095791
 20
13.3445162365
 30
0.0
 10
15.4677285223
 20
13.2915350921
 30
0.0
 10
15.4475864606
 20
13.2098500873
 30
0.0
 10
15.4297129275
 20
13.1247447637
 30
0.0
 10
15.4141963378
 20
13.0366363064
 30
0.0
 10
15.4011129355
 20
12.9459546825
 30
0.0
 10
15.390527194
 20
12.8531434081
 30
0.0
 10
15.3824912522
 20
12.7586564603
 30
0.0
 10
15.3770447138
 20
12.6629562293
 30
0.0
 10
15.374214428
 20
12.5665111397
 30
0.0
 10
15.3740143427
 20
12.4697933326
 30
0.0
 10
15.3764454384
 20
12.3732763037
 30
0.0
 10
15.3814957329
 20
12.277432555
 30
0.0
 10
15.389140342
 20
12.1827312138
 30
0.0
 10
15.3993415937
 20
12.0896357927
 30
0.0
 10
15.4120492232
 20
11.9986014958
 30
0.0
 10
15.4272006254
 20
11.9100742828
 30
0.0
 10
15.4419155049
 20
11.8381902469
 30
0.0
 10
15.4548819844
 20
11.7822958084
 30
0.0
 10
15.4650907619
 20
11.7416000121
 30
0.0
 10
15.4758477142
 20
11.7018470725
 30
0.0
 10
15.4871397342
 20
11.6630855487
 30
0.0
 10
15.4989529525
 20
11.625362914
 30
0.0
 10
15.5112728958
 20
11.5887253199
 30
0.0
 10
15.5240844704
 20
11.553217583
 30
0.0
 10
15.5373719931
 20
11.5188831178
 30
0.0
 10
15.5511192118
 20
11.4857638831
 30
0.0
 10
15.5653093275
 20
11.4539003279
 30
0.0
 10
15.579925024
 20
11.423331342
 30
0.0
 10
15.5949484955
 20
11.3940942083
 30
0.0
 10
15.6103614779
 20
11.3662245584
 30
0.0
 10
15.6261452812
 20
11.3397563316
 30
0.0
 10
15.6422808267
 20
11.3147217384
 30
0.0
 10
15.6587486847
 20
11.2911512306
 30
0.0
 10
15.6755291163
 20
11.2690734793
 30
0.0
 10
15.6926021128
 20
11.2485153606
 30
0.0
 10
15.7099474368
 20
11.2295019576
 30
0.0
 10
15.7275446571
 20
11.2120565787
 30
0.0
 10
15.7453731696
 20
11.1962007918
 30
0.0
 10
15.7634121965
 20
11.1819544732
 30
0.0
 10
15.7816407494
 20
11.1693358665
 30
0.0
 10
15.8000375533
 20
11.1583616357
 30
0.0
 10
15.8185808939
 20
11.1490468884
 30
0.0
 10
15.8372485087
 20
11.1414051313
 30
0.0
 10
15.8560171441
 20
11.1354481249
 30
0.0
 10
15.8748633151
 20
11.1311856241
 30
0.0
 10
15.8937599966
 20
11.1286250258
 30
0.0
 10
15.9063935209
 20
11.1280549955
 30
0.0
 10
15.9126851851
 20
11.1280550007
 30
0.0
  0
SPLINE
  5
2BB
100
AcDbEntity
  8
02___PRT_ALL_AXES
100
AcDbSpline
 62
7
  6
CONTINUOUS
 70
0
 71
3
 72
53
 73
49
 74
0
 42
0.0000001
 43
0.0000001
 44
0.0000000001
 40
0.0
 40
0.0
 40
0.0
 40
0.0
 40
0.0077192986
 40
0.0154647664
 40
0.0232894545
 40
0.0312444429
 40
0.0393777274
 40
0.0477333766
 40
0.0563509879
 40
0.065265426
 40
0.0745067941
 40
0.084100577
 40
0.0940678982
 40
0.1044258386
 40
0.1151877813
 40
0.1263637547
 40
0.1379607614
 40
0.1499830813
 40
0.1624325448
 40
0.1753087779
 40
0.1886094175
 40
0.2023303023
 40
0.2164656392
 40
0.2310081513
 40
0.2459492092
 40
0.2612789466
 40
0.2769863629
 40
0.293059416
 40
0.3094851048
 40
0.3262495448
 40
0.3607337075
 40
0.3963872203
 40
0.4330736241
 40
0.4706479161
 40
0.5089580359
 40
0.5478462602
 40
0.587150522
 40
0.6267056786
 40
0.6663447526
 40
0.7059001579
 40
0.7452049158
 40
0.7840938792
 40
0.8224049755
 40
0.8599804752
 40
0.8966683079
 40
0.9323234542
 40
0.966809422
 40
1.0
 40
1.0
 40
1.0
 40
1.0
 10
15.9234004574
 20
13.6763638557
 30
0.0
 10
15.9287372475
 20
13.6766120552
 30
0.0
 10
15.93945786
 20
13.6766247184
 30
0.0
 10
15.9555326742
 20
13.6751802632
 30
0.0
 10
15.9715751523
 20
13.6722753219
 30
0.0
 10
15.9875615661
 20
13.6679150919
 30
0.0
 10
16.0034711889
 20
13.6621070939
 30
0.0
 10
16.0192835523
 20
13.6548607188
 30
0.0
 10
16.0349791263
 20
13.6461869782
 30
0.0
 10
16.050538945
 20
13.6360983131
 30
0.0
 10
16.0659444976
 20
13.6246085219
 30
0.0
 10
16.0811775713
 20
13.6117327574
 30
0.0
 10
16.0962201628
 20
13.5974875659
 30
0.0
 10
16.1110544274
 20
13.5818909402
 30
0.0
 10
16.1256626663
 20
13.5649623695
 30
0.0
 10
16.1400273411
 20
13.5467228797
 30
0.0
 10
16.1541310965
 20
13.5271950506
 30
0.0
 10
16.1679567945
 20
13.5064030221
 30
0.0
 10
16.1814875509
 20
13.4843724893
 30
0.0
 10
16.1947067718
 20
13.4611306859
 30
0.0
 10
16.2075981887
 20
13.4367063613
 30
0.0
 10
16.2201458899
 20
13.4111297515
 30
0.0
 10
16.2323343546
 20
13.3844325459
 30
0.0
 10
16.244148479
 20
13.3566478492
 30
0.0
 10
16.2555736014
 20
13.3278101372
 30
0.0
 10
16.2665955242
 20
13.2979552152
 30
0.0
 10
16.2772005452
 20
13.2671201627
 30
0.0
 10
16.2873754404
 20
13.2353433255
 30
0.0
 10
16.2971076314
 20
13.2026641129
 30
0.0
 10
16.3095943342
 20
13.157518994
 30
0.0
 10
16.3239741339
 20
13.099102887
 30
0.0
 10
16.3391266325
 20
13.0267249523
 30
0.0
 10
16.352258497
 20
12.9517815406
 30
0.0
 10
16.3633039924
 20
12.8746455625
 30
0.0
 10
16.3722078484
 20
12.7957000286
 30
0.0
 10
16.3789254835
 20
12.7153374442
 30
0.0
 10
16.3834232512
 20
12.6339574191
 30
0.0
 10
16.3856786161
 20
12.5519647425
 30
0.0
 10
16.3856802905
 20
12.4697673004
 30
0.0
 10
16.3834282675
 20
12.3877740162
 30
0.0
 10
16.3789338206
 20
12.3063927807
 30
0.0
 10
16.3722194589
 20
12.2260283825
 30
0.0
 10
16.3633188203
 20
12.1470804677
 30
0.0
 10
16.3522764616
 20
12.0699414534
 30
0.0
 10
16.3391476802
 20
11.9949947277
 30
0.0
 10
16.3239980358
 20
11.9226119485
 30
0.0
 10
16.3069036947
 20
11.8531536606
 30
0.0
 10
16.2940054027
 20
11.8081104664
 30
0.0
 10
16.2872231759
 20
11.7861631724
 30
0.0
  0
SPLINE
  5
2BC
100
AcDbEntity
  8
LAYER_CHAMFER_FEAT
100
AcDbSpline
 62
7
  6
CONTINUOUS
 70
0
 71
3
 72
45
 73
41
 74
0
 42
0.0000001
 43
0.0000001
 44
0.0000000001
 40
0.0
 40
0.0
 40
0.0
 40
0.0
 40
0.0101615736
 40
0.0206689568
 40
0.0315258481
 40
0.0427342587
 40
0.0542946649
 40
0.0662061355
 40
0.0784664603
 40
0.0910722656
 40
0.1040191108
 40
0.117301566
 40
0.1309132955
 40
0.1448471332
 40
0.1736472825
 40
0.2036317691
 40
0.2347189122
 40
0.2668185002
 40
0.2998329962
 40
0.3336585488
 40
0.3681859647
 40
0.4033015599
 40
0.4388880059
 40
0.4748251015
 40
0.5109905498
 40
0.5472606962
 40
0.5835112705
 40
0.619618118
 40
0.6554579304
 40
0.6909089912
 40
0.7258519176
 40
0.760170445
 40
0.7937522084
 40
0.8264896033
 40
0.8582806552
 40
0.8890300213
 40
0.9186500365
 40
0.9470619681
 40
0.9741973549
 40
1.0
 40
1.0
 40
1.0
 40
1.0
 10
15.7542173195
 20
13.487263704
 30
0.0
 10
15.7501197406
 20
13.4823545937
 30
0.0
 10
15.7419913676
 20
13.4721955715
 30
0.0
 10
15.7301937543
 20
13.4562407957
 30
0.0
 10
15.7185998987
 20
13.439332354
 30
0.0
 10
15.7072215976
 20
13.4214875509
 30
0.0
 10
15.696070106
 20
13.4027241841
 30
0.0
 10
15.6851565742
 20
13.3830611177
 30
0.0
 10
15.6744919097
 20
13.3625180957
 30
0.0
 10
15.6640868088
 20
13.3411157607
 30
0.0
 10
15.6539517238
 20
13.3188756174
 30
0.0
 10
15.6440968642
 20
13.2958200604
 30
0.0
 10
15.6345320527
 20
13.2719722256
 30
0.0
 10
15.6220413722
 20
13.2387854029
 30
0.0
 10
15.6072546656
 20
13.1954661028
 30
0.0
 10
15.5910046192
 20
13.1412839819
 30
0.0
 10
15.5761239818
 20
13.0845612986
 30
0.0
 10
15.5626729419
 20
13.0255266633
 30
0.0
 10
15.5507059478
 20
12.9644172526
 30
0.0
 10
15.5402714317
 20
12.9014790984
 30
0.0
 10
15.5314117199
 20
12.8369656771
 30
0.0
 10
15.5241626875
 20
12.7711369667
 30
0.0
 10
15.5185537702
 20
12.7042583312
 30
0.0
 10
15.5146076732
 20
12.6365994426
 30
0.0
 10
15.5123404429
 20
12.5684331646
 30
0.0
 10
15.5117612336
 20
12.500034439
 30
0.0
 10
15.5128724363
 20
12.4316791576
 30
0.0
 10
15.5156695022
 20
12.3636430344
 30
0.0
 10
15.5201411283
 20
12.2962004788
 30
0.0
 10
15.5262691364
 20
12.2296234688
 30
0.0
 10
15.5340287186
 20
12.1641804407
 30
0.0
 10
15.5433883686
 20
12.1001351776
 30
0.0
 10
15.5543101913
 20
12.0377457314
 30
0.0
 10
15.5667498887
 20
11.9772633339
 30
0.0
 10
15.5806571317
 20
11.9189313818
 30
0.0
 10
15.5959756336
 20
11.8629843224
 30
0.0
 10
15.6126435067
 20
11.8096469157
 30
0.0
 10
15.6305937567
 20
11.7591324335
 30
0.0
 10
15.6497535597
 20
11.7116445251
 30
0.0
 10
15.6636410075
 20
11.6813468327
 30
0.0
 10
15.6707941564
 20
11.6667702478
 30
0.0
  0
SPLINE
  5
2BD
100
AcDbEntity
  8
LAYER_CHAMFER_FEAT
100
AcDbSpline
 62
7
  6
CONTINUOUS
 70
0
 71
3
 72
18
 73
14
 74
0
 42
0.0000001
 43
0.0000001
 44
0.0000000001
 40
0.0
 40
0.0
 40
0.0
 40
0.0
 40
0.1468103751
 40
0.2857491284
 40
0.417397207
 40
0.542518244
 40
0.6620731292
 40
0.7201436493
 40
0.7772744566
 40
0.8336392223
 40
0.8894207888
 40
0.9448093121
 40
1.0
 40
1.0
 40
1.0
 40
1.0
 10
15.7545259053
 20
11.5345350313
 30
0.0
 10
15.7607765193
 20
11.5276413847
 30
0.0
 10
15.7734014383
 20
11.5146280601
 30
0.0
 10
15.7932601226
 20
11.4971042897
 30
0.0
 10
15.8134594004
 20
11.4821756695
 30
0.0
 10
15.8339493208
 20
11.4698872364
 30
0.0
 10
15.8513999147
 20
11.4618006931
 30
0.0
 10
15.8654028448
 20
11.456745753
 30
0.0
 10
15.8758404118
 20
11.45366918
 30
0.0
 10
15.8863062573
 20
11.4512738895
 30
0.0
 10
15.8967938212
 20
11.4495615821
 30
0.0
 10
15.9072953203
 20
11.4485336148
 30
0.0
 10
15.9143064675
 20
11.4483050044
 30
0.0
 10
15.917804705
 20
11.4483050018
 30
0.0
  0
SPLINE
  5
2BE
100
AcDbEntity
  8
LAYER_CHAMFER_FEAT
100
AcDbSpline
 62
7
  6
CONTINUOUS
 70
0
 71
3
 72
18
 73
14
 74
0
 42
0.0000001
 43
0.0000001
 44
0.0000000001
 40
0.0
 40
0.0
 40
0.0
 40
0.0
 40
0.0552065987
 40
0.1106105353
 40
0.1664065475
 40
0.222784313
 40
0.2799262876
 40
0.3380057446
 40
0.4575706937
 40
0.5826896807
 40
0.7143224534
 40
0.8532322041
 40
1.0
 40
1.0
 40
1.0
 40
1.0
 10
15.917804705
 20
13.573304984
 30
0.0
 10
15.9143113697
 20
13.5733049865
 30
0.0
 10
15.9073100892
 20
13.5730770026
 30
0.0
 10
15.8968233214
 20
13.5720519437
 30
0.0
 10
15.8863504344
 20
13.5703444173
 30
0.0
 10
15.8758991623
 20
13.5679558634
 30
0.0
 10
15.8654760554
 20
13.5648878895
 30
0.0
 10
15.8514927049
 20
13.5598472049
 30
0.0
 10
15.8340662476
 20
13.5517835024
 30
0.0
 10
15.8136034723
 20
13.539529299
 30
0.0
 10
15.7934301264
 20
13.5246419949
 30
0.0
 10
15.7735959826
 20
13.5071663919
 30
0.0
 10
15.7609854724
 20
13.494188095
 30
0.0
 10
15.7547418678
 20
13.4873129512
 30
0.0
  0
SPLINE
  5
2BF
100
AcDbEntity
  8
LAYER_FEATURE
100
AcDbSpline
 62
7
  6
CONTINUOUS
 70
0
 71
3
 72
34
 73
30
 74
0
 42
0.0000001
 43
0.0000001
 44
0.0000000001
 40
0.0
 40
0.0
 40
0.0
 40
0.0
 40
0.0879664255
 40
0.1726604141
 40
0.2539271926
 40
0.3316368876
 40
0.3691278129
 40
0.405694709
 40
0.4413304674
 40
0.4760304985
 40
0.5097929159
 40
0.5426187423
 40
0.5745121897
 40
0.6054809541
 40
0.635536482
 40
0.6646943066
 40
0.6929744413
 40
0.7204017213
 40
0.7728086245
 40
0.7978803184
 40
0.8222543119
 40
0.8459849997
 40
0.8691334459
 40
0.8917673256
 40
0.9139606924
 40
0.9357935247
 40
0.957350979
 40
0.978722382
 40
1.0
 40
1.0
 40
1.0
 40
1.0
 10
15.490888544
 20
13.3703361765
 30
0.0
 10
15.4970536008
 20
13.3902863077
 30
0.0
 10
15.5097810361
 20
13.4292547523
 30
0.0
 10
15.5304897237
 20
13.4858752554
 30
0.0
 10
15.552402736
 20
13.5394205452
 30
0.0
 10
15.5718357082
 20
13.5818329731
 30
0.0
 10
15.5879591572
 20
13.6140524265
 30
0.0
 10
15.6001640826
 20
13.6370563336
 30
0.0
 10
15.612616051
 20
13.6591703374
 30
0.0
 10
15.6253053957
 20
13.6803771102
 30
0.0
 10
15.6382221366
 20
13.7006599524
 30
0.0
 10
15.6513561899
 20
13.720002903
 30
0.0
 10
15.6646973178
 20
13.7383907437
 30
0.0
 10
15.6782351054
 20
13.7558090031
 30
0.0
 10
15.6919591116
 20
13.7722440289
 30
0.0
 10
15.705858512
 20
13.7876826267
 30
0.0
 10
15.7199233738
 20
13.8021133971
 30
0.0
 10
15.7385965493
 20
13.8197253363
 30
0.0
 10
15.7578345826
 20
13.8356080372
 30
0.0
 10
15.7776110938
 20
13.8495318277
 30
0.0
 10
15.7923359539
 20
13.8587631585
 30
0.0
 10
15.8071590154
 20
13.8669281671
 30
0.0
 10
15.8220692053
 20
13.8740200511
 30
0.0
 10
15.8370547079
 20
13.8800324126
 30
0.0
 10
15.8521036427
 20
13.8849596813
 30
0.0
 10
15.8672037085
 20
13.888797144
 30
0.0
 10
15.8823427025
 20
13.8915410194
 30
0.0
 10
15.8975068478
 20
13.8931884969
 30
0.0
 10
15.9076344208
 20
13.8935549809
 30
0.0
 10
15.9126851851
 20
13.8935549851
 30
0.0
  0
LINE
  5
2C0
100
AcDbEntity
  8
02___PRT_ALL_AXES
100
AcDbLine
 62
7
  6
CONTINUOUS
 10
15.7655450092
 20
13.1219609567
 11
15.7248910892
 21
13.1191417828
  0
SPLINE
  5
2C1
100
AcDbEntity
  8
LAYER_FEATURE
100
AcDbSpline
 62
7
  6
CONTINUOUS
 70
0
 71
3
 72
54
 73
50
 74
0
 42
0.0000001
 43
0.0000001
 44
0.0000000001
 40
0.0
 40
0.0
 40
0.0
 40
0.0
 40
0.0330500869
 40
0.0673809189
 40
0.1028689286
 40
0.1393805316
 40
0.1767738172
 40
0.214899975
 40
0.2536046397
 40
0.2927291642
 40
0.332111844
 40
0.3715891169
 40
0.4109967451
 40
0.4501709878
 40
0.4889497815
 40
0.5271739361
 40
0.5646883551
 40
0.6013432992
 40
0.6369957215
 40
0.6544041318
 40
0.6715120649
 40
0.6883041821
 40
0.7047658562
 40
0.7208832323
 40
0.736643294
 40
0.7520339335
 40
0.7670440292
 40
0.7816635318
 40
0.7958835594
 40
0.8096965048
 40
0.823096156
 40
0.8360778326
 40
0.8486385411
 40
0.8607771491
 40
0.8724945842
 40
0.8837940579
 40
0.894681319
 40
0.9051649339
 40
0.9152565937
 40
0.9249714414
 40
0.9343284073
 40
0.9433505306
 40
0.9520652387
 40
0.9605045419
 40
0.9687050894
 40
0.9767080294
 40
0.9845586188
 40
0.9923055502
 40
1.0
 40
1.0
 40
1.0
 40
1.0
 10
14.5790918444
 20
13.3703361765
 30
0.0
 10
14.5711128785
 20
13.3445162335
 30
0.0
 10
14.5559318217
 20
13.2915350887
 30
0.0
 10
14.5357897608
 20
13.2098500839
 30
0.0
 10
14.5179162268
 20
13.1247447638
 30
0.0
 10
14.502399638
 20
13.0366363064
 30
0.0
 10
14.4893162378
 20
12.945954682
 30
0.0
 10
14.4787304947
 20
12.853143408
 30
0.0
 10
14.4706945502
 20
12.7586564607
 30
0.0
 10
14.4652480139
 20
12.6629562294
 30
0.0
 10
14.4624177315
 20
12.5665111397
 30
0.0
 10
14.4622176434
 20
12.4697933325
 30
0.0
 10
14.4646487353
 20
12.3732763035
 30
0.0
 10
14.469699033
 20
12.2774325553
 30
0.0
 10
14.4773436466
 20
12.1827312148
 30
0.0
 10
14.4875448946
 20
12.0896357927
 30
0.0
 10
14.500252519
 20
11.9986014944
 30
0.0
 10
14.5154039253
 20
11.9100742831
 30
0.0
 10
14.5301188095
 20
11.83819025
 30
0.0
 10
14.5430852871
 20
11.7822958114
 30
0.0
 10
14.5532940625
 20
11.7416000126
 30
0.0
 10
14.5640510126
 20
11.7018470699
 30
0.0
 10
14.5753430311
 20
11.6630855442
 30
0.0
 10
14.5871562502
 20
11.6253629105
 30
0.0
 10
14.599476196
 20
11.5887253198
 30
0.0
 10
14.612287773
 20
11.553217587
 30
0.0
 10
14.625575297
 20
11.5188831238
 30
0.0
 10
14.6393225145
 20
11.4857638878
 30
0.0
 10
14.6535126281
 20
11.4539003286
 30
0.0
 10
14.6681283224
 20
11.4233313381
 30
0.0
 10
14.6831517926
 20
11.3940942019
 30
0.0
 10
14.6985647761
 20
11.3662245536
 30
0.0
 10
14.7143485815
 20
11.3397563314
 30
0.0
 10
14.7304841288
 20
11.3147217432
 30
0.0
 10
14.7469519879
 20
11.2911512383
 30
0.0
 10
14.7637324187
 20
11.2690734854
 30
0.0
 10
14.7808054133
 20
11.2485153615
 30
0.0
 10
14.7981507353
 20
11.2295019525
 30
0.0
 10
14.8157479549
 20
11.2120565708
 30
0.0
 10
14.8335764687
 20
11.1962007863
 30
0.0
 10
14.8516154969
 20
11.1819544729
 30
0.0
 10
14.8698440508
 20
11.1693358717
 30
0.0
 10
14.8882408552
 20
11.1583616442
 30
0.0
 10
14.9067841953
 20
11.1490468956
 30
0.0
 10
14.9254518088
 20
11.1414051324
 30
0.0
 10
14.9442204435
 20
11.1354481185
 30
0.0
 10
14.9630666149
 20
11.1311856177
 30
0.0
 10
14.9819632969
 20
11.1286250148
 30
0.0
 10
14.9945968213
 20
11.1280550068
 30
0.0
 10
15.0008884855
 20
11.1280550007
 30
0.0
  0
LINE
  5
2C2
100
AcDbEntity
  8
02___PRT_ALL_AXES
100
AcDbLine
 62
7
  6
CONTINUOUS
 10
15.8253295862
 20
11.8862175284
 11
15.7944419083
 21
11.888499156
  0
SPLINE
  5
2C3
100
AcDbEntity
  8
LAYER_CUT_FEAT
100
AcDbSpline
 62
7
  6
CONTINUOUS
 70
0
 71
3
 72
10
 73
6
 74
0
 42
0.0000001
 43
0.0000001
 44
0.0000000001
 40
0.0
 40
0.0
 40
0.0
 40
0.0
 40
0.2507316571
 40
0.5009613809
 40
1.0
 40
1.0
 40
1.0
 40
1.0
 10
15.9764261671
 20
12.0396978396
 30
0.0
 10
15.9491331468
 20
12.040665282
 30
0.0
 10
15.8946074419
 20
12.0427628829
 30
0.0
 10
15.7857904161
 20
12.0475482018
 30
0.0
 10
15.7042851425
 20
12.0517485943
 30
0.0
 10
15.6500148511
 20
12.0548037726
 30
0.0
  0
SPLINE
  5
2C4
100
AcDbEntity
  8
LAYER_FEATURE
100
AcDbSpline
 62
7
  6
CONTINUOUS
 70
0
 71
3
 72
34
 73
30
 74
0
 42
0.0000001
 43
0.0000001
 44
0.0000000001
 40
0.0
 40
0.0
 40
0.0
 40
0.0
 40
0.0879664337
 40
0.1726604085
 40
0.253927194
 40
0.3316368864
 40
0.3691278143
 40
0.4056947097
 40
0.4413304651
 40
0.4760304991
 40
0.5097929185
 40
0.5426187396
 40
0.5745121887
 40
0.6054809573
 40
0.6355364808
 40
0.6646943039
 40
0.6929744437
 40
0.7204017232
 40
0.7728086253
 40
0.7978803222
 40
0.8222543096
 40
0.8459849986
 40
0.8691334489
 40
0.8917673258
 40
0.9139606908
 40
0.9357935258
 40
0.9573509803
 40
0.9787223819
 40
1.0
 40
1.0
 40
1.0
 40
1.0
 10
14.5790918444
 20
13.3703361765
 30
0.0
 10
14.5852569017
 20
13.3902863095
 30
0.0
 10
14.5979843359
 20
13.4292547531
 30
0.0
 10
14.6186930264
 20
13.4858752555
 30
0.0
 10
14.6406060335
 20
13.5394205451
 30
0.0
 10
14.6600390111
 20
13.5818329723
 30
0.0
 10
14.6761624564
 20
13.6140524273
 30
0.0
 10
14.6883673821
 20
13.6370563339
 30
0.0
 10
14.7008193538
 20
13.6591703357
 30
0.0
 10
14.7135086958
 20
13.6803771104
 30
0.0
 10
14.726425434
 20
13.7006599544
 30
0.0
 10
14.7395594932
 20
13.7200029005
 30
0.0
 10
14.7529006193
 20
13.7383907426
 30
0.0
 10
14.7664384022
 20
13.7558090062
 30
0.0
 10
14.7801624133
 20
13.7722440274
 30
0.0
 10
14.7940618153
 20
13.7876826233
 30
0.0
 10
14.8081266716
 20
13.8021134001
 30
0.0
 10
14.8267998497
 20
13.8197253381
 30
0.0
 10
14.8460378864
 20
13.8356080343
 30
0.0
 10
14.8658143896
 20
13.849531835
 30
0.0
 10
14.8805392581
 20
13.8587631518
 30
0.0
 10
14.8953623171
 20
13.8669281634
 30
0.0
 10
14.9102725023
 20
13.8740200595
 30
0.0
 10
14.9252580091
 20
13.8800324111
 30
0.0
 10
14.9403069453
 20
13.8849596725
 30
0.0
 10
14.9554070075
 20
13.8887971491
 30
0.0
 10
14.9705460022
 20
13.8915410285
 30
0.0
 10
14.9857101492
 20
13.8931884781
 30
0.0
 10
14.9958377211
 20
13.8935549901
 30
0.0
 10
15.0008884855
 20
13.8935549852
 30
0.0
  0
SPLINE
  5
2C5
100
AcDbEntity
  8
02___PRT_ALL_AXES
100
AcDbSpline
 62
7
  6
CONTINUOUS
 70
0
 71
3
 72
12
 73
8
 74
0
 42
0.0000001
 43
0.0000001
 44
0.0000000001
 40
0.0
 40
0.0
 40
0.0
 40
0.0
 40
0.2614288861
 40
0.5136900975
 40
0.7590187709
 40
0.8799013467
 40
1.0
 40
1.0
 40
1.0
 40
1.0
 10
15.7655450092
 20
13.1219609567
 30
0.0
 10
15.7690685659
 20
13.123897739
 30
0.0
 10
15.7761723381
 20
13.1273889294
 30
0.0
 10
15.7871343984
 20
13.1314598237
 30
0.0
 10
15.7963777004
 20
13.1337952648
 30
0.0
 10
15.8037621202
 20
13.1350036951
 30
0.0
 10
15.8074505678
 20
13.1353918987
 30
0.0
 10
15.8092923766
 20
13.1355317874
 30
0.0
  0
SPLINE
  5
2C6
100
AcDbEntity
  8
02___PRT_ALL_AXES
100
AcDbSpline
 62
7
  6
CONTINUOUS
 70
0
 71
3
 72
30
 73
26
 74
0
 42
0.0000001
 43
0.0000001
 44
0.0000000001
 40
0.0
 40
0.0
 40
0.0
 40
0.0
 40
0.0726691907
 40
0.1459101899
 40
0.2192739659
 40
0.2923099996
 40
0.3645712695
 40
0.4356190384
 40
0.5050277788
 40
0.5723903097
 40
0.637323264
 40
0.6687688187
 40
0.6994772265
 40
0.729410086
 40
0.7585317747
 40
0.7868097386
 40
0.8142148158
 40
0.8407216024
 40
0.8663088704
 40
0.8909600559
 40
0.9146638014
 40
0.9374146661
 40
0.9592137231
 40
0.9800698532
 40
1.0
 40
1.0
 40
1.0
 40
1.0
 10
15.5776398235
 20
12.3906729112
 30
0.0
 10
15.5763045701
 20
12.4081791877
 30
0.0
 10
15.5742274322
 20
12.4433783017
 30
0.0
 10
15.5728737136
 20
12.4963475588
 30
0.0
 10
15.5732731247
 20
12.5494218433
 30
0.0
 10
15.5754228098
 20
12.6022171294
 30
0.0
 10
15.5793070792
 20
12.6543524852
 30
0.0
 10
15.5848976206
 20
12.7054515219
 30
0.0
 10
15.5921536819
 20
12.7551459022
 30
0.0
 10
15.6010224153
 20
12.8030767299
 30
0.0
 10
15.6097943669
 20
12.8416657562
 30
0.0
 10
15.6175957991
 20
12.8713651014
 30
0.0
 10
15.6237440011
 20
12.8927494415
 30
0.0
 10
15.6302404316
 20
12.9134429226
 30
0.0
 10
15.6370734297
 20
12.9334082848
 30
0.0
 10
15.6442306233
 20
12.9526095042
 30
0.0
 10
15.6516991007
 20
12.9710119906
 30
0.0
 10
15.6594654045
 20
12.9885826172
 30
0.0
 10
15.6675155746
 20
13.0052897955
 30
0.0
 10
15.6758351822
 20
13.0211035184
 30
0.0
 10
15.6844093833
 20
13.0359954512
 30
0.0
 10
15.6932229146
 20
13.0499388602
 30
0.0
 10
15.7022603585
 20
13.0629090009
 30
0.0
 10
15.7115054143
 20
13.0748820796
 30
0.0
 10
15.7179408958
 20
13.0823526993
 30
0.0
 10
15.7211917431
 20
13.0859048902
 30
0.0
  0
SPLINE
  5
2C7
100
AcDbEntity
  8
02___PRT_ALL_AXES
100
AcDbSpline
 62
7
  6
CONTINUOUS
 70
0
 71
3
 72
23
 73
19
 74
0
 42
0.0000001
 43
0.0000001
 44
0.0000000001
 40
0.0
 40
0.0
 40
0.0
 40
0.0
 40
0.0174888403
 40
0.0351642963
 40
0.0717309754
 40
0.1110090444
 40
0.1539428262
 40
0.2011605667
 40
0.2530210976
 40
0.3096706575
 40
0.3710914983
 40
0.4371387834
 40
0.5075676356
 40
0.5820530696
 40
0.6602051964
 40
0.7415810459
 40
0.8256950198
 40
1.0
 40
1.0
 40
1.0
 40
1.0
 10
15.8474454928
 20
11.8498116199
 30
0.0
 10
15.8478019486
 20
11.8498116212
 30
0.0
 10
15.8485193517
 20
11.8498522797
 30
0.0
 10
15.8499631604
 20
11.8500977871
 30
0.0
 10
15.8517784698
 20
11.8507269263
 30
0.0
 10
15.8538807073
 20
11.851952182
 30
0.0
 10
15.8559218229
 20
11.8536387055
 30
0.0
 10
15.8578901133
 20
11.8557706214
 30
0.0
 10
15.8597745851
 20
11.8583313745
 30
0.0
 10
15.8615630445
 20
11.8613022264
 30
0.0
 10
15.863243081
 20
11.8646614499
 30
0.0
 10
15.8648024324
 20
11.8683841924
 30
0.0
 10
15.8662294125
 20
11.8724425915
 30
0.0
 10
15.867513166
 20
11.8768060234
 30
0.0
 10
15.8686438209
 20
11.8814413275
 30
0.0
 10
15.8696127292
 20
11.8863133017
 30
0.0
 10
15.8706913938
 20
11.8931557421
 30
0.0
 10
15.8712150733
 20
11.8984028813
 30
0.0
 10
15.8714472021
 20
11.9019479561
 30
0.0
  0
SPLINE
  5
2C8
100
AcDbEntity
  8
LAYER_FEATURE
100
AcDbSpline
 62
7
  6
CONTINUOUS
 70
0
 71
3
 72
11
 73
7
 74
0
 42
0.0000001
 43
0.0000001
 44
0.0000000001
 40
0.0
 40
0.0
 40
0.0
 40
0.0
 40
0.2189281566
 40
0.4580696713
 40
0.7183607539
 40
1.0
 40
1.0
 40
1.0
 40
1.0
 10
14.6058943994
 20
13.0440236176
 30
0.0
 10
14.6063798848
 20
13.0444445941
 30
0.0
 10
14.6073351861
 20
13.0453963819
 30
0.0
 10
14.6086569965
 20
13.0470433343
 30
0.0
 10
14.6099211421
 20
13.0489592145
 30
0.0
 10
14.6106903578
 20
13.0503533619
 30
0.0
 10
14.6110657896
 20
13.0510898438
 30
0.0
  0
SPLINE
  5
2C9
100
AcDbEntity
  8
LAYER_FEATURE
100
AcDbSpline
 62
7
  6
CONTINUOUS
 70
0
 71
3
 72
16
 73
12
 74
0
 42
0.0000001
 43
0.0000001
 44
0.0000000001
 40
0.0
 40
0.0
 40
0.0
 40
0.0
 40
0.038912097
 40
0.0788383246
 40
0.165089866
 40
0.2645191581
 40
0.3799326111
 40
0.5121422694
 40
0.6606219597
 40
0.8239308101
 40
1.0
 40
1.0
 40
1.0
 40
1.0
 10
14.5871161111
 20
13.044068396
 30
0.0
 10
14.5870333138
 20
13.0440683987
 30
0.0
 10
14.5868651905
 20
13.0440532392
 30
0.0
 10
14.5865246907
 20
13.0439608016
 30
0.0
 10
14.5861002431
 20
13.0437207943
 30
0.0
 10
14.5856348754
 20
13.0432740683
 30
0.0
 10
14.5852012294
 20
13.0426725911
 30
0.0
 10
14.5848050638
 20
13.0419264493
 30
0.0
 10
14.5844524364
 20
13.0410484455
 30
0.0
 10
14.5841497934
 20
13.0400543917
 30
0.0
 10
14.5839903508
 20
13.0393494105
 30
0.0
 10
14.5839191442
 20
13.0389815992
 30
0.0
  0
SPLINE
  5
2CA
100
AcDbEntity
  8
LAYER_CHAMFER_FEAT
100
AcDbSpline
 62
7
  6
CONTINUOUS
 70
0
 71
3
 72
39
 73
35
 74
0
 42
0.0000001
 43
0.0000001
 44
0.0000000001
 40
0.0
 40
0.0
 40
0.0
 40
0.0
 40
0.0439505114
 40
0.0865559051
 40
0.1278044838
 40
0.1676923365
 40
0.2062207622
 40
0.2433985105
 40
0.2792420463
 40
0.3137765156
 40
0.347036667
 40
0.3790678456
 40
0.4099270395
 40
0.4396839048
 40
0.4684216915
 40
0.49623793
 40
0.523244755
 40
0.5495686819
 40
0.5753496656
 40
0.6007393139
 40
0.6258982158
 40
0.6509925013
 40
0.6761898869
 40
0.7016555666
 40
0.7275483438
 40
0.754017349
 40
0.781199574
 40
0.809218285
 40
0.8381822589
 40
0.8681856992
 40
0.8993086511
 40
0.9316177704
 40
0.9651672795
 40
1.0
 40
1.0
 40
1.0
 40
1.0
 10
16.1924470834
 20
13.354839738
 30
0.0
 10
16.1887127686
 20
13.3624494714
 30
0.0
 10
16.1811507029
 20
13.3773353708
 30
0.0
 10
16.16933444
 20
13.3989721261
 30
0.0
 10
16.1572334502
 20
13.4195475387
 30
0.0
 10
16.1448622692
 20
13.4390368564
 30
0.0
 10
16.1322353271
 20
13.4574170611
 30
0.0
 10
16.1193674683
 20
13.4746662795
 30
0.0
 10
16.1062736827
 20
13.4907640288
 30
0.0
 10
16.0929691589
 20
13.5056911496
 30
0.0
 10
16.0794692323
 20
13.5194298067
 30
0.0
 10
16.06578937
 20
13.5319634643
 30
0.0
 10
16.0519451675
 20
13.5432768534
 30
0.0
 10
16.0379523657
 20
13.5533559355
 30
0.0
 10
16.0238269067
 20
13.5621878739
 30
0.0
 10
16.0095850074
 20
13.5697609952
 30
0.0
 10
15.9952432813
 20
13.5760648015
 30
0.0
 10
15.9808188763
 20
13.581090048
 30
0.0
 10
15.9663295941
 20
13.5848289
 30
0.0
 10
15.9517939494
 20
13.5872751926
 30
0.0
 10
15.9372311003
 20
13.5884246974
 30
0.0
 10
15.9226606486
 20
13.5882753629
 30
0.0
 10
15.9081023299
 20
13.5868274564
 30
0.0
 10
15.8935756695
 20
13.5840835416
 30
0.0
 10
15.8790996913
 20
13.580048321
 30
0.0
 10
15.8646927437
 20
13.5747283787
 30
0.0
 10
15.8503724713
 20
13.5681318866
 30
0.0
 10
15.836155887
 20
13.5602683847
 30
0.0
 10
15.8220595034
 20
13.5511486436
 30
0.0
 10
15.8080994625
 20
13.5407845958
 30
0.0
 10
15.7942916684
 20
13.5291893861
 30
0.0
 10
15.7806517463
 20
13.5163772364
 30
0.0
 10
15.7671955799
 20
13.5023640748
 30
0.0
 10
15.7585222654
 20
13.4924212506
 30
0.0
 10
15.7542173195
 20
13.487263704
 30
0.0
  0
SPLINE
  5
2CB
100
AcDbEntity
  8
LAYER_FEATURE
100
AcDbSpline
 62
7
  6
CONTINUOUS
 70
0
 71
3
 72
15
 73
11
 74
0
 42
0.0000001
 43
0.0000001
 44
0.0000000001
 40
0.0
 40
0.0
 40
0.0
 40
0.0
 40
0.081954447
 40
0.1706212576
 40
0.2710163174
 40
0.3860393376
 40
0.5168734714
 40
0.6634885691
 40
0.825023636
 40
1.0
 40
1.0
 40
1.0
 40
1.0
 10
14.6109710622
 20
13.1647482558
 30
0.0
 10
14.6108200677
 20
13.1647482533
 30
0.0
 10
14.6105038644
 20
13.1646949358
 30
0.0
 10
14.6100537044
 20
13.1644657328
 30
0.0
 10
14.6096255154
 20
13.1640982085
 30
0.0
 10
14.6092223187
 20
13.1636005362
 30
0.0
 10
14.6088476221
 20
13.1629800355
 30
0.0
 10
14.60850615
 20
13.1622454707
 30
0.0
 10
14.6082028309
 20
13.1614076477
 30
0.0
 10
14.6080351786
 20
13.1608101617
 30
0.0
 10
14.6079577398
 20
13.1604972206
 30
0.0
  0
SPLINE
  5
2CC
100
AcDbEntity
  8
LAYER_CHAMFER_FEAT
100
AcDbSpline
 62
7
  6
CONTINUOUS
 70
0
 71
3
 72
24
 73
20
 74
0
 42
0.0000001
 43
0.0000001
 44
0.0000000001
 40
0.0
 40
0.0
 40
0.0
 40
0.0
 40
0.0835156388
 40
0.163917216
 40
0.2411801393
 40
0.315300585
 40
0.3862975044
 40
0.4542160273
 40
0.5191308139
 40
0.5811499981
 40
0.6404193573
 40
0.6690847823
 40
0.6971369581
 40
0.7515154047
 40
0.8038470577
 40
0.854463265
 40
0.903742591
 40
0.9521047135
 40
1.0
 40
1.0
 40
1.0
 40
1.0
 10
16.1750001736
 20
13.3430898344
 30
0.0
 10
16.170553256
 20
13.3521516998
 30
0.0
 10
16.1615275054
 20
13.3697937232
 30
0.0
 10
16.1473066222
 20
13.3952477319
 30
0.0
 10
16.1326821704
 20
13.41915181
 30
0.0
 10
16.1176794824
 20
13.4414640319
 30
0.0
 10
16.1023240667
 20
13.46214578
 30
0.0
 10
16.0866419626
 20
13.4811610438
 30
0.0
 10
16.0706592086
 20
13.4984768368
 30
0.0
 10
16.0544029703
 20
13.5140621413
 30
0.0
 10
16.0404977496
 20
13.5257124568
 30
0.0
 10
16.0292661317
 20
13.5341068373
 30
0.0
 10
16.0182083782
 20
13.5417292622
 30
0.0
 10
16.004256004
 20
13.5501726946
 30
0.0
 10
15.9871734049
 20
13.5585828921
 30
0.0
 10
15.9699546973
 20
13.5651470558
 30
0.0
 10
15.9526307807
 20
13.5698487014
 30
0.0
 10
15.9352373893
 20
13.5726752185
 30
0.0
 10
15.9235936049
 20
13.5733049798
 30
0.0
 10
15.917804705
 20
13.573304984
 30
0.0
  0
SPLINE
  5
2CD
100
AcDbEntity
  8
LAYER_FEATURE
100
AcDbSpline
 62
7
  6
CONTINUOUS
 70
0
 71
3
 72
78
 73
74
 74
0
 42
0.0000001
 43
0.0000001
 44
0.0000000001
 40
0.0
 40
0.0
 40
0.0
 40
0.0
 40
0.0178417771
 40
0.036184308
 40
0.0549960808
 40
0.0742433104
 40
0.0938904899
 40
0.1139004766
 40
0.1342347105
 40
0.1548533965
 40
0.1757156792
 40
0.1967798107
 40
0.2180033134
 40
0.2393431404
 40
0.260755834
 40
0.2821976795
 40
0.3036248596
 40
0.3249936089
 40
0.3462603675
 40
0.3673819354
 40
0.3883156291
 40
0.4090194414
 40
0.4294522035
 40
0.4495737507
 40
0.4693450949
 40
0.4887286048
 40
0.507688199
 40
0.5261895461
 40
0.5442002824
 40
0.5616902516
 40
0.5786317732
 40
0.5949999412
 40
0.6107729631
 40
0.6259325542
 40
0.6404644026
 40
0.6543587197
 40
0.6676108899
 40
0.6802222479
 40
0.6922010055
 40
0.7035633435
 40
0.7143346582
 40
0.7245509236
 40
0.7342600663
 40
0.7435231463
 40
0.748011933
 40
0.7524184428
 40
0.7567541276
 40
0.7610311788
 40
0.7652624426
 40
0.7694612945
 40
0.7736415008
 40
0.7778170574
 40
0.7820020181
 40
0.7862103193
 40
0.7904556124
 40
0.7947511095
 40
0.7991094446
 40
0.8035425712
 40
0.812673927
 40
0.822228128
 40
0.8322707595
 40
0.8428539784
 40
0.8540175632
 40
0.8657902538
 40
0.8781911341
 40
0.8912309223
 40
0.9049131167
 40
0.9192349766
 40
0.9341883465
 40
0.9497603426
 40
0.9659339573
 40
0.9826884321
 40
1.0
 40
1.0
 40
1.0
 40
1.0
 10
15.5237211793
 20
13.325233732
 30
0.0
 10
15.5184550683
 20
13.3081925905
 30
0.0
 10
15.5082725325
 20
13.2734764908
 30
0.0
 10
15.4942160812
 20
13.2203185974
 30
0.0
 10
15.4811905372
 20
13.1654536104
 30
0.0
 10
15.4692274869
 20
13.1090138043
 30
0.0
 10
15.458355745
 20
13.0511347155
 30
0.0
 10
15.4486015609
 20
12.9919555175
 30
0.0
 10
15.4399884669
 20
12.9316185161
 30
0.0
 10
15.4325372562
 20
12.8702688465
 30
0.0
 10
15.4262659196
 20
12.8080541009
 30
0.0
 10
15.4211896054
 20
12.7451239753
 30
0.0
 10
15.4173205669
 20
12.6816299055
 30
0.0
 10
15.4146681437
 20
12.6177246965
 30
0.0
 10
15.413238741
 20
12.5535621507
 30
0.0
 10
15.4130358148
 20
12.4892966951
 30
0.0
 10
15.4140598579
 20
12.4250830068
 30
0.0
 10
15.4163083913
 20
12.3610756368
 30
0.0
 10
15.4197759842
 20
12.2974286355
 30
0.0
 10
15.424454264
 20
12.2342951788
 30
0.0
 10
15.4303319401
 20
12.1718271965
 30
0.0
 10
15.4373948178
 20
12.1101750007
 30
0.0
 10
15.4456258403
 20
12.0494869196
 30
0.0
 10
15.4550051367
 20
11.9899089383
 30
0.0
 10
15.4655100706
 20
11.9315843427
 30
0.0
 10
15.4771152959
 20
11.874653366
 30
0.0
 10
15.4897928088
 20
11.8192528397
 30
0.0
 10
15.5035120359
 20
11.7655158599
 30
0.0
 10
15.5182399134
 20
11.713571459
 30
0.0
 10
15.5339409807
 20
11.663544283
 30
0.0
 10
15.55057747
 20
11.6155542717
 30
0.0
 10
15.568109421
 20
11.5697163549
 30
0.0
 10
15.5864948185
 20
11.5261401671
 30
0.0
 10
15.6056897347
 20
11.4849297714
 30
0.0
 10
15.6256484994
 20
11.4461833984
 30
0.0
 10
15.646323876
 20
11.4099932018
 30
0.0
 10
15.6676673019
 20
11.3764450746
 30
0.0
 10
15.6896291523
 20
11.3456185153
 30
0.0
 10
15.7121590025
 20
11.3175865957
 30
0.0
 10
15.735206009
 20
11.2924160016
 30
0.0
 10
15.7587187963
 20
11.270167421
 30
0.0
 10
15.7826467305
 20
11.2508956158
 30
0.0
 10
15.8069354953
 20
11.2346515798
 30
0.0
 10
15.8276524239
 20
11.2235596956
 30
0.0
 10
15.8443043554
 20
11.2163124693
 30
0.0
 10
15.8567138301
 20
11.2117137315
 30
0.0
 10
15.8691651455
 20
11.2078989346
 30
0.0
 10
15.8816509382
 20
11.2048706443
 30
0.0
 10
15.8941633143
 20
11.2026310324
 30
0.0
 10
15.9066943975
 20
11.2011817617
 30
0.0
 10
15.9192361891
 20
11.2005239376
 30
0.0
 10
15.9317806456
 20
11.2006579977
 30
0.0
 10
15.94431971
 20
11.2015839139
 30
0.0
 10
15.9568453475
 20
11.2033009312
 30
0.0
 10
15.969349617
 20
11.2058077982
 30
0.0
 10
15.9818245528
 20
11.2091026628
 30
0.0
 10
15.9942627307
 20
11.2131833076
 30
0.0
 10
16.0109494421
 20
11.2197311999
 30
0.0
 10
16.0317304633
 20
11.2299534318
 30
0.0
 10
16.0561275253
 20
11.2451861952
 30
0.0
 10
16.0801812199
 20
11.2634622487
 30
0.0
 10
16.1038368035
 20
11.2847321784
 30
0.0
 10
16.1270435691
 20
11.3089428987
 30
0.0
 10
16.1497500791
 20
11.3360356442
 30
0.0
 10
16.1719053803
 20
11.3659457856
 30
0.0
 10
16.1934588552
 20
11.3986023692
 30
0.0
 10
16.2143605888
 20
11.4339280253
 30
0.0
 10
16.2345616356
 20
11.471838961
 30
0.0
 10
16.254014293
 20
11.5122450821
 30
0.0
 10
16.2726723511
 20
11.5550501243
 30
0.0
 10
16.2904912865
 20
11.6001519993
 30
0.0
 10
16.3074283521
 20
11.6474424546
 30
0.0
 10
16.3179387149
 20
11.6798415288
 30
0.0
 10
16.3230483314
 20
11.6963762538
 30
0.0
  0
SPLINE
  5
2CE
100
AcDbEntity
  8
LAYER_FEATURE
100
AcDbSpline
 62
7
  6
CONTINUOUS
 70
0
 71
3
 72
54
 73
50
 74
0
 42
0.0000001
 43
0.0000001
 44
0.0000000001
 40
0.0
 40
0.0
 40
0.0
 40
0.0
 40
0.033050083
 40
0.0673809185
 40
0.1028689289
 40
0.1393805316
 40
0.1767738169
 40
0.214899975
 40
0.25360464
 40
0.2927291642
 40
0.332111844
 40
0.3715891171
 40
0.410996745
 40
0.4501709878
 40
0.4889497822
 40
0.5271739364
 40
0.5646883543
 40
0.6013432993
 40
0.6369957232
 40
0.6544041331
 40
0.6715120654
 40
0.6883041813
 40
0.7047658546
 40
0.7208832311
 40
0.736643294
 40
0.752033935
 40
0.7670440316
 40
0.7816635337
 40
0.7958835599
 40
0.8096965037
 40
0.823096154
 40
0.8360778312
 40
0.8486385411
 40
0.8607771508
 40
0.8724945867
 40
0.88379406
 40
0.8946813196
 40
0.905164933
 40
0.915256592
 40
0.9249714402
 40
0.9343284073
 40
0.9433505317
 40
0.9520652404
 40
0.9605045434
 40
0.9687050901
 40
0.9767080295
 40
0.9845586187
 40
0.9923055502
 40
1.0
 40
1.0
 40
1.0
 40
1.0
 10
15.5194951193
 20
13.3703361765
 30
0.0
 10
15.5115161543
 20
13.3445162365
 30
0.0
 10
15.4963350975
 20
13.2915350921
 30
0.0
 10
15.4761930358
 20
13.2098500873
 30
0.0
 10
15.4583195028
 20
13.1247447637
 30
0.0
 10
15.4428029131
 20
13.0366363064
 30
0.0
 10
15.4297195108
 20
12.9459546825
 30
0.0
 10
15.4191337692
 20
12.8531434081
 30
0.0
 10
15.4110978274
 20
12.7586564603
 30
0.0
 10
15.405651289
 20
12.6629562293
 30
0.0
 10
15.4028210032
 20
12.5665111397
 30
0.0
 10
15.4026209179
 20
12.4697933326
 30
0.0
 10
15.4050520137
 20
12.3732763037
 30
0.0
 10
15.4101023082
 20
12.277432555
 30
0.0
 10
15.4177469172
 20
12.1827312138
 30
0.0
 10
15.427948169
 20
12.0896357927
 30
0.0
 10
15.4406557984
 20
11.9986014958
 30
0.0
 10
15.4558072006
 20
11.9100742828
 30
0.0
 10
15.4705220801
 20
11.8381902469
 30
0.0
 10
15.4834885596
 20
11.7822958084
 30
0.0
 10
15.4936973371
 20
11.7416000121
 30
0.0
 10
15.5044542895
 20
11.7018470725
 30
0.0
 10
15.5157463094
 20
11.6630855487
 30
0.0
 10
15.5275595277
 20
11.625362914
 30
0.0
 10
15.539879471
 20
11.5887253199
 30
0.0
 10
15.5526910456
 20
11.553217583
 30
0.0
 10
15.5659785684
 20
11.5188831178
 30
0.0
 10
15.579725787
 20
11.4857638831
 30
0.0
 10
15.5939159027
 20
11.4539003279
 30
0.0
 10
15.6085315992
 20
11.423331342
 30
0.0
 10
15.6235550708
 20
11.3940942083
 30
0.0
 10
15.6389680531
 20
11.3662245584
 30
0.0
 10
15.6547518565
 20
11.3397563316
 30
0.0
 10
15.670887402
 20
11.3147217384
 30
0.0
 10
15.6873552599
 20
11.2911512306
 30
0.0
 10
15.7041356915
 20
11.2690734793
 30
0.0
 10
15.721208688
 20
11.2485153606
 30
0.0
 10
15.738554012
 20
11.2295019576
 30
0.0
 10
15.7561512323
 20
11.2120565787
 30
0.0
 10
15.7739797449
 20
11.1962007918
 30
0.0
 10
15.7920187718
 20
11.1819544732
 30
0.0
 10
15.8102473246
 20
11.1693358665
 30
0.0
 10
15.8286441285
 20
11.1583616357
 30
0.0
 10
15.8471874692
 20
11.1490468884
 30
0.0
 10
15.8658550839
 20
11.1414051313
 30
0.0
 10
15.8846237194
 20
11.1354481249
 30
0.0
 10
15.9034698904
 20
11.1311856241
 30
0.0
 10
15.9223665718
 20
11.1286250258
 30
0.0
 10
15.9350000961
 20
11.1280549955
 30
0.0
 10
15.9412917603
 20
11.1280550007
 30
0.0
  0
SPLINE
  5
2CF
100
AcDbEntity
  8
LAYER_FEATURE
100
AcDbSpline
 62
7
  6
CONTINUOUS
 70
0
 71
3
 72
15
 73
11
 74
0
 42
0.0000001
 43
0.0000001
 44
0.0000000001
 40
0.0
 40
0.0
 40
0.0
 40
0.0
 40
0.085851709
 40
0.1774225667
 40
0.2792248012
 40
0.3941414306
 40
0.5236377513
 40
0.6681055709
 40
0.8272097206
 40
1.0
 40
1.0
 40
1.0
 40
1.0
 10
14.6396076427
 20
13.2783638018
 30
0.0
 10
14.6394726507
 20
13.2783637929
 30
0.0
 10
14.6391922676
 20
13.2783218485
 30
0.0
 10
14.6387881688
 20
13.2781392167
 30
0.0
 10
14.6383997478
 20
13.277843764
 30
0.0
 10
14.6380298642
 20
13.2774413912
 30
0.0
 10
14.6376811329
 20
13.2769372625
 30
0.0
 10
14.6373569124
 20
13.2763371992
 30
0.0
 10
14.6370608867
 20
13.2756482817
 30
0.0
 10
14.636891196
 20
13.2751542591
 30
0.0
 10
14.6368109794
 20
13.2748946781
 30
0.0
  0
SPLINE
  5
2D0
100
AcDbEntity
  8
LAYER_CUT_FEAT
100
AcDbSpline
 62
7
  6
CONTINUOUS
 70
0
 71
3
 72
29
 73
25
 74
0
 42
0.0000001
 43
0.0000001
 44
0.0000000001
 40
0.0
 40
0.0
 40
0.0
 40
0.0
 40
0.0155183103
 40
0.0313974721
 40
0.0479690119
 40
0.0655143789
 40
0.0842562147
 40
0.1043592225
 40
0.1259362564
 40
0.1490560136
 40
0.1737506655
 40
0.2000223658
 40
0.2278484699
 40
0.2571855732
 40
0.3201218908
 40
0.3881961407
 40
0.4605809295
 40
0.5363204027
 40
0.6143669788
 40
0.6936134319
 40
0.7729224302
 40
0.8511550776
 40
0.9271989008
 40
1.0
 40
1.0
 40
1.0
 40
1.0
 10
15.9872186062
 20
12.0332172198
 30
0.0
 10
15.9877486547
 20
12.0332172226
 30
0.0
 10
15.988823146
 20
12.033308147
 30
0.0
 10
15.9904173229
 20
12.0337142279
 30
0.0
 10
15.9919938278
 20
12.0343865089
 30
0.0
 10
15.9935452798
 20
12.0353197601
 30
0.0
 10
15.9950661258
 20
12.0365083717
 30
0.0
 10
15.9965509958
 20
12.0379464816
 30
0.0
 10
15.9979946094
 20
12.0396277615
 30
0.0
 10
15.9993916058
 20
12.0415451573
 30
0.0
 10
16.0007365881
 20
12.0436907552
 30
0.0
 10
16.0020241696
 20
12.0460557104
 30
0.0
 10
16.003249154
 20
12.0486302469
 30
0.0
 10
16.0048291399
 20
12.0524173829
 30
0.0
 10
16.0065953402
 20
12.0576087454
 30
0.0
 10
16.0083459741
 20
12.0643370068
 30
0.0
 10
16.0097449835
 20
12.0715925114
 30
0.0
 10
16.0107684273
 20
12.0792535364
 30
0.0
 10
16.0113986997
 20
12.0871917138
 30
0.0
 10
16.0116249568
 20
12.0952734676
 30
0.0
 10
16.0114432855
 20
12.103362672
 30
0.0
 10
16.0108568241
 20
12.1113231898
 30
0.0
 10
16.0098757167
 20
12.1190206798
 30
0.0
 10
16.0089453427
 20
12.1240225732
 30
0.0
 10
16.0084112473
 20
12.1264511553
 30
0.0
  0
SPLINE
  5
2D1
100
AcDbEntity
  8
02___PRT_ALL_AXES
100
AcDbSpline
 62
7
  6
CONTINUOUS
 70
0
 71
3
 72
51
 73
47
 74
0
 42
0.0000001
 43
0.0000001
 44
0.0000000001
 40
0.0
 40
0.0
 40
0.0
 40
0.0
 40
0.0077385515
 40
0.0156305504
 40
0.0237167223
 40
0.0320340896
 40
0.0406156743
 40
0.0494904021
 40
0.0586831604
 40
0.0682149678
 40
0.0781032155
 40
0.088361942
 40
0.0990021184
 40
0.1100319282
 40
0.1214570285
 40
0.1332807935
 40
0.145504536
 40
0.1581277049
 40
0.1711480596
 40
0.1845618254
 40
0.1983638275
 40
0.2125476138
 40
0.2271055644
 40
0.2420289875
 40
0.2573082053
 40
0.2729326305
 40
0.3051691509
 40
0.3386397702
 40
0.373233421
 40
0.4088299497
 40
0.4453015009
 40
0.4825137811
 40
0.5203272135
 40
0.5585980453
 40
0.597179408
 40
0.6359223409
 40
0.6746768065
 40
0.7132926896
 40
0.7516207996
 40
0.7895138807
 40
0.826827632
 40
0.8634217681
 40
0.8991611093
 40
0.9339167265
 40
0.9675671729
 40
1.0
 40
1.0
 40
1.0
 40
1.0
 10
15.8960479255
 20
11.3486395336
 30
0.0
 10
15.8909092124
 20
11.349676751
 30
0.0
 10
15.8806139438
 20
11.3522126013
 30
0.0
 10
15.8653619373
 20
11.3573138896
 30
0.0
 10
15.850190818
 20
11.3637363736
 30
0.0
 10
15.835119457
 20
11.3714707695
 30
0.0
 10
15.8201643046
 20
11.3805068894
 30
0.0
 10
15.8053419338
 20
11.3908332611
 30
0.0
 10
15.7906684781
 20
11.4024372761
 30
0.0
 10
15.776159901
 20
11.4153051328
 30
0.0
 10
15.7618320013
 20
11.4294218244
 30
0.0
 10
15.7477004485
 20
11.4447710967
 30
0.0
 10
15.7337807792
 20
11.4613354179
 30
0.0
 10
15.7200883863
 20
11.4790959553
 30
0.0
 10
15.7066384907
 20
11.4980325593
 30
0.0
 10
15.6934461133
 20
11.5181237624
 30
0.0
 10
15.6805260529
 20
11.5393467931
 30
0.0
 10
15.6678928548
 20
11.5616775912
 30
0.0
 10
15.6555607851
 20
11.5850908274
 30
0.0
 10
15.6435438065
 20
11.609559927
 30
0.0
 10
15.6318555481
 20
11.6350570935
 30
0.0
 10
15.6205092881
 20
11.6615533395
 30
0.0
 10
15.6095179269
 20
11.6890185326
 30
0.0
 10
15.5988940078
 20
11.7174213943
 30
0.0
 10
15.5886495397
 20
11.746729677
 30
0.0
 10
15.5753740003
 20
11.7873932205
 30
0.0
 10
15.5598486838
 20
11.8402726106
 30
0.0
 10
15.5430962875
 20
11.9061360246
 30
0.0
 10
15.5281094861
 20
11.9747545311
 30
0.0
 10
15.5149569551
 20
12.0458153498
 30
0.0
 10
15.5036989256
 20
12.1189953881
 30
0.0
 10
15.4943870349
 20
12.193961364
 30
0.0
 10
15.4870639855
 20
12.2703717698
 30
0.0
 10
15.4817633591
 20
12.347878363
 30
0.0
 10
15.4785094924
 20
12.4261278246
 30
0.0
 10
15.4773173086
 20
12.5047633888
 30
0.0
 10
15.4781922679
 20
12.5834265011
 30
0.0
 10
15.4811303735
 20
12.6617584797
 30
0.0
 10
15.4861181346
 20
12.739402177
 30
0.0
 10
15.4931326595
 20
12.816003638
 30
0.0
 10
15.5021417856
 20
12.8912137303
 30
0.0
 10
15.5131041877
 20
12.9646898244
 30
0.0
 10
15.5259695659
 20
13.0360972143
 30
0.0
 10
15.5406790894
 20
13.105111314
 30
0.0
 10
15.5571650041
 20
13.1714170222
 30
0.0
 10
15.5695311691
 20
13.2144552142
 30
0.0
 10
15.5760180639
 20
13.2354468134
 30
0.0
  0
SPLINE
  5
2D2
100
AcDbEntity
  8
02___PRT_ALL_AXES
100
AcDbSpline
 62
7
  6
CONTINUOUS
 70
0
 71
3
 72
21
 73
17
 74
0
 42
0.0000001
 43
0.0000001
 44
0.0000000001
 40
0.0
 40
0.0
 40
0.0
 40
0.0
 40
0.1741564119
 40
0.3347248556
 40
0.4095239333
 40
0.4805010588
 40
0.5475932154
 40
0.6107865798
 40
0.6701276882
 40
0.7257343257
 40
0.7778092751
 40
0.8266564192
 40
0.8726952872
 40
0.9164703008
 40
0.9586488304
 40
1.0
 40
1.0
 40
1.0
 40
1.0
 10
15.7655450092
 20
13.1219609567
 30
0.0
 10
15.7650073167
 20
13.1239567217
 30
0.0
 10
15.7638544588
 20
13.1277619077
 30
0.0
 10
15.7621024911
 20
13.1323018366
 30
0.0
 10
15.7605649037
 20
13.1355978482
 30
0.0
 10
15.759384384
 20
13.1378327468
 30
0.0
 10
15.7581535032
 20
13.1398813847
 30
0.0
 10
15.7568764656
 20
13.1417364714
 30
0.0
 10
15.755557646
 20
13.1433914295
 30
0.0
 10
15.7542014009
 20
13.1448403549
 30
0.0
 10
15.7528120521
 20
13.1460779327
 30
0.0
 10
15.7513939053
 20
13.1470993583
 30
0.0
 10
15.7499514188
 20
13.1479001931
 30
0.0
 10
15.7484892355
 20
13.1484762442
 30
0.0
 10
15.7470133882
 20
13.1488237269
 30
0.0
 10
15.7460203864
 20
13.148901443
 30
0.0
 10
15.7455296214
 20
13.1489014395
 30
0.0
  0
SPLINE
  5
2D3
100
AcDbEntity
  8
02___PRT_ALL_AXES
100
AcDbSpline
 62
7
  6
CONTINUOUS
 70
0
 71
3
 72
25
 73
21
 74
0
 42
0.0000001
 43
0.0000001
 44
0.0000000001
 40
0.0
 40
0.0
 40
0.0
 40
0.0
 40
0.0855338239
 40
0.1681803392
 40
0.2478120771
 40
0.3243189443
 40
0.3976123412
 40
0.4676276314
 40
0.5343277559
 40
0.5977075094
 40
0.6577987085
 40
0.7146763375
 40
0.7684656463
 40
0.8193500967
 40
0.8675795727
 40
0.9134775989
 40
0.9356837044
 40
0.9574640901
 40
0.9788807803
 40
1.0
 40
1.0
 40
1.0
 40
1.0
 10
15.5760180639
 20
13.2354468134
 30
0.0
 10
15.5807702036
 20
13.2508247433
 30
0.0
 10
15.5905565597
 20
13.2809273189
 30
0.0
 10
15.6063753287
 20
13.3248032371
 30
0.0
 10
15.6230487688
 20
13.3665391344
 30
0.0
 10
15.6405331557
 20
13.4060254966
 30
0.0
 10
15.6587829176
 20
13.4431594093
 30
0.0
 10
15.6777507261
 20
13.4778442272
 30
0.0
 10
15.6973877711
 20
13.509989926
 30
0.0
 10
15.7176440501
 20
13.539513236
 30
0.0
 10
15.7384686603
 20
13.5663377308
 30
0.0
 10
15.7598102277
 20
13.5903938108
 30
0.0
 10
15.7816168772
 20
13.6116182719
 30
0.0
 10
15.8038376002
 20
13.6299541991
 30
0.0
 10
15.8264176993
 20
13.6453486463
 30
0.0
 10
15.8457046478
 20
13.6558017597
 30
0.0
 10
15.8612108985
 20
13.6625778576
 30
0.0
 10
15.8727629044
 20
13.6668448369
 30
0.0
 10
15.8843550219
 20
13.6703481882
 30
0.0
 10
15.8921523475
 20
13.6721841559
 30
0.0
 10
15.8960479255
 20
13.6729704504
 30
0.0
  0
SPLINE
  5
2D4
100
AcDbEntity
  8
LAYER_CHAMFER_FEAT
100
AcDbSpline
 62
7
  6
CONTINUOUS
 70
0
 71
3
 72
74
 73
70
 74
0
 42
0.0000001
 43
0.0000001
 44
0.0000000001
 40
0.0
 40
0.0
 40
0.0
 40
0.0
 40
0.0113885965
 40
0.0222286123
 40
0.0325473094
 40
0.0375231081
 40
0.0423829909
 40
0.0517776456
 40
0.0607900957
 40
0.0694879124
 40
0.0737443896
 40
0.0779521836
 40
0.0821223528
 40
0.0862663397
 40
0.0903958561
 40
0.094522768
 40
0.0986589692
 40
0.1028162545
 40
0.1070061974
 40
0.1112400383
 40
0.1155285809
 40
0.1198821156
 40
0.128819576
 40
0.1381253754
 40
0.1478586341
 40
0.1580677639
 40
0.1687910864
 40
0.18005774
 40
0.1918886862
 40
0.2042976971
 40
0.2172922609
 40
0.2308743814
 40
0.2450412675
 40
0.2597859222
 40
0.2750976413
 40
0.2909624381
 40
0.3073634048
 40
0.3242810242
 40
0.3416934388
 40
0.3595766882
 40
0.3779049191
 40
0.3966505741
 40
0.4157845635
 40
0.435276424
 40
0.4550944656
 40
0.4752059111
 40
0.495577027
 40
0.5161732512
 40
0.5369593145
 40
0.5789553545
 40
0.6212750542
 40
0.6636226237
 40
0.7057019374
 40
0.7265501168
 40
0.747221873
 40
0.7676817021
 40
0.787894762
 40
0.8078269934
 40
0.8274452444
 40
0.8467174006
 40
0.8656125208
 40
0.8841009809
 40
0.9021546284
 40
0.9197469476
 40
0.9368532449
 40
0.9534508399
 40
0.969519325
 40
0.9850407272
 40
1.0
 40
1.0
 40
1.0
 40
1.0
 10
15.7542173208
 20
11.5343462891
 30
0.0
 10
15.7598355873
 20
11.5276153232
 30
0.0
 10
15.771178249
 20
11.5147846416
 30
0.0
 10
15.7889567754
 20
11.4971028055
 30
0.0
 10
15.8042074303
 20
11.4839474622
 30
0.0
 10
15.8165402796
 20
11.4745257072
 30
0.0
 10
15.8286665079
 20
11.4660268517
 30
0.0
 10
15.8439827233
 20
11.4566888383
 30
0.0
 10
15.8627687478
 20
11.4475324543
 30
0.0
 10
15.8786768983
 20
11.4416936363
 30
0.0
 10
15.8914164455
 20
11.4381693211
 30
0.0
 10
15.9009256643
 20
11.4360988403
 30
0.0
 10
15.9104513307
 20
11.4345842459
 30
0.0
 10
15.9199885597
 20
11.433626237
 30
0.0
 10
15.9295321148
 20
11.43322552
 30
0.0
 10
15.9390768115
 20
11.4333822849
 30
0.0
 10
15.9486174437
 20
11.4340964671
 30
0.0
 10
15.9581488196
 20
11.4353676073
 30
0.0
 10
15.9676658038
 20
11.4371949145
 30
0.0
 10
15.9771632235
 20
11.4395772665
 30
0.0
 10
15.9866362683
 20
11.4425133202
 30
0.0
 10
15.9993368431
 20
11.4472040705
 30
0.0
 10
16.0151648628
 20
11.4544988685
 30
0.0
 10
16.0337988192
 20
11.4653577462
 30
0.0
 10
16.0522067109
 20
11.4783716054
 30
0.0
 10
16.0703519967
 20
11.4935099084
 30
0.0
 10
16.088200941
 20
11.5107398151
 30
0.0
 10
16.1057194713
 20
11.5300250767
 30
0.0
 10
16.1228738837
 20
11.5513259618
 30
0.0
 10
16.1396306619
 20
11.5745989763
 30
0.0
 10
16.1559566676
 20
11.5997967652
 30
0.0
 10
16.1718192709
 20
11.6268680723
 30
0.0
 10
16.1871865047
 20
11.655757771
 30
0.0
 10
16.2020271992
 20
11.6864069367
 30
0.0
 10
16.2163111052
 20
11.7187529496
 30
0.0
 10
16.2300090007
 20
11.752729619
 30
0.0
 10
16.2430927856
 20
11.7882673218
 30
0.0
 10
16.2555355642
 20
11.8252931509
 30
0.0
 10
16.2673117197
 20
11.8637310735
 30
0.0
 10
16.2783969805
 20
11.9035020943
 30
0.0
 10
16.2887684794
 20
11.9445244259
 30
0.0
 10
16.2984048089
 20
11.9867136636
 30
0.0
 10
16.3072860694
 20
12.0299829645
 30
0.0
 10
16.3153939148
 20
12.0742432332
 30
0.0
 10
16.3227115907
 20
12.1194033042
 30
0.0
 10
16.3292239799
 20
12.1653701534
 30
0.0
 10
16.3349176012
 20
12.212049017
 30
0.0
 10
16.3397807653
 20
12.2593438794
 30
0.0
 10
16.345162094
 20
12.3233103991
 30
0.0
 10
16.349734567
 20
12.404113692
 30
0.0
 10
16.3517786605
 20
12.5016249336
 30
0.0
 10
16.350380991
 20
12.5992116699
 30
0.0
 10
16.3463458724
 20
12.6801769981
 30
0.0
 10
16.3413919315
 20
12.7443485873
 30
0.0
 10
16.3368436553
 20
12.7918498058
 30
0.0
 10
16.3314609379
 20
12.8387715269
 30
0.0
 10
16.3252548293
 20
12.8850172312
 30
0.0
 10
16.3182381778
 20
12.9304915748
 30
0.0
 10
16.3104254795
 20
12.9751008796
 30
0.0
 10
16.3018328803
 20
13.0187532531
 30
0.0
 10
16.2924781314
 20
13.0613588009
 30
0.0
 10
16.2823805538
 20
13.1028298111
 30
0.0
 10
16.2715609927
 20
13.1430809418
 30
0.0
 10
16.2600417753
 20
13.1820293984
 30
0.0
 10
16.2478466437
 20
13.2195951248
 30
0.0
 10
16.2350007419
 20
13.2557009195
 30
0.0
 10
16.2215304094
 20
13.2902728213
 30
0.0
 10
16.2074635973
 20
13.3232393884
 30
0.0
 10
16.1975205996
 20
13.344500999
 30
0.0
 10
16.1924470834
 20
13.354839738
 30
0.0
  0
SPLINE
  5
2D5
100
AcDbEntity
  8
LAYER_CHAMFER_FEAT
100
AcDbSpline
 62
7
  6
CONTINUOUS
 70
0
 71
3
 72
58
 73
54
 74
0
 42
0.0000001
 43
0.0000001
 44
0.0000000001
 40
0.0
 40
0.0
 40
0.0
 40
0.0
 40
0.0077261802
 40
0.0155163023
 40
0.0234323853
 40
0.0315328287
 40
0.0398711044
 40
0.048494912
 40
0.0574457759
 40
0.0667590089
 40
0.0764639379
 40
0.0865842933
 40
0.0971386799
 40
0.1081410714
 40
0.1196012933
 40
0.1315254701
 40
0.1439164303
 40
0.156774065
 40
0.170095641
 40
0.183876075
 40
0.1981081725
 40
0.2127828346
 40
0.2278892391
 40
0.2434149995
 40
0.2593463054
 40
0.275668047
 40
0.2923639276
 40
0.3094165648
 40
0.3268075828
 40
0.3445176982
 40
0.3808125653
 40
0.4181332302
 40
0.4563002737
 40
0.4951264288
 40
0.5344184823
 40
0.5739791001
 40
0.6136086021
 40
0.6531067095
 40
0.6922742856
 40
0.7309150913
 40
0.7688375727
 40
0.8058567045
 40
0.8417959247
 40
0.8593090239
 40
0.876490878
 40
0.8933227618
 40
0.9097869092
 40
0.9258666064
 40
0.9415462787
 40
0.9568116351
 40
0.9716496804
 40
0.9860491193
 40
1.0
 40
1.0
 40
1.0
 40
1.0
 10
15.917804705
 20
11.4483050018
 30
0.0
 10
15.9231344471
 20
11.448304998
 30
0.0
 10
15.9338455204
 20
11.4488380821
 30
0.0
 10
15.9498563262
 20
11.4512317028
 30
0.0
 10
15.9658140142
 20
11.4552148358
 30
0.0
 10
15.9816906361
 20
11.4607787002
 30
0.0
 10
15.9974622159
 20
11.4679119262
 30
0.0
 10
16.0131052388
 20
11.4766010476
 30
0.0
 10
16.0285973166
 20
11.4868308119
 30
0.0
 10
16.0439166342
 20
11.4985843016
 30
0.0
 10
16.0590417858
 20
11.5118429256
 30
0.0
 10
16.0739516063
 20
11.5265863401
 30
0.0
 10
16.0886251069
 20
11.5427923532
 30
0.0
 10
16.1030414636
 20
11.5604368425
 30
0.0
 10
16.1171800441
 20
11.5794936986
 30
0.0
 10
16.1310204549
 20
11.5999347954
 30
0.0
 10
16.1445425957
 20
11.6217299844
 30
0.0
 10
16.1577267159
 20
11.6448471094
 30
0.0
 10
16.17055347
 20
11.6692520338
 30
0.0
 10
16.183003967
 20
11.6949086819
 30
0.0
 10
16.195059816
 20
11.7217790885
 30
0.0
 10
16.2067031673
 20
11.7498234539
 30
0.0
 10
16.2179167511
 20
11.7790002036
 30
0.0
 10
16.2286839111
 20
11.8092660514
 30
0.0
 10
16.2389886372
 20
11.8405760669
 30
0.0
 10
16.2488155916
 20
11.8728837413
 30
0.0
 10
16.2581501453
 20
11.9061410708
 30
0.0
 10
16.2669783663
 20
11.9402985844
 30
0.0
 10
16.2752871842
 20
11.975305594
 30
0.0
 10
16.2857413736
 20
12.0234368607
 30
0.0
 10
16.2973914263
 20
12.0853645287
 30
0.0
 10
16.3090114597
 20
12.1616091781
 30
0.0
 10
16.3183135689
 20
12.2399295953
 30
0.0
 10
16.3252420316
 20
12.319859823
 30
0.0
 10
16.3297553285
 20
12.400925154
 30
0.0
 10
16.3318264146
 20
12.4826436914
 30
0.0
 10
16.3314428767
 20
12.5645296542
 30
0.0
 10
16.3286070124
 20
12.6460962177
 30
0.0
 10
16.3233358138
 20
12.7268585234
 30
0.0
 10
16.315660874
 20
12.8063365124
 30
0.0
 10
16.3056281861
 20
12.8840582417
 30
0.0
 10
16.2932978404
 20
12.9595613662
 30
0.0
 10
16.2810663712
 20
13.0207765134
 30
0.0
 10
16.2701587477
 20
13.0682680858
 30
0.0
 10
16.261523937
 20
13.1027505408
 30
0.0
 10
16.2523778588
 20
13.1363516143
 30
0.0
 10
16.2427340499
 20
13.1690214588
 30
0.0
 10
16.2326068986
 20
13.2007114818
 30
0.0
 10
16.2220114744
 20
13.2313746315
 30
0.0
 10
16.2109635474
 20
13.2609653121
 30
0.0
 10
16.1994794909
 20
13.2894397853
 30
0.0
 10
16.1875765095
 20
13.3167553761
 30
0.0
 10
16.1792398334
 20
13.3344503161
 30
0.0
 10
16.1750001736
 20
13.3430898344
 30
0.0
  0
SPLINE
  5
2D6
100
AcDbEntity
  8
LAYER_FEATURE
100
AcDbSpline
 62
7
  6
CONTINUOUS
 70
0
 71
3
 72
27
 73
23
 74
0
 42
0.0000001
 43
0.0000001
 44
0.0000000001
 40
0.0
 40
0.0
 40
0.0
 40
0.0
 40
0.0217360926
 40
0.0435589453
 40
0.0655540498
 40
0.087804421
 40
0.1103895422
 40
0.1333845043
 40
0.1568593103
 40
0.180878441
 40
0.2307617263
 40
0.2834536071
 40
0.3392638932
 40
0.398420735
 40
0.461080594
 40
0.5273383057
 40
0.5972361185
 40
0.6707714086
 40
0.7479032459
 40
0.8285577805
 40
0.9126322297
 40
1.0
 40
1.0
 40
1.0
 40
1.0
 10
15.0474020657
 20
13.8129299877
 30
0.0
 10
15.042876926
 20
13.8129299936
 30
0.0
 10
15.0338055163
 20
13.8126176969
 30
0.0
 10
15.0202203953
 20
13.8112138264
 30
0.0
 10
15.0066555288
 20
13.8088754378
 30
0.0
 10
14.9931220582
 20
13.8056046921
 30
0.0
 10
14.979629842
 20
13.8014044801
 30
0.0
 10
14.9661889634
 20
13.7962784186
 30
0.0
 10
14.9528088081
 20
13.7902306057
 30
0.0
 10
14.9348383425
 20
13.780827369
 30
0.0
 10
14.9125400738
 20
13.7666785974
 30
0.0
 10
14.8865394304
 20
13.7463256381
 30
0.0
 10
14.8610232639
 20
13.7224497038
 30
0.0
 10
14.8360594119
 20
13.6951229651
 30
0.0
 10
14.8117118248
 20
13.6644232447
 30
0.0
 10
14.7880454696
 20
13.6304372178
 30
0.0
 10
14.7651244732
 20
13.5932602617
 30
0.0
 10
14.743011986
 20
13.5529968279
 30
0.0
 10
14.7217696732
 20
13.5097603237
 30
0.0
 10
14.7014572792
 20
13.4636727068
 30
0.0
 10
14.6821324219
 20
13.4148650824
 30
0.0
 10
14.6701665207
 20
13.3812303738
 30
0.0
 10
14.6643460237
 20
13.3639981141
 30
0.0
  0
SPLINE
  5
2D7
100
AcDbEntity
  8
LAYER_FEATURE
100
AcDbSpline
 62
7
  6
CONTINUOUS
 70
0
 71
3
 72
78
 73
74
 74
0
 42
0.0000001
 43
0.0000001
 44
0.0000000001
 40
0.0
 40
0.0
 40
0.0
 40
0.0
 40
0.0173115679
 40
0.0340660427
 40
0.0502396574
 40
0.0658116535
 40
0.0807650234
 40
0.0950868833
 40
0.1087690777
 40
0.1218088659
 40
0.1342097462
 40
0.1459824368
 40
0.1571460216
 40
0.1677292405
 40
0.177771872
 40
0.187326073
 40
0.1964574288
 40
0.2008905554
 40
0.2052488905
 40
0.2095443876
 40
0.2137896807
 40
0.2179979819
 40
0.2221829426
 40
0.2263584992
 40
0.2305387055
 40
0.2347375574
 40
0.2389688212
 40
0.2432458724
 40
0.2475815572
 40
0.251988067
 40
0.2564768537
 40
0.2657399337
 40
0.2754490764
 40
0.2856653418
 40
0.2964366565
 40
0.3077989945
 40
0.3197777521
 40
0.3323891101
 40
0.3456412803
 40
0.3595355974
 40
0.3740674458
 40
0.3892270369
 40
0.4050000588
 40
0.4213682268
 40
0.4383097484
 40
0.4557997176
 40
0.4738104539
 40
0.492311801
 40
0.5112713952
 40
0.5306549051
 40
0.5504262493
 40
0.5705477965
 40
0.5909805586
 40
0.6116843709
 40
0.6326180646
 40
0.6537396325
 40
0.6750063911
 40
0.6963751404
 40
0.7178023205
 40
0.739244166
 40
0.7606568596
 40
0.7819966866
 40
0.8032201893
 40
0.8242843208
 40
0.8451466035
 40
0.8657652895
 40
0.8860995234
 40
0.9061095101
 40
0.9257566896
 40
0.9450039192
 40
0.963815692
 40
0.9821582229
 40
1.0
 40
1.0
 40
1.0
 40
1.0
 10
15.5237211793
 20
13.325233732
 30
0.0
 10
15.5288307958
 20
13.341768457
 30
0.0
 10
15.5393411587
 20
13.3741675312
 30
0.0
 10
15.5562782242
 20
13.4214579865
 30
0.0
 10
15.5740971596
 20
13.4665598615
 30
0.0
 10
15.5927552177
 20
13.5093649037
 30
0.0
 10
15.6122078752
 20
13.5497710248
 30
0.0
 10
15.632408922
 20
13.5876819605
 30
0.0
 10
15.6533106555
 20
13.6230076166
 30
0.0
 10
15.6748641304
 20
13.6556642002
 30
0.0
 10
15.6970194316
 20
13.6855743416
 30
0.0
 10
15.7197259416
 20
13.7126670871
 30
0.0
 10
15.7429327073
 20
13.7368778074
 30
0.0
 10
15.7665882909
 20
13.7581477371
 30
0.0
 10
15.7906419854
 20
13.7764237906
 30
0.0
 10
15.8150390475
 20
13.791656554
 30
0.0
 10
15.8358200687
 20
13.8018787859
 30
0.0
 10
15.8525067801
 20
13.8084266782
 30
0.0
 10
15.864944958
 20
13.812507323
 30
0.0
 10
15.8774198938
 20
13.8158021876
 30
0.0
 10
15.8899241633
 20
13.8183090546
 30
0.0
 10
15.9024498007
 20
13.8200260719
 30
0.0
 10
15.9149888651
 20
13.8209519882
 30
0.0
 10
15.9275333217
 20
13.8210860482
 30
0.0
 10
15.9400751132
 20
13.8204282241
 30
0.0
 10
15.9526061965
 20
13.8189789534
 30
0.0
 10
15.9651185726
 20
13.8167393415
 30
0.0
 10
15.9776043652
 20
13.8137110512
 30
0.0
 10
15.9900556806
 20
13.8098962544
 30
0.0
 10
16.0024651554
 20
13.8052975165
 30
0.0
 10
16.0191170869
 20
13.7980502902
 30
0.0
 10
16.0398340154
 20
13.786958406
 30
0.0
 10
16.0641227802
 20
13.7707143701
 30
0.0
 10
16.0880507144
 20
13.7514425648
 30
0.0
 10
16.1115635018
 20
13.7291939842
 30
0.0
 10
16.1346105083
 20
13.7040233901
 30
0.0
 10
16.1571403585
 20
13.6759914705
 30
0.0
 10
16.1791022089
 20
13.6451649112
 30
0.0
 10
16.2004456347
 20
13.611616784
 30
0.0
 10
16.2211210114
 20
13.5754265874
 30
0.0
 10
16.2410797761
 20
13.5366802144
 30
0.0
 10
16.2602746923
 20
13.4954698188
 30
0.0
 10
16.2786600897
 20
13.4518936309
 30
0.0
 10
16.2961920407
 20
13.4060557141
 30
0.0
 10
16.31282853
 20
13.3580657028
 30
0.0
 10
16.3285295974
 20
13.3080385268
 30
0.0
 10
16.3432574748
 20
13.2560941259
 30
0.0
 10
16.356976702
 20
13.2023571461
 30
0.0
 10
16.3696542148
 20
13.1469566198
 30
0.0
 10
16.3812594401
 20
13.0900256431
 30
0.0
 10
16.3917643741
 20
13.0317010475
 30
0.0
 10
16.4011436705
 20
12.9721230662
 30
0.0
 10
16.409374693
 20
12.9114349851
 30
0.0
 10
16.4164375706
 20
12.8497827893
 30
0.0
 10
16.4223152468
 20
12.787314807
 30
0.0
 10
16.4269935266
 20
12.7241813503
 30
0.0
 10
16.4304611194
 20
12.660534349
 30
0.0
 10
16.4327096528
 20
12.596526979
 30
0.0
 10
16.4337336959
 20
12.5323132907
 30
0.0
 10
16.4335307697
 20
12.4680478351
 30
0.0
 10
16.432101367
 20
12.4038852893
 30
0.0
 10
16.4294489438
 20
12.3399800803
 30
0.0
 10
16.4255799053
 20
12.2764860105
 30
0.0
 10
16.4205035912
 20
12.2135558849
 30
0.0
 10
16.4142322546
 20
12.1513411393
 30
0.0
 10
16.4067810438
 20
12.0899914697
 30
0.0
 10
16.3981679499
 20
12.0296544683
 30
0.0
 10
16.3884137657
 20
11.9704752703
 30
0.0
 10
16.3775420238
 20
11.9125961815
 30
0.0
 10
16.3655789736
 20
11.8561563754
 30
0.0
 10
16.3525534296
 20
11.8012913884
 30
0.0
 10
16.3384969782
 20
11.7481334951
 30
0.0
 10
16.3283144424
 20
11.7134173953
 30
0.0
 10
16.3230483314
 20
11.6963762538
 30
0.0
  0
SPLINE
  5
2D8
100
AcDbEntity
  8
LAYER_FEATURE
100
AcDbSpline
 62
7
  6
CONTINUOUS
 70
0
 71
3
 72
34
 73
30
 74
0
 42
0.0000001
 43
0.0000001
 44
0.0000000001
 40
0.0
 40
0.0
 40
0.0
 40
0.0
 40
0.0879664255
 40
0.1726604141
 40
0.2539271926
 40
0.3316368876
 40
0.3691278129
 40
0.405694709
 40
0.4413304674
 40
0.4760304985
 40
0.5097929159
 40
0.5426187423
 40
0.5745121897
 40
0.6054809541
 40
0.635536482
 40
0.6646943066
 40
0.6929744413
 40
0.7204017213
 40
0.7728086245
 40
0.7978803184
 40
0.8222543119
 40
0.8459849997
 40
0.8691334459
 40
0.8917673256
 40
0.9139606924
 40
0.9357935247
 40
0.957350979
 40
0.978722382
 40
1.0
 40
1.0
 40
1.0
 40
1.0
 10
15.5194951193
 20
13.3703361765
 30
0.0
 10
15.5256601761
 20
13.3902863077
 30
0.0
 10
15.5383876113
 20
13.4292547523
 30
0.0
 10
15.559096299
 20
13.4858752554
 30
0.0
 10
15.5810093112
 20
13.5394205452
 30
0.0
 10
15.6004422835
 20
13.5818329731
 30
0.0
 10
15.6165657324
 20
13.6140524265
 30
0.0
 10
15.6287706578
 20
13.6370563336
 30
0.0
 10
15.6412226263
 20
13.6591703374
 30
0.0
 10
15.6539119709
 20
13.6803771102
 30
0.0
 10
15.6668287119
 20
13.7006599524
 30
0.0
 10
15.6799627651
 20
13.720002903
 30
0.0
 10
15.6933038931
 20
13.7383907437
 30
0.0
 10
15.7068416806
 20
13.7558090031
 30
0.0
 10
15.7205656869
 20
13.7722440289
 30
0.0
 10
15.7344650872
 20
13.7876826267
 30
0.0
 10
15.748529949
 20
13.8021133971
 30
0.0
 10
15.7672031245
 20
13.8197253363
 30
0.0
 10
15.7864411578
 20
13.8356080372
 30
0.0
 10
15.8062176691
 20
13.8495318277
 30
0.0
 10
15.8209425291
 20
13.8587631585
 30
0.0
 10
15.8357655906
 20
13.8669281671
 30
0.0
 10
15.8506757806
 20
13.8740200511
 30
0.0
 10
15.8656612832
 20
13.8800324126
 30
0.0
 10
15.8807102179
 20
13.8849596813
 30
0.0
 10
15.8958102838
 20
13.888797144
 30
0.0
 10
15.9109492777
 20
13.8915410194
 30
0.0
 10
15.926113423
 20
13.8931884969
 30
0.0
 10
15.936240996
 20
13.8935549809
 30
0.0
 10
15.9412917603
 20
13.8935549851
 30
0.0
  0
SPLINE
  5
2D9
100
AcDbEntity
  8
02___PRT_ALL_AXES
100
AcDbSpline
 62
7
  6
CONTINUOUS
 70
0
 71
3
 72
14
 73
10
 74
0
 42
0.0000001
 43
0.0000001
 44
0.0000000001
 40
0.0
 40
0.0
 40
0.0
 40
0.0
 40
0.1179235004
 40
0.2360731775
 40
0.3554157797
 40
0.4768825778
 40
0.6013453456
 40
0.729596689
 40
1.0
 40
1.0
 40
1.0
 40
1.0
 10
15.8092923766
 20
13.1355317874
 30
0.0
 10
15.8124069897
 20
13.1357683477
 30
0.0
 10
15.8186699893
 20
13.1359351526
 30
0.0
 10
15.8280740864
 20
13.1352517594
 30
0.0
 10
15.8374593073
 20
13.1336362361
 30
0.0
 10
15.8468086468
 20
13.1310923466
 30
0.0
 10
15.8561083341
 20
13.1276250463
 30
0.0
 10
15.86863813
 20
13.1216784943
 30
0.0
 10
15.8775936599
 20
13.1159830209
 30
0.0
 10
15.8833679991
 20
13.1117452796
 30
0.0
  0
SPLINE
  5
2DA
100
AcDbEntity
  8
LAYER_FEATURE
100
AcDbSpline
 62
7
  6
CONTINUOUS
 70
0
 71
3
 72
54
 73
50
 74
0
 42
0.0000001
 43
0.0000001
 44
0.0000000001
 40
0.0
 40
0.0
 40
0.0
 40
0.0
 40
0.0330500869
 40
0.0673809189
 40
0.1028689286
 40
0.1393805316
 40
0.1767738172
 40
0.214899975
 40
0.2536046397
 40
0.2927291642
 40
0.332111844
 40
0.3715891169
 40
0.4109967451
 40
0.4501709878
 40
0.4889497815
 40
0.5271739361
 40
0.5646883551
 40
0.6013432992
 40
0.6369957215
 40
0.6544041318
 40
0.6715120649
 40
0.6883041821
 40
0.7047658562
 40
0.7208832323
 40
0.736643294
 40
0.7520339335
 40
0.7670440292
 40
0.7816635318
 40
0.7958835594
 40
0.8096965048
 40
0.823096156
 40
0.8360778326
 40
0.8486385411
 40
0.8607771491
 40
0.8724945842
 40
0.8837940579
 40
0.894681319
 40
0.9051649339
 40
0.9152565937
 40
0.9249714414
 40
0.9343284073
 40
0.9433505306
 40
0.9520652387
 40
0.9605045419
 40
0.9687050894
 40
0.9767080294
 40
0.9845586188
 40
0.9923055502
 40
1.0
 40
1.0
 40
1.0
 40
1.0
 10
14.6076984196
 20
13.3703361765
 30
0.0
 10
14.5997194537
 20
13.3445162335
 30
0.0
 10
14.5845383969
 20
13.2915350887
 30
0.0
 10
14.564396336
 20
13.2098500839
 30
0.0
 10
14.5465228021
 20
13.1247447638
 30
0.0
 10
14.5310062132
 20
13.0366363064
 30
0.0
 10
14.517922813
 20
12.945954682
 30
0.0
 10
14.5073370699
 20
12.853143408
 30
0.0
 10
14.4993011254
 20
12.7586564607
 30
0.0
 10
14.4938545891
 20
12.6629562294
 30
0.0
 10
14.4910243068
 20
12.5665111397
 30
0.0
 10
14.4908242187
 20
12.4697933325
 30
0.0
 10
14.4932553105
 20
12.3732763035
 30
0.0
 10
14.4983056082
 20
12.2774325553
 30
0.0
 10
14.5059502219
 20
12.1827312148
 30
0.0
 10
14.5161514698
 20
12.0896357927
 30
0.0
 10
14.5288590942
 20
11.9986014944
 30
0.0
 10
14.5440105005
 20
11.9100742831
 30
0.0
 10
14.5587253847
 20
11.83819025
 30
0.0
 10
14.5716918623
 20
11.7822958114
 30
0.0
 10
14.5819006378
 20
11.7416000126
 30
0.0
 10
14.5926575878
 20
11.7018470699
 30
0.0
 10
14.6039496064
 20
11.6630855442
 30
0.0
 10
14.6157628255
 20
11.6253629105
 30
0.0
 10
14.6280827712
 20
11.5887253198
 30
0.0
 10
14.6408943482
 20
11.553217587
 30
0.0
 10
14.6541818722
 20
11.5188831238
 30
0.0
 10
14.6679290897
 20
11.4857638878
 30
0.0
 10
14.6821192033
 20
11.4539003286
 30
0.0
 10
14.6967348976
 20
11.4233313381
 30
0.0
 10
14.7117583679
 20
11.3940942019
 30
0.0
 10
14.7271713513
 20
11.3662245536
 30
0.0
 10
14.7429551567
 20
11.3397563314
 30
0.0
 10
14.7590907041
 20
11.3147217432
 30
0.0
 10
14.7755585631
 20
11.2911512383
 30
0.0
 10
14.7923389939
 20
11.2690734854
 30
0.0
 10
14.8094119885
 20
11.2485153615
 30
0.0
 10
14.8267573106
 20
11.2295019525
 30
0.0
 10
14.8443545302
 20
11.2120565708
 30
0.0
 10
14.8621830439
 20
11.1962007863
 30
0.0
 10
14.8802220721
 20
11.1819544729
 30
0.0
 10
14.898450626
 20
11.1693358717
 30
0.0
 10
14.9168474304
 20
11.1583616442
 30
0.0
 10
14.9353907706
 20
11.1490468956
 30
0.0
 10
14.954058384
 20
11.1414051324
 30
0.0
 10
14.9728270187
 20
11.1354481185
 30
0.0
 10
14.9916731901
 20
11.1311856177
 30
0.0
 10
15.0105698721
 20
11.1286250148
 30
0.0
 10
15.0232033965
 20
11.1280550068
 30
0.0
 10
15.0294950607
 20
11.1280550007
 30
0.0
  0
SPLINE
  5
2DB
100
AcDbEntity
  8
LAYER_FEATURE
100
AcDbSpline
 62
7
  6
CONTINUOUS
 70
0
 71
3
 72
38
 73
34
 74
0
 42
0.0000001
 43
0.0000001
 44
0.0000000001
 40
0.0
 40
0.0
 40
0.0
 40
0.0
 40
0.0908465933
 40
0.1348516329
 40
0.1778752967
 40
0.2198937834
 40
0.2608861101
 40
0.3008338808
 40
0.339721509
 40
0.3775365088
 40
0.4142697517
 40
0.4499157974
 40
0.4844732193
 40
0.5179449874
 40
0.5503389026
 40
0.581668096
 40
0.6119515453
 40
0.6412146369
 40
0.6694897759
 40
0.696817029
 40
0.7232447548
 40
0.7488301685
 40
0.7736398226
 40
0.7977499221
 40
0.8212463895
 40
0.8442245607
 40
0.8667884631
 40
0.8890496184
 40
0.9111253647
 40
0.9331367486
 40
0.9552061302
 40
0.9774546848
 40
1.0
 40
1.0
 40
1.0
 40
1.0
 10
14.6477384896
 20
13.325233732
 30
0.0
 10
14.6542767353
 20
13.3463915029
 30
0.0
 10
14.6645446464
 20
13.3776295965
 30
0.0
 10
14.6793144745
 20
13.4183981028
 30
0.0
 10
14.6906405222
 20
13.4477479031
 30
0.0
 10
14.702321169
 20
13.4761659349
 30
0.0
 10
14.7143449206
 20
13.5036241547
 30
0.0
 10
14.7266998215
 20
13.5300953047
 30
0.0
 10
14.7393736478
 20
13.5555531678
 30
0.0
 10
14.7523538647
 20
13.5799725209
 30
0.0
 10
14.7656276651
 20
13.6033291895
 30
0.0
 10
14.7791819623
 20
13.6256000732
 30
0.0
 10
14.7930034333
 20
13.6467631539
 30
0.0
 10
14.8070785338
 20
13.6667975093
 30
0.0
 10
14.8213935253
 20
13.6856833252
 30
0.0
 10
14.8359344754
 20
13.703401924
 30
0.0
 10
14.8506872932
 20
13.7199357582
 30
0.0
 10
14.8656377514
 20
13.7352683977
 30
0.0
 10
14.880771502
 20
13.7493845159
 30
0.0
 10
14.8960740739
 20
13.762269886
 30
0.0
 10
14.9115308603
 20
13.7739113701
 30
0.0
 10
14.9271271142
 20
13.7842968707
 30
0.0
 10
14.942847899
 20
13.7934153124
 30
0.0
 10
14.9586780272
 20
13.8012566362
 30
0.0
 10
14.9746019622
 20
13.8078118645
 30
0.0
 10
14.9906037519
 20
13.8130731409
 30
0.0
 10
15.0066669624
 20
13.8170338446
 30
0.0
 10
15.0227746491
 20
13.8196887471
 30
0.0
 10
15.0389094399
 20
13.8210342142
 30
0.0
 10
15.0550535416
 20
13.8210683991
 30
0.0
 10
15.0711894397
 20
13.8197911674
 30
0.0
 10
15.0872982427
 20
13.8172046284
 30
0.0
 10
15.0979226597
 20
13.814630264
 30
0.0
 10
15.103211254
 20
13.8131357853
 30
0.0
  0
SPLINE
  5
2DC
100
AcDbEntity
  8
LAYER_FEATURE
100
AcDbSpline
 62
7
  6
CONTINUOUS
 70
0
 71
3
 72
57
 73
53
 74
0
 42
0.0000001
 43
0.0000001
 44
0.0000000001
 40
0.0
 40
0.0
 40
0.0
 40
0.0
 40
0.0167582047
 40
0.0338752236
 40
0.0513345853
 40
0.0691192955
 40
0.1055908027
 40
0.1431396543
 40
0.1816046157
 40
0.220816621
 40
0.2606004119
 40
0.3007761004
 40
0.341160676
 40
0.3815694792
 40
0.4218176593
 40
0.4617216316
 40
0.501100547
 40
0.5397777877
 40
0.5775825107
 40
0.6143512654
 40
0.6322992584
 40
0.6499312391
 40
0.6672296556
 40
0.6841777741
 40
0.7007597514
 40
0.7169607141
 40
0.7327668449
 40
0.7481654767
 40
0.7631451987
 40
0.7776959739
 40
0.7918092713
 40
0.8054782154
 40
0.818697756
 40
0.8314648626
 40
0.8437787464
 40
0.8556411127
 40
0.8670564487
 40
0.8780323477
 40
0.8885798686
 40
0.8987139282
 40
0.9084537119
 40
0.9178230842
 40
0.9268509629
 40
0.9355716077
 40
0.9440247557
 40
0.9522555251
 40
0.9603140132
 40
0.9682545322
 40
0.9761344803
 40
0.984012908
 40
0.991948908
 40
1.0
 40
1.0
 40
1.0
 40
1.0
 10
14.6477384896
 20
13.325233732
 30
0.0
 10
14.6438121051
 20
13.312527947
 30
0.0
 10
14.6361511417
 20
13.2867582832
 30
0.0
 10
14.6253389893
 20
13.2474796855
 30
0.0
 10
14.6150952143
 20
13.2072078046
 30
0.0
 10
14.602104894
 20
13.1517968175
 30
0.0
 10
14.5874231953
 20
13.0804218552
 30
0.0
 10
14.5724171337
 20
12.9924125429
 30
0.0
 10
14.5599598635
 20
12.9018111468
 30
0.0
 10
14.5501189073
 20
12.8091056962
 30
0.0
 10
14.5429476099
 20
12.7147946245
 30
0.0
 10
14.5384848557
 20
12.6193855174
 30
0.0
 10
14.5367548461
 20
12.523391898
 30
0.0
 10
14.5377669658
 20
12.4273305194
 30
0.0
 10
14.5415157303
 20
12.3317185068
 30
0.0
 10
14.5479808052
 20
12.2370704984
 30
0.0
 10
14.55712713
 20
12.1438959256
 30
0.0
 10
14.5689051171
 20
12.0526958103
 30
0.0
 10
14.5832509284
 20
11.9639614446
 30
0.0
 10
14.5973921742
 20
11.8918984323
 30
0.0
 10
14.60996095
 20
11.8358753319
 30
0.0
 10
14.6199013544
 20
11.7951049616
 30
0.0
 10
14.630417524
 20
11.7552993992
 30
0.0
 10
14.6414953643
 20
11.7165121211
 30
0.0
 10
14.6531199099
 20
11.6787953682
 30
0.0
 10
14.6652754957
 20
11.6421998839
 30
0.0
 10
14.677945743
 20
11.6067748924
 30
0.0
 10
14.691113594
 20
11.5725680185
 30
0.0
 10
14.7047613381
 20
11.5396252237
 30
0.0
 10
14.7188706402
 20
11.5079907407
 30
0.0
 10
14.7334225742
 20
11.4777070133
 30
0.0
 10
14.7483976583
 20
11.4488146392
 30
0.0
 10
14.7637758935
 20
11.4213523163
 30
0.0
 10
14.7795368051
 20
11.3953567949
 30
0.0
 10
14.7956594879
 20
11.3708628355
 30
0.0
 10
14.8121226559
 20
11.3479031761
 30
0.0
 10
14.8289046931
 20
11.3265085114
 30
0.0
 10
14.8459837055
 20
11.3067074857
 30
0.0
 10
14.863337569
 20
11.2885267064
 30
0.0
 10
14.8809439642
 20
11.2719907762
 30
0.0
 10
14.8987803903
 20
11.2571223524
 30
0.0
 10
14.9168241399
 20
11.2439422234
 30
0.0
 10
14.9350522157
 20
11.2324693883
 30
0.0
 10
14.9534411789
 20
11.2227211092
 30
0.0
 10
14.9719669265
 20
11.2147128923
 30
0.0
 10
14.9906044389
 20
11.2084583444
 30
0.0
 10
15.0093275449
 20
11.2039688629
 30
0.0
 10
15.0281089046
 20
11.2012531968
 30
0.0
 10
15.0469199582
 20
11.2003168765
 30
0.0
 10
15.0657321463
 20
11.2011620071
 30
0.0
 10
15.0845145544
 20
11.2037863065
 30
0.0
 10
15.0968848373
 20
11.2066920968
 30
0.0
 10
15.1030345411
 20
11.2084243468
 30
0.0
  0
SPLINE
  5
2DD
100
AcDbEntity
  8
LAYER_FEATURE
100
AcDbSpline
 62
7
  6
CONTINUOUS
 70
0
 71
3
 72
13
 73
9
 74
0
 42
0.0000001
 43
0.0000001
 44
0.0000000001
 40
0.0
 40
0.0
 40
0.0
 40
0.0
 40
0.1182899336
 40
0.2431808525
 40
0.5035762747
 40
0.7621200808
 40
0.8847567654
 40
1.0
 40
1.0
 40
1.0
 40
1.0
 10
14.6317149621
 20
13.2565035512
 30
0.0
 10
14.6316168445
 20
13.2561070441
 30
0.0
 10
14.6314470378
 20
13.255283775
 30
0.0
 10
14.6312098133
 20
13.253560166
 30
0.0
 10
14.6311092019
 20
13.2513339239
 30
0.0
 10
14.6312571828
 20
13.2491179148
 30
0.0
 10
14.6315324555
 20
13.2474249276
 30
0.0
 10
14.6317205544
 20
13.2466243603
 30
0.0
 10
14.6318276603
 20
13.2462410988
 30
0.0
  0
SPLINE
  5
2DE
100
AcDbEntity
  8
LAYER_FEATURE
100
AcDbSpline
 62
7
  6
CONTINUOUS
 70
0
 71
3
 72
12
 73
8
 74
0
 42
0.0000001
 43
0.0000001
 44
0.0000000001
 40
0.0
 40
0.0
 40
0.0
 40
0.0
 40
0.2615789471
 40
0.5201697721
 40
0.7685301428
 40
0.8867706156
 40
1.0
 40
1.0
 40
1.0
 40
1.0
 10
14.6417141838
 20
13.1905727282
 30
0.0
 10
14.6418340163
 20
13.1933850077
 30
0.0
 10
14.641871819
 20
13.1989880297
 30
0.0
 10
14.6413427421
 20
13.2072476269
 30
0.0
 10
14.6404147822
 20
13.2139189367
 30
0.0
 10
14.6393802957
 20
13.2189790213
 30
0.0
 10
14.6387710216
 20
13.221395376
 30
0.0
 10
14.6384430789
 20
13.222568867
 30
0.0
  0
SPLINE
  5
2DF
100
AcDbEntity
  8
LAYER_FEATURE
100
AcDbSpline
 62
7
  6
CONTINUOUS
 70
0
 71
3
 72
13
 73
9
 74
0
 42
0.0000001
 43
0.0000001
 44
0.0000000001
 40
0.0
 40
0.0
 40
0.0
 40
0.0
 40
0.2529916972
 40
0.5167750662
 40
0.6466485657
 40
0.7719279588
 40
0.8903721463
 40
1.0
 40
1.0
 40
1.0
 40
1.0
 10
14.6036382553
 20
13.1408389589
 30
0.0
 10
14.6034733503
 20
13.1399871563
 30
0.0
 10
14.6032599875
 20
13.1382223487
 30
0.0
 10
14.6032466387
 20
13.1359999247
 30
0.0
 10
14.6033903597
 20
13.1342251534
 30
0.0
 10
14.603572153
 20
13.1329559583
 30
0.0
 10
14.6038241694
 20
13.1317697176
 30
0.0
 10
14.6040449735
 20
13.1310182134
 30
0.0
 10
14.6041680724
 20
13.1306629759
 30
0.0
  0
SPLINE
  5
2E0
100
AcDbEntity
  8
LAYER_FEATURE
100
AcDbSpline
 62
7
  6
CONTINUOUS
 70
0
 71
3
 72
13
 73
9
 74
0
 42
0.0000001
 43
0.0000001
 44
0.0000000001
 40
0.0
 40
0.0
 40
0.0
 40
0.0
 40
0.2680247549
 40
0.5286727425
 40
0.6539861882
 40
0.7748142302
 40
0.8903838785
 40
1.0
 40
1.0
 40
1.0
 40
1.0
 10
14.6162664343
 20
13.0779533233
 30
0.0
 10
14.6162710975
 20
13.0807594547
 30
0.0
 10
14.6160852729
 20
13.0862966702
 30
0.0
 10
14.6153618249
 20
13.0931123488
 30
0.0
 10
14.6144864699
 20
13.0983469111
 30
0.0
 10
14.6137039479
 20
13.102053489
 30
0.0
 10
14.6127936614
 20
13.1055612375
 30
0.0
 10
14.6120866037
 20
13.107811762
 30
0.0
 10
14.6117108364
 20
13.1088961472
 30
0.0
  0
SPLINE
  5
2E1
100
AcDbEntity
  8
02___PRT_ALL_AXES
100
AcDbSpline
 62
7
  6
CONTINUOUS
 70
0
 71
3
 72
25
 73
21
 74
0
 42
0.0000001
 43
0.0000001
 44
0.0000000001
 40
0.0
 40
0.0
 40
0.0
 40
0.0
 40
0.0843044592
 40
0.1684052631
 40
0.2515526744
 40
0.333006995
 40
0.4120575493
 40
0.4880328493
 40
0.5603150136
 40
0.6283553468
 40
0.6916931953
 40
0.7499801003
 40
0.8030127301
 40
0.8507794319
 40
0.8935269319
 40
0.9318505387
 40
0.9496873004
 40
0.9668505607
 40
0.9835455006
 40
1.0
 40
1.0
 40
1.0
 40
1.0
 10
15.9266731814
 20
13.0680889102
 30
0.0
 10
15.9267362098
 20
13.0702300801
 30
0.0
 10
15.926776051
 20
13.0745102677
 30
0.0
 10
15.9265801949
 20
13.0809006158
 30
0.0
 10
15.9261309696
 20
13.0872057292
 30
0.0
 10
15.9254331426
 20
13.093359144
 30
0.0
 10
15.9244941769
 20
13.0992961529
 30
0.0
 10
15.9233240771
 20
13.1049544332
 30
0.0
 10
15.9219352966
 20
13.1102747657
 30
0.0
 10
15.9203425287
 20
13.1152017323
 30
0.0
 10
15.918562472
 20
13.1196843947
 30
0.0
 10
15.9166133549
 20
13.1236769798
 30
0.0
 10
15.9145145554
 20
13.127139374
 30
0.0
 10
15.9122847766
 20
13.1300376457
 30
0.0
 10
15.9099430969
 20
13.1323424714
 30
0.0
 10
15.9078600841
 20
13.1337802104
 30
0.0
 10
15.9061708964
 20
13.1345747801
 30
0.0
 10
15.904922033
 20
13.1349923838
 30
0.0
 10
15.9036651978
 20
13.135243783
 30
0.0
 10
15.9028218669
 20
13.1352998881
 30
0.0
 10
15.9024037735
 20
13.1352998857
 30
0.0
  0
SPLINE
  5
2E2
100
AcDbEntity
  8
LAYER_FEATURE
100
AcDbSpline
 62
7
  6
CONTINUOUS
 70
0
 71
3
 72
13
 73
9
 74
0
 42
0.0000001
 43
0.0000001
 44
0.0000000001
 40
0.0
 40
0.0
 40
0.0
 40
0.0
 40
0.2631229436
 40
0.5302425362
 40
0.6591429089
 40
0.7817524493
 40
0.8959614483
 40
1.0
 40
1.0
 40
1.0
 40
1.0
 10
14.5804235178
 20
13.0182715827
 30
0.0
 10
14.5802959901
 20
13.0173925963
 30
0.0
 10
14.5801545629
 20
13.0156034187
 30
0.0
 10
14.5802289305
 20
13.0133746024
 30
0.0
 10
14.5804448206
 20
13.0116362801
 30
0.0
 10
14.5806766914
 20
13.0104226944
 30
0.0
 10
14.5809749599
 20
13.0093103477
 30
0.0
 10
14.5812266197
 20
13.0086164863
 30
0.0
 10
14.5813646489
 20
13.0082935593
 30
0.0
  0
SPLINE
  5
2E3
100
AcDbEntity
  8
LAYER_FEATURE
100
AcDbSpline
 62
7
  6
CONTINUOUS
 70
0
 71
3
 72
14
 73
10
 74
0
 42
0.0000001
 43
0.0000001
 44
0.0000000001
 40
0.0
 40
0.0
 40
0.0
 40
0.0
 40
0.2747287129
 40
0.4080788865
 40
0.5375111619
 40
0.6621673031
 40
0.7812557342
 40
0.8940682766
 40
1.0
 40
1.0
 40
1.0
 40
1.0
 10
14.595542297
 20
12.9591201226
 30
0.0
 10
14.5954336018
 20
12.961889419
 30
0.0
 10
14.5951273667
 20
12.9659996302
 30
0.0
 10
14.5944153955
 20
12.97137603
 30
0.0
 10
14.5937474004
 20
12.9752281584
 30
0.0
 10
14.5929459227
 20
12.9789076521
 30
0.0
 10
14.5920176103
 20
12.9823842127
 30
0.0
 10
14.5909703059
 20
12.9856289263
 30
0.0
 10
14.5901721242
 20
12.9876879884
 30
0.0
 10
14.5897521181
 20
12.9886706156
 30
0.0
  0
SPLINE
  5
2E4
100
AcDbEntity
  8
LAYER_FEATURE
100
AcDbSpline
 62
7
  6
CONTINUOUS
 70
0
 71
3
 72
15
 73
11
 74
0
 42
0.0000001
 43
0.0000001
 44
0.0000000001
 40
0.0
 40
0.0
 40
0.0
 40
0.0
 40
0.0918530068
 40
0.1888530793
 40
0.2942383346
 40
0.4103051267
 40
0.5384709628
 40
0.679440678
 40
0.8333709528
 40
1.0
 40
1.0
 40
1.0
 40
1.0
 10
14.5795554456
 20
12.9183899002
 30
0.0
 10
14.5801107059
 20
12.9184264404
 30
0.0
 10
14.5812469459
 20
12.9186396472
 30
0.0
 10
14.5828949711
 20
12.9193496359
 30
0.0
 10
14.5844991915
 20
12.920438738
 30
0.0
 10
14.5860490773
 20
12.9218925742
 30
0.0
 10
14.5875362552
 20
12.9236976814
 30
0.0
 10
14.5889510403
 20
12.9258395233
 30
0.0
 10
14.5902832196
 20
12.9283010886
 30
0.0
 10
14.5910789812
 20
12.9300745245
 30
0.0
 10
14.591463628
 20
12.9310078364
 30
0.0
  0
SPLINE
  5
2E5
100
AcDbEntity
  8
LAYER_FEATURE
100
AcDbSpline
 62
7
  6
CONTINUOUS
 70
0
 71
3
 72
16
 73
12
 74
0
 42
0.0000001
 43
0.0000001
 44
0.0000000001
 40
0.0
 40
0.0
 40
0.0
 40
0.0
 40
0.0373029826
 40
0.0760953257
 40
0.1614249676
 40
0.2613844656
 40
0.3781622341
 40
0.5119440174
 40
0.6616129747
 40
0.8251639905
 40
1.0
 40
1.0
 40
1.0
 40
1.0
 10
14.5682126862
 20
12.9176434624
 30
0.0
 10
14.5681235448
 20
12.9176375963
 30
0.0
 10
14.5679424557
 20
12.9176079068
 30
0.0
 10
14.5675769161
 20
12.9174766391
 30
0.0
 10
14.5671265889
 20
12.9171696776
 30
0.0
 10
14.5666406223
 20
12.9166279223
 30
0.0
 10
14.566193405
 20
12.9159138414
 30
0.0
 10
14.5657926033
 20
12.9150409979
 30
0.0
 10
14.5654456756
 20
12.9140267135
 30
0.0
 10
14.5651601069
 20
12.912892199
 30
0.0
 10
14.5650186824
 20
12.912093528
 30
0.0
 10
14.5649585645
 20
12.9116791642
 30
0.0
  0
SPLINE
  5
2E6
100
AcDbEntity
  8
LAYER_FEATURE
100
AcDbSpline
 62
7
  6
CONTINUOUS
 70
0
 71
3
 72
52
 73
48
 74
0
 42
0.0000001
 43
0.0000001
 44
0.0000000001
 40
0.0
 40
0.0
 40
0.0
 40
0.0
 40
0.0391359426
 40
0.0787774509
 40
0.118810158
 40
0.1591173483
 40
0.1995809909
 40
0.2400822656
 40
0.2805021605
 40
0.3207220751
 40
0.3606244235
 40
0.4000932429
 40
0.4390148194
 40
0.477278315
 40
0.5147764429
 40
0.551406138
 40
0.5870693162
 40
0.6216736384
 40
0.655133408
 40
0.6873705171
 40
0.7183155809
 40
0.7332854292
 40
0.7479109229
 40
0.7621864604
 40
0.7761072759
 40
0.7896695152
 40
0.8028702998
 40
0.8157078073
 40
0.8281813736
 40
0.8402915982
 40
0.8520404473
 40
0.8634313812
 40
0.8744695041
 40
0.8851617087
 40
0.8955168299
 40
0.905545818
 40
0.9152619189
 40
0.9246808328
 40
0.9338208644
 40
0.9427030545
 40
0.9513512618
 40
0.9597921675
 40
0.9680552017
 40
0.9761723669
 40
0.9841779331
 40
0.9921080081
 40
1.0
 40
1.0
 40
1.0
 40
1.0
 10
14.5649585645
 20
12.9116791642
 30
0.0
 10
14.5618725417
 20
12.8871882668
 30
0.0
 10
14.556278865
 20
12.8378101618
 30
0.0
 10
14.5496464313
 20
12.7631592754
 30
0.0
 10
14.5447330596
 20
12.6876349562
 30
0.0
 10
14.541555878
 20
12.6114989656
 30
0.0
 10
14.5401259373
 20
12.5350145754
 30
0.0
 10
14.5404481962
 20
12.4584464387
 30
0.0
 10
14.5425215418
 20
12.3820594425
 30
0.0
 10
14.5463387676
 20
12.3061178565
 30
0.0
 10
14.5518865945
 20
12.2308843858
 30
0.0
 10
14.5591457578
 20
12.1566192568
 30
0.0
 10
14.5680910006
 20
12.0835792982
 30
0.0
 10
14.5786912717
 20
12.0120170443
 30
0.0
 10
14.5909097034
 20
11.9421798317
 30
0.0
 10
14.6047039015
 20
11.8743089427
 30
0.0
 10
14.6200259412
 20
11.8086386987
 30
0.0
 10
14.6368227037
 20
11.7453957454
 30
0.0
 10
14.6550359945
 20
11.6847978251
 30
0.0
 10
14.6746026958
 20
11.6270543644
 30
0.0
 10
14.692168807
 20
11.580981932
 30
0.0
 10
14.7068742303
 20
11.5457392638
 30
0.0
 10
14.7180763268
 20
11.5204345596
 30
0.0
 10
14.7295633776
 20
11.4959869871
 30
0.0
 10
14.7413255839
 20
11.4724175722
 30
0.0
 10
14.7533527763
 20
11.4497466561
 30
0.0
 10
14.7656346137
 20
11.4279937759
 30
0.0
 10
14.7781605562
 20
11.407177686
 30
0.0
 10
14.7909198698
 20
11.387316319
 30
0.0
 10
14.8039016317
 20
11.3684267686
 30
0.0
 10
14.8170947696
 20
11.3505253004
 30
0.0
 10
14.8304880774
 20
11.3336273465
 30
0.0
 10
14.8440701966
 20
11.3177474706
 30
0.0
 10
14.8578296505
 20
11.3028993799
 30
0.0
 10
14.8717548654
 20
11.2890959452
 30
0.0
 10
14.8858341775
 20
11.2763492052
 30
0.0
 10
14.9000558029
 20
11.2646703377
 30
0.0
 10
14.9144078672
 20
11.2540697089
 30
0.0
 10
14.9288783902
 20
11.2445568982
 30
0.0
 10
14.9434552448
 20
11.2361406875
 30
0.0
 10
14.9581261102
 20
11.2288290328
 30
0.0
 10
14.9728784388
 20
11.2226290917
 30
0.0
 10
14.9876994381
 20
11.2175471896
 30
0.0
 10
15.0025758754
 20
11.2135886973
 30
0.0
 10
15.0174945716
 20
11.2107579509
 30
0.0
 10
15.0324406058
 20
11.2090581648
 30
0.0
 10
15.0424242793
 20
11.2086800043
 30
0.0
 10
15.0474020657
 20
11.2086799977
 30
0.0
  0
SPLINE
  5
2E7
100
AcDbEntity
  8
LAYER_FEATURE
100
AcDbSpline
 62
7
  6
CONTINUOUS
 70
0
 71
3
 72
13
 73
9
 74
0
 42
0.0000001
 43
0.0000001
 44
0.0000000001
 40
0.0
 40
0.0
 40
0.0
 40
0.0
 40
0.1126459242
 40
0.233349967
 40
0.4902856267
 40
0.7522515083
 40
0.8790790098
 40
1.0
 40
1.0
 40
1.0
 40
1.0
 10
14.6643460237
 20
13.3639981141
 30
0.0
 10
14.6642314156
 20
13.3636272422
 30
0.0
 10
14.6640279909
 20
13.3628482214
 30
0.0
 10
14.6637205636
 20
13.3611858064
 30
0.0
 10
14.6635321198
 20
13.3589840395
 30
0.0
 10
14.6635920979
 20
13.3567545148
 30
0.0
 10
14.6637963277
 20
13.3550090369
 30
0.0
 10
14.6639501388
 20
13.3541684357
 30
0.0
 10
14.6640403684
 20
13.3537616297
 30
0.0
  0
SPLINE
  5
2E8
100
AcDbEntity
  8
LAYER_FEATURE
100
AcDbSpline
 62
7
  6
CONTINUOUS
 70
0
 71
3
 72
11
 73
7
 74
0
 42
0.0000001
 43
0.0000001
 44
0.0000000001
 40
0.0
 40
0.0
 40
0.0
 40
0.0
 40
0.2553250409
 40
0.5118768144
 40
0.7624153647
 40
1.0
 40
1.0
 40
1.0
 40
1.0
 10
14.6716067347
 20
13.2957444556
 30
0.0
 10
14.6718423066
 20
13.2985318968
 30
0.0
 10
14.6721068614
 20
13.3041395556
 30
0.0
 10
14.6719121652
 20
13.3124971519
 30
0.0
 10
14.6711374558
 20
13.3206260241
 30
0.0
 10
14.6702196116
 20
13.3259020997
 30
0.0
 10
14.6696559617
 20
13.3284433528
 30
0.0
  0
SPLINE
  5
2E9
100
AcDbEntity
  8
LAYER_CUT_FEAT
100
AcDbSpline
 62
7
  6
CONTINUOUS
 70
0
 71
3
 72
12
 73
8
 74
0
 42
0.0000001
 43
0.0000001
 44
0.0000000001
 40
0.0
 40
0.0
 40
0.0
 40
0.0
 40
0.2506852553
 40
0.5009328634
 40
0.6258863448
 40
0.7507210705
 40
1.0
 40
1.0
 40
1.0
 40
1.0
 10
15.618438825
 20
12.1479285991
 30
0.0
 10
15.6510489245
 20
12.1465972623
 30
0.0
 10
15.7162031372
 20
12.1437102158
 30
0.0
 10
15.7975827046
 20
12.1395426236
 30
0.0
 10
15.8625794529
 20
12.1358615286
 30
0.0
 10
15.9274362883
 20
12.1319490301
 30
0.0
 10
15.9760374116
 20
12.1287332691
 30
0.0
 10
16.0084112473
 20
12.1264511553
 30
0.0
  0
SPLINE
  5
2EA
100
AcDbEntity
  8
LAYER_FEATURE
100
AcDbSpline
 62
7
  6
CONTINUOUS
 70
0
 71
3
 72
34
 73
30
 74
0
 42
0.0000001
 43
0.0000001
 44
0.0000000001
 40
0.0
 40
0.0
 40
0.0
 40
0.0
 40
0.0879664337
 40
0.1726604085
 40
0.253927194
 40
0.3316368864
 40
0.3691278143
 40
0.4056947097
 40
0.4413304651
 40
0.4760304991
 40
0.5097929185
 40
0.5426187396
 40
0.5745121887
 40
0.6054809573
 40
0.6355364808
 40
0.6646943039
 40
0.6929744437
 40
0.7204017232
 40
0.7728086253
 40
0.7978803222
 40
0.8222543096
 40
0.8459849986
 40
0.8691334489
 40
0.8917673258
 40
0.9139606908
 40
0.9357935258
 40
0.9573509803
 40
0.9787223819
 40
1.0
 40
1.0
 40
1.0
 40
1.0
 10
14.6076984196
 20
13.3703361765
 30
0.0
 10
14.613863477
 20
13.3902863095
 30
0.0
 10
14.6265909111
 20
13.4292547531
 30
0.0
 10
14.6472996017
 20
13.4858752555
 30
0.0
 10
14.6692126087
 20
13.5394205451
 30
0.0
 10
14.6886455863
 20
13.5818329723
 30
0.0
 10
14.7047690316
 20
13.6140524273
 30
0.0
 10
14.7169739573
 20
13.6370563339
 30
0.0
 10
14.729425929
 20
13.6591703357
 30
0.0
 10
14.742115271
 20
13.6803771104
 30
0.0
 10
14.7550320093
 20
13.7006599544
 30
0.0
 10
14.7681660684
 20
13.7200029005
 30
0.0
 10
14.7815071945
 20
13.7383907426
 30
0.0
 10
14.7950449774
 20
13.7558090062
 30
0.0
 10
14.8087689886
 20
13.7722440274
 30
0.0
 10
14.8226683905
 20
13.7876826233
 30
0.0
 10
14.8367332468
 20
13.8021134001
 30
0.0
 10
14.8554064249
 20
13.8197253381
 30
0.0
 10
14.8746444617
 20
13.8356080343
 30
0.0
 10
14.8944209648
 20
13.849531835
 30
0.0
 10
14.9091458333
 20
13.8587631518
 30
0.0
 10
14.9239688923
 20
13.8669281634
 30
0.0
 10
14.9388790775
 20
13.8740200595
 30
0.0
 10
14.9538645843
 20
13.8800324111
 30
0.0
 10
14.9689135205
 20
13.8849596725
 30
0.0
 10
14.9840135827
 20
13.8887971491
 30
0.0
 10
14.9991525774
 20
13.8915410285
 30
0.0
 10
15.0143167244
 20
13.8931884781
 30
0.0
 10
15.0244442963
 20
13.8935549901
 30
0.0
 10
15.0294950607
 20
13.8935549852
 30
0.0
  0
SPLINE
  5
2EB
100
AcDbEntity
  8
02___PRT_ALL_AXES
100
AcDbSpline
 62
7
  6
CONTINUOUS
 70
0
 71
3
 72
39
 73
35
 74
0
 42
0.0000001
 43
0.0000001
 44
0.0000000001
 40
0.0
 40
0.0
 40
0.0
 40
0.0
 40
0.0208347614
 40
0.0428599171
 40
0.066077326
 40
0.0904748535
 40
0.116028857
 40
0.1427055921
 40
0.1704626039
 40
0.199249821
 40
0.2290104966
 40
0.2596820153
 40
0.2911965959
 40
0.3234819166
 40
0.3564616812
 40
0.3900561396
 40
0.4241825743
 40
0.4587557654
 40
0.4936884329
 40
0.5288916654
 40
0.5642753372
 40
0.5997485193
 40
0.6352198859
 40
0.6705981197
 40
0.7057923163
 40
0.7407123902
 40
0.775269486
 40
0.8093763966
 40
0.8429479925
 40
0.87590167
 40
0.9081577942
 40
0.9396402717
 40
0.9702767646
 40
1.0
 40
1.0
 40
1.0
 40
1.0
 10
15.9266731814
 20
13.0680889102
 30
0.0
 10
15.9307749526
 20
13.0627409849
 30
0.0
 10
15.9388425867
 20
13.051452062
 30
0.0
 10
15.9502359122
 20
13.0333543756
 30
0.0
 10
15.9612235671
 20
13.013676939
 30
0.0
 10
15.9717723734
 20
12.9924794025
 30
0.0
 10
15.9818511747
 20
12.9698248766
 30
0.0
 10
15.9914296999
 20
12.9457813629
 30
0.0
 10
16.0004791236
 20
12.9204211094
 30
0.0
 10
16.0089720964
 20
12.8938205046
 30
0.0
 10
16.0168828977
 20
12.8660597931
 30
0.0
 10
16.0241875271
 20
12.8372228237
 30
0.0
 10
16.0308637977
 20
12.8073967782
 30
0.0
 10
16.0368914142
 20
12.7766718949
 30
0.0
 10
16.042252042
 20
12.745141185
 30
0.0
 10
16.0469293693
 20
12.7129001428
 30
0.0
 10
16.0509091631
 20
12.6800464484
 30
0.0
 10
16.05417931
 20
12.6466796643
 30
0.0
 10
16.056729855
 20
12.6129009272
 30
0.0
 10
16.0585530322
 20
12.578812637
 30
0.0
 10
16.0596432897
 20
12.544518143
 30
0.0
 10
16.0599973055
 20
12.5101214266
 30
0.0
 10
16.059614003
 20
12.4757267831
 30
0.0
 10
16.0584945511
 20
12.4414385006
 30
0.0
 10
16.0566423587
 20
12.4073605416
 30
0.0
 10
16.0540630653
 20
12.3735962235
 30
0.0
 10
16.050764523
 20
12.340247903
 30
0.0
 10
16.0467567715
 20
12.3074166604
 30
0.0
 10
16.0420520108
 20
12.2752019903
 30
0.0
 10
16.0366645578
 20
12.2437014857
 30
0.0
 10
16.0306108173
 20
12.2130105616
 30
0.0
 10
16.0239091656
 20
12.1832220644
 30
0.0
 10
16.0165800976
 20
12.1544264418
 30
0.0
 10
16.0112052935
 20
12.1356513525
 30
0.0
 10
16.0084112473
 20
12.1264511553
 30
0.0
  0
SPLINE
  5
2EC
100
AcDbEntity
  8
02___PRT_ALL_AXES
100
AcDbSpline
 62
7
  6
CONTINUOUS
 70
0
 71
3
 72
17
 73
13
 74
0
 42
0.0000001
 43
0.0000001
 44
0.0000000001
 40
0.0
 40
0.0
 40
0.0
 40
0.0
 40
0.1526207256
 40
0.2972653204
 40
0.4338150149
 40
0.5622587324
 40
0.6827172786
 40
0.7400451524
 40
0.7954964456
 40
0.8491355964
 40
0.9010408512
 40
1.0
 40
1.0
 40
1.0
 40
1.0
 10
15.9764261671
 20
12.0396978396
 30
0.0
 10
15.9727804358
 20
12.0315360711
 30
0.0
 10
15.9653229811
 20
12.0157944403
 30
0.0
 10
15.9532879422
 20
11.9934037159
 30
0.0
 10
15.9407411152
 20
11.9729360058
 30
0.0
 10
15.9277281092
 20
11.9544676729
 30
0.0
 10
15.9163506153
 20
11.9405762245
 30
0.0
 10
15.9070437867
 20
11.930571087
 30
0.0
 10
15.9000933158
 20
11.9237327902
 30
0.0
 10
15.8930630959
 20
11.9174420658
 30
0.0
 10
15.8837428218
 20
11.9099143483
 30
0.0
 10
15.8764276964
 20
11.904912547
 30
0.0
 10
15.8714472021
 20
11.9019479561
 30
0.0
  0
ENDSEC
  0
SECTION
  2
OBJECTS
  0
DICTIONARY
  5
C
100
AcDbDictionary
280
0
281
1
  3
ACAD_GROUP
350
D
  3
ACAD_MLINESTYLE
350
17
  3
ACAD_LAYOUT
350
1A
  3
ACAD_PLOTSETTINGS
350
19
  3
ACAD_PLOTSTYLENAME
350
E
  0
DICTIONARY
  5
D
102
{ACAD_REACTORS
330
C
102
}
100
AcDbDictionary
280
0
281
1
  0
ACDBDICTIONARYWDFLT
  5
E
102
{ACAD_REACTORS
330
C
102
}
100
AcDbDictionary
281
1
  3
Normal
350
F
100
AcDbDictionaryWithDefault
340
F
  0
DICTIONARY
  5
17
102
{ACAD_REACTORS
330
C
102
}
100
AcDbDictionary
280
0
281
1
  3
Standard
350
18
  0
DICTIONARY
  5
19
102
{ACAD_REACTORS
330
C
102
}
100
AcDbDictionary
281
1
  0
DICTIONARY
  5
1A
102
{ACAD_REACTORS
330
C
102
}
100
AcDbDictionary
281
1
  3
Model
350
2ED
  3
Layout1
350
2EE
  0
ACDBPLACEHOLDER
  5
F
102
{ACAD_REACTORS
330
E
102
}
  0
MLINESTYLE
  5
18
102
{ACAD_REACTORS
330
17
102
}
100
AcDbMlineStyle
  2
STANDARD
 70
0
  3

 62
256
 51
90.0
 52
90.0
 71
2
 49
0.5
 62
256
  6
BYLAYER
 49
-0.5
 62
256
  6
BYLAYER
  0
LAYOUT
  5
2ED
102
{ACAD_REACTORS
330
1A
102
}
100
AcDbPlotSettings
  1

  2
none_device
  4
ANSI_C_(22.00_x_17.00_Inches)
  6

 40
0.0
 41
0.0
 42
0.0
 43
0.0
 44
558.8
 45
431.8
 46
0.0
 47
0.0
 48
0.0
 49
0.0
140
0.0
141
0.0
142
1.0
143
1.0
 70
1024
 72
0
 73
0
 74
0
  7

 75
0
147
1.0
148
0.0
149
0.0
100
AcDbLayout
  1
Model
 70
0
 71
0
 10
0.0
 20
0.0
 11
22.0
 21
17.0
 12
0.0
 22
0.0
 32
0.0
 14
0.0
 24
0.0
 34
0.0
 15
0.0
 25
0.0
 35
0.0
146
0.0
 13
0.0
 23
0.0
 33
0.0
 16
1.0
 26
0.0
 36
0.0
 17
0.0
 27
1.0
 37
0.0
 76
0
330
222
345
0
346
0
  0
LAYOUT
  5
2EE
102
{ACAD_REACTORS
330
1A
102
}
100
AcDbPlotSettings
  1

  2
none_device
  4
ANSI_C_(22.00_x_17.00_Inches)
  6

 40
0.0
 41
0.0
 42
0.0
 43
0.0
 44
558.8
 45
431.8
 46
0.0
 47
0.0
 48
0.0
 49
0.0
140
0.0
141
0.0
142
1.0
143
1.0
 70
0
 72
0
 73
0
 74
0
  7

 75
0
147
1.0
148
0.0
149
0.0
100
AcDbLayout
  1
Layout1
 70
0
 71
1
 10
0.0
 20
0.0
 11
22.0
 21
17.0
 12
0.0
 22
0.0
 32
0.0
 14
0.0
 24
0.0
 34
0.0
 15
0.0
 25
0.0
 35
0.0
146
0.0
 13
0.0
 23
0.0
 33
0.0
 16
1.0
 26
0.0
 36
0.0
 17
0.0
 27
1.0
 37
0.0
 76
0
330
223
345
0
346
0
  0
ENDSEC
  0
EOF