999
DXF file: _cgs_temp_output.dxf
999
Pro/ENGINEER 2016360 by Parametric Technology Corporation
  0
SECTION
  2
HEADER
  9
$ACADVER
  1
AC1021
  9
$DWGCODEPAGE
  3
ANSI_1252
  9
$EXTMAX
 10
22.0
 20
17.0
 30
0.0
  9
$EXTMIN
 10
0.0
 20
0.0
 30
0.0
  9
$LIMMIN
 10
0.0
 20
0.0
  9
$LIMMAX
 10
22.0
 20
17.0
  9
$VIEWCTR
 10
11.0
 20
8.5
  9
$VIEWSIZE
 40
17.0
  9
$CLAYER
  8
0
  9
$LTSCALE
 40
1.21
  9
$CELTYPE
  6
BYLAYER
  9
$DIMSCALE
 40
1.0
  9
$DIMASZ
 40
0.1875
  9
$DIMEXO
 40
0.0625
  9
$DIMDLI
 40
0.836
  9
$DIMEXE
 40
0.125
  9
$DIMCEN
 40
0.198
  9
$DIMLFAC
 40
1.0
  9
$DIMBLK
  1
_CLOSED
  9
$DIMALT
 70
0
  9
$DIMALTF
 40
25.4
  9
$DIMTXT
 40
0.15625
  9
$DIMTOL
 70
0
  9
$DIMLIM
 70
0
  9
$DIMTFAC
 40
1.0
  9
$DIMGAP
 40
0.09
  9
$DIMDSEP
 70
46
  9
$AUNITS
 70
0
  9
$PDMODE
 70
3
  9
$PDSIZE
 40
0.3125
  9
$HANDSEED
  5
30F
  9
$TILEMODE
 70
1
  9
$MEASUREMENT
 70
0
  9
$INSUNITS
 70
1
  0
ENDSEC
  0
SECTION
  2
CLASSES
  0
CLASS
  1
ACDBDICTIONARYWDFLT
  2
AcDbDictionaryWithDefault
  3
AutoCAD 2000
 90
0
 91
1
280
0
281
0
  0
CLASS
  1
ACDBPLACEHOLDER
  2
AcDbPlaceHolder
  3
AutoCAD 2000
 90
0
 91
1
280
0
281
0
  0
CLASS
  1
LAYOUT
  2
AcDbLayout
  3
AutoCAD 2000
 90
0
 91
0
280
0
281
0
  0
ENDSEC
  0
SECTION
  2
TABLES
  0
TABLE
  2
VPORT
  5
8
100
AcDbSymbolTable
 70
2
  0
VPORT
  5
1F4
100
AcDbSymbolTableRecord
100
AcDbViewportTableRecord
  2
*ACTIVE
 70
0
 10
0.0
 20
0.0
 11
1.0
 21
1.0
 12
11.0
 22
8.5
 13
0.0
 23
0.0
 14
1.0
 24
1.0
 15
0.0
 25
0.0
 16
0.0
 26
0.0
 36
1.0
 17
0.0
 27
0.0
 37
0.0
 40
17.0
 41
1.2941176471
 42
50.0
 43
0.0
 44
0.0
 50
0.0
 51
0.0
 71
0
 72
100
 73
1
 74
1
 75
0
 76
0
 77
0
 78
0
  0
ENDTAB
  0
TABLE
  2
LTYPE
  5
5
100
AcDbSymbolTable
 70
6
  0
LTYPE
  5
14
100
AcDbSymbolTableRecord
100
AcDbLinetypeTableRecord
  2
BYBLOCK
 70
0
  3

 72
65
 73
0
 40
0.0
  0
LTYPE
  5
15
100
AcDbSymbolTableRecord
100
AcDbLinetypeTableRecord
  2
BYLAYER
 70
0
  3

 72
65
 73
0
 40
0.0
  0
LTYPE
  5
16
100
AcDbSymbolTableRecord
100
AcDbLinetypeTableRecord
  2
CONTINUOUS
 70
64
  3
Solid line
 72
65
 73
0
 40
0.0
  0
LTYPE
  5
1F5
100
AcDbSymbolTableRecord
100
AcDbLinetypeTableRecord
  2
CENTER
 70
64
  3
____ _ ____ _ ____ _ ____ _ ____ _ ____ _ ____
 72
65
 73
4
 40
0.6
 49
0.375
 74
0
 49
-0.075
 74
0
 49
0.075
 74
0
 49
-0.075
 74
0
  0
LTYPE
  5
1F6
100
AcDbSymbolTableRecord
100
AcDbLinetypeTableRecord
  2
HIDDEN
 70
64
  3
- - - - - - - - - - - - - - - - - - - -
 72
65
 73
2
 40
0.2
 49
0.1
 74
0
 49
-0.1
 74
0
  0
LTYPE
  5
1F7
100
AcDbSymbolTableRecord
100
AcDbLinetypeTableRecord
  2
PHANTOM
 70
64
  3
_____ _ _ _____ _ _ _____ _ _ _____
 72
65
 73
6
 40
0.8
 49
0.45
 74
0
 49
-0.05
 74
0
 49
0.1
 74
0
 49
-0.05
 74
0
 49
0.1
 74
0
 49
-0.05
 74
0
  0
LTYPE
  5
1F8
100
AcDbSymbolTableRecord
100
AcDbLinetypeTableRecord
  2
DOT
 70
64
  3
. . . . . . . . . . . . . . . . . . . .
 72
65
 73
2
 40
0.2
 49
0.1
 74
0
 49
-0.1
 74
0
  0
LTYPE
  5
1F9
100
AcDbSymbolTableRecord
100
AcDbLinetypeTableRecord
  2
DASHED
 70
64
  3
- - - - - - - - - - - - - - - - - - - -
 72
65
 73
2
 40
0.2
 49
0.1
 74
0
 49
-0.1
 74
0
  0
ENDTAB
  0
TABLE
  2
LAYER
  5
2
100
AcDbSymbolTable
 70
36
  0
LAYER
  5
10
100
AcDbSymbolTableRecord
100
AcDbLayerTableRecord
  2
0
 70
0
 62
7
  6
CONTINUOUS
370
-3
390
F
  0
LAYER
  5
1FA
100
AcDbSymbolTableRecord
100
AcDbLayerTableRecord
  2
DEFAULT_1
 70
0
 62
7
  6
CENTER
370
-3
390
F
  0
LAYER
  5
1FB
100
AcDbSymbolTableRecord
100
AcDbLayerTableRecord
  2
DEFAULT_2
 70
0
 62
8
  6
HIDDEN
370
-3
390
F
  0
LAYER
  5
1FC
100
AcDbSymbolTableRecord
100
AcDbLayerTableRecord
  2
DEFAULT_3
 70
0
 62
7
  6
PHANTOM
370
-3
390
F
  0
LAYER
  5
1FD
100
AcDbSymbolTableRecord
100
AcDbLayerTableRecord
  2
01_ALL_DTM_PLN
 70
0
 62
7
  6
CONTINUOUS
370
-3
390
F
  0
LAYER
  5
1FE
100
AcDbSymbolTableRecord
100
AcDbLayerTableRecord
  2
01__ASM_ALL_DTM_PLN
 70
0
 62
7
  6
CONTINUOUS
370
-3
390
F
  0
LAYER
  5
1FF
100
AcDbSymbolTableRecord
100
AcDbLayerTableRecord
  2
01__ASM_DEF_DTM_PLN
 70
0
 62
7
  6
CONTINUOUS
370
-3
390
F
  0
LAYER
  5
200
100
AcDbSymbolTableRecord
100
AcDbLayerTableRecord
  2
01___PRT_ALL_DTM_PLN
 70
0
 62
7
  6
CONTINUOUS
370
-3
390
F
  0
LAYER
  5
201
100
AcDbSymbolTableRecord
100
AcDbLayerTableRecord
  2
01___PRT_DEF_DTM_PLN
 70
0
 62
7
  6
CONTINUOUS
370
-3
390
F
  0
LAYER
  5
202
100
AcDbSymbolTableRecord
100
AcDbLayerTableRecord
  2
02_ALL_AXES
 70
0
 62
7
  6
CONTINUOUS
370
-3
390
F
  0
LAYER
  5
203
100
AcDbSymbolTableRecord
100
AcDbLayerTableRecord
  2
02__ASM_ALL_AXES
 70
0
 62
7
  6
CONTINUOUS
370
-3
390
F
  0
LAYER
  5
204
100
AcDbSymbolTableRecord
100
AcDbLayerTableRecord
  2
02___PRT_ALL_AXES
 70
0
 62
7
  6
CONTINUOUS
370
-3
390
F
  0
LAYER
  5
205
100
AcDbSymbolTableRecord
100
AcDbLayerTableRecord
  2
03_ALL_CURVES
 70
0
 62
7
  6
CONTINUOUS
370
-3
390
F
  0
LAYER
  5
206
100
AcDbSymbolTableRecord
100
AcDbLayerTableRecord
  2
03__ASM_ALL_CURVES
 70
0
 62
7
  6
CONTINUOUS
370
-3
390
F
  0
LAYER
  5
207
100
AcDbSymbolTableRecord
100
AcDbLayerTableRecord
  2
03___PRT_ALL_CURVES
 70
0
 62
7
  6
CONTINUOUS
370
-3
390
F
  0
LAYER
  5
208
100
AcDbSymbolTableRecord
100
AcDbLayerTableRecord
  2
04_ALL_DTM_PNT
 70
0
 62
7
  6
CONTINUOUS
370
-3
390
F
  0
LAYER
  5
209
100
AcDbSymbolTableRecord
100
AcDbLayerTableRecord
  2
04__ASM_ALL_DTM_PNT
 70
0
 62
7
  6
CONTINUOUS
370
-3
390
F
  0
LAYER
  5
20A
100
AcDbSymbolTableRecord
100
AcDbLayerTableRecord
  2
04___PRT_ALL_DTM_PNT
 70
0
 62
7
  6
CONTINUOUS
370
-3
390
F
  0
LAYER
  5
20B
100
AcDbSymbolTableRecord
100
AcDbLayerTableRecord
  2
05_ALL_DTM_CSYS
 70
0
 62
7
  6
CONTINUOUS
370
-3
390
F
  0
LAYER
  5
20C
100
AcDbSymbolTableRecord
100
AcDbLayerTableRecord
  2
05__ASM_ALL_DTM_CSYS
 70
0
 62
7
  6
CONTINUOUS
370
-3
390
F
  0
LAYER
  5
20D
100
AcDbSymbolTableRecord
100
AcDbLayerTableRecord
  2
05__ASM_DEF_DTM_CSYS
 70
0
 62
7
  6
CONTINUOUS
370
-3
390
F
  0
LAYER
  5
20E
100
AcDbSymbolTableRecord
100
AcDbLayerTableRecord
  2
05___PRT_ALL_DTM_CSYS
 70
0
 62
7
  6
CONTINUOUS
370
-3
390
F
  0
LAYER
  5
20F
100
AcDbSymbolTableRecord
100
AcDbLayerTableRecord
  2
05___PRT_DEF_DTM_CSYS
 70
0
 62
7
  6
CONTINUOUS
370
-3
390
F
  0
LAYER
  5
210
100
AcDbSymbolTableRecord
100
AcDbLayerTableRecord
  2
06_ALL_SURFS
 70
0
 62
7
  6
CONTINUOUS
370
-3
390
F
  0
LAYER
  5
211
100
AcDbSymbolTableRecord
100
AcDbLayerTableRecord
  2
06__ASM_ALL_SURFS
 70
0
 62
7
  6
CONTINUOUS
370
-3
390
F
  0
LAYER
  5
212
100
AcDbSymbolTableRecord
100
AcDbLayerTableRecord
  2
06___PRT_ALL_SURFS
 70
0
 62
7
  6
CONTINUOUS
370
-3
390
F
  0
LAYER
  5
213
100
AcDbSymbolTableRecord
100
AcDbLayerTableRecord
  2
07__ASM_ALL_SKELETONS
 70
0
 62
7
  6
CONTINUOUS
370
-3
390
F
  0
LAYER
  5
214
100
AcDbSymbolTableRecord
100
AcDbLayerTableRecord
  2
LAYER_AXIS
 70
0
 62
7
  6
CONTINUOUS
370
-3
390
F
  0
LAYER
  5
215
100
AcDbSymbolTableRecord
100
AcDbLayerTableRecord
  2
LAYER_CHAMFER_FEAT
 70
0
 62
7
  6
CONTINUOUS
370
-3
390
F
  0
LAYER
  5
216
100
AcDbSymbolTableRecord
100
AcDbLayerTableRecord
  2
LAYER_CUT_FEAT
 70
0
 62
7
  6
CONTINUOUS
370
-3
390
F
  0
LAYER
  5
217
100
AcDbSymbolTableRecord
100
AcDbLayerTableRecord
  2
LAYER_DATUM
 70
0
 62
7
  6
CONTINUOUS
370
-3
390
F
  0
LAYER
  5
218
100
AcDbSymbolTableRecord
100
AcDbLayerTableRecord
  2
LAYER_DIM
 70
0
 62
7
  6
CONTINUOUS
370
-3
390
F
  0
LAYER
  5
219
100
AcDbSymbolTableRecord
100
AcDbLayerTableRecord
  2
LAYER_FEATURE
 70
0
 62
7
  6
CONTINUOUS
370
-3
390
F
  0
LAYER
  5
21A
100
AcDbSymbolTableRecord
100
AcDbLayerTableRecord
  2
LAYER_GEOM_FEAT
 70
0
 62
7
  6
CONTINUOUS
370
-3
390
F
  0
LAYER
  5
21B
100
AcDbSymbolTableRecord
100
AcDbLayerTableRecord
  2
LAYER_NOGEOM_FEAT
 70
0
 62
7
  6
CONTINUOUS
370
-3
390
F
  0
LAYER
  5
21C
100
AcDbSymbolTableRecord
100
AcDbLayerTableRecord
  2
LAYER_PARAMETER_DIM
 70
0
 62
7
  6
CONTINUOUS
370
-3
390
F
  0
LAYER
  5
21D
100
AcDbSymbolTableRecord
100
AcDbLayerTableRecord
  2
LAYER_PROTRUSION_FEAT
 70
0
 62
7
  6
CONTINUOUS
370
-3
390
F
  0
LAYER
  5
21E
100
AcDbSymbolTableRecord
100
AcDbLayerTableRecord
  2
LAYER_QUILT
 70
0
 62
7
  6
CONTINUOUS
370
-3
390
F
  0
LAYER
  5
21F
100
AcDbSymbolTableRecord
100
AcDbLayerTableRecord
  2
LAYER_ROUND_FEAT
 70
0
 62
7
  6
CONTINUOUS
370
-3
390
F
  0
ENDTAB
  0
TABLE
  2
STYLE
  5
3
100
AcDbSymbolTable
 70
1
  0
STYLE
  5
11
100
AcDbSymbolTableRecord
100
AcDbTextStyleTableRecord
  2
STANDARD
 70
0
 40
0.0
 41
0.8
 50
0.0
 71
0
 42
0.2
  3
txt
  4

  0
STYLE
  5
220
100
AcDbSymbolTableRecord
100
AcDbTextStyleTableRecord
  2
TEXTSTYLE_1
 70
0
 40
0.0
 41
0.8
 50
0.0
 71
0
 42
0.2
  3
gdt
  4

  0
ENDTAB
  0
TABLE
  2
VIEW
  5
6
100
AcDbSymbolTable
 70
0
  0
ENDTAB
  0
TABLE
  2
UCS
  5
7
100
AcDbSymbolTable
 70
0
  0
ENDTAB
  0
TABLE
  2
APPID
  5
9
100
AcDbSymbolTable
 70
1
  0
APPID
  5
221
100
AcDbSymbolTableRecord
100
AcDbRegAppTableRecord
  2
ACAD
 70
0
  0
ENDTAB
  0
TABLE
  2
BLOCK_RECORD
  5
1
100
AcDbSymbolTable
 70
0
  0
BLOCK_RECORD
  5
222
100
AcDbSymbolTableRecord
100
AcDbBlockTableRecord
  2
*Model_Space
  0
BLOCK_RECORD
  5
223
100
AcDbSymbolTableRecord
100
AcDbBlockTableRecord
  2
*Paper_Space
  0
ENDTAB
  0
TABLE
  2
DIMSTYLE
  5
A
100
AcDbSymbolTable
 70
1
100
AcDbDimStyleTable
 71
0
  0
DIMSTYLE
105
224
100
AcDbSymbolTableRecord
100
AcDbDimStyleTableRecord
  2
STANDARD
 70
0
  3

  4

 40
1.0
 41
0.1875
 42
0.0625
 43
0.38
 44
0.125
 45
0.0
 46
0.0
 47
0.0001
 48
0.0001
140
0.15625
141
0.09
142
0.0
143
25.4
144
1.0
145
0.0
146
1.0
147
0.09
 71
0.0
 72
0.0
 73
1
 74
1
 75
0
 76
0
 77
0
 78
4
 79
1
170
0
171
3
172
0
173
0
174
0
175
0
176
0
177
0
178
0
270
2
179
4
271
4
272
4
273
2
274
2
275
0
280
0
281
0
282
0
283
1
284
4
285
0
286
0
287
3
288
0
340
11
278
46
  0
ENDTAB
  0
ENDSEC
  0
SECTION
  2
BLOCKS
  0
BLOCK
  5
20
100
AcDbEntity
  8
0
100
AcDbBlockBegin
  2
*Model_Space
 70
0
 10
0.0
 20
0.0
 30
0.0
  3
*Model_Space
  1

  0
ENDBLK
  5
21
100
AcDbEntity
  8
0
100
AcDbBlockEnd
  0
BLOCK
  5
1C
100
AcDbEntity
  8
0
100
AcDbBlockBegin
  2
*Paper_Space
 70
0
 10
0.0
 20
0.0
 30
0.0
  3
*Paper_Space
  1

  0
ENDBLK
  5
1D
100
AcDbEntity
  8
0
100
AcDbBlockEnd
  0
ENDSEC
  0
SECTION
  2
ENTITIES
  0
MTEXT
  5
225
100
AcDbEntity
  8
0
100
AcDbMText
 62
7
  6
CONTINUOUS
  7
STANDARD
 71
1
 72
1
 10
15.9560215477
 20
0.9479130325
 30
0.0
 11
1.0
 21
0.0
 31
0.0
 44
0.9
  1
SCALE: 1:0.250
 40
0.3
 41
3.36
  0
LINE
  5
226
100
AcDbEntity
  8
0
100
AcDbLine
 62
7
  6
CONTINUOUS
 10
0.0
 20
0.0
 11
0.0
 21
17.0
  0
LINE
  5
227
100
AcDbEntity
  8
0
100
AcDbLine
 62
7
  6
CONTINUOUS
 10
0.0
 20
0.0
 11
22.0
 21
0.0
  0
LINE
  5
228
100
AcDbEntity
  8
0
100
AcDbLine
 62
7
  6
CONTINUOUS
 10
0.0
 20
17.0
 11
22.0
 21
17.0
  0
LINE
  5
229
100
AcDbEntity
  8
0
100
AcDbLine
 62
7
  6
CONTINUOUS
 10
22.0
 20
0.0
 11
22.0
 21
17.0
  0
LINE
  5
22A
100
AcDbEntity
  8
LAYER_FEATURE
100
AcDbLine
 62
7
  6
CONTINUOUS
 10
6.4553768951
 20
3.8868698968
 11
6.4833672762
 21
3.8943698968
  0
LINE
  5
22B
100
AcDbEntity
  8
LAYER_FEATURE
100
AcDbLine
 62
7
  6
CONTINUOUS
 10
5.7773672762
 20
3.8943698968
 11
5.8053576572
 21
3.8868698968
  0
LINE
  5
22C
100
AcDbEntity
  8
02___PRT_ALL_AXES
100
AcDbLine
 62
7
  6
CONTINUOUS
 10
5.8266172762
 20
3.9548698968
 11
6.4341172762
 21
3.9548698968
  0
LINE
  5
22D
100
AcDbEntity
  8
LAYER_FEATURE
100
AcDbLine
 62
7
  6
CONTINUOUS
 10
5.7773672762
 20
3.8943698968
 11
5.7773672762
 21
7.1458698968
  0
LINE
  5
22E
100
AcDbEntity
  8
LAYER_FEATURE
100
AcDbLine
 62
7
  6
CONTINUOUS
 10
5.8053576572
 20
3.8868698968
 11
5.8053576572
 21
7.1533698968
  0
LINE
  5
22F
100
AcDbEntity
  8
LAYER_CUT_FEAT
100
AcDbLine
 62
7
  6
CONTINUOUS
 10
5.8266172762
 20
7.0843362491
 11
5.8266172762
 21
7.0769608837
  0
LINE
  5
230
100
AcDbEntity
  8
LAYER_CUT_FEAT
100
AcDbLine
 62
7
  6
CONTINUOUS
 10
5.8266172762
 20
7.0734613299
 11
5.8266172762
 21
7.0634073029
  0
LINE
  5
231
100
AcDbEntity
  8
LAYER_CUT_FEAT
100
AcDbLine
 62
7
  6
CONTINUOUS
 10
5.8266172762
 20
7.0508333937
 11
5.8266172762
 21
7.038108373
  0
LINE
  5
232
100
AcDbEntity
  8
LAYER_CUT_FEAT
100
AcDbLine
 62
7
  6
CONTINUOUS
 10
5.8266172762
 20
3.954869941
 11
5.8266172762
 21
7.0166246943
  0
LINE
  5
233
100
AcDbEntity
  8
LAYER_FEATURE
100
AcDbLine
 62
7
  6
CONTINUOUS
 10
5.8266172762
 20
7.0166246943
 11
5.8266172762
 21
7.038108373
  0
LINE
  5
234
100
AcDbEntity
  8
LAYER_FEATURE
100
AcDbLine
 62
7
  6
CONTINUOUS
 10
5.8266172762
 20
7.0508333937
 11
5.8266172762
 21
7.0634073029
  0
LINE
  5
235
100
AcDbEntity
  8
LAYER_FEATURE
100
AcDbLine
 62
7
  6
CONTINUOUS
 10
5.8266172762
 20
7.0734613299
 11
5.8266172762
 21
7.0769608837
  0
LINE
  5
236
100
AcDbEntity
  8
LAYER_FEATURE
100
AcDbLine
 62
7
  6
CONTINUOUS
 10
6.4341172762
 20
7.0740279187
 11
6.4553768951
 21
7.1533698968
  0
LINE
  5
237
100
AcDbEntity
  8
LAYER_FEATURE
100
AcDbLine
 62
7
  6
CONTINUOUS
 10
6.4341172762
 20
3.9662118748
 11
6.4553768951
 21
3.8868698968
  0
LINE
  5
238
100
AcDbEntity
  8
LAYER_FEATURE
100
AcDbLine
 62
7
  6
CONTINUOUS
 10
5.8053576572
 20
3.8868698968
 11
5.8266172762
 21
3.9662118748
  0
LINE
  5
239
100
AcDbEntity
  8
LAYER_FEATURE
100
AcDbLine
 62
7
  6
CONTINUOUS
 10
5.8053576572
 20
7.1533698968
 11
5.8266172762
 21
7.0740279187
  0
LINE
  5
23A
100
AcDbEntity
  8
LAYER_CUT_FEAT
100
AcDbLine
 62
7
  6
CONTINUOUS
 10
6.4341172762
 20
7.0843362491
 11
6.4341172762
 21
7.0769608837
  0
LINE
  5
23B
100
AcDbEntity
  8
LAYER_CUT_FEAT
100
AcDbLine
 62
7
  6
CONTINUOUS
 10
6.4341172762
 20
7.0734613299
 11
6.4341172762
 21
7.0634073029
  0
LINE
  5
23C
100
AcDbEntity
  8
LAYER_CUT_FEAT
100
AcDbLine
 62
7
  6
CONTINUOUS
 10
6.4341172762
 20
7.0508333937
 11
6.4341172762
 21
7.038108373
  0
LINE
  5
23D
100
AcDbEntity
  8
LAYER_CUT_FEAT
100
AcDbLine
 62
7
  6
CONTINUOUS
 10
6.4341172762
 20
7.0166246943
 11
6.4341172762
 21
3.954869941
  0
LINE
  5
23E
100
AcDbEntity
  8
LAYER_FEATURE
100
AcDbLine
 62
7
  6
CONTINUOUS
 10
6.4341172762
 20
7.0166246943
 11
6.4341172762
 21
7.038108373
  0
LINE
  5
23F
100
AcDbEntity
  8
LAYER_FEATURE
100
AcDbLine
 62
7
  6
CONTINUOUS
 10
6.4341172762
 20
7.0508333937
 11
6.4341172762
 21
7.0634073029
  0
LINE
  5
240
100
AcDbEntity
  8
LAYER_FEATURE
100
AcDbLine
 62
7
  6
CONTINUOUS
 10
6.4341172762
 20
7.0734613299
 11
6.4341172762
 21
7.0769608837
  0
LINE
  5
241
100
AcDbEntity
  8
LAYER_FEATURE
100
AcDbLine
 62
7
  6
CONTINUOUS
 10
6.4553768951
 20
3.8868698968
 11
6.4553768951
 21
7.1533698968
  0
LINE
  5
242
100
AcDbEntity
  8
LAYER_FEATURE
100
AcDbLine
 62
7
  6
CONTINUOUS
 10
6.4833672762
 20
3.8943698968
 11
6.4833672762
 21
7.1458698968
  0
LINE
  5
243
100
AcDbEntity
  8
LAYER_FEATURE
100
AcDbLine
 62
7
  6
CONTINUOUS
 10
5.7773672762
 20
7.1458698968
 11
5.8053576572
 21
7.1533698968
  0
LINE
  5
244
100
AcDbEntity
  8
LAYER_CUT_FEAT
100
AcDbLine
 62
7
  6
CONTINUOUS
 10
5.8266172762
 20
7.0163165362
 11
6.4341172762
 21
7.0163165362
  0
LINE
  5
245
100
AcDbEntity
  8
LAYER_CUT_FEAT
100
AcDbLine
 62
7
  6
CONTINUOUS
 10
5.8266172762
 20
7.0166246946
 11
6.4341172762
 21
7.0166246946
  0
LINE
  5
246
100
AcDbEntity
  8
LAYER_CUT_FEAT
100
AcDbLine
 62
7
  6
CONTINUOUS
 10
5.8266172762
 20
7.0457572026
 11
6.4341172762
 21
7.0457572026
  0
LINE
  5
247
100
AcDbEntity
  8
LAYER_CUT_FEAT
100
AcDbLine
 62
7
  6
CONTINUOUS
 10
5.8266172762
 20
7.0506960478
 11
6.4341172762
 21
7.0506960478
  0
LINE
  5
248
100
AcDbEntity
  8
LAYER_CUT_FEAT
100
AcDbLine
 62
7
  6
CONTINUOUS
 10
5.8266172762
 20
7.0508334427
 11
6.4341172762
 21
7.0508334427
  0
LINE
  5
249
100
AcDbEntity
  8
LAYER_CUT_FEAT
100
AcDbLine
 62
7
  6
CONTINUOUS
 10
5.8266172762
 20
7.070448528
 11
6.4341172762
 21
7.070448528
  0
LINE
  5
24A
100
AcDbEntity
  8
LAYER_CUT_FEAT
100
AcDbLine
 62
7
  6
CONTINUOUS
 10
5.8266172762
 20
7.0734269507
 11
6.4341172762
 21
7.0734269507
  0
LINE
  5
24B
100
AcDbEntity
  8
LAYER_CUT_FEAT
100
AcDbLine
 62
7
  6
CONTINUOUS
 10
5.8266172762
 20
7.073461365
 11
6.4341172762
 21
7.073461365
  0
LINE
  5
24C
100
AcDbEntity
  8
LAYER_CUT_FEAT
100
AcDbLine
 62
7
  6
CONTINUOUS
 10
5.8266172762
 20
7.0833409165
 11
6.4341172762
 21
7.0833409165
  0
LINE
  5
24D
100
AcDbEntity
  8
LAYER_CUT_FEAT
100
AcDbLine
 62
7
  6
CONTINUOUS
 10
5.8266172762
 20
7.0843362491
 11
6.4341172762
 21
7.0843362491
  0
LINE
  5
24E
100
AcDbEntity
  8
LAYER_FEATURE
100
AcDbLine
 62
7
  6
CONTINUOUS
 10
6.4553768951
 20
7.1533698968
 11
6.4833672762
 21
7.1458698968
  0
LINE
  5
24F
100
AcDbEntity
  8
LAYER_FEATURE
100
AcDbLine
 62
7
  6
CONTINUOUS
 10
6.4238720839
 20
10.9742977814
 11
6.3958817028
 21
10.9667977814
  0
LINE
  5
250
100
AcDbEntity
  8
LAYER_FEATURE
100
AcDbLine
 62
7
  6
CONTINUOUS
 10
5.7458624649
 20
10.9667977814
 11
5.7178720839
 21
10.9742977814
  0
LINE
  5
251
100
AcDbEntity
  8
02___PRT_ALL_AXES
100
AcDbLine
 62
7
  6
CONTINUOUS
 10
5.7671220839
 20
11.0347977814
 11
6.3746220839
 21
11.0347977814
  0
LINE
  5
252
100
AcDbEntity
  8
LAYER_CUT_FEAT
100
AcDbLine
 62
7
  6
CONTINUOUS
 10
5.7671220839
 20
12.1402617674
 11
6.3746220839
 21
12.1402617674
  0
LINE
  5
253
100
AcDbEntity
  8
LAYER_FEATURE
100
AcDbLine
 62
7
  6
CONTINUOUS
 10
5.7178720839
 20
14.2257977814
 11
5.7178720839
 21
10.9742977814
  0
LINE
  5
254
100
AcDbEntity
  8
LAYER_FEATURE
100
AcDbLine
 62
7
  6
CONTINUOUS
 10
5.7458624649
 20
14.2332977814
 11
5.7458624649
 21
10.9667977814
  0
LINE
  5
255
100
AcDbEntity
  8
LAYER_FEATURE
100
AcDbLine
 62
7
  6
CONTINUOUS
 10
6.3746220839
 20
12.1955250635
 11
5.7671220839
 21
12.1955250635
  0
LINE
  5
256
100
AcDbEntity
  8
LAYER_FEATURE
100
AcDbLine
 62
7
  6
CONTINUOUS
 10
6.3746220839
 20
12.2245028383
 11
5.7671220839
 21
12.2245028383
  0
LINE
  5
257
100
AcDbEntity
  8
LAYER_CUT_FEAT
100
AcDbLine
 62
7
  6
CONTINUOUS
 10
5.7671220839
 20
12.2501358301
 11
6.3746220839
 21
12.2501358301
  0
LINE
  5
258
100
AcDbEntity
  8
LAYER_CUT_FEAT
100
AcDbLine
 62
7
  6
CONTINUOUS
 10
5.7671220839
 20
12.2724135214
 11
6.3746220839
 21
12.2724135214
  0
LINE
  5
259
100
AcDbEntity
  8
LAYER_CUT_FEAT
100
AcDbLine
 62
7
  6
CONTINUOUS
 10
5.7671220839
 20
12.5515637998
 11
5.7671220839
 21
12.5125110266
  0
LINE
  5
25A
100
AcDbEntity
  8
LAYER_CUT_FEAT
100
AcDbLine
 62
7
  6
CONTINUOUS
 10
5.7671220839
 20
12.4159120558
 11
5.7671220839
 21
12.3771564978
  0
LINE
  5
25B
100
AcDbEntity
  8
LAYER_CUT_FEAT
100
AcDbLine
 62
7
  6
CONTINUOUS
 10
5.7671220839
 20
12.2816616959
 11
5.7671220839
 21
12.2434983063
  0
LINE
  5
25C
100
AcDbEntity
  8
LAYER_CUT_FEAT
100
AcDbLine
 62
7
  6
CONTINUOUS
 10
5.7671220839
 20
11.0347977988
 11
5.7671220839
 21
12.1498344464
  0
LINE
  5
25D
100
AcDbEntity
  8
LAYER_FEATURE
100
AcDbLine
 62
7
  6
CONTINUOUS
 10
5.7671220839
 20
12.1498344464
 11
5.7671220839
 21
12.2434983063
  0
LINE
  5
25E
100
AcDbEntity
  8
LAYER_FEATURE
100
AcDbLine
 62
7
  6
CONTINUOUS
 10
5.7671220839
 20
12.2816616959
 11
5.7671220839
 21
12.3771564978
  0
LINE
  5
25F
100
AcDbEntity
  8
LAYER_FEATURE
100
AcDbLine
 62
7
  6
CONTINUOUS
 10
5.7671220839
 20
12.4159120558
 11
5.7671220839
 21
12.5125110266
  0
LINE
  5
260
100
AcDbEntity
  8
LAYER_FEATURE
100
AcDbLine
 62
7
  6
CONTINUOUS
 10
5.7671220839
 20
12.5515637998
 11
5.7671220839
 21
12.648531763
  0
LINE
  5
261
100
AcDbEntity
  8
LAYER_CUT_FEAT
100
AcDbLine
 62
7
  6
CONTINUOUS
 10
5.7671220839
 20
12.648531763
 11
5.7671220839
 21
14.1652976914
  0
LINE
  5
262
100
AcDbEntity
  8
LAYER_FEATURE
100
AcDbLine
 62
7
  6
CONTINUOUS
 10
6.3746220839
 20
12.3235922025
 11
5.7671220839
 21
12.3235922025
  0
LINE
  5
263
100
AcDbEntity
  8
LAYER_FEATURE
100
AcDbLine
 62
7
  6
CONTINUOUS
 10
6.3746220839
 20
12.3531364351
 11
5.7671220839
 21
12.3531364351
  0
LINE
  5
264
100
AcDbEntity
  8
LAYER_CUT_FEAT
100
AcDbLine
 62
7
  6
CONTINUOUS
 10
5.7671220839
 20
12.3844354033
 11
6.3746220839
 21
12.3844354033
  0
LINE
  5
265
100
AcDbEntity
  8
LAYER_FEATURE
100
AcDbLine
 62
7
  6
CONTINUOUS
 10
6.3958817028
 20
14.2332977814
 11
6.3746220839
 21
14.1539558033
  0
LINE
  5
266
100
AcDbEntity
  8
LAYER_CUT_FEAT
100
AcDbLine
 62
7
  6
CONTINUOUS
 10
5.7671220839
 20
12.4070587699
 11
6.3746220839
 21
12.4070587699
  0
LINE
  5
267
100
AcDbEntity
  8
LAYER_FEATURE
100
AcDbLine
 62
7
  6
CONTINUOUS
 10
6.3746220839
 20
12.4537633355
 11
5.7671220839
 21
12.4537633355
  0
LINE
  5
268
100
AcDbEntity
  8
LAYER_FEATURE
100
AcDbLine
 62
7
  6
CONTINUOUS
 10
6.3746220839
 20
12.4836491764
 11
5.7671220839
 21
12.4836491764
  0
LINE
  5
269
100
AcDbEntity
  8
LAYER_FEATURE
100
AcDbLine
 62
7
  6
CONTINUOUS
 10
6.3958817028
 20
10.9667977814
 11
6.3746220839
 21
11.0461397594
  0
LINE
  5
26A
100
AcDbEntity
  8
LAYER_CUT_FEAT
100
AcDbLine
 62
7
  6
CONTINUOUS
 10
5.7671220839
 20
12.5203759168
 11
6.3746220839
 21
12.5203759168
  0
LINE
  5
26B
100
AcDbEntity
  8
LAYER_CUT_FEAT
100
AcDbLine
 62
7
  6
CONTINUOUS
 10
5.7671220839
 20
12.5431727814
 11
6.3746220839
 21
12.5431727814
  0
LINE
  5
26C
100
AcDbEntity
  8
LAYER_FEATURE
100
AcDbLine
 62
7
  6
CONTINUOUS
 10
6.3746220839
 20
12.5850477814
 11
5.7671220839
 21
12.5850477814
  0
LINE
  5
26D
100
AcDbEntity
  8
LAYER_FEATURE
100
AcDbLine
 62
7
  6
CONTINUOUS
 10
5.7671220839
 20
11.0461397594
 11
5.7458624649
 21
10.9667977814
  0
LINE
  5
26E
100
AcDbEntity
  8
LAYER_FEATURE
100
AcDbLine
 62
7
  6
CONTINUOUS
 10
6.3746220839
 20
12.6150477814
 11
5.7671220839
 21
12.6150477814
  0
LINE
  5
26F
100
AcDbEntity
  8
LAYER_CUT_FEAT
100
AcDbLine
 62
7
  6
CONTINUOUS
 10
5.7671220839
 20
12.6569227814
 11
6.3746220839
 21
12.6569227814
  0
LINE
  5
270
100
AcDbEntity
  8
LAYER_FEATURE
100
AcDbLine
 62
7
  6
CONTINUOUS
 10
5.7671220839
 20
14.1539558033
 11
5.7458624649
 21
14.2332977814
  0
LINE
  5
271
100
AcDbEntity
  8
LAYER_CUT_FEAT
100
AcDbLine
 62
7
  6
CONTINUOUS
 10
6.3746220839
 20
14.1652976913
 11
6.3746220839
 21
12.648531763
  0
LINE
  5
272
100
AcDbEntity
  8
LAYER_CUT_FEAT
100
AcDbLine
 62
7
  6
CONTINUOUS
 10
6.3746220839
 20
12.5515637998
 11
6.3746220839
 21
12.5125110266
  0
LINE
  5
273
100
AcDbEntity
  8
LAYER_CUT_FEAT
100
AcDbLine
 62
7
  6
CONTINUOUS
 10
6.3746220839
 20
12.4159120558
 11
6.3746220839
 21
12.3771564978
  0
LINE
  5
274
100
AcDbEntity
  8
LAYER_CUT_FEAT
100
AcDbLine
 62
7
  6
CONTINUOUS
 10
6.3746220839
 20
12.2816616959
 11
6.3746220839
 21
12.2434983063
  0
LINE
  5
275
100
AcDbEntity
  8
LAYER_CUT_FEAT
100
AcDbLine
 62
7
  6
CONTINUOUS
 10
6.3746220839
 20
12.1498344464
 11
6.3746220839
 21
11.0347977988
  0
LINE
  5
276
100
AcDbEntity
  8
LAYER_FEATURE
100
AcDbLine
 62
7
  6
CONTINUOUS
 10
6.3746220839
 20
12.1498344464
 11
6.3746220839
 21
12.2434983063
  0
LINE
  5
277
100
AcDbEntity
  8
LAYER_FEATURE
100
AcDbLine
 62
7
  6
CONTINUOUS
 10
6.3746220839
 20
12.2816616959
 11
6.3746220839
 21
12.3771564978
  0
LINE
  5
278
100
AcDbEntity
  8
LAYER_FEATURE
100
AcDbLine
 62
7
  6
CONTINUOUS
 10
6.3746220839
 20
12.4159120558
 11
6.3746220839
 21
12.5125110266
  0
LINE
  5
279
100
AcDbEntity
  8
LAYER_FEATURE
100
AcDbLine
 62
7
  6
CONTINUOUS
 10
6.3746220839
 20
12.5515637998
 11
6.3746220839
 21
12.648531763
  0
LINE
  5
27A
100
AcDbEntity
  8
LAYER_FEATURE
100
AcDbLine
 62
7
  6
CONTINUOUS
 10
6.3958817028
 20
14.2332977814
 11
6.3958817028
 21
10.9667977814
  0
LINE
  5
27B
100
AcDbEntity
  8
LAYER_FEATURE
100
AcDbLine
 62
7
  6
CONTINUOUS
 10
6.4238720839
 20
14.2257977814
 11
6.4238720839
 21
10.9742977814
  0
LINE
  5
27C
100
AcDbEntity
  8
LAYER_FEATURE
100
AcDbLine
 62
7
  6
CONTINUOUS
 10
5.7458624649
 20
14.2332977814
 11
5.7178720839
 21
14.2257977814
  0
LINE
  5
27D
100
AcDbEntity
  8
02___PRT_ALL_AXES
100
AcDbLine
 62
7
  6
CONTINUOUS
 10
5.7671220839
 20
14.1652977814
 11
6.3746220839
 21
14.1652977814
  0
LINE
  5
27E
100
AcDbEntity
  8
LAYER_FEATURE
100
AcDbLine
 62
7
  6
CONTINUOUS
 10
6.4238720839
 20
14.2257977814
 11
6.3958817028
 21
14.2332977814
  0
LINE
  5
27F
100
AcDbEntity
  8
LAYER_FEATURE
100
AcDbLine
 62
7
  6
CONTINUOUS
 10
15.0742562282
 20
14.1260888928
 11
15.0997062058
 21
14.1335406101
  0
LINE
  5
280
100
AcDbEntity
  8
LAYER_FEATURE
100
AcDbLine
 62
7
  6
CONTINUOUS
 10
15.0742562282
 20
10.895521093
 11
15.0997062058
 21
10.8880693758
  0
LINE
  5
281
100
AcDbEntity
  8
02___PRT_ALL_AXES
100
AcDbLine
 62
7
  6
CONTINUOUS
 10
15.1913401915
 20
10.9455549929
 11
15.5892766459
 21
10.9455549929
  0
LINE
  5
282
100
AcDbEntity
  8
LAYER_CUT_FEAT
100
AcDbLine
 62
7
  6
CONTINUOUS
 10
15.7785150279
 20
11.0772923557
 11
15.7776790123
 21
11.0772871987
  0
LINE
  5
283
100
AcDbEntity
  8
LAYER_CUT_FEAT
100
AcDbLine
 62
7
  6
CONTINUOUS
 10
15.7785147569
 20
11.0772501759
 11
15.7776790123
 21
11.0772871987
  0
LINE
  5
284
100
AcDbEntity
  8
LAYER_CUT_FEAT
100
AcDbLine
 62
7
  6
CONTINUOUS
 10
15.7271179145
 20
11.0855277942
 11
15.6907096317
 21
11.0957373562
  0
LINE
  5
285
100
AcDbEntity
  8
LAYER_FEATURE
100
AcDbLine
 62
7
  6
CONTINUOUS
 10
14.65057623
 20
13.0963498714
 11
14.6552222541
 21
13.1238754772
  0
LINE
  5
286
100
AcDbEntity
  8
LAYER_FEATURE
100
AcDbLine
 62
7
  6
CONTINUOUS
 10
14.6725074196
 20
13.2151501113
 11
14.6780699844
 21
13.2415311469
  0
LINE
  5
287
100
AcDbEntity
  8
LAYER_FEATURE
100
AcDbLine
 62
7
  6
CONTINUOUS
 10
14.6985553047
 20
13.3292435442
 11
14.704824011
 21
13.3536255494
  0
LINE
  5
288
100
AcDbEntity
  8
LAYER_FEATURE
100
AcDbLine
 62
7
  6
CONTINUOUS
 10
14.7299353073
 20
13.4420078184
 11
14.7352807194
 21
13.4593055785
  0
LINE
  5
289
100
AcDbEntity
  8
LAYER_CUT_FEAT
100
AcDbLine
 62
7
  6
CONTINUOUS
 10
15.6048965779
 20
11.7295549929
 11
15.5938438459
 21
11.7295549929
  0
LINE
  5
28A
100
AcDbEntity
  8
LAYER_FEATURE
100
AcDbLine
 62
7
  6
CONTINUOUS
 10
14.6500422667
 20
13.1541636445
 11
14.6419815327
 21
13.175106963
  0
LINE
  5
28B
100
AcDbEntity
  8
LAYER_FEATURE
100
AcDbLine
 62
7
  6
CONTINUOUS
 10
14.6739376903
 20
13.2728633919
 11
14.6666184469
 21
13.2955310881
  0
LINE
  5
28C
100
AcDbEntity
  8
LAYER_FEATURE
100
AcDbLine
 62
7
  6
CONTINUOUS
 10
14.7017708592
 20
13.3857634148
 11
14.6952488104
 21
13.4099829738
  0
LINE
  5
28D
100
AcDbEntity
  8
LAYER_FEATURE
100
AcDbLine
 62
7
  6
CONTINUOUS
 10
14.7333299464
 20
13.4920044757
 11
14.7276547289
 21
13.5175915722
  0
LINE
  5
28E
100
AcDbEntity
  8
LAYER_CUT_FEAT
100
AcDbLine
 62
7
  6
CONTINUOUS
 10
15.6020393269
 20
13.0410068679
 11
15.6089119732
 21
13.0418227158
  0
LINE
  5
28F
100
AcDbEntity
  8
LAYER_CUT_FEAT
100
AcDbLine
 62
7
  6
CONTINUOUS
 10
14.6236388658
 20
13.080692981
 11
15.1745519895
 21
13.080692981
  0
LINE
  5
290
100
AcDbEntity
  8
LAYER_CUT_FEAT
100
AcDbLine
 62
7
  6
CONTINUOUS
 10
14.6268701918
 20
13.0861401318
 11
15.1753326968
 21
13.0861401318
  0
LINE
  5
291
100
AcDbEntity
  8
LAYER_FEATURE
100
AcDbLine
 62
7
  6
CONTINUOUS
 10
15.1767959972
 20
13.0963498714
 11
14.65057623
 21
13.0963498714
  0
LINE
  5
292
100
AcDbEntity
  8
LAYER_FEATURE
100
AcDbLine
 62
7
  6
CONTINUOUS
 10
15.1810729974
 20
13.1238754772
 11
14.6552222541
 21
13.1238754772
  0
LINE
  5
293
100
AcDbEntity
  8
LAYER_CHAMFER_FEAT
100
AcDbLine
 62
7
  6
CONTINUOUS
 10
15.7418448541
 20
11.8127842757
 11
15.733524261
 21
11.8028157877
  0
LINE
  5
294
100
AcDbEntity
  8
LAYER_CUT_FEAT
100
AcDbLine
 62
7
  6
CONTINUOUS
 10
14.6412550404
 20
13.1850609027
 11
15.1912995243
 21
13.1850609027
  0
LINE
  5
295
100
AcDbEntity
  8
LAYER_CUT_FEAT
100
AcDbLine
 62
7
  6
CONTINUOUS
 10
14.6451411647
 20
13.2055816532
 11
15.1949856818
 21
13.2055816532
  0
LINE
  5
296
100
AcDbEntity
  8
LAYER_CUT_FEAT
100
AcDbLine
 62
7
  6
CONTINUOUS
 10
14.6482381256
 20
13.2103192868
 11
15.1958367065
 21
13.2103192868
  0
LINE
  5
297
100
AcDbEntity
  8
LAYER_FEATURE
100
AcDbLine
 62
7
  6
CONTINUOUS
 10
15.196704471
 20
13.2151501113
 11
14.6725074196
 21
13.2151501113
  0
LINE
  5
298
100
AcDbEntity
  8
LAYER_FEATURE
100
AcDbLine
 62
7
  6
CONTINUOUS
 10
15.2017737972
 20
13.2415311469
 11
14.6780699844
 21
13.2415311469
  0
LINE
  5
299
100
AcDbEntity
  8
LAYER_CHAMFER_FEAT
100
AcDbLine
 62
7
  6
CONTINUOUS
 10
15.7418448541
 20
13.2088257101
 11
15.733524261
 21
13.2187941981
  0
LINE
  5
29A
100
AcDbEntity
  8
LAYER_CUT_FEAT
100
AcDbLine
 62
7
  6
CONTINUOUS
 10
15.6048965779
 20
13.2920549929
 11
15.5938438459
 21
13.2920549929
  0
LINE
  5
29B
100
AcDbEntity
  8
LAYER_CUT_FEAT
100
AcDbLine
 62
7
  6
CONTINUOUS
 10
14.6662325563
 20
13.3056097464
 11
15.2149793476
 21
13.3056097464
  0
LINE
  5
29C
100
AcDbEntity
  8
LAYER_CUT_FEAT
100
AcDbLine
 62
7
  6
CONTINUOUS
 10
14.6708003679
 20
13.3251826555
 11
15.2192601197
 21
13.3251826555
  0
LINE
  5
29D
100
AcDbEntity
  8
LAYER_CUT_FEAT
100
AcDbLine
 62
7
  6
CONTINUOUS
 10
14.6737393941
 20
13.3292435442
 11
15.2201482727
 21
13.3292435442
  0
LINE
  5
29E
100
AcDbEntity
  8
LAYER_FEATURE
100
AcDbLine
 62
7
  6
CONTINUOUS
 10
15.2257912109
 20
13.3536255494
 11
14.704824011
 21
13.3536255494
  0
LINE
  5
29F
100
AcDbEntity
  8
LAYER_CUT_FEAT
100
AcDbLine
 62
7
  6
CONTINUOUS
 10
14.6952064584
 20
13.4201096459
 11
15.2422883434
 21
13.4201096459
  0
LINE
  5
2A0
100
AcDbEntity
  8
LAYER_CUT_FEAT
100
AcDbLine
 62
7
  6
CONTINUOUS
 10
14.7004211935
 20
13.4385857521
 11
15.2471189178
 21
13.4385857521
  0
LINE
  5
2A1
100
AcDbEntity
  8
0
100
AcDbLine
 62
7
  6
CONTINUOUS
 10
14.7031799171
 20
13.4420078184
 11
15.2480136164
 21
13.4420078184
  0
LINE
  5
2A2
100
AcDbEntity
  8
LAYER_FEATURE
100
AcDbLine
 62
7
  6
CONTINUOUS
 10
15.2527978161
 20
13.4593055785
 11
14.7352807194
 21
13.4593055785
  0
LINE
  5
2A3
100
AcDbEntity
  8
LAYER_CUT_FEAT
100
AcDbLine
 62
7
  6
CONTINUOUS
 10
14.7279562378
 20
13.527689188
 11
15.2729237297
 21
13.527689188
  0
LINE
  5
2A4
100
AcDbEntity
  8
LAYER_CUT_FEAT
100
AcDbLine
 62
7
  6
CONTINUOUS
 10
15.7271179145
 20
13.9360821916
 11
15.6907096317
 21
13.9258726296
  0
LINE
  5
2A5
100
AcDbEntity
  8
02___PRT_ALL_AXES
100
AcDbLine
 62
7
  6
CONTINUOUS
 10
15.1913401915
 20
14.0760549929
 11
15.5890688644
 21
14.0760549929
  0
LINE
  5
2A6
100
AcDbEntity
  8
LAYER_FEATURE
100
AcDbLine
 62
7
  6
CONTINUOUS
 10
15.8425187311
 20
10.8880693758
 11
15.8679687087
 21
10.895521093
  0
LINE
  5
2A7
100
AcDbEntity
  8
LAYER_FEATURE
100
AcDbLine
 62
7
  6
CONTINUOUS
 10
15.8425187311
 20
14.1335406101
 11
15.8679687087
 21
14.1260888928
  0
CIRCLE
  5
2A8
100
AcDbEntity
  8
LAYER_FEATURE
100
AcDbCircle
 62
7
  6
CONTINUOUS
 10
15.5603552569
 20
5.4606247044
 40
1.63325
  0
CIRCLE
  5
2A9
100
AcDbEntity
  8
LAYER_FEATURE
100
AcDbCircle
 62
7
  6
CONTINUOUS
 10
15.5603552569
 20
5.4606247044
 40
1.62575
  0
CIRCLE
  5
2AA
100
AcDbEntity
  8
LAYER_FEATURE
100
AcDbCircle
 62
7
  6
CONTINUOUS
 10
15.5603552569
 20
5.4606247044
 40
1.553908022
  0
CIRCLE
  5
2AB
100
AcDbEntity
  8
LAYER_CUT_FEAT
100
AcDbCircle
 62
7
  6
CONTINUOUS
 10
15.5603552569
 20
5.4606247044
 40
1.43375
  0
CIRCLE
  5
2AC
100
AcDbEntity
  8
LAYER_CUT_FEAT
100
AcDbCircle
 62
7
  6
CONTINUOUS
 10
15.5603552569
 20
5.4606247044
 40
1.34725
  0
CIRCLE
  5
2AD
100
AcDbEntity
  8
LAYER_CUT_FEAT
100
AcDbCircle
 62
7
  6
CONTINUOUS
 10
15.5603552569
 20
5.4606247044
 40
1.33625
  0
CIRCLE
  5
2AE
100
AcDbEntity
  8
LAYER_CHAMFER_FEAT
100
AcDbCircle
 62
7
  6
CONTINUOUS
 10
15.5603552569
 20
5.4606247044
 40
0.78125
  0
CIRCLE
  5
2AF
100
AcDbEntity
  8
LAYER_CHAMFER_FEAT
100
AcDbCircle
 62
7
  6
CONTINUOUS
 10
15.5603552569
 20
5.4606247044
 40
0.77025
  0
ARC
  5
2B0
100
AcDbEntity
  8
LAYER_CUT_FEAT
100
AcDbCircle
 62
7
  6
CONTINUOUS
 10
15.5603552569
 20
5.4606247044
 40
0.53125
100
AcDbArc
 50
57.9665029899
 51
137.0334970101
  0
ARC
  5
2B1
100
AcDbEntity
  8
LAYER_CUT_FEAT
100
AcDbCircle
 62
7
  6
CONTINUOUS
 10
15.5603552569
 20
5.4606247044
 40
0.53125
100
AcDbArc
 50
247.9665029899
 51
42.0334970101
  0
ARC
  5
2B2
100
AcDbEntity
  8
LAYER_CUT_FEAT
100
AcDbCircle
 62
7
  6
CONTINUOUS
 10
15.5603552569
 20
5.4606247044
 40
0.53125
100
AcDbArc
 50
152.9665029899
 51
232.0334970101
  0
ARC
  5
2B3
100
AcDbEntity
  8
02___PRT_ALL_AXES
100
AcDbCircle
 62
7
  6
CONTINUOUS
 10
15.5603552569
 20
5.4606247044
 40
0.513768297
100
AcDbArc
 50
136.2981765847
 51
153.7018234153
  0
ARC
  5
2B4
100
AcDbEntity
  8
LAYER_CUT_FEAT
100
AcDbCircle
 62
7
  6
CONTINUOUS
 10
15.5603552569
 20
5.4606247044
 40
0.496286594
100
AcDbArc
 50
248.9849431335
 51
41.0150568665
  0
ARC
  5
2B5
100
AcDbEntity
  8
LAYER_CUT_FEAT
100
AcDbCircle
 62
7
  6
CONTINUOUS
 10
15.5603552569
 20
5.4606247044
 40
0.496286594
100
AcDbArc
 50
58.9849431335
 51
231.0150568665
  0
ARC
  5
2B6
100
AcDbEntity
  8
LAYER_CUT_FEAT
100
AcDbCircle
 62
7
  6
CONTINUOUS
 10
15.8817490618
 20
5.843646926
 40
0.078125
100
AcDbArc
 50
312.7915186562
 51
147.2084813438
  0
ARC
  5
2B7
100
AcDbEntity
  8
LAYER_CUT_FEAT
100
AcDbCircle
 62
7
  6
CONTINUOUS
 10
15.3103552569
 20
5.0276120026
 40
0.078125
100
AcDbArc
 50
142.7915186562
 51
337.2084813438
  0
ARC
  5
2B8
100
AcDbEntity
  8
LAYER_CUT_FEAT
100
AcDbCircle
 62
7
  6
CONTINUOUS
 10
15.1507792348
 20
5.7474129226
 40
0.078125
100
AcDbArc
 50
60.7700162156
 51
229.2299837844
  0
ARC
  5
2B9
100
AcDbEntity
  8
LAYER_CUT_FEAT
100
AcDbCircle
 62
7
  6
CONTINUOUS
 10
18.0639972532
 20
50.0137866265
 40
38.0950326125
100
AcDbArc
 50
266.2257882246
 51
266.3874657352
  0
ARC
  5
2BA
100
AcDbEntity
  8
LAYER_CUT_FEAT
100
AcDbCircle
 62
7
  6
CONTINUOUS
 10
13.8531582616
 20
-9.8144858423
 40
21.9423671018
100
AcDbArc
 50
85.1272682955
 51
85.6899651288
  0
ARC
  5
2BB
100
AcDbEntity
  8
LAYER_FEATURE
100
AcDbCircle
 62
7
  6
CONTINUOUS
 10
17.7882705141
 20
12.5964983642
 40
3.1967671285
100
AcDbArc
 50
169.6465410278
 51
171.189433337
  0
ARC
  5
2BC
100
AcDbEntity
  8
LAYER_CUT_FEAT
100
AcDbCircle
 62
7
  6
CONTINUOUS
 10
17.6669342781
 20
12.6227001905
 40
3.0774964533
100
AcDbArc
 50
169.0821601244
 51
169.4709995649
  0
ARC
  5
2BD
100
AcDbEntity
  8
LAYER_FEATURE
100
AcDbCircle
 62
7
  6
CONTINUOUS
 10
17.4731885463
 20
12.6570764147
 40
2.8759036864
100
AcDbArc
 50
167.2637143581
 51
168.9086581003
  0
ARC
  5
2BE
100
AcDbEntity
  8
LAYER_CUT_FEAT
100
AcDbCircle
 62
7
  6
CONTINUOUS
 10
17.3386076162
 20
12.6922658754
 40
2.7418568826
100
AcDbArc
 50
166.6537580431
 51
167.0737587097
  0
ARC
  5
2BF
100
AcDbEntity
  8
LAYER_FEATURE
100
AcDbCircle
 62
7
  6
CONTINUOUS
 10
17.1371098814
 20
12.7365612063
 40
2.5305395707
100
AcDbArc
 50
164.6775499739
 51
166.4545527073
  0
ARC
  5
2C0
100
AcDbEntity
  8
LAYER_CUT_FEAT
100
AcDbCircle
 62
7
  6
CONTINUOUS
 10
16.9966490572
 20
12.7805196058
 40
2.388663529
100
AcDbArc
 50
164.0084527846
 51
164.4689456421
  0
ARC
  5
2C1
100
AcDbEntity
  8
LAYER_FEATURE
100
AcDbCircle
 62
7
  6
CONTINUOUS
 10
16.795991573
 20
12.8340413106
 40
2.175748589
100
AcDbArc
 50
161.8278010213
 51
163.7733046525
  0
ARC
  5
2C2
100
AcDbEntity
  8
LAYER_CUT_FEAT
100
AcDbCircle
 62
7
  6
CONTINUOUS
 10
15.9801918602
 20
13.3692375587
 40
0.5503231444
100
AcDbArc
 50
138.7950552705
 51
139.5041866332
  0
ARC
  5
2C3
100
AcDbEntity
  8
LAYER_CUT_FEAT
100
AcDbCircle
 62
7
  6
CONTINUOUS
 10
15.9775705564
 20
11.6500956183
 40
0.5468511373
100
AcDbArc
 50
220.7601838523
 51
221.1881686874
  0
ARC
  5
2C4
100
AcDbEntity
  8
LAYER_CHAMFER_FEAT
100
AcDbCircle
 62
7
  6
CONTINUOUS
 10
15.498581321
 20
12.0157630641
 40
0.3168241311
100
AcDbArc
 50
317.806297186
 51
320.1584230321
  0
ARC
  5
2C5
100
AcDbEntity
  8
LAYER_CHAMFER_FEAT
100
AcDbCircle
 62
7
  6
CONTINUOUS
 10
15.5026917808
 20
13.0094214206
 40
0.3113780028
100
AcDbArc
 50
39.8211285949
 51
42.2324694391
  0
ARC
  5
2C6
100
AcDbEntity
  8
LAYER_CUT_FEAT
100
AcDbCircle
 62
7
  6
CONTINUOUS
 10
15.7554075302
 20
11.3264345526
 40
0.2395975999
100
AcDbArc
 50
252.7291837885
 51
254.3341073751
  0
ARC
  5
2C7
100
AcDbEntity
  8
LAYER_CUT_FEAT
100
AcDbCircle
 62
7
  6
CONTINUOUS
 10
15.7553153921
 20
13.6954965458
 40
0.2392635432
100
AcDbArc
 50
105.665411795
 51
107.0433557323
  0
ARC
  5
2C8
100
AcDbEntity
  8
LAYER_FEATURE
100
AcDbCircle
 62
7
  6
CONTINUOUS
 10
15.7508032
 20
11.2960758119
 40
0.2190366608
100
AcDbArc
 50
273.9607753532
 51
274.9307616244
  0
ARC
  5
2C9
100
AcDbEntity
  8
LAYER_FEATURE
100
AcDbCircle
 62
7
  6
CONTINUOUS
 10
15.7508070336
 20
13.7255805987
 40
0.2189900722
100
AcDbArc
 50
85.2036464366
 51
86.4323981683
  0
ARC
  5
2CA
100
AcDbEntity
  8
LAYER_FEATURE
100
AcDbCircle
 62
7
  6
CONTINUOUS
 10
15.7785150942
 20
11.2945971221
 40
0.2175556499
100
AcDbArc
 50
270.0003900386
 51
271.8978814507
  0
SPLINE
  5
2CB
100
AcDbEntity
  8
LAYER_CHAMFER_FEAT
100
AcDbSpline
 62
7
  6
CONTINUOUS
 70
0
 71
3
 72
21
 73
17
 74
0
 42
0.0000001
 43
0.0000001
 44
0.0000000001
 40
0.0
 40
0.0
 40
0.0
 40
0.0
 40
0.1490861119
 40
0.2203916953
 40
0.2896125497
 40
0.3568258624
 40
0.4221220297
 40
0.485605645
 40
0.5473961791
 40
0.6664017628
 40
0.7239832615
 40
0.7805026528
 40
0.8361537952
 40
0.8911424692
 40
0.9456839039
 40
1.0
 40
1.0
 40
1.0
 40
1.0
 10
15.7335242591
 20
11.8028157981
 30
0.0
 10
15.7286555081
 20
11.7969827946
 30
0.0
 10
15.7211609844
 20
11.7885982846
 30
0.0
 10
15.7106816289
 20
11.7782000873
 30
0.0
 10
15.702858648
 20
11.7710613878
 30
0.0
 10
15.6949618812
 20
11.7644727167
 30
0.0
 10
15.6869969797
 20
11.7584390082
 30
0.0
 10
15.678969036
 20
11.7529646432
 30
0.0
 10
15.6683255934
 20
11.7464994081
 30
0.0
 10
15.6574295968
 20
11.7410524688
 30
0.0
 10
15.646351737
 20
11.7367437904
 30
0.0
 10
15.638100191
 20
11.7341240243
 30
0.0
 10
15.6298226113
 20
11.7320840579
 30
0.0
 10
15.6215249624
 20
11.730625487
 30
0.0
 10
15.613214416
 20
11.7297497973
 30
0.0
 10
15.6076647119
 20
11.7295549971
 30
0.0
 10
15.6048965779
 20
11.7295550023
 30
0.0
  0
SPLINE
  5
2CC
100
AcDbEntity
  8
LAYER_CUT_FEAT
100
AcDbSpline
 62
7
  6
CONTINUOUS
 70
0
 71
3
 72
33
 73
29
 74
0
 42
0.0000001
 43
0.0000001
 44
0.0000000001
 40
0.0
 40
0.0
 40
0.0
 40
0.0
 40
0.0874720914
 40
0.1716529697
 40
0.2524113805
 40
0.3296400978
 40
0.4032609712
 40
0.4387059151
 40
0.4732351471
 40
0.5068491267
 40
0.5395511566
 40
0.5713476002
 40
0.602248102
 40
0.6322659174
 40
0.6614182046
 40
0.6897262997
 40
0.7172160905
 40
0.743918352
 40
0.7698690284
 40
0.8196701162
 40
0.8436379272
 40
0.8670550433
 40
0.8899865098
 40
0.9125030205
 40
0.9346804772
 40
0.9565993229
 40
0.9783436258
 40
1.0
 40
1.0
 40
1.0
 40
1.0
 10
14.7279562378
 20
13.527689188
 30
0.0
 10
14.7349533256
 20
13.5487150597
 30
0.0
 10
14.7493476731
 20
13.5897592955
 30
0.0
 10
14.7726223111
 20
13.6493318003
 30
0.0
 10
14.7971127992
 20
13.7055986087
 30
0.0
 10
14.8227480238
 20
13.7583957201
 30
0.0
 10
14.8452804626
 20
13.7998868381
 30
0.0
 10
14.8638501738
 20
13.8311716199
 30
0.0
 10
14.8778401652
 20
13.8533777738
 30
0.0
 10
14.8920585883
 20
13.8746071318
 30
0.0
 10
14.9064953454
 20
13.8948443985
 30
0.0
 10
14.9211400176
 20
13.9140748981
 30
0.0
 10
14.9359821463
 20
13.932284673
 30
0.0
 10
14.9510111299
 20
13.9494605104
 30
0.0
 10
14.9662162189
 20
13.9655899257
 30
0.0
 10
14.9815867205
 20
13.9806611961
 30
0.0
 10
14.9971114345
 20
13.9946630787
 30
0.0
 10
15.0127804779
 20
14.0075860046
 30
0.0
 10
15.0335601872
 20
14.0231484238
 30
0.0
 10
15.0548823914
 20
14.0367995752
 30
0.0
 10
15.0766650455
 20
14.0482983757
 30
0.0
 10
15.0928829716
 20
14.0556932468
 30
0.0
 10
15.1091756809
 20
14.0619612082
 30
0.0
 10
15.1255317651
 20
14.0670972701
 30
0.0
 10
15.1419387744
 20
14.0710968206
 30
0.0
 10
15.1583845373
 20
14.0739563214
 30
0.0
 10
15.1748553068
 20
14.0756731156
 30
0.0
 10
15.1858539168
 20
14.0760549793
 30
0.0
 10
15.1913401915
 20
14.0760549839
 30
0.0
  0
SPLINE
  5
2CD
100
AcDbEntity
  8
LAYER_CHAMFER_FEAT
100
AcDbSpline
 62
7
  6
CONTINUOUS
 70
0
 71
3
 72
39
 73
35
 74
0
 42
0.0000001
 43
0.0000001
 44
0.0000000001
 40
0.0
 40
0.0
 40
0.0
 40
0.0
 40
0.0202790437
 40
0.041776958
 40
0.0645047734
 40
0.0884573914
 40
0.1136160166
 40
0.1399501409
 40
0.1674191635
 40
0.1959737311
 40
0.2255568568
 40
0.2561048678
 40
0.287548224
 40
0.3198122399
 40
0.3528177303
 40
0.3864816019
 40
0.4207174051
 40
0.4554358534
 40
0.4905453169
 40
0.5259522997
 40
0.5615619034
 40
0.5972782834
 40
0.6330050988
 40
0.6686459613
 40
0.7041048814
 40
0.7392867177
 40
0.7740976309
 40
0.8084455457
 40
0.8422406266
 40
0.8753957717
 40
0.9078271037
 40
0.9394546036
 40
0.9702023637
 40
1.0
 40
1.0
 40
1.0
 40
1.0
 10
15.7418448532
 20
13.2088257049
 30
0.0
 10
15.7471108482
 20
13.2025167631
 30
0.0
 10
15.7574785536
 20
13.1891131144
 30
0.0
 10
15.7721234613
 20
13.1674430862
 30
0.0
 10
15.7862682176
 20
13.1436938663
 30
0.0
 10
15.7998682787
 20
13.1179409522
 30
0.0
 10
15.8128818529
 20
13.0902643968
 30
0.0
 10
15.8252681311
 20
13.0607511072
 30
0.0
 10
15.8369881629
 20
13.0294938581
 30
0.0
 10
15.848004894
 20
12.9965911886
 30
0.0
 10
15.858283399
 20
12.9621470056
 30
0.0
 10
15.8677910211
 20
12.9262702463
 30
0.0
 10
15.8764975103
 20
12.8890745061
 30
0.0
 10
15.8843751367
 20
12.8506776598
 30
0.0
 10
15.8913987929
 20
12.8112014722
 30
0.0
 10
15.8975460879
 20
12.7707711976
 30
0.0
 10
15.9027974169
 20
12.7295151688
 30
0.0
 10
15.9071360287
 20
12.6875643782
 30
0.0
 10
15.9105480808
 20
12.6450520543
 30
0.0
 10
15.9130226851
 20
12.6021132315
 30
0.0
 10
15.914551943
 20
12.5588843156
 30
0.0
 10
15.9151309738
 20
12.5155026452
 30
0.0
 10
15.9147579326
 20
12.4721060499
 30
0.0
 10
15.9134340108
 20
12.4288324065
 30
0.0
 10
15.9111634335
 20
12.3858191967
 30
0.0
 10
15.9079534457
 20
12.3432030654
 30
0.0
 10
15.9038142888
 20
12.3011193824
 30
0.0
 10
15.8987591658
 20
12.2597018044
 30
0.0
 10
15.8928042061
 20
12.2190818459
 30
0.0
 10
15.8859683998
 20
12.1793884429
 30
0.0
 10
15.8782735612
 20
12.1407475683
 30
0.0
 10
15.8697441662
 20
12.1032816924
 30
0.0
 10
15.8604075526
 20
12.0671100061
 30
0.0
 10
15.8535519134
 20
12.0435467989
 30
0.0
 10
15.8499867466
 20
12.0320099148
 30
0.0
  0
SPLINE
  5
2CE
100
AcDbEntity
  8
LAYER_CUT_FEAT
100
AcDbSpline
 62
7
  6
CONTINUOUS
 70
0
 71
3
 72
22
 73
18
 74
0
 42
0.0000001
 43
0.0000001
 44
0.0000000001
 40
0.0
 40
0.0
 40
0.0
 40
0.0
 40
0.1477605827
 40
0.218556442
 40
0.2873723506
 40
0.3542861566
 40
0.4193878437
 40
0.4827804224
 40
0.5445802273
 40
0.604917332
 40
0.6639357011
 40
0.7217927716
 40
0.7786589687
 40
0.8347165122
 40
0.8901578246
 40
0.9451835469
 40
1.0
 40
1.0
 40
1.0
 40
1.0
 10
15.5660372359
 20
11.2899755099
 30
0.0
 10
15.5740981113
 20
11.2807641279
 30
0.0
 10
15.5864900113
 20
11.2675340048
 30
0.0
 10
15.6037700995
 20
11.2511527146
 30
0.0
 10
15.6166667213
 20
11.2399027071
 30
0.0
 10
15.6296748362
 20
11.2295221989
 30
0.0
 10
15.6427861944
 20
11.220018242
 30
0.0
 10
15.6559919381
 20
11.211397598
 30
0.0
 10
15.6692832935
 20
11.2036664746
 30
0.0
 10
15.6826513505
 20
11.1968305852
 30
0.0
 10
15.6960870379
 20
11.190895005
 30
0.0
 10
15.7095811965
 20
11.1858643843
 30
0.0
 10
15.7231244701
 20
11.1817426816
 30
0.0
 10
15.7367072697
 20
11.1785332493
 30
0.0
 10
15.7503201248
 20
11.1762388542
 30
0.0
 10
15.7639523494
 20
11.1748613756
 30
0.0
 10
15.7730545532
 20
11.1745550047
 30
0.0
 10
15.7775955142
 20
11.1745549975
 30
0.0
  0
SPLINE
  5
2CF
100
AcDbEntity
  8
LAYER_CUT_FEAT
100
AcDbSpline
 62
7
  6
CONTINUOUS
 70
0
 71
3
 72
43
 73
39
 74
0
 42
0.0000001
 43
0.0000001
 44
0.0000000001
 40
0.0
 40
0.0
 40
0.0
 40
0.0
 40
0.0099900079
 40
0.020281803
 40
0.030878492
 40
0.0417819932
 40
0.0529931197
 40
0.0645116904
 40
0.0763366007
 40
0.0884658795
 40
0.1136242728
 40
0.1399581484
 40
0.1674269152
 40
0.1959812153
 40
0.2255640638
 40
0.2561117938
 40
0.2875548587
 40
0.3198185737
 40
0.3528237574
 40
0.3864873137
 40
0.4207227971
 40
0.4554409235
 40
0.4905500604
 40
0.5259567138
 40
0.5615659863
 40
0.5972820335
 40
0.6330085164
 40
0.6686490472
 40
0.7041076376
 40
0.7392891455
 40
0.7740997333
 40
0.8084473297
 40
0.8422420967
 40
0.8753969314
 40
0.9078279741
 40
0.9394551505
 40
0.9702026458
 40
1.0
 40
1.0
 40
1.0
 40
1.0
 10
15.5659113184
 20
11.2898917694
 30
0.0
 10
15.5613737807
 20
11.2953279613
 30
0.0
 10
15.5523636437
 20
11.3065346191
 30
0.0
 10
15.5392360907
 20
11.3240525382
 30
0.0
 10
15.5263064307
 20
11.3425133218
 30
0.0
 10
15.5135850597
 20
11.3619020712
 30
0.0
 10
15.5010818661
 20
11.3822035196
 30
0.0
 10
15.4888067513
 20
11.4034015683
 30
0.0
 10
15.4767692921
 20
11.4254795321
 30
0.0
 10
15.4608553276
 20
11.4564440554
 30
0.0
 10
15.441659867
 20
11.4972686982
 30
0.0
 10
15.4199950728
 20
11.5488900261
 30
0.0
 10
15.3994954408
 20
11.6035624769
 30
0.0
 10
15.3802260031
 20
11.6611127297
 30
0.0
 10
15.362247783
 20
11.7213593178
 30
0.0
 10
15.3456179426
 20
11.7841116257
 30
0.0
 10
15.3303893584
 20
11.849170976
 30
0.0
 10
15.3166105405
 20
11.9163311855
 30
0.0
 10
15.3043254161
 20
11.9853792785
 30
0.0
 10
15.2935731289
 20
12.0560961694
 30
0.0
 10
15.2843879849
 20
12.1282573946
 30
0.0
 10
15.2767992951
 20
12.2016338355
 30
0.0
 10
15.2708312473
 20
12.2759924585
 30
0.0
 10
15.2665029012
 20
12.3510970738
 30
0.0
 10
15.2638280721
 20
12.4267090926
 30
0.0
 10
15.2628152747
 20
12.5025882947
 30
0.0
 10
15.2634677611
 20
12.5784936024
 30
0.0
 10
15.2657834468
 20
12.6541838541
 30
0.0
 10
15.2697549248
 20
12.7294185793
 30
0.0
 10
15.2753695446
 20
12.8039587699
 30
0.0
 10
15.2826093828
 20
12.8775676514
 30
0.0
 10
15.2914513268
 20
12.9500114469
 30
0.0
 10
15.3018671925
 20
13.0210601186
 30
0.0
 10
15.3138237504
 20
13.0904881535
 30
0.0
 10
15.3272828448
 20
13.1580751827
 30
0.0
 10
15.3422016735
 20
13.2236070284
 30
0.0
 10
15.3585324238
 20
13.2868751824
 30
0.0
 10
15.3705236716
 20
13.3280897762
 30
0.0
 10
15.3767595303
 20
13.3482690227
 30
0.0
  0
SPLINE
  5
2D0
100
AcDbEntity
  8
LAYER_CUT_FEAT
100
AcDbSpline
 62
7
  6
CONTINUOUS
 70
0
 71
3
 72
22
 73
18
 74
0
 42
0.0000001
 43
0.0000001
 44
0.0000000001
 40
0.0
 40
0.0
 40
0.0
 40
0.0
 40
0.1477426684
 40
0.2185316857
 40
0.2873421797
 40
0.3542519607
 40
0.4193511238
 40
0.4827425201
 40
0.5445425156
 40
0.6048811281
 40
0.6639021581
 40
0.7217630231
 40
0.7786339497
 40
0.8346970116
 40
0.890144481
 40
0.9451767654
 40
1.0
 40
1.0
 40
1.0
 40
1.0
 10
15.5661518069
 20
13.7317653473
 30
0.0
 10
15.5742090345
 20
13.7409665691
 30
0.0
 10
15.5865950833
 20
13.7541819757
 30
0.0
 10
15.6038663899
 20
13.7705446776
 30
0.0
 10
15.616756412
 20
13.7817819806
 30
0.0
 10
15.6297577693
 20
13.7921506941
 30
0.0
 10
15.6428621469
 20
13.8016438777
 30
0.0
 10
15.6560607879
 20
13.8102546766
 30
0.0
 10
15.66934488
 20
13.8179769613
 30
0.0
 10
15.6827055254
 20
13.8248050512
 30
0.0
 10
15.6961337163
 20
13.8307337817
 30
0.0
 10
15.7096202441
 20
13.8357586503
 30
0.0
 10
15.7231558174
 20
13.8398756026
 30
0.0
 10
15.7367308475
 20
13.8430813079
 30
0.0
 10
15.750335867
 20
13.845373104
 30
0.0
 10
15.763960234
 20
13.8467489392
 30
0.0
 10
15.7730571692
 20
13.8470549954
 30
0.0
 10
15.7775955142
 20
13.8470549883
 30
0.0
  0
SPLINE
  5
2D1
100
AcDbEntity
  8
LAYER_CHAMFER_FEAT
100
AcDbSpline
 62
7
  6
CONTINUOUS
 70
0
 71
3
 72
21
 73
17
 74
0
 42
0.0000001
 43
0.0000001
 44
0.0000000001
 40
0.0
 40
0.0
 40
0.0
 40
0.0
 40
0.0543160983
 40
0.1088575384
 40
0.1638462002
 40
0.2194973683
 40
0.2760167288
 40
0.3335982669
 40
0.4526038392
 40
0.5143943629
 40
0.5778779692
 40
0.6431741681
 40
0.7103874319
 40
0.7796083543
 40
0.8509138691
 40
1.0
 40
1.0
 40
1.0
 40
1.0
 10
15.6048965779
 20
13.2920549835
 30
0.0
 10
15.607664712
 20
13.2920549784
 30
0.0
 10
15.6132144174
 20
13.2918602048
 30
0.0
 10
15.6215249595
 20
13.29098448
 30
0.0
 10
15.629822617
 20
13.2895259523
 30
0.0
 10
15.6381001834
 20
13.2874859364
 30
0.0
 10
15.6463517457
 20
13.284866218
 30
0.0
 10
15.6574295868
 20
13.2805574894
 30
0.0
 10
15.6683255945
 20
13.2751105771
 30
0.0
 10
15.6789690349
 20
13.2686453407
 30
0.0
 10
15.6869969854
 20
13.2631709846
 30
0.0
 10
15.6949618713
 20
13.2571372586
 30
0.0
 10
15.7028586617
 20
13.250548612
 30
0.0
 10
15.7106816148
 20
13.2434098856
 30
0.0
 10
15.7211609991
 20
13.2330117178
 30
0.0
 10
15.7286555178
 20
13.2246272047
 30
0.0
 10
15.73352426
 20
13.2187941928
 30
0.0
  0
SPLINE
  5
2D2
100
AcDbEntity
  8
LAYER_CUT_FEAT
100
AcDbSpline
 62
7
  6
CONTINUOUS
 70
0
 71
3
 72
24
 73
20
 74
0
 42
0.0000001
 43
0.0000001
 44
0.0000000001
 40
0.0
 40
0.0
 40
0.0
 40
0.0
 40
0.017348705
 40
0.03488974
 40
0.0528078074
 40
0.0712733112
 40
0.1103926672
 40
0.1532546117
 40
0.2004862649
 40
0.2524362107
 40
0.30923499
 40
0.3708458555
 40
0.4371028396
 40
0.5077384709
 40
0.5824041474
 40
0.6606857108
 40
0.7421155549
 40
0.8261836018
 40
1.0
 40
1.0
 40
1.0
 40
1.0
 10
15.5759890521
 20
13.0787768379
 30
0.0
 10
15.5755347288
 20
13.0787768332
 30
0.0
 10
15.5746201913
 20
13.0787240038
 30
0.0
 10
15.5732549222
 20
13.0784870514
 30
0.0
 10
15.5718959245
 20
13.0780929736
 30
0.0
 10
15.5700619402
 20
13.0773457846
 30
0.0
 10
15.5677870493
 20
13.0759933898
 30
0.0
 10
15.5651922806
 20
13.0738031046
 30
0.0
 10
15.5626924581
 20
13.0710358257
 30
0.0
 10
15.5603036236
 20
13.0677139381
 30
0.0
 10
15.5580414128
 20
13.0638625385
 30
0.0
 10
15.5559223519
 20
13.0595109088
 30
0.0
 10
15.5539625229
 20
13.05469252
 30
0.0
 10
15.5521772414
 20
13.0494448843
 30
0.0
 10
15.5505806439
 20
13.0438091864
 30
0.0
 10
15.5491855098
 20
13.0378299691
 30
0.0
 10
15.5480029399
 20
13.0315544504
 30
0.0
 10
15.54670837
 20
13.0227617271
 30
0.0
 10
15.5461072389
 20
13.0160270905
 30
0.0
 10
15.5458594862
 20
13.0114819803
 30
0.0
  0
SPLINE
  5
2D3
100
AcDbEntity
  8
LAYER_CUT_FEAT
100
AcDbSpline
 62
7
  6
CONTINUOUS
 70
0
 71
3
 72
31
 73
27
 74
0
 42
0.0000001
 43
0.0000001
 44
0.0000000001
 40
0.0
 40
0.0
 40
0.0
 40
0.0
 40
0.0190390439
 40
0.0383114662
 40
0.0579366384
 40
0.0780260069
 40
0.0986813572
 40
0.1199937182
 40
0.1420429823
 40
0.1648979556
 40
0.1886166966
 40
0.2132472308
 40
0.2388283143
 40
0.2653901415
 40
0.2929552148
 40
0.3215391154
 40
0.3511510902
 40
0.3817947381
 40
0.4461589242
 40
0.5145759579
 40
0.5869199182
 40
0.6630141675
 40
0.7426394667
 40
0.8255405939
 40
0.9114310902
 40
1.0
 40
1.0
 40
1.0
 40
1.0
 10
15.6089119726
 20
11.9797872214
 30
0.0
 10
15.6065056789
 20
11.9799699933
 30
0.0
 10
15.6016774182
 20
11.9805545547
 30
0.0
 10
15.5944837336
 20
11.9820730191
 30
0.0
 10
15.5873170396
 20
11.9842340591
 30
0.0
 10
15.5801872038
 20
11.9870341321
 30
0.0
 10
15.5731027787
 20
11.9904689876
 30
0.0
 10
15.5660722518
 20
11.9945336317
 30
0.0
 10
15.5591038168
 20
11.9992225154
 30
0.0
 10
15.5522055365
 20
12.0045295173
 30
0.0
 10
15.5453853123
 20
12.0104478731
 30
0.0
 10
15.5386509831
 20
12.0169702434
 30
0.0
 10
15.5320103429
 20
12.0240886782
 30
0.0
 10
15.5254710823
 20
12.0317945368
 30
0.0
 10
15.519040826
 20
12.0400785382
 30
0.0
 10
15.5127271793
 20
12.0489307393
 30
0.0
 10
15.5065374735
 20
12.0583405483
 30
0.0
 10
15.4983252454
 20
12.0718368672
 30
0.0
 10
15.488448975
 20
12.0900619071
 30
0.0
 10
15.4773947438
 20
12.113608274
 30
0.0
 10
15.4670026174
 20
12.1390666121
 30
0.0
 10
15.4573224367
 20
12.1663148283
 30
0.0
 10
15.4484005813
 20
12.1952230057
 30
0.0
 10
15.4402801476
 20
12.2256525965
 30
0.0
 10
15.4330004162
 20
12.2574571334
 30
0.0
 10
15.428790356
 20
12.2791703033
 30
0.0
 10
15.4268258316
 20
12.2902233083
 30
0.0
  0
SPLINE
  5
2D4
100
AcDbEntity
  8
LAYER_FEATURE
100
AcDbSpline
 62
7
  6
CONTINUOUS
 70
0
 71
3
 72
23
 73
19
 74
0
 42
0.0000001
 43
0.0000001
 44
0.0000000001
 40
0.0
 40
0.0
 40
0.0
 40
0.0
 40
0.0478628958
 40
0.0969544207
 40
0.1475105995
 40
0.1997408311
 40
0.253827363
 40
0.3099258262
 40
0.3681664988
 40
0.4286560037
 40
0.4914792103
 40
0.5567011737
 40
0.6243690359
 40
0.6945137258
 40
0.7671517762
 40
0.842286108
 40
0.9199089987
 40
1.0
 40
1.0
 40
1.0
 40
1.0
 10
15.0742562282
 20
10.895521093
 30
0.0
 10
15.0668739617
 20
10.8976826088
 30
0.0
 10
15.0520985031
 20
10.9026949712
 30
0.0
 10
15.0303063169
 20
10.9120856979
 30
0.0
 10
15.0086628375
 20
10.9234184799
 30
0.0
 10
14.9871958127
 20
10.9366767018
 30
0.0
 10
14.9659296226
 20
10.9518426869
 30
0.0
 10
14.9448889661
 20
10.9688967479
 30
0.0
 10
14.9240980182
 20
10.9878174256
 30
0.0
 10
14.9035807855
 20
11.0085813483
 30
0.0
 10
14.8833610607
 20
11.0311631869
 30
0.0
 10
14.8634624315
 20
11.0555355944
 30
0.0
 10
14.843908263
 20
11.0816691744
 30
0.0
 10
14.8247216197
 20
11.1095324837
 30
0.0
 10
14.8059253258
 20
11.139091962
 30
0.0
 10
14.7875416506
 20
11.1703121971
 30
0.0
 10
14.7695928671
 20
11.2031552023
 30
0.0
 10
14.7581091415
 20
11.225755946
 30
0.0
 10
14.7524386123
 20
11.2373112696
 30
0.0
  0
SPLINE
  5
2D5
100
AcDbEntity
  8
LAYER_CUT_FEAT
100
AcDbSpline
 62
7
  6
CONTINUOUS
 70
0
 71
3
 72
12
 73
8
 74
0
 42
0.0000001
 43
0.0000001
 44
0.0000000001
 40
0.0
 40
0.0
 40
0.0
 40
0.0
 40
0.1126607354
 40
0.2333806489
 40
0.4903500916
 40
0.7523504178
 40
1.0
 40
1.0
 40
1.0
 40
1.0
 10
14.7279562378
 20
13.527689188
 30
0.0
 10
14.7278431844
 20
13.5273233474
 30
0.0
 10
14.7276425177
 20
13.5265548886
 30
0.0
 10
14.7273392723
 20
13.5249150671
 30
0.0
 10
14.7271532919
 20
13.5227428339
 30
0.0
 10
14.7272239101
 20
13.520133553
 30
0.0
 10
14.7274724672
 20
13.5184133116
 30
0.0
 10
14.7276547289
 20
13.5175915722
 30
0.0
  0
SPLINE
  5
2D6
100
AcDbEntity
  8
LAYER_FEATURE
100
AcDbSpline
 62
7
  6
CONTINUOUS
 70
0
 71
3
 72
11
 73
7
 74
0
 42
0.0000001
 43
0.0000001
 44
0.0000000001
 40
0.0
 40
0.0
 40
0.0
 40
0.0
 40
0.2447787465
 40
0.4916854542
 40
0.7427809448
 40
1.0
 40
1.0
 40
1.0
 40
1.0
 10
15.7785165752
 20
11.0770414722
 30
0.0
 10
15.7711436017
 20
11.0770414615
 30
0.0
 10
15.75632277
 20
11.077797737
 30
0.0
 10
15.7341724286
 20
11.0811933353
 30
0.0
 10
15.7121014781
 20
11.0868424531
 30
0.0
 10
15.6976692594
 20
11.0920297368
 30
0.0
 10
15.6905005333
 20
11.0949684493
 30
0.0
  0
SPLINE
  5
2D7
100
AcDbEntity
  8
LAYER_FEATURE
100
AcDbSpline
 62
7
  6
CONTINUOUS
 70
0
 71
3
 72
23
 73
19
 74
0
 42
0.0000001
 43
0.0000001
 44
0.0000000001
 40
0.0
 40
0.0
 40
0.0
 40
0.0
 40
0.048449603
 40
0.0982603281
 40
0.1496020737
 40
0.2026240291
 40
0.2574550929
 40
0.3142047939
 40
0.3729644756
 40
0.4338086124
 40
0.4967961376
 40
0.5619718293
 40
0.6293675514
 40
0.6990035082
 40
0.7708893246
 40
0.8450242468
 40
0.9214010046
 40
1.0
 40
1.0
 40
1.0
 40
1.0
 10
15.6905005333
 20
11.0949684493
 30
0.0
 10
15.6845388846
 20
11.0974123383
 30
0.0
 10
15.6726257251
 20
11.1028129254
 30
0.0
 10
15.6550990003
 20
11.1122562651
 30
0.0
 10
15.6377037562
 20
11.1231347288
 30
0.0
 10
15.6204585104
 20
11.1354356438
 30
0.0
 10
15.6033798485
 20
11.1491457998
 30
0.0
 10
15.5864846379
 20
11.1642506131
 30
0.0
 10
15.5697894625
 20
11.1807343316
 30
0.0
 10
15.5533108141
 20
11.1985799347
 30
0.0
 10
15.5370650143
 20
11.2177691019
 30
0.0
 10
15.5210682433
 20
11.238282215
 30
0.0
 10
15.5053365034
 20
11.2600983537
 30
0.0
 10
15.4898855986
 20
11.2831953142
 30
0.0
 10
15.4747311681
 20
11.3075495112
 30
0.0
 10
15.4598883763
 20
11.3331362948
 30
0.0
 10
15.4453725797
 20
11.3599292192
 30
0.0
 10
15.4360555153
 20
11.378315834
 30
0.0
 10
15.4314507098
 20
11.3876994409
 30
0.0
  0
SPLINE
  5
2D8
100
AcDbEntity
  8
LAYER_CUT_FEAT
100
AcDbSpline
 62
7
  6
CONTINUOUS
 70
0
 71
3
 72
13
 73
9
 74
0
 42
0.0000001
 43
0.0000001
 44
0.0000000001
 40
0.0
 40
0.0
 40
0.0
 40
0.0
 40
0.1173445685
 40
0.2415374126
 40
0.5013621665
 40
0.7604816701
 40
0.883815903
 40
1.0
 40
1.0
 40
1.0
 40
1.0
 10
14.6952064584
 20
13.4201096459
 30
0.0
 10
14.695106902
 20
13.4197224235
 30
0.0
 10
14.6949337696
 20
13.4189169751
 30
0.0
 10
14.6946880908
 20
13.4172255216
 30
0.0
 10
14.6945743704
 20
13.4150318791
 30
0.0
 10
14.6947058925
 20
13.412842082
 30
0.0
 10
14.6949658697
 20
13.411162136
 30
0.0
 10
14.6951458763
 20
13.4103652187
 30
0.0
 10
14.6952488104
 20
13.4099829738
 30
0.0
  0
SPLINE
  5
2D9
100
AcDbEntity
  8
LAYER_CUT_FEAT
100
AcDbSpline
 62
7
  6
CONTINUOUS
 70
0
 71
3
 72
12
 73
8
 74
0
 42
0.0000001
 43
0.0000001
 44
0.0000000001
 40
0.0
 40
0.0
 40
0.0
 40
0.0
 40
0.2496907845
 40
0.5123843327
 40
0.7686311259
 40
0.8884906748
 40
1.0
 40
1.0
 40
1.0
 40
1.0
 10
14.6662325563
 20
13.3056097464
 30
0.0
 10
14.6660577318
 20
13.3047806229
 30
0.0
 10
14.6658236173
 20
13.3030517935
 30
0.0
 10
14.6657740677
 20
13.3004391753
 30
0.0
 10
14.6659777109
 20
13.2982747914
 30
0.0
 10
14.6662948974
 20
13.2966496157
 30
0.0
 10
14.6665021691
 20
13.2958912005
 30
0.0
 10
14.6666184469
 20
13.2955310881
 30
0.0
  0
SPLINE
  5
2DA
100
AcDbEntity
  8
LAYER_FEATURE
100
AcDbSpline
 62
7
  6
CONTINUOUS
 70
0
 71
3
 72
29
 73
25
 74
0
 42
0.0000001
 43
0.0000001
 44
0.0000000001
 40
0.0
 40
0.0
 40
0.0
 40
0.0
 40
0.0254238376
 40
0.0505540089
 40
0.0754686706
 40
0.1002485276
 40
0.1249759377
 40
0.1497339057
 40
0.1746050605
 40
0.1996706348
 40
0.2250095407
 40
0.2506975244
 40
0.2768064635
 40
0.3034038637
 40
0.3582919169
 40
0.4158229066
 40
0.4763565253
 40
0.5401750575
 40
0.6074903661
 40
0.6784520006
 40
0.7531552066
 40
0.8316483552
 40
0.9139388177
 40
1.0
 40
1.0
 40
1.0
 40
1.0
 10
15.8425187308
 20
10.8880693825
 30
0.0
 10
15.8373913163
 20
10.8865680891
 30
0.0
 10
15.827105812
 20
10.8838796341
 30
0.0
 10
15.8115387939
 20
10.8807999316
 30
0.0
 10
15.7959450632
 20
10.8787020143
 30
0.0
 10
15.7803351796
 20
10.8775877126
 30
0.0
 10
15.7647189401
 20
10.8774577769
 30
0.0
 10
15.7491063899
 20
10.8783122936
 30
0.0
 10
15.7335075045
 20
10.8801506895
 30
0.0
 10
15.7179322018
 20
10.8829715123
 30
0.0
 10
15.7023902707
 20
10.8867727579
 30
0.0
 10
15.6868914895
 20
10.8915516387
 30
0.0
 10
15.6714450007
 20
10.8973049833
 30
0.0
 10
15.650717827
 20
10.9063634267
 30
0.0
 10
15.6249317455
 20
10.9202132092
 30
0.0
 10
15.5947003292
 20
10.9404785957
 30
0.0
 10
15.5649181252
 20
10.9645074174
 30
0.0
 10
15.5356525636
 20
10.9922363128
 30
0.0
 10
15.5069665236
 20
11.0235972382
 30
0.0
 10
15.4789237928
 20
11.058514809
 30
0.0
 10
15.4515875208
 20
11.0969061424
 30
0.0
 10
15.4250202526
 20
11.1386806723
 30
0.0
 10
15.3992839548
 20
11.183738772
 30
0.0
 10
15.3830786734
 20
11.2152005757
 30
0.0
 10
15.3751113285
 20
11.2314363178
 30
0.0
  0
SPLINE
  5
2DB
100
AcDbEntity
  8
LAYER_CUT_FEAT
100
AcDbSpline
 62
7
  6
CONTINUOUS
 70
0
 71
3
 72
13
 73
9
 74
0
 42
0.0000001
 43
0.0000001
 44
0.0000000001
 40
0.0
 40
0.0
 40
0.0
 40
0.0
 40
0.2580280406
 40
0.523484111
 40
0.652880347
 40
0.7768351633
 40
0.8931689825
 40
1.0
 40
1.0
 40
1.0
 40
1.0
 10
14.6412550404
 20
13.1850609027
 30
0.0
 10
14.6411107446
 20
13.1842060151
 30
0.0
 10
14.640935728
 20
13.1824507431
 30
0.0
 10
14.6409657307
 20
13.1802523868
 30
0.0
 10
14.6411432228
 20
13.1785172898
 30
0.0
 10
14.6413475328
 20
13.1772910878
 30
0.0
 10
14.6416193185
 20
13.1761558705
 30
0.0
 10
14.6418525973
 20
13.1754419616
 30
0.0
 10
14.6419815327
 20
13.175106963
 30
0.0
  0
SPLINE
  5
2DC
100
AcDbEntity
  8
LAYER_FEATURE
100
AcDbSpline
 62
7
  6
CONTINUOUS
 70
0
 71
3
 72
58
 73
54
 74
0
 42
0.0000001
 43
0.0000001
 44
0.0000000001
 40
0.0
 40
0.0
 40
0.0
 40
0.0
 40
0.0078929901
 40
0.0160025674
 40
0.024371815
 40
0.033038606
 40
0.0420355297
 40
0.0513900356
 40
0.0611247217
 40
0.0712577009
 40
0.0818029994
 40
0.0927709542
 40
0.1041685892
 40
0.1159999602
 40
0.1282664656
 40
0.1409671213
 40
0.1540988023
 40
0.1676564546
 40
0.1816332804
 40
0.1960209007
 40
0.2108094978
 40
0.2259879422
 40
0.2415439043
 40
0.257463955
 40
0.2737336567
 40
0.2903376456
 40
0.3072597069
 40
0.3244828451
 40
0.3597595387
 40
0.3960199448
 40
0.4331061521
 40
0.4708532311
 40
0.5090907924
 40
0.5476444776
 40
0.586337405
 40
0.6249915896
 40
0.6634293537
 40
0.701474738
 40
0.7389549311
 40
0.7757017322
 40
0.8115530679
 40
0.8290950229
 40
0.8463559606
 40
0.8633180815
 40
0.8799642937
 40
0.8962782776
 40
0.9122445544
 40
0.9278485628
 40
0.9430767338
 40
0.957916602
 40
0.9723568424
 40
0.9863875343
 40
1.0
 40
1.0
 40
1.0
 40
1.0
 10
15.0742562285
 20
14.1260888861
 30
0.0
 10
15.0664442315
 20
14.123801554
 30
0.0
 10
15.0508057374
 20
14.1184534397
 30
0.0
 10
15.0277673947
 20
14.1083389197
 30
0.0
 10
15.0048999636
 20
14.0960541623
 30
0.0
 10
14.9822360515
 20
14.0816194563
 30
0.0
 10
14.9598042121
 20
14.0650563714
 30
0.0
 10
14.9376333741
 20
14.0463889122
 30
0.0
 10
14.9157518556
 20
14.0256432595
 30
0.0
 10
14.8941877938
 20
14.0028479647
 30
0.0
 10
14.8729690792
 20
13.9780340187
 30
0.0
 10
14.8521233623
 20
13.9512349299
 30
0.0
 10
14.8316779995
 20
13.9224867642
 30
0.0
 10
14.8116599931
 20
13.8918281601
 30
0.0
 10
14.7920959265
 20
13.8593003182
 30
0.0
 10
14.7730118993
 20
13.8249469729
 30
0.0
 10
14.7544334659
 20
13.78881435
 30
0.0
 10
14.7363855788
 20
13.750951113
 30
0.0
 10
14.7188925364
 20
13.711408302
 30
0.0
 10
14.7019779349
 20
13.6702392655
 30
0.0
 10
14.6856646249
 20
13.6274995869
 30
0.0
 10
14.6699746709
 20
13.5832470083
 30
0.0
 10
14.6549293136
 20
13.5375413485
 30
0.0
 10
14.6405489387
 20
13.4904444235
 30
0.0
 10
14.6268530321
 20
13.4420199443
 30
0.0
 10
14.6138601988
 20
13.3923334898
 30
0.0
 10
14.6015879487
 20
13.3414521788
 30
0.0
 10
14.5860850466
 20
13.2715531673
 30
0.0
 10
14.568669324
 20
13.18166704
 30
0.0
 10
14.5510476876
 20
13.0710199984
 30
0.0
 10
14.5366361275
 20
12.9573411399
 30
0.0
 10
14.5255131878
 20
12.8412461987
 30
0.0
 10
14.5177395063
 20
12.7233628701
 30
0.0
 10
14.5133574716
 20
12.6043291197
 30
0.0
 10
14.5123909784
 20
12.4847891547
 30
0.0
 10
14.5148452949
 20
12.3653900106
 30
0.0
 10
14.5207070366
 20
12.2467779108
 30
0.0
 10
14.5299442407
 20
12.1295948368
 30
0.0
 10
14.542506543
 20
12.0144745201
 30
0.0
 10
14.5583254761
 20
11.902040599
 30
0.0
 10
14.574263151
 20
11.8104369154
 30
0.0
 10
14.5886106052
 20
11.7389950828
 30
0.0
 10
14.6000486335
 20
11.6868469228
 30
0.0
 10
14.612225997
 20
11.6358156563
 30
0.0
 10
14.6251262749
 20
11.5859702417
 30
0.0
 10
14.6387319378
 20
11.5373782038
 30
0.0
 10
14.6530245398
 20
11.4901052998
 30
0.0
 10
14.6679847034
 20
11.4442155021
 30
0.0
 10
14.6835921612
 20
11.3997708541
 30
0.0
 10
14.6998257681
 20
11.3568315059
 30
0.0
 10
14.7166636254
 20
11.3154552804
 30
0.0
 10
14.7340827615
 20
11.2756985977
 30
0.0
 10
14.746254088
 20
11.2499140051
 30
0.0
 10
14.7524386123
 20
11.2373112696
 30
0.0
  0
SPLINE
  5
2DD
100
AcDbEntity
  8
LAYER_FEATURE
100
AcDbSpline
 62
7
  6
CONTINUOUS
 70
0
 71
3
 72
23
 73
19
 74
0
 42
0.0000001
 43
0.0000001
 44
0.0000000001
 40
0.0
 40
0.0
 40
0.0
 40
0.0
 40
0.0800910013
 40
0.157713892
 40
0.2328482238
 40
0.3054862742
 40
0.3756309641
 40
0.4432988263
 40
0.5085207897
 40
0.5713439963
 40
0.6318335012
 40
0.6900741738
 40
0.746172637
 40
0.8002591689
 40
0.8524894005
 40
0.9030455793
 40
0.9521371042
 40
1.0
 40
1.0
 40
1.0
 40
1.0
 10
16.1897863246
 20
13.7842987162
 30
0.0
 10
16.1841157954
 20
13.7958540398
 30
0.0
 10
16.1726320698
 20
13.8184547835
 30
0.0
 10
16.1546832864
 20
13.8512977887
 30
0.0
 10
16.1362996112
 20
13.8825180238
 30
0.0
 10
16.1175033172
 20
13.9120775021
 30
0.0
 10
16.098316674
 20
13.9399408114
 30
0.0
 10
16.0787625055
 20
13.9660743914
 30
0.0
 10
16.0588638762
 20
13.990446799
 30
0.0
 10
16.0386441514
 20
14.0130286376
 30
0.0
 10
16.0181269188
 20
14.0337925602
 30
0.0
 10
15.9973359708
 20
14.0527132379
 30
0.0
 10
15.9762953144
 20
14.0697672989
 30
0.0
 10
15.9550291242
 20
14.084933284
 30
0.0
 10
15.9335620995
 20
14.0981915059
 30
0.0
 10
15.91191862
 20
14.1095242879
 30
0.0
 10
15.8901264338
 20
14.1189150146
 30
0.0
 10
15.8753509753
 20
14.123927377
 30
0.0
 10
15.8679687087
 20
14.1260888928
 30
0.0
  0
SPLINE
  5
2DE
100
AcDbEntity
  8
LAYER_FEATURE
100
AcDbSpline
 62
7
  6
CONTINUOUS
 70
0
 71
3
 72
11
 73
7
 74
0
 42
0.0000001
 43
0.0000001
 44
0.0000000001
 40
0.0
 40
0.0
 40
0.0
 40
0.0
 40
0.2447676307
 40
0.4916678373
 40
0.7427657676
 40
1.0
 40
1.0
 40
1.0
 40
1.0
 10
15.7785165752
 20
13.9445685136
 30
0.0
 10
15.7711353597
 20
13.9445685029
 30
0.0
 10
15.7562977945
 20
13.9438105561
 30
0.0
 10
15.7341226353
 20
13.9404073097
 30
0.0
 10
15.7120271563
 20
13.9347455133
 30
0.0
 10
15.6975794807
 20
13.9295467809
 30
0.0
 10
15.6904031673
 20
13.9266016096
 30
0.0
  0
SPLINE
  5
2DF
100
AcDbEntity
  8
LAYER_FEATURE
100
AcDbSpline
 62
7
  6
CONTINUOUS
 70
0
 71
3
 72
56
 73
52
 74
0
 42
0.0000001
 43
0.0000001
 44
0.0000000001
 40
0.0
 40
0.0
 40
0.0
 40
0.0
 40
0.0080833936
 40
0.016426914
 40
0.02506569
 40
0.034029921
 40
0.0433450373
 40
0.0530319791
 40
0.0631075395
 40
0.0735847309
 40
0.0844731481
 40
0.0957793108
 40
0.1075069787
 40
0.1196574354
 40
0.1322297397
 40
0.1452209478
 40
0.1586263074
 40
0.1724394286
 40
0.1866524342
 40
0.2012560902
 40
0.2162399244
 40
0.2315923303
 40
0.2473006615
 40
0.2633513157
 40
0.2797298113
 40
0.296420858
 40
0.3306744551
 40
0.365977414
 40
0.4021843899
 40
0.4391424719
 40
0.4766926684
 40
0.5146713125
 40
0.5529114179
 40
0.5912439964
 40
0.6294993548
 40
0.6675083875
 40
0.7051038757
 40
0.7421218002
 40
0.77840269
 40
0.8137930274
 40
0.8481467259
 40
0.8648923149
 40
0.8813281841
 40
0.8974389039
 40
0.9132098419
 40
0.928627234
 40
0.9436782496
 40
0.9583511119
 40
0.9726350726
 40
0.9865208167
 40
1.0
 40
1.0
 40
1.0
 40
1.0
 10
15.6904031673
 20
13.9266016096
 30
0.0
 10
15.6836674786
 20
13.9238372715
 30
0.0
 10
15.6702063234
 20
13.9176513528
 30
0.0
 10
15.6504582705
 20
13.9066684347
 30
0.0
 10
15.6308851659
 20
13.8938635701
 30
0.0
 10
15.6115132141
 20
13.8792558619
 30
0.0
 10
15.5923657944
 20
13.8628652747
 30
0.0
 10
15.5734666988
 20
13.844713905
 30
0.0
 10
15.5548393194
 20
13.8248257161
 30
0.0
 10
15.5365069124
 20
13.803226706
 30
0.0
 10
15.5184925101
 20
13.7799449315
 30
0.0
 10
15.5008188985
 20
13.7550105484
 30
0.0
 10
15.4835085644
 20
13.728455816
 30
0.0
 10
15.4665836472
 20
13.7003150856
 30
0.0
 10
15.4500658866
 20
13.6706247767
 30
0.0
 10
15.4339765746
 20
13.6394233421
 30
0.0
 10
15.4183365108
 20
13.6067512256
 30
0.0
 10
15.4031659604
 20
13.5726508125
 30
0.0
 10
15.3884846176
 20
13.5371663763
 30
0.0
 10
15.3743115671
 20
13.5003440224
 30
0.0
 10
15.3606652526
 20
13.4622316249
 30
0.0
 10
15.3475634517
 20
13.4228787643
 30
0.0
 10
15.3350232358
 20
13.3823366468
 30
0.0
 10
15.3230609894
 20
13.3406580878
 30
0.0
 10
15.3116922136
 20
13.2978972413
 30
0.0
 10
15.2972207388
 20
13.2390070093
 30
0.0
 10
15.2807613755
 20
13.1630676071
 30
0.0
 10
15.263760307
 20
13.0693166019
 30
0.0
 10
15.2494318894
 20
12.972657285
 30
0.0
 10
15.2378512475
 20
12.8735933776
 30
0.0
 10
15.2290791138
 20
12.7726401404
 30
0.0
 10
15.2231614917
 20
12.6703232376
 30
0.0
 10
15.2201294189
 20
12.5671754772
 30
0.0
 10
15.2199988046
 20
12.463734102
 30
0.0
 10
15.2227703442
 20
12.3605379034
 30
0.0
 10
15.2284294893
 20
12.2581243816
 30
0.0
 10
15.2369465492
 20
12.1570268562
 30
0.0
 10
15.248276852
 20
12.0577717559
 30
0.0
 10
15.2623609967
 20
11.9608753667
 30
0.0
 10
15.2791251309
 20
11.866842662
 30
0.0
 10
15.2953907555
 20
11.7906387715
 30
0.0
 10
15.3097113375
 20
11.7315151884
 30
0.0
 10
15.320971742
 20
11.6885655444
 30
0.0
 10
15.3328283479
 20
11.6466882729
 30
0.0
 10
15.3452657878
 20
11.6059377879
 30
0.0
 10
15.3582678102
 20
11.5663671869
 30
0.0
 10
15.3718174709
 20
11.5280279349
 30
0.0
 10
15.3858971059
 20
11.4909699902
 30
0.0
 10
15.4004884386
 20
11.4552413205
 30
0.0
 10
15.4155723188
 20
11.4208888809
 30
0.0
 10
15.4261020972
 20
11.3985987675
 30
0.0
 10
15.4314507098
 20
11.3876994409
 30
0.0
  0
SPLINE
  5
2E0
100
AcDbEntity
  8
LAYER_FEATURE
100
AcDbSpline
 62
7
  6
CONTINUOUS
 70
0
 71
3
 72
63
 73
59
 74
0
 42
0.0000001
 43
0.0000001
 44
0.0000000001
 40
0.0
 40
0.0
 40
0.0
 40
0.0
 40
0.0080810355
 40
0.0160342008
 40
0.023929244
 40
0.0318378307
 40
0.0398311751
 40
0.0479777295
 40
0.0563412224
 40
0.0649792313
 40
0.0739423488
 40
0.0832738841
 40
0.0930099758
 40
0.1031799801
 40
0.1138070099
 40
0.1249085344
 40
0.1364969782
 40
0.1485802849
 40
0.1611624265
 40
0.1742438558
 40
0.1878219
 40
0.2018911026
 40
0.2164435184
 40
0.2314689688
 40
0.2469552633
 40
0.2628883931
 40
0.2792527006
 40
0.2960310302
 40
0.3132048628
 40
0.3307544378
 40
0.3486588633
 40
0.3668962188
 40
0.3854436494
 40
0.4042774556
 40
0.4233731766
 40
0.442705671
 40
0.4819760949
 40
0.52187829
 40
0.5621941635
 40
0.602701642
 40
0.6431768253
 40
0.6833961207
 40
0.7231383791
 40
0.7621870616
 40
0.781386186
 40
0.800333967
 40
0.8190056458
 40
0.8373771904
 40
0.8554253777
 40
0.87312788
 40
0.8904633577
 40
0.9074115581
 40
0.9239534218
 40
0.9400712006
 40
0.9557485832
 40
0.9709708478
 40
0.9857249996
 40
1.0
 40
1.0
 40
1.0
 40
1.0
 10
15.8425187311
 20
14.13354061
 30
0.0
 10
15.8341061474
 20
14.1360038011
 30
0.0
 10
15.817166654
 20
14.1400939464
 30
0.0
 10
15.7914060075
 20
14.1436163095
 30
0.0
 10
15.7656028221
 20
14.1444539122
 30
0.0
 10
15.7398096244
 20
14.1426036279
 30
0.0
 10
15.7140748277
 20
14.1380707165
 30
0.0
 10
15.6884462022
 20
14.130866933
 30
0.0
 10
15.6629687615
 20
14.1210097649
 30
0.0
 10
15.6376849993
 20
14.1085211266
 30
0.0
 10
15.6126352011
 20
14.0934264696
 30
0.0
 10
15.5878580934
 20
14.0757542928
 30
0.0
 10
15.5633914172
 20
14.0555360341
 30
0.0
 10
15.5392723432
 20
14.032806183
 30
0.0
 10
15.5155376963
 20
14.0076024807
 30
0.0
 10
15.4922240291
 20
13.9799661149
 30
0.0
 10
15.4693675957
 20
13.9499418662
 30
0.0
 10
15.4470042698
 20
13.9175781954
 30
0.0
 10
15.4251694376
 20
13.8829272754
 30
0.0
 10
15.4038978843
 20
13.8460449774
 30
0.0
 10
15.3832236849
 20
13.8069908233
 30
0.0
 10
15.3631801026
 20
13.7658279131
 30
0.0
 10
15.3437994968
 20
13.7226228331
 30
0.0
 10
15.3251132398
 20
13.6774455516
 30
0.0
 10
15.3071516426
 20
13.6303693039
 30
0.0
 10
15.2899438866
 20
13.5814704698
 30
0.0
 10
15.2735179627
 20
13.5308284445
 30
0.0
 10
15.2579006148
 20
13.4785255049
 30
0.0
 10
15.2431172888
 20
13.42464667
 30
0.0
 10
15.2291920848
 20
13.3692795589
 30
0.0
 10
15.2161477129
 20
13.3125142416
 30
0.0
 10
15.2040054559
 20
13.2544430949
 30
0.0
 10
15.1927851206
 20
13.1951606272
 30
0.0
 10
15.1825050469
 20
13.1347634016
 30
0.0
 10
15.1731819133
 20
13.0733495701
 30
0.0
 10
15.1619897517
 20
12.9898100326
 30
0.0
 10
15.1505263948
 20
12.8835527556
 30
0.0
 10
15.1408584255
 20
12.7542785311
 30
0.0
 10
15.1352715366
 20
12.6234204447
 30
0.0
 10
15.1338023194
 20
12.4918303356
 30
0.0
 10
15.1364604331
 20
12.3603636069
 30
0.0
 10
15.1432284193
 20
12.2298748279
 30
0.0
 10
15.1540619368
 20
12.1012134156
 30
0.0
 10
15.1664872929
 20
11.995626454
 30
0.0
 10
15.1784379688
 20
11.9127432456
 30
0.0
 10
15.1883146913
 20
11.8519031907
 30
0.0
 10
15.1991388657
 20
11.7921366414
 30
0.0
 10
15.2108929323
 20
11.7335407138
 30
0.0
 10
15.2235576808
 20
11.6762108427
 30
0.0
 10
15.2371124548
 20
11.6202403171
 30
0.0
 10
15.2515351424
 20
11.5657202054
 30
0.0
 10
15.2668022281
 20
11.5127391818
 30
0.0
 10
15.2828888285
 20
11.4613833876
 30
0.0
 10
15.2997687506
 20
11.4117362664
 30
0.0
 10
15.3174145005
 20
11.363878496
 30
0.0
 10
15.3357974801
 20
11.3178875811
 30
0.0
 10
15.3548875423
 20
11.2738387292
 30
0.0
 10
15.3682897068
 20
11.2453373212
 30
0.0
 10
15.3751113285
 20
11.2314363178
 30
0.0
  0
SPLINE
  5
2E1
100
AcDbEntity
  8
LAYER_CUT_FEAT
100
AcDbSpline
 62
7
  6
CONTINUOUS
 70
0
 71
3
 72
11
 73
7
 74
0
 42
0.0000001
 43
0.0000001
 44
0.0000000001
 40
0.0
 40
0.0
 40
0.0
 40
0.0
 40
0.2532935258
 40
0.503925306
 40
0.7525891885
 40
1.0
 40
1.0
 40
1.0
 40
1.0
 10
15.7271179145
 20
13.9360821901
 30
0.0
 10
15.7313592059
 20
13.937271532
 30
0.0
 10
15.7398646411
 20
13.9394050166
 30
0.0
 10
15.75272681
 20
13.9418627222
 30
0.0
 10
15.7656085584
 20
13.9435569936
 30
0.0
 10
15.7742190867
 20
13.9441778372
 30
0.0
 10
15.7785178217
 20
13.9443599371
 30
0.0
  0
SPLINE
  5
2E2
100
AcDbEntity
  8
LAYER_CUT_FEAT
100
AcDbSpline
 62
7
  6
CONTINUOUS
 70
0
 71
3
 72
26
 73
22
 74
0
 42
0.0000001
 43
0.0000001
 44
0.0000000001
 40
0.0
 40
0.0
 40
0.0
 40
0.0
 40
0.0240565187
 40
0.0481274306
 40
0.0722746043
 40
0.0965591825
 40
0.1210410305
 40
0.145778223
 40
0.1962234992
 40
0.2483259605
 40
0.3024498891
 40
0.3589064338
 40
0.4179537816
 40
0.4797998468
 40
0.5446063693
 40
0.6124935688
 40
0.6835448288
 40
0.7578110149
 40
0.8353145476
 40
0.916052415
 40
1.0
 40
1.0
 40
1.0
 40
1.0
 10
15.7785178217
 20
13.9443599371
 30
0.0
 10
15.782511768
 20
13.9445291258
 30
0.0
 10
15.7905131383
 20
13.9446475736
 30
0.0
 10
15.8025191576
 20
13.9441621867
 30
0.0
 10
15.8145184025
 20
13.943013951
 30
0.0
 10
15.8265045218
 20
13.9412035381
 30
0.0
 10
15.8384721951
 20
13.9387317608
 30
0.0
 10
15.8544983808
 20
13.934529832
 30
0.0
 10
15.8745154476
 20
13.9275761249
 30
0.0
 10
15.8981935832
 20
13.9166636906
 30
0.0
 10
15.9216493704
 20
13.9031544978
 30
0.0
 10
15.9448397771
 20
13.8870788193
 30
0.0
 10
15.9677256929
 20
13.8684696281
 30
0.0
 10
15.990267993
 20
13.8473632501
 30
0.0
 10
16.0124281404
 20
13.8237994818
 30
0.0
 10
16.034167796
 20
13.7978219119
 30
0.0
 10
16.0554489199
 20
13.7694781041
 30
0.0
 10
16.0762338512
 20
13.7388197741
 30
0.0
 10
16.0964855008
 20
13.7059026364
 30
0.0
 10
16.1161671734
 20
13.6707872266
 30
0.0
 10
16.1286443081
 20
13.6464230973
 30
0.0
 10
16.1347897763
 20
13.6338999496
 30
0.0
  0
SPLINE
  5
2E3
100
AcDbEntity
  8
LAYER_FEATURE
100
AcDbSpline
 62
7
  6
CONTINUOUS
 70
0
 71
3
 72
21
 73
17
 74
0
 42
0.0000001
 43
0.0000001
 44
0.0000000001
 40
0.0
 40
0.0
 40
0.0
 40
0.0
 40
0.1392132897
 40
0.271749922
 40
0.3358674068
 40
0.3987378894
 40
0.4605284655
 40
0.5214178728
 40
0.5815952576
 40
0.6412583401
 40
0.7006112909
 40
0.759862289
 40
0.8192208364
 40
0.8788950346
 40
0.9390889094
 40
1.0
 40
1.0
 40
1.0
 40
1.0
 10
15.3529826112
 20
14.0763514753
 30
0.0
 10
15.3430231113
 20
14.0839539408
 30
0.0
 10
15.3229266906
 20
14.0979642935
 30
0.0
 10
15.2964991308
 20
14.1127584979
 30
0.0
 10
15.2752424313
 20
14.1224661507
 30
0.0
 10
15.259405681
 20
14.1286467788
 30
0.0
 10
15.2435110445
 20
14.133802034
 30
0.0
 10
15.2275684524
 20
14.1379282293
 30
0.0
 10
15.2115884495
 20
14.1410222367
 30
0.0
 10
15.1955816091
 20
14.1430816602
 30
0.0
 10
15.179558672
 20
14.1441048207
 30
0.0
 10
15.1635304465
 20
14.1440909695
 30
0.0
 10
15.1475078293
 20
14.1430400836
 30
0.0
 10
15.1315014488
 20
14.1409529415
 30
0.0
 10
15.1155227596
 20
14.1378314635
 30
0.0
 10
15.1049674627
 20
14.1350810853
 30
0.0
 10
15.0997062061
 20
14.1335406033
 30
0.0
  0
SPLINE
  5
2E4
100
AcDbEntity
  8
LAYER_CUT_FEAT
100
AcDbSpline
 62
7
  6
CONTINUOUS
 70
0
 71
3
 72
16
 73
12
 74
0
 42
0.0000001
 43
0.0000001
 44
0.0000000001
 40
0.0
 40
0.0
 40
0.0
 40
0.0
 40
0.0381171793
 40
0.0773332126
 40
0.1625722587
 40
0.2616962784
 40
0.3774293463
 40
0.5103693123
 40
0.6597163596
 40
0.8237217815
 40
1.0
 40
1.0
 40
1.0
 40
1.0
 10
14.6268701919
 20
13.0861401256
 30
0.0
 10
14.6267846495
 20
13.0861401169
 30
0.0
 10
14.626610687
 20
13.08612365
 30
0.0
 10
14.6262580919
 20
13.0860232887
 30
0.0
 10
14.6258196892
 20
13.085762453
 30
0.0
 10
14.625342899
 20
13.0852802439
 30
0.0
 10
14.6249013515
 20
13.0846327384
 30
0.0
 10
14.6245016769
 20
13.0838316237
 30
0.0
 10
14.6241507072
 20
13.0828919699
 30
0.0
 10
14.6238555635
 20
13.0818323928
 30
0.0
 10
14.623704708
 20
13.081083066
 30
0.0
 10
14.6236388658
 20
13.080692981
 30
0.0
  0
SPLINE
  5
2E5
100
AcDbEntity
  8
LAYER_CUT_FEAT
100
AcDbSpline
 62
7
  6
CONTINUOUS
 70
0
 71
3
 72
15
 73
11
 74
0
 42
0.0000001
 43
0.0000001
 44
0.0000000001
 40
0.0
 40
0.0
 40
0.0
 40
0.0
 40
0.0796410057
 40
0.1666596524
 40
0.2663805247
 40
0.3816533792
 40
0.5134229192
 40
0.6613361054
 40
0.8241504157
 40
1.0
 40
1.0
 40
1.0
 40
1.0
 10
14.6482381256
 20
13.210319281
 30
0.0
 10
14.6480785876
 20
13.210319298
 30
0.0
 10
14.6477425973
 20
13.2102583104
 30
0.0
 10
14.6472687239
 20
13.2099985547
 30
0.0
 10
14.6468212847
 20
13.2095847294
 30
0.0
 10
14.6464033135
 20
13.209026429
 30
0.0
 10
14.6460190358
 20
13.2083326822
 30
0.0
 10
14.6456741797
 20
13.2075146334
 30
0.0
 10
14.6453745174
 20
13.2065860881
 30
0.0
 10
14.6452138432
 20
13.2059263386
 30
0.0
 10
14.6451411647
 20
13.2055816532
 30
0.0
  0
SPLINE
  5
2E6
100
AcDbEntity
  8
LAYER_FEATURE
100
AcDbSpline
 62
7
  6
CONTINUOUS
 70
0
 71
3
 72
58
 73
54
 74
0
 42
0.0000001
 43
0.0000001
 44
0.0000000001
 40
0.0
 40
0.0
 40
0.0
 40
0.0
 40
0.0136124657
 40
0.0276431576
 40
0.042083398
 40
0.0569232662
 40
0.0721514372
 40
0.0877554456
 40
0.1037217224
 40
0.1200357063
 40
0.1366819185
 40
0.1536440394
 40
0.1709049771
 40
0.1884469321
 40
0.2242982678
 40
0.2610450689
 40
0.298525262
 40
0.3365706463
 40
0.3750084104
 40
0.413662595
 40
0.4523555224
 40
0.4909092076
 40
0.5291467689
 40
0.5668938479
 40
0.6039800552
 40
0.6402404613
 40
0.6755171549
 40
0.6927402931
 40
0.7096623544
 40
0.7262663433
 40
0.742536045
 40
0.7584560957
 40
0.7740120578
 40
0.7891905022
 40
0.8039790993
 40
0.8183667196
 40
0.8323435454
 40
0.8459011977
 40
0.8590328787
 40
0.8717335344
 40
0.8840000398
 40
0.8958314108
 40
0.9072290458
 40
0.9181970006
 40
0.9287422991
 40
0.9388752783
 40
0.9486099644
 40
0.9579644703
 40
0.966961394
 40
0.975628185
 40
0.9839974326
 40
0.9921070099
 40
1.0
 40
1.0
 40
1.0
 40
1.0
 10
16.1897863246
 20
13.7842987162
 30
0.0
 10
16.195970849
 20
13.7716959807
 30
0.0
 10
16.2081421754
 20
13.7459113882
 30
0.0
 10
16.2255613115
 20
13.7061547054
 30
0.0
 10
16.2423991689
 20
13.6647784799
 30
0.0
 10
16.2586327757
 20
13.6218391317
 30
0.0
 10
16.2742402335
 20
13.5773944837
 30
0.0
 10
16.2892003971
 20
13.531504686
 30
0.0
 10
16.3034929991
 20
13.484231782
 30
0.0
 10
16.3170986621
 20
13.4356397442
 30
0.0
 10
16.3299989399
 20
13.3857943295
 30
0.0
 10
16.3421763034
 20
13.334763063
 30
0.0
 10
16.3536143317
 20
13.282614903
 30
0.0
 10
16.367961786
 20
13.2111730704
 30
0.0
 10
16.3838994608
 20
13.1195693868
 30
0.0
 10
16.3997183939
 20
13.0071354657
 30
0.0
 10
16.4122806962
 20
12.892015149
 30
0.0
 10
16.4215179004
 20
12.774832075
 30
0.0
 10
16.427379642
 20
12.6562199752
 30
0.0
 10
16.4298339586
 20
12.5368208311
 30
0.0
 10
16.4288674653
 20
12.4172808662
 30
0.0
 10
16.4244854306
 20
12.2982471157
 30
0.0
 10
16.4167117492
 20
12.1803637871
 30
0.0
 10
16.4055888095
 20
12.0642688459
 30
0.0
 10
16.3911772493
 20
11.9505899875
 30
0.0
 10
16.3735556129
 20
11.8399429458
 30
0.0
 10
16.3561398904
 20
11.7500568185
 30
0.0
 10
16.3406369883
 20
11.680157807
 30
0.0
 10
16.3283647381
 20
11.629276496
 30
0.0
 10
16.3153719049
 20
11.5795900415
 30
0.0
 10
16.3016759982
 20
11.5311655623
 30
0.0
 10
16.2872956233
 20
11.4840686373
 30
0.0
 10
16.2722502661
 20
11.4383629775
 30
0.0
 10
16.2565603121
 20
11.3941103989
 30
0.0
 10
16.2402470021
 20
11.3513707203
 30
0.0
 10
16.2233324006
 20
11.3102016838
 30
0.0
 10
16.2058393581
 20
11.2706588728
 30
0.0
 10
16.1877914711
 20
11.2327956359
 30
0.0
 10
16.1692130376
 20
11.1966630129
 30
0.0
 10
16.1501290104
 20
11.1623096676
 30
0.0
 10
16.1305649438
 20
11.1297818257
 30
0.0
 10
16.1105469374
 20
11.0991232216
 30
0.0
 10
16.0901015746
 20
11.0703750559
 30
0.0
 10
16.0692558578
 20
11.0435759671
 30
0.0
 10
16.0480371431
 20
11.0187620211
 30
0.0
 10
16.0264730814
 20
10.9959667264
 30
0.0
 10
16.0045915628
 20
10.9752210736
 30
0.0
 10
15.9824207248
 20
10.9565536144
 30
0.0
 10
15.9599888855
 20
10.9399905295
 30
0.0
 10
15.9373249733
 20
10.9255558235
 30
0.0
 10
15.9144575423
 20
10.9132710661
 30
0.0
 10
15.8914191996
 20
10.9031565461
 30
0.0
 10
15.8757807054
 20
10.8978084318
 30
0.0
 10
15.8679687084
 20
10.8955210997
 30
0.0
  0
SPLINE
  5
2E7
100
AcDbEntity
  8
LAYER_FEATURE
100
AcDbSpline
 62
7
  6
CONTINUOUS
 70
0
 71
3
 72
21
 73
17
 74
0
 42
0.0000001
 43
0.0000001
 44
0.0000000001
 40
0.0
 40
0.0
 40
0.0
 40
0.0
 40
0.1392395016
 40
0.2717926141
 40
0.3359148654
 40
0.3987878856
 40
0.4605789281
 40
0.5214669307
 40
0.5816412122
 40
0.6412997568
 40
0.700647001
 40
0.7598914074
 40
0.8192427806
 40
0.8789095349
 40
0.939096005
 40
1.0
 40
1.0
 40
1.0
 40
1.0
 10
15.3531735336
 20
10.9454043248
 30
0.0
 10
15.3432075116
 20
10.9377881511
 30
0.0
 10
15.3230977511
 20
10.9237520857
 30
0.0
 10
15.2966507093
 20
10.9089287093
 30
0.0
 10
15.2753779685
 20
10.8992009797
 30
0.0
 10
15.2595293795
 20
10.8930071549
 30
0.0
 10
15.2436227287
 20
10.8878402822
 30
0.0
 10
15.2276679839
 20
10.8837040016
 30
0.0
 10
15.2116756873
 20
10.8806015568
 30
0.0
 10
15.1956564577
 20
10.8785352781
 30
0.0
 10
15.1796210533
 20
10.8775068525
 30
0.0
 10
15.1635803088
 20
10.87751711
 30
0.0
 10
15.1475451481
 20
10.878565974
 30
0.0
 10
15.1315262236
 20
10.8806527319
 30
0.0
 10
15.1155350295
 20
10.8837754768
 30
0.0
 10
15.1049715263
 20
10.8865276984
 30
0.0
 10
15.0997062058
 20
10.8880693758
 30
0.0
  0
SPLINE
  5
2E8
100
AcDbEntity
  8
LAYER_CUT_FEAT
100
AcDbSpline
 62
7
  6
CONTINUOUS
 70
0
 71
3
 72
15
 73
11
 74
0
 42
0.0000001
 43
0.0000001
 44
0.0000000001
 40
0.0
 40
0.0
 40
0.0
 40
0.0
 40
0.0825684443
 40
0.1716825617
 40
0.2722784155
 40
0.3872605751
 40
0.5178659032
 40
0.6641398761
 40
0.8253133021
 40
1.0
 40
1.0
 40
1.0
 40
1.0
 10
14.6737393941
 20
13.3292435442
 30
0.0
 10
14.6735930859
 20
13.3292435434
 30
0.0
 10
14.6732871244
 20
13.3291929237
 30
0.0
 10
14.6728505901
 20
13.3289748676
 30
0.0
 10
14.6724346151
 20
13.3286246706
 30
0.0
 10
14.6720421612
 20
13.3281500168
 30
0.0
 10
14.6716765216
 20
13.3275577264
 30
0.0
 10
14.67134211
 20
13.3268558949
 30
0.0
 10
14.6710435714
 20
13.3260544863
 30
0.0
 10
14.6708774446
 20
13.325482444
 30
0.0
 10
14.6708003679
 20
13.3251826555
 30
0.0
  0
LINE
  5
2E9
100
AcDbEntity
  8
LAYER_CUT_FEAT
100
AcDbLine
 62
7
  6
CONTINUOUS
 10
15.6020393269
 20
13.0410068679
 11
15.5491713954
 21
13.0370558035
  0
SPLINE
  5
2EA
100
AcDbEntity
  8
LAYER_CUT_FEAT
100
AcDbSpline
 62
7
  6
CONTINUOUS
 70
0
 71
3
 72
14
 73
10
 74
0
 42
0.0000001
 43
0.0000001
 44
0.0000000001
 40
0.0
 40
0.0
 40
0.0
 40
0.0
 40
0.0858722553
 40
0.1774650281
 40
0.2792916263
 40
0.394235758
 40
0.5237630701
 40
0.6682654643
 40
1.0
 40
1.0
 40
1.0
 40
1.0
 10
14.7031799171
 20
13.4420078135
 30
0.0
 10
14.7030467564
 20
13.4420078047
 30
0.0
 10
14.7027701768
 20
13.4419664293
 30
0.0
 10
14.7023715607
 20
13.4417862752
 30
0.0
 10
14.7019884065
 20
13.4414948302
 30
0.0
 10
14.7016235517
 20
13.4410979178
 30
0.0
 10
14.7012795026
 20
13.4406006201
 30
0.0
 10
14.7008325505
 20
13.4397729019
 30
0.0
 10
14.7005730732
 20
13.4390772349
 30
0.0
 10
14.7004211935
 20
13.4385857521
 30
0.0
  0
SPLINE
  5
2EB
100
AcDbEntity
  8
LAYER_CUT_FEAT
100
AcDbSpline
 62
7
  6
CONTINUOUS
 70
0
 71
3
 72
52
 73
48
 74
0
 42
0.0000001
 43
0.0000001
 44
0.0000000001
 40
0.0
 40
0.0
 40
0.0
 40
0.0
 40
0.0078363418
 40
0.0157129218
 40
0.0236692212
 40
0.0317432628
 40
0.0399710147
 40
0.0483859273
 40
0.0570186093
 40
0.0658966443
 40
0.0750445326
 40
0.084483726
 40
0.0942327293
 40
0.1043072483
 40
0.1147203757
 40
0.1254827833
 40
0.1366029115
 40
0.1480871501
 40
0.1599400215
 40
0.172164345
 40
0.1847613827
 40
0.1977309673
 40
0.21107163
 40
0.2247807115
 40
0.2388544577
 40
0.2532881003
 40
0.2680759391
 40
0.2832114166
 40
0.3144936397
 40
0.3470690132
 40
0.3808598274
 40
0.415779458
 40
0.4517335545
 40
0.4886210547
 40
0.5263351217
 40
0.5647639881
 40
0.6037917537
 40
0.643299138
 40
0.6831642038
 40
0.7232630612
 40
0.7634705549
 40
0.8036609455
 40
0.8437085863
 40
0.8834885981
 40
0.9228775506
 40
0.9617540946
 40
1.0
 40
1.0
 40
1.0
 40
1.0
 10
15.1913401915
 20
10.9455550008
 30
0.0
 10
15.1851666378
 20
10.9455550073
 30
0.0
 10
15.1727824465
 20
10.9460390397
 30
0.0
 10
15.1542451662
 20
10.9482144959
 30
0.0
 10
15.1357441611
 20
10.9518371984
 30
0.0
 10
15.1172991735
 20
10.9569026991
 30
0.0
 10
15.098927594
 20
10.963405015
 30
0.0
 10
15.0806468523
 20
10.9713368024
 30
0.0
 10
15.0624737796
 20
10.9806894569
 30
0.0
 10
15.0444248503
 20
10.9914532145
 30
0.0
 10
15.0265162232
 20
11.00361724
 30
0.0
 10
15.0087638267
 20
11.0171696404
 30
0.0
 10
14.9911834033
 20
11.0320974417
 30
0.0
 10
14.9737905316
 20
11.0483865576
 30
0.0
 10
14.9566006687
 20
11.0660218037
 30
0.0
 10
14.9396291483
 20
11.0849868721
 30
0.0
 10
14.9228911745
 20
11.105264307
 30
0.0
 10
14.9064017834
 20
11.1268354763
 30
0.0
 10
14.8901758549
 20
11.1496805992
 30
0.0
 10
14.8742280852
 20
11.1737787483
 30
0.0
 10
14.858572972
 20
11.1991078538
 30
0.0
 10
14.8432247646
 20
11.2256446957
 30
0.0
 10
14.8281974712
 20
11.2533649423
 30
0.0
 10
14.8135048396
 20
11.2822431704
 30
0.0
 10
14.7991603323
 20
11.3122528933
 30
0.0
 10
14.7851771329
 20
11.3433665291
 30
0.0
 10
14.7715679547
 20
11.3755555893
 30
0.0
 10
14.7537422591
 20
11.4203612885
 30
0.0
 10
14.7325280396
 20
11.4788840658
 30
0.0
 10
14.7090274068
 20
11.5521517734
 30
0.0
 10
14.6872971818
 20
11.6289455485
 30
0.0
 10
14.6674175667
 20
11.7089828961
 30
0.0
 10
14.6494619075
 20
11.7919704084
 30
0.0
 10
14.6334965289
 20
11.8776031811
 30
0.0
 10
14.6195804564
 20
11.9655664784
 30
0.0
 10
14.6077651501
 20
12.0555367937
 30
0.0
 10
14.5980943161
 20
12.1471831145
 30
0.0
 10
14.5906037436
 20
12.2401681602
 30
0.0
 10
14.5853211368
 20
12.334149649
 30
0.0
 10
14.5822660642
 20
12.4287815807
 30
0.0
 10
14.5814498072
 20
12.5237155289
 30
0.0
 10
14.5828754159
 20
12.6186019359
 30
0.0
 10
14.5865375823
 20
12.7130914436
 30
0.0
 10
14.5924227831
 20
12.8068360887
 30
0.0
 10
14.6005092279
 20
12.8994909408
 30
0.0
 10
14.6107669125
 20
12.9907141912
 30
0.0
 10
14.6191043135
 20
13.0509056207
 30
0.0
 10
14.6236388658
 20
13.080692981
 30
0.0
  0
SPLINE
  5
2EC
100
AcDbEntity
  8
LAYER_CHAMFER_FEAT
100
AcDbSpline
 62
7
  6
CONTINUOUS
 70
0
 71
3
 72
15
 73
11
 74
0
 42
0.0000001
 43
0.0000001
 44
0.0000000001
 40
0.0
 40
0.0
 40
0.0
 40
0.0
 40
0.1460587505
 40
0.2865094223
 40
0.4210819614
 40
0.5495505682
 40
0.6717451498
 40
0.7875586474
 40
0.8969584732
 40
1.0
 40
1.0
 40
1.0
 40
1.0
 10
15.8499867466
 20
12.0320099148
 30
0.0
 10
15.8464516624
 20
12.0205703784
 30
0.0
 10
15.8391475805
 20
11.9982422958
 30
0.0
 10
15.82723651
 20
11.9658355829
 30
0.0
 10
15.8146161978
 20
11.9352512364
 30
0.0
 10
15.801328579
 20
11.9065910559
 30
0.0
 10
15.7874176158
 20
11.8799498681
 30
0.0
 10
15.7729283659
 20
11.8554149923
 30
0.0
 10
15.7579089084
 20
11.8330686282
 30
0.0
 10
15.7472576303
 20
11.8192690608
 30
0.0
 10
15.7418448523
 20
11.812784286
 30
0.0
  0
SPLINE
  5
2ED
100
AcDbEntity
  8
LAYER_CUT_FEAT
100
AcDbSpline
 62
7
  6
CONTINUOUS
 70
0
 71
3
 72
18
 73
14
 74
0
 42
0.0000001
 43
0.0000001
 44
0.0000000001
 40
0.0
 40
0.0
 40
0.0
 40
0.0
 40
0.1713897967
 40
0.329112204
 40
0.4724862602
 40
0.6013523161
 40
0.7162770701
 40
0.769007344
 40
0.8189391112
 40
0.8664717716
 40
0.9120963029
 40
0.9563903178
 40
1.0
 40
1.0
 40
1.0
 40
1.0
 10
15.6636730373
 20
11.9944500542
 30
0.0
 10
15.6643581495
 20
11.9924333579
 30
0.0
 10
15.6657957254
 20
11.988600221
 30
0.0
 10
15.6682700343
 20
11.9832683933
 30
0.0
 10
15.670951731
 20
11.9786363671
 30
0.0
 10
15.673813022
 20
11.974754492
 30
0.0
 10
15.6763988944
 20
11.972105165
 30
0.0
 10
15.6785337833
 20
11.9704396984
 30
0.0
 10
15.6801142526
 20
11.9694403706
 30
0.0
 10
15.6817155789
 20
11.9686583507
 30
0.0
 10
15.6833335888
 20
11.9680969027
 30
0.0
 10
15.6849628948
 20
11.9677587671
 30
0.0
 10
15.6860567252
 20
11.9676832506
 30
0.0
 10
15.6865986708
 20
11.9676832542
 30
0.0
  0
SPLINE
  5
2EE
100
AcDbEntity
  8
LAYER_CUT_FEAT
100
AcDbSpline
 62
7
  6
CONTINUOUS
 70
0
 71
3
 72
30
 73
26
 74
0
 42
0.0000001
 43
0.0000001
 44
0.0000000001
 40
0.0
 40
0.0
 40
0.0
 40
0.0
 40
0.0747142179
 40
0.1497783932
 40
0.2247196703
 40
0.2990660657
 40
0.372352169
 40
0.4441243326
 40
0.5139460659
 40
0.5814037871
 40
0.6461130356
 40
0.6773287818
 40
0.7077301765
 40
0.7372806593
 40
0.7659470315
 40
0.7936998135
 40
0.8205136565
 40
0.8463678136
 40
0.8712466876
 40
0.8951404753
 40
0.9180458962
 40
0.9399671382
 40
0.9609165745
 40
0.9809167295
 40
1.0
 40
1.0
 40
1.0
 40
1.0
 10
15.4104756546
 20
12.4313671051
 30
0.0
 10
15.4095823695
 20
12.4465353245
 30
0.0
 10
15.408313519
 20
12.4769759723
 30
0.0
 10
15.4079458505
 20
12.5226834564
 30
0.0
 10
15.4091079607
 20
12.5683034205
 30
0.0
 10
15.4117912068
 20
12.6134970478
 30
0.0
 10
15.4159754773
 20
12.6579296139
 30
0.0
 10
15.4216294441
 20
12.7012718971
 30
0.0
 10
15.4287108177
 20
12.7432033511
 30
0.0
 10
15.4371666582
 20
12.7834132342
 30
0.0
 10
15.4454017499
 20
12.8156163739
 30
0.0
 10
15.4526552607
 20
12.8402642154
 30
0.0
 10
15.4583316226
 20
12.857916693
 30
0.0
 10
15.4642986081
 20
12.8749246704
 30
0.0
 10
15.4705452407
 20
12.8912567419
 30
0.0
 10
15.4770599279
 20
12.9068826907
 30
0.0
 10
15.4838306347
 20
12.9217736579
 30
0.0
 10
15.490844878
 20
12.9359021685
 30
0.0
 10
15.4980897743
 20
12.9492421924
 30
0.0
 10
15.5055520713
 20
12.9617691803
 30
0.0
 10
15.5132182054
 20
12.9734601471
 30
0.0
 10
15.5210742969
 20
12.9842935528
 30
0.0
 10
15.5291064536
 20
12.994249736
 30
0.0
 10
15.5372998934
 20
13.003309719
 30
0.0
 10
15.5429905608
 20
13.0088683821
 30
0.0
 10
15.5458594862
 20
13.0114819803
 30
0.0
  0
SPLINE
  5
2EF
100
AcDbEntity
  8
LAYER_CUT_FEAT
100
AcDbSpline
 62
7
  6
CONTINUOUS
 70
0
 71
3
 72
33
 73
29
 74
0
 42
0.0000001
 43
0.0000001
 44
0.0000000001
 40
0.0
 40
0.0
 40
0.0
 40
0.0
 40
0.0271649878
 40
0.0561026031
 40
0.0867298722
 40
0.1189411384
 40
0.152610141
 40
0.1875943145
 40
0.2608595692
 40
0.3373711278
 40
0.4156303531
 40
0.4940770944
 40
0.5711447023
 40
0.6453147508
 40
0.680871746
 40
0.7151866615
 40
0.7481099103
 40
0.7795071656
 40
0.8092623424
 40
0.8372812205
 40
0.863496
 40
0.8878711859
 40
0.9104113262
 40
0.9311711254
 40
0.9502683551
 40
0.9678984362
 40
0.9843483823
 40
1.0
 40
1.0
 40
1.0
 40
1.0
 10
15.4104756546
 20
12.4313671051
 30
0.0
 10
15.4098242086
 20
12.4301471948
 30
0.0
 10
15.408565505
 20
12.4275808572
 30
0.0
 10
15.4068550584
 20
12.4235080349
 30
0.0
 10
15.4052708616
 20
12.4191104873
 30
0.0
 10
15.4038223075
 20
12.4144140767
 30
0.0
 10
15.4025178227
 20
12.40944608
 30
0.0
 10
15.4009571752
 20
12.4023901106
 30
0.0
 10
15.3994341228
 20
12.3930998047
 30
0.0
 10
15.3983015322
 20
12.3815387297
 30
0.0
 10
15.397864525
 20
12.3696666289
 30
0.0
 10
15.398133497
 20
12.3577612764
 30
0.0
 10
15.3991020996
 20
12.3461012315
 30
0.0
 10
15.4004914708
 20
12.3366856572
 30
0.0
 10
15.4019487645
 20
12.3294973609
 30
0.0
 10
15.4031817433
 20
12.3244100261
 30
0.0
 10
15.4045625811
 20
12.3195805797
 30
0.0
 10
15.4060832012
 20
12.3150372146
 30
0.0
 10
15.4077346638
 20
12.3108064112
 30
0.0
 10
15.4095073624
 20
12.3069126913
 30
0.0
 10
15.4113911202
 20
12.3033784748
 30
0.0
 10
15.4133753683
 20
12.3002239433
 30
0.0
 10
15.4154493613
 20
12.2974669903
 30
0.0
 10
15.41760251
 20
12.2951232962
 30
0.0
 10
15.4198244618
 20
12.2932067632
 30
0.0
 10
15.4221056248
 20
12.2917301859
 30
0.0
 10
15.4244340626
 20
12.2907065444
 30
0.0
 10
15.4260359878
 20
12.2903284811
 30
0.0
 10
15.4268258316
 20
12.2902233083
 30
0.0
  0
SPLINE
  5
2F0
100
AcDbEntity
  8
LAYER_CUT_FEAT
100
AcDbSpline
 62
7
  6
CONTINUOUS
 70
0
 71
3
 72
60
 73
56
 74
0
 42
0.0000001
 43
0.0000001
 44
0.0000000001
 40
0.0
 40
0.0
 40
0.0
 40
0.0
 40
0.0139993765
 40
0.0284517032
 40
0.043346965
 40
0.0586735644
 40
0.0744182914
 40
0.0905665615
 40
0.1071024973
 40
0.1240090546
 40
0.1412681177
 40
0.1588605934
 40
0.1767664956
 40
0.1949650248
 40
0.2321517528
 40
0.2702423562
 40
0.3090483225
 40
0.3483745596
 40
0.3880212914
 40
0.427785897
 40
0.4674647163
 40
0.5068548452
 40
0.5457559385
 40
0.5839720413
 40
0.6213134747
 40
0.6395998462
 40
0.6576003061
 40
0.6752938141
 40
0.6926601194
 40
0.7096798382
 40
0.726334537
 40
0.7426068228
 40
0.7584804405
 40
0.7739403804
 40
0.7889729973
 40
0.8035661431
 40
0.8177093171
 40
0.8313938356
 40
0.8446130265
 40
0.8573624519
 40
0.8696401649
 40
0.8814470045
 40
0.8927869342
 40
0.9036674274
 40
0.9140998999
 40
0.924100186
 40
0.9336890429
 40
0.9428926571
 40
0.9517431061
 40
0.9602787072
 40
0.9685441581
 40
0.9765903647
 40
0.9844738512
 40
0.9922556951
 40
1.0
 40
1.0
 40
1.0
 40
1.0
 10
16.1347897763
 20
13.6338999496
 30
0.0
 10
16.1405496591
 20
13.6221625426
 30
0.0
 10
16.1518742031
 20
13.5981190255
 30
0.0
 10
16.1680376485
 20
13.5609968197
 30
0.0
 10
16.1836279164
 20
13.5222906774
 30
0.0
 10
16.1986213276
 20
13.4820593033
 30
0.0
 10
16.2129953674
 20
13.4403630219
 30
0.0
 10
16.2267283525
 20
13.3972646316
 30
0.0
 10
16.2397995688
 20
13.3528290001
 30
0.0
 10
16.2521892831
 20
13.3071230648
 30
0.0
 10
16.2638787912
 20
13.2602156819
 30
0.0
 10
16.2748504057
 20
13.2121775919
 30
0.0
 10
16.2850876519
 20
13.1630810672
 30
0.0
 10
16.2978283828
 20
13.0958248052
 30
0.0
 10
16.3117727289
 20
13.0096257579
 30
0.0
 10
16.3252419535
 20
12.9039153527
 30
0.0
 10
16.3354832998
 20
12.7958365109
 30
0.0
 10
16.3424345985
 20
12.6860409592
 30
0.0
 10
16.3460536206
 20
12.5751896872
 30
0.0
 10
16.346318384
 20
12.4639505514
 30
0.0
 10
16.343227281
 20
12.3529936702
 30
0.0
 10
16.3367990872
 20
12.2429875481
 30
0.0
 10
16.3270728553
 20
12.1345944768
 30
0.0
 10
16.3141076265
 20
12.0284681005
 30
0.0
 10
16.3005772847
 20
11.9418554332
 30
0.0
 10
16.288160978
 20
11.8742184541
 30
0.0
 10
16.2781585955
 20
11.8248034849
 30
0.0
 10
16.2674168419
 20
11.776423773
 30
0.0
 10
16.255951849
 20
11.7291521113
 30
0.0
 10
16.243780966
 20
11.6830597952
 30
0.0
 10
16.2309225689
 20
11.6382162722
 30
0.0
 10
16.2173960725
 20
11.594689097
 30
0.0
 10
16.2032218865
 20
11.5525438106
 30
0.0
 10
16.1884213832
 20
11.5118438419
 30
0.0
 10
16.1730168586
 20
11.472650408
 30
0.0
 10
16.1570314906
 20
11.4350224188
 30
0.0
 10
16.1404892939
 20
11.399016385
 30
0.0
 10
16.1234150705
 20
11.3646863314
 30
0.0
 10
16.1058343548
 20
11.3320837156
 30
0.0
 10
16.0877733539
 20
11.3012573535
 30
0.0
 10
16.0692588813
 20
11.2722533554
 30
0.0
 10
16.0503182842
 20
11.245115074
 30
0.0
 10
16.030979367
 20
11.2198830705
 30
0.0
 10
16.0112703112
 20
11.1965951039
 30
0.0
 10
15.9912196014
 20
11.1752861502
 30
0.0
 10
15.9708559674
 20
11.1559884579
 30
0.0
 10
15.9502083619
 20
11.138731643
 30
0.0
 10
15.9293060045
 20
11.1235428157
 30
0.0
 10
15.9081785118
 20
11.1104467133
 30
0.0
 10
15.8868561832
 20
11.0994657855
 30
0.0
 10
15.8653702753
 20
11.0906201531
 30
0.0
 10
15.8437537754
 20
11.0839273242
 30
0.0
 10
15.8220404588
 20
11.0794016936
 30
0.0
 10
15.8002695256
 20
11.0770535759
 30
0.0
 10
15.7857409536
 20
11.0769439571
 30
0.0
 10
15.7785147569
 20
11.0772501759
 30
0.0
  0
SPLINE
  5
2F1
100
AcDbEntity
  8
LAYER_CUT_FEAT
100
AcDbSpline
 62
7
  6
CONTINUOUS
 70
0
 71
3
 72
11
 73
7
 74
0
 42
0.0000001
 43
0.0000001
 44
0.0000000001
 40
0.0
 40
0.0
 40
0.0
 40
0.0
 40
0.2474133924
 40
0.4960939284
 40
0.7467325375
 40
1.0
 40
1.0
 40
1.0
 40
1.0
 10
15.7776790123
 20
11.0772871987
 30
0.0
 10
15.7734501085
 20
11.0774826682
 30
0.0
 10
15.7649800625
 20
11.0781220116
 30
0.0
 10
15.7523093242
 20
11.079819134
 30
0.0
 10
15.7396577247
 20
11.0822549155
 30
0.0
 10
15.7312905469
 20
11.0843577094
 30
0.0
 10
15.7271179147
 20
11.0855277992
 30
0.0
  0
SPLINE
  5
2F2
100
AcDbEntity
  8
LAYER_CUT_FEAT
100
AcDbSpline
 62
7
  6
CONTINUOUS
 70
0
 71
3
 72
19
 73
15
 74
0
 42
0.0000001
 43
0.0000001
 44
0.0000000001
 40
0.0
 40
0.0
 40
0.0
 40
0.0
 40
0.1460514424
 40
0.2864953679
 40
0.4210611044
 40
0.549523382
 40
0.6114146942
 40
0.6717213538
 40
0.7304320613
 40
0.7875402057
 40
0.8430441712
 40
0.8969477966
 40
0.9492609536
 40
1.0
 40
1.0
 40
1.0
 40
1.0
 10
15.3767595303
 20
13.3482690227
 30
0.0
 10
15.3829427689
 20
13.36827799
 30
0.0
 10
15.3957183957
 20
13.4073321774
 30
0.0
 10
15.4165521606
 20
13.4640151868
 30
0.0
 10
15.4386263005
 20
13.5175098804
 30
0.0
 10
15.4582302813
 20
13.5597947153
 30
0.0
 10
15.4745068745
 20
13.5918441412
 30
0.0
 10
15.4868256428
 20
13.6146766522
 30
0.0
 10
15.499396739
 20
13.6365840099
 30
0.0
 10
15.512209817
 20
13.6575480276
 30
0.0
 10
15.5252541918
 20
13.6775511655
 30
0.0
 10
15.5385191649
 20
13.6965768183
 30
0.0
 10
15.5519934861
 20
13.7146088005
 30
0.0
 10
15.5612491469
 20
13.7261327064
 30
0.0
 10
15.5659113183
 20
13.731718217
 30
0.0
  0
SPLINE
  5
2F3
100
AcDbEntity
  8
LAYER_CUT_FEAT
100
AcDbSpline
 62
7
  6
CONTINUOUS
 70
0
 71
3
 72
25
 73
21
 74
0
 42
0.0000001
 43
0.0000001
 44
0.0000000001
 40
0.0
 40
0.0
 40
0.0
 40
0.0
 40
0.0165966776
 40
0.0334243577
 40
0.0507025603
 40
0.0686299644
 40
0.1070465561
 40
0.1497593794
 40
0.1973727663
 40
0.2501553427
 40
0.3081245051
 40
0.3711104074
 40
0.4388010572
 40
0.5107741527
 40
0.5865204591
 40
0.6654619265
 40
0.7469665551
 40
0.8303621438
 40
0.9149453773
 40
1.0
 40
1.0
 40
1.0
 40
1.0
 10
15.6865986708
 20
11.9676832542
 30
0.0
 10
15.6871085509
 20
11.9676832576
 30
0.0
 10
15.6881366095
 20
11.9677499785
 30
0.0
 10
15.6896692693
 20
11.9680489649
 30
0.0
 10
15.6911927559
 20
11.9685457276
 30
0.0
 10
15.6932525491
 20
11.9694903678
 30
0.0
 10
15.6957957016
 20
11.9711998366
 30
0.0
 10
15.6986626006
 20
11.9739455812
 30
0.0
 10
15.7013987776
 20
11.9774013644
 30
0.0
 10
15.7039820226
 20
11.9815336315
 30
0.0
 10
15.7063905645
 20
11.9863037304
 30
0.0
 10
15.7086017277
 20
11.9916660558
 30
0.0
 10
15.7105940251
 20
11.9975685309
 30
0.0
 10
15.7123476187
 20
12.0039531119
 30
0.0
 10
15.713844872
 20
12.0107565251
 30
0.0
 10
15.7150706374
 20
12.0179110077
 30
0.0
 10
15.7160124939
 20
12.0253450787
 30
0.0
 10
15.7166608544
 20
12.0329843227
 30
0.0
 10
15.7170091655
 20
12.0407520783
 30
0.0
 10
15.717038948
 20
12.0459651432
 30
0.0
 10
15.7170028543
 20
12.0485779266
 30
0.0
  0
SPLINE
  5
2F4
100
AcDbEntity
  8
LAYER_CUT_FEAT
100
AcDbSpline
 62
7
  6
CONTINUOUS
 70
0
 71
3
 72
54
 73
50
 74
0
 42
0.0000001
 43
0.0000001
 44
0.0000000001
 40
0.0
 40
0.0
 40
0.0
 40
0.0
 40
0.0078474908
 40
0.0157164208
 40
0.0236816298
 40
0.0318142743
 40
0.0401802187
 40
0.0488384676
 40
0.0578403731
 40
0.0672294332
 40
0.0770415036
 40
0.0873052815
 40
0.0980429345
 40
0.109270777
 40
0.1209999222
 40
0.1332368844
 40
0.1459841087
 40
0.1592404449
 40
0.1730015627
 40
0.1872603032
 40
0.2020069806
 40
0.2172296356
 40
0.2329142645
 40
0.249045023
 40
0.2825710906
 40
0.3176529587
 40
0.354112997
 40
0.3917571134
 40
0.4303778284
 40
0.469757114
 40
0.5096690017
 40
0.5498820629
 40
0.5901618325
 40
0.6302731711
 40
0.6699826382
 40
0.7090608651
 40
0.7472850139
 40
0.7844412894
 40
0.8203276471
 40
0.8547567215
 40
0.8875590921
 40
0.9033045462
 40
0.9185900513
 40
0.9334013441
 40
0.9477261734
 40
0.9615545673
 40
0.9748788783
 40
0.9876947309
 40
1.0
 40
1.0
 40
1.0
 40
1.0
 10
15.6089119728
 20
13.0418227481
 30
0.0
 10
15.6117657509
 20
13.0420395103
 30
0.0
 10
15.6175089367
 20
13.042170348
 30
0.0
 10
15.6261305647
 20
13.0414430141
 30
0.0
 10
15.6347305793
 20
13.0397943274
 30
0.0
 10
15.643291019
 20
13.0372286908
 30
0.0
 10
15.6517964027
 20
13.0337527547
 30
0.0
 10
15.6602318092
 20
13.0293746456
 30
0.0
 10
15.6685832138
 20
13.0241037021
 30
0.0
 10
15.6768370924
 20
13.0179503227
 30
0.0
 10
15.6849802414
 20
13.0109259441
 30
0.0
 10
15.6929996384
 20
13.0030431247
 30
0.0
 10
15.7008823696
 20
12.9943156127
 30
0.0
 10
15.7086156089
 20
12.9847584109
 30
0.0
 10
15.7161866406
 20
12.9743878296
 30
0.0
 10
15.7235828899
 20
12.9632215147
 30
0.0
 10
15.7307919787
 20
12.9512784649
 30
0.0
 10
15.737801763
 20
12.9385790165
 30
0.0
 10
15.7446003677
 20
12.9251448137
 30
0.0
 10
15.7511762249
 20
12.9109987799
 30
0.0
 10
15.7575181119
 20
12.896165077
 30
0.0
 10
15.7636151543
 20
12.8806690967
 30
0.0
 10
15.7694569988
 20
12.8645373133
 30
0.0
 10
15.7769890316
 20
12.8419264384
 30
0.0
 10
15.7856636881
 20
12.8122514852
 30
0.0
 10
15.7947784498
 20
12.7750214481
 30
0.0
 10
15.8026652429
 20
12.7359792934
 30
0.0
 10
15.8092695017
 20
12.6953927965
 30
0.0
 10
15.8145455506
 20
12.6535397033
 30
0.0
 10
15.8184568523
 20
12.6107070153
 30
0.0
 10
15.8209762873
 20
12.5671885669
 30
0.0
 10
15.8220864282
 20
12.5232830479
 30
0.0
 10
15.8217795543
 20
12.4792918634
 30
0.0
 10
15.8200578042
 20
12.4355170227
 30
0.0
 10
15.8169331188
 20
12.3922590121
 30
0.0
 10
15.8124271225
 20
12.3498146884
 30
0.0
 10
15.8065710606
 20
12.308475144
 30
0.0
 10
15.7994054555
 20
12.268523756
 30
0.0
 10
15.7909798636
 20
12.230233735
 30
0.0
 10
15.7813525262
 20
12.1938675623
 30
0.0
 10
15.7722635433
 20
12.1649888806
 30
0.0
 10
15.7644141999
 20
12.1430693616
 30
0.0
 10
15.7583507335
 20
12.1274864508
 30
0.0
 10
15.7520411013
 20
12.1125623878
 30
0.0
 10
15.7454959907
 20
12.0983226262
 30
0.0
 10
15.7387266226
 20
12.0847915837
 30
0.0
 10
15.7317444545
 20
12.0719921475
 30
0.0
 10
15.7245615259
 20
12.059946603
 30
0.0
 10
15.7195449958
 20
12.0522762389
 30
0.0
 10
15.7170028543
 20
12.0485779266
 30
0.0
  0
SPLINE
  5
2F5
100
AcDbEntity
  8
LAYER_FEATURE
100
AcDbSpline
 62
7
  6
CONTINUOUS
 70
0
 71
3
 72
23
 73
19
 74
0
 42
0.0000001
 43
0.0000001
 44
0.0000000001
 40
0.0
 40
0.0
 40
0.0
 40
0.0
 40
0.0478628958
 40
0.0969544207
 40
0.1475105995
 40
0.1997408311
 40
0.253827363
 40
0.3099258262
 40
0.3681664988
 40
0.4286560037
 40
0.4914792103
 40
0.5567011737
 40
0.6243690359
 40
0.6945137258
 40
0.7671517762
 40
0.842286108
 40
0.9199089987
 40
1.0
 40
1.0
 40
1.0
 40
1.0
 10
15.0997062058
 20
10.8880693758
 30
0.0
 10
15.092289883
 20
10.8902408633
 30
0.0
 10
15.0774462615
 20
10.895276349
 30
0.0
 10
15.0555535424
 20
10.9047103974
 30
0.0
 10
15.0338102161
 20
10.9160954605
 30
0.0
 10
15.0122441584
 20
10.929414846
 30
0.0
 10
14.9908798619
 20
10.9446507956
 30
0.0
 10
14.9697421396
 20
10.9617835313
 30
0.0
 10
14.9488552776
 20
10.980791495
 30
0.0
 10
14.9282433937
 20
11.0016512069
 30
0.0
 10
14.9079303902
 20
11.0243372213
 30
0.0
 10
14.8879399635
 20
11.048822065
 30
0.0
 10
14.8682955866
 20
11.0750762058
 30
0.0
 10
14.8490204305
 20
11.1030680557
 30
0.0
 10
14.8301374244
 20
11.1327638995
 30
0.0
 10
14.8116689406
 20
11.1641281614
 30
0.0
 10
14.7936373549
 20
11.1971226798
 30
0.0
 10
14.7821006519
 20
11.2198276865
 30
0.0
 10
14.7764039631
 20
11.2314363178
 30
0.0
  0
SPLINE
  5
2F6
100
AcDbEntity
  8
LAYER_FEATURE
100
AcDbSpline
 62
7
  6
CONTINUOUS
 70
0
 71
3
 72
29
 73
25
 74
0
 42
0.0000001
 43
0.0000001
 44
0.0000000001
 40
0.0
 40
0.0
 40
0.0
 40
0.0
 40
0.0254238376
 40
0.0505540089
 40
0.0754686706
 40
0.1002485276
 40
0.1249759377
 40
0.1497339057
 40
0.1746050605
 40
0.1996706348
 40
0.2250095407
 40
0.2506975244
 40
0.2768064635
 40
0.3034038637
 40
0.3582919169
 40
0.4158229066
 40
0.4763565253
 40
0.5401750575
 40
0.6074903661
 40
0.6784520006
 40
0.7531552066
 40
0.8316483552
 40
0.9139388177
 40
1.0
 40
1.0
 40
1.0
 40
1.0
 10
15.8679687084
 20
10.8955210997
 30
0.0
 10
15.8628648394
 20
10.8940267004
 30
0.0
 10
15.8526265668
 20
10.8913505909
 30
0.0
 10
15.8371310336
 20
10.8882850306
 30
0.0
 10
15.8216089104
 20
10.8861967471
 30
0.0
 10
15.8060707085
 20
10.8850875624
 30
0.0
 10
15.7905261799
 20
10.8849582233
 30
0.0
 10
15.7749853237
 20
10.8858088161
 30
0.0
 10
15.7594580695
 20
10.8876387699
 30
0.0
 10
15.7439542897
 20
10.8904466393
 30
0.0
 10
15.7284837281
 20
10.8942304292
 30
0.0
 10
15.7130561185
 20
10.8989873651
 30
0.0
 10
15.697680561
 20
10.9047142899
 30
0.0
 10
15.677048568
 20
10.9137311363
 30
0.0
 10
15.651380898
 20
10.9275173197
 30
0.0
 10
15.6212883066
 20
10.947689646
 30
0.0
 10
15.5916428645
 20
10.9716081257
 30
0.0
 10
15.5625116924
 20
10.9992096881
 30
0.0
 10
15.5339573808
 20
11.0304266018
 30
0.0
 10
15.5060434242
 20
11.0651838286
 30
0.0
 10
15.4788326824
 20
11.1033988663
 30
0.0
 10
15.4523874129
 20
11.1449815647
 30
0.0
 10
15.426769298
 20
11.1898327544
 30
0.0
 10
15.4106384324
 20
11.2211500832
 30
0.0
 10
15.4027076741
 20
11.2373112696
 30
0.0
  0
SPLINE
  5
2F7
100
AcDbEntity
  8
LAYER_FEATURE
100
AcDbSpline
 62
7
  6
CONTINUOUS
 70
0
 71
3
 72
59
 73
55
 74
0
 42
0.0000001
 43
0.0000001
 44
0.0000000001
 40
0.0
 40
0.0
 40
0.0
 40
0.0
 40
0.0078929797
 40
0.0160025464
 40
0.0243717829
 40
0.0330385626
 40
0.0420354744
 40
0.0513899681
 40
0.0611246414
 40
0.0712576072
 40
0.0818028919
 40
0.0927708323
 40
0.1041684523
 40
0.1159998077
 40
0.128266297
 40
0.140966936
 40
0.1540985998
 40
0.1676562342
 40
0.1816330417
 40
0.196020643
 40
0.2108092208
 40
0.2259876452
 40
0.2415435868
 40
0.2574636166
 40
0.273733297
 40
0.290337264
 40
0.307259303
 40
0.3244824186
 40
0.3419888995
 40
0.3597603802
 40
0.3960207386
 40
0.4331068972
 40
0.4708539265
 40
0.5090914376
 40
0.5476450722
 40
0.5863379486
 40
0.6249920825
 40
0.6634297961
 40
0.7014751303
 40
0.7389552742
 40
0.775702027
 40
0.8115533155
 40
0.8290952476
 40
0.8463561625
 40
0.8633182611
 40
0.8799644514
 40
0.8962784139
 40
0.9122446697
 40
0.9278486577
 40
0.9430768086
 40
0.9579166573
 40
0.9723568787
 40
0.9863875522
 40
1.0
 40
1.0
 40
1.0
 40
1.0
 10
15.0997062061
 20
14.1335406033
 30
0.0
 10
15.0918581704
 20
14.1312427192
 30
0.0
 10
15.0761475319
 20
14.1258699327
 30
0.0
 10
15.0530029074
 20
14.1157087517
 30
0.0
 10
15.0300299831
 20
14.1033673216
 30
0.0
 10
15.0072615165
 20
14.0888660246
 30
0.0
 10
14.9847261934
 20
14.07222653
 30
0.0
 10
14.9624530756
 20
14.0534729531
 30
0.0
 10
14.940470612
 20
14.0326315953
 30
0.0
 10
14.9188070698
 20
14.00973114
 30
0.0
 10
14.8974904678
 20
13.984802721
 30
0.0
 10
14.8765485843
 20
13.9578800011
 30
0.0
 10
14.8560089018
 20
13.9289992128
 30
0.0
 10
14.8358985473
 20
13.8981991727
 30
0.0
 10
14.8162442266
 20
13.8655212716
 30
0.0
 10
14.7970721599
 20
13.8310094455
 30
0.0
 10
14.7784080194
 20
13.7947101336
 30
0.0
 10
14.7602768728
 20
13.7566722238
 30
0.0
 10
14.7427031305
 20
13.7169469918
 30
0.0
 10
14.7257104977
 20
13.6755880319
 30
0.0
 10
14.7093219302
 20
13.6326511843
 30
0.0
 10
14.6935595944
 20
13.5881944572
 30
0.0
 10
14.6784448294
 20
13.5422779459
 30
0.0
 10
14.6639981129
 20
13.4949637492
 30
0.0
 10
14.6502390283
 20
13.4463158815
 30
0.0
 10
14.6371862375
 20
13.3964001877
 30
0.0
 10
14.6248574422
 20
13.3452842363
 30
0.0
 10
14.6132693982
 20
13.2930372869
 30
0.0
 10
14.6024377368
 20
13.2397299573
 30
0.0
 10
14.5889339649
 20
13.1668500862
 30
0.0
 10
14.5740839775
 20
13.073603793
 30
0.0
 10
14.5596059244
 20
12.9594012963
 30
0.0
 10
14.5484316741
 20
12.8427705616
 30
0.0
 10
14.54062213
 20
12.7243434666
 30
0.0
 10
14.5362198801
 20
12.6047605669
 30
0.0
 10
14.5352489281
 20
12.4846691379
 30
0.0
 10
14.5377145671
 20
12.3647191739
 30
0.0
 10
14.5436033504
 20
12.2455598865
 30
0.0
 10
14.5528831682
 20
12.127836217
 30
0.0
 10
14.5655034236
 20
12.0121848209
 30
0.0
 10
14.5813953334
 20
11.8992322134
 30
0.0
 10
14.5974065328
 20
11.8072059385
 30
0.0
 10
14.6118201755
 20
11.7354345266
 30
0.0
 10
14.6233109704
 20
11.6830457938
 30
0.0
 10
14.6355445112
 20
11.631779107
 30
0.0
 10
14.6485043013
 20
11.5817037427
 30
0.0
 10
14.6621727307
 20
11.5328875374
 30
0.0
 10
14.6765312681
 20
11.4853965514
 30
0.0
 10
14.6915604467
 20
11.4392950523
 30
0.0
 10
14.7072399057
 20
11.3946453698
 30
0.0
 10
14.7235484024
 20
11.3515079315
 30
0.0
 10
14.7404639371
 20
11.3099408268
 30
0.0
 10
14.7579634321
 20
11.2700007364
 30
0.0
 10
14.770190908
 20
11.2440971929
 30
0.0
 10
14.7764039631
 20
11.2314363178
 30
0.0
  0
SPLINE
  5
2F8
100
AcDbEntity
  8
LAYER_CHAMFER_FEAT
100
AcDbSpline
 62
7
  6
CONTINUOUS
 70
0
 71
3
 72
56
 73
52
 74
0
 42
0.0000001
 43
0.0000001
 44
0.0000000001
 40
0.0
 40
0.0
 40
0.0
 40
0.0
 40
0.0110266415
 40
0.0215679795
 40
0.0316505846
 40
0.0413081643
 40
0.0505821558
 40
0.0595221104
 40
0.0681857159
 40
0.07663829
 40
0.0849516143
 40
0.0932020728
 40
0.1014682228
 40
0.109828073
 40
0.1183564377
 40
0.1271227094
 40
0.1361892675
 40
0.1456105859
 40
0.1554329567
 40
0.1656946767
 40
0.1764265316
 40
0.1876524365
 40
0.1993901268
 40
0.2116518387
 40
0.2244449454
 40
0.2377725242
 40
0.2516338544
 40
0.2660248491
 40
0.280938426
 40
0.2963648254
 40
0.3122918906
 40
0.3287053086
 40
0.3455888193
 40
0.3629243992
 40
0.3806924239
 40
0.3988718119
 40
0.4363718855
 40
0.4752338404
 40
0.5152488868
 40
0.5561955399
 40
0.5978424555
 40
0.6399510834
 40
0.6822782017
 40
0.7245784048
 40
0.7666065563
 40
0.8081202422
 40
0.8488822718
 40
0.8886632305
 40
0.9272441564
 40
0.9644194001
 40
1.0
 40
1.0
 40
1.0
 40
1.0
 10
15.7333094821
 20
11.802971569
 30
0.0
 10
15.7295941196
 20
11.7988775255
 30
0.0
 10
15.722102748
 20
11.7910686536
 30
0.0
 10
15.7104200144
 20
11.7803131435
 30
0.0
 10
15.698568322
 20
11.7708031579
 30
0.0
 10
15.6865669239
 20
11.7625563697
 30
0.0
 10
15.674434867
 20
11.7555883091
 30
0.0
 10
15.6621919314
 20
11.7499131688
 30
0.0
 10
15.6498587998
 20
11.7455435061
 30
0.0
 10
15.6374574337
 20
11.7424899507
 30
0.0
 10
15.62501122
 20
11.7407606034
 30
0.0
 10
15.6125447804
 20
11.7403603717
 30
0.0
 10
15.6000833889
 20
11.7412904285
 30
0.0
 10
15.5876521505
 20
11.7435480685
 30
0.0
 10
15.5752752429
 20
11.7471270315
 30
0.0
 10
15.5629754867
 20
11.7520181342
 30
0.0
 10
15.5507743031
 20
11.7582099207
 30
0.0
 10
15.5386919646
 20
11.7656891618
 30
0.0
 10
15.5267479489
 20
11.7744410985
 30
0.0
 10
15.5149612521
 20
11.7844494768
 30
0.0
 10
15.5033506026
 20
11.7956964706
 30
0.0
 10
15.4919345712
 20
11.8081625662
 30
0.0
 10
15.4807315948
 20
11.8218264491
 30
0.0
 10
15.469759952
 20
11.8366649294
 30
0.0
 10
15.4590377205
 20
11.8526529078
 30
0.0
 10
15.4485827148
 20
11.8697633628
 30
0.0
 10
15.4384124249
 20
11.8879673626
 30
0.0
 10
15.4285439595
 20
11.9072340942
 30
0.0
 10
15.4189939919
 20
11.927530902
 30
0.0
 10
15.4097787048
 20
11.9488233357
 30
0.0
 10
15.400913756
 20
11.9710752151
 30
0.0
 10
15.3924142402
 20
11.9942486912
 30
0.0
 10
15.3842946443
 20
12.0183043235
 30
0.0
 10
15.3765688562
 20
12.0432011104
 30
0.0
 10
15.3692499798
 20
12.0688967101
 30
0.0
 10
15.3599550693
 20
12.1045323223
 30
0.0
 10
15.3494767295
 20
12.1507762751
 30
0.0
 10
15.3388319999
 20
12.2081604265
 30
0.0
 10
15.3300630828
 20
12.2676078226
 30
0.0
 10
15.3232302639
 20
12.3287129286
 30
0.0
 10
15.3183805476
 20
12.3910596838
 30
0.0
 10
15.3155473302
 20
12.4542230223
 30
0.0
 10
15.3147501141
 20
12.5177722529
 30
0.0
 10
15.3159943716
 20
12.5812739644
 30
0.0
 10
15.3192715504
 20
12.6442950871
 30
0.0
 10
15.3245590955
 20
12.7064058941
 30
0.0
 10
15.3318206069
 20
12.7671830762
 30
0.0
 10
15.3410060955
 20
12.8262124898
 30
0.0
 10
15.35205255
 20
12.8830928811
 30
0.0
 10
15.3648836251
 20
12.9374360257
 30
0.0
 10
15.3748026816
 20
12.9725558283
 30
0.0
 10
15.380069751
 20
12.989600071
 30
0.0
  0
SPLINE
  5
2F9
100
AcDbEntity
  8
LAYER_FEATURE
100
AcDbSpline
 62
7
  6
CONTINUOUS
 70
0
 71
3
 72
78
 73
74
 74
0
 42
0.0000001
 43
0.0000001
 44
0.0000000001
 40
0.0
 40
0.0
 40
0.0
 40
0.0
 40
0.01453188
 40
0.0284261557
 40
0.0416783375
 40
0.0542896935
 40
0.0662684513
 40
0.0776307893
 40
0.088402104
 40
0.0986183694
 40
0.108327512
 40
0.1175905921
 40
0.1220793788
 40
0.1264858886
 40
0.1308215734
 40
0.1350986246
 40
0.1393298883
 40
0.1435287403
 40
0.1477089466
 40
0.1518845032
 40
0.1560694639
 40
0.1602777651
 40
0.1645230582
 40
0.1688185553
 40
0.1731768904
 40
0.177610017
 40
0.1867413727
 40
0.1962955738
 40
0.2063382053
 40
0.2169214242
 40
0.228085009
 40
0.2398576995
 40
0.2522585799
 40
0.265298368
 40
0.2789805625
 40
0.2933024223
 40
0.3082557921
 40
0.3238277906
 40
0.3400013914
 40
0.3567559154
 40
0.3740674458
 40
0.3919091854
 40
0.4102517654
 40
0.4290635244
 40
0.4483107564
 40
0.4679579357
 40
0.4879679224
 40
0.5083021563
 40
0.5289208422
 40
0.5497831249
 40
0.5708472565
 40
0.5920707591
 40
0.6134105862
 40
0.6348232797
 40
0.6562651252
 40
0.6776923054
 40
0.6990610547
 40
0.7203278132
 40
0.7414493811
 40
0.7623830748
 40
0.7830868871
 40
0.8035196492
 40
0.8236411965
 40
0.8434125406
 40
0.8627960505
 40
0.8817556448
 40
0.9002569918
 40
0.9182677281
 40
0.9357576975
 40
0.9526992171
 40
0.9690673968
 40
0.9848403771
 40
1.0
 40
1.0
 40
1.0
 40
1.0
 10
16.154665377
 20
13.7280229616
 30
0.0
 10
16.1470749559
 20
13.7434906136
 30
0.0
 10
16.1316360235
 20
13.7734626862
 30
0.0
 10
16.107114972
 20
13.8163842131
 30
0.0
 10
16.0818013106
 20
13.8561729156
 30
0.0
 10
16.0557542325
 20
13.8927336486
 30
0.0
 10
16.02903349
 20
13.9259799343
 30
0.0
 10
16.0016993949
 20
13.9558326348
 30
0.0
 10
15.9738128757
 20
13.982219786
 30
0.0
 10
15.9454339864
 20
14.0050764364
 30
0.0
 10
15.9166271465
 20
14.024342107
 30
0.0
 10
15.8920565581
 20
14.0374972482
 30
0.0
 10
15.8723071173
 20
14.0460925675
 30
0.0
 10
15.8575892939
 20
14.0515467396
 30
0.0
 10
15.8428218468
 20
14.056071146
 30
0.0
 10
15.8280135092
 20
14.0596627437
 30
0.0
 10
15.8131736432
 20
14.0623189572
 30
0.0
 10
15.7983115903
 20
14.0640378139
 30
0.0
 10
15.7834368371
 20
14.0648180032
 30
0.0
 10
15.7685589233
 20
14.064659006
 30
0.0
 10
15.7536874046
 20
14.0635608554
 30
0.0
 10
15.7388318104
 20
14.0615244471
 30
0.0
 10
15.724001559
 20
14.0585512652
 30
0.0
 10
15.7092060978
 20
14.0546435063
 30
0.0
 10
15.694454232
 20
14.0498038002
 30
0.0
 10
15.6746635417
 20
14.0420379016
 30
0.0
 10
15.6500169385
 20
14.0299141811
 30
0.0
 10
15.6210816565
 20
14.0118478949
 30
0.0
 10
15.5925536134
 20
13.990172221
 30
0.0
 10
15.564497736
 20
13.9649457649
 30
0.0
 10
15.5369741634
 20
13.936231487
 30
0.0
 10
15.5100439015
 20
13.904099084
 30
0.0
 10
15.4837673816
 20
13.8686252071
 30
0.0
 10
15.4582046366
 20
13.8298940083
 30
0.0
 10
15.4334148668
 20
13.7879972501
 30
0.0
 10
15.4094561218
 20
13.7430343095
 30
0.0
 10
15.3863849776
 20
13.6951120473
 30
0.0
 10
15.3642562424
 20
13.6443446113
 30
0.0
 10
15.3431227198
 20
13.5908531682
 30
0.0
 10
15.3230350115
 20
13.5347655972
 30
0.0
 10
15.3040413328
 20
13.476216167
 30
0.0
 10
15.286187357
 20
13.4153452006
 30
0.0
 10
15.2695160567
 20
13.3522987258
 30
0.0
 10
15.254067599
 20
13.2872280988
 30
0.0
 10
15.2398792315
 20
13.2202896229
 30
0.0
 10
15.2269851856
 20
13.1516441606
 30
0.0
 10
15.2154165757
 20
13.0814567408
 30
0.0
 10
15.2052013172
 20
13.0098961516
 30
0.0
 10
15.1963640693
 20
12.9371345219
 30
0.0
 10
15.1889261699
 20
12.8633468993
 30
0.0
 10
15.1829055851
 20
12.7887108252
 30
0.0
 10
15.1783168473
 20
12.7134059048
 30
0.0
 10
15.1751710335
 20
12.6376133671
 30
0.0
 10
15.1734757405
 20
12.5615156243
 30
0.0
 10
15.1732350669
 20
12.4852958287
 30
0.0
 10
15.1744495974
 20
12.4091374299
 30
0.0
 10
15.1771163918
 20
12.3332237279
 30
0.0
 10
15.181229009
 20
12.2577374284
 30
0.0
 10
15.1867775191
 20
12.1828602005
 30
0.0
 10
15.1937485313
 20
12.1087722354
 30
0.0
 10
15.2021252103
 20
12.0356518052
 30
0.0
 10
15.2118873266
 20
11.9636748296
 30
0.0
 10
15.223011313
 20
11.8930144489
 30
0.0
 10
15.2354703224
 20
11.8238406027
 30
0.0
 10
15.249234294
 20
11.7563196091
 30
0.0
 10
15.2642700144
 20
11.6906137533
 30
0.0
 10
15.2805412245
 20
11.626880887
 30
0.0
 10
15.2980087061
 20
11.5652740514
 30
0.0
 10
15.3166304155
 20
11.5059410566
 30
0.0
 10
15.336361516
 20
11.4490242241
 30
0.0
 10
15.3571547602
 20
11.3946596134
 30
0.0
 10
15.3789597824
 20
11.3429782692
 30
0.0
 10
15.3944494641
 20
11.3097228422
 30
0.0
 10
15.4023677734
 20
11.2935870242
 30
0.0
  0
SPLINE
  5
2FA
100
AcDbEntity
  8
LAYER_CUT_FEAT
100
AcDbSpline
 62
7
  6
CONTINUOUS
 70
0
 71
3
 72
64
 73
60
 74
0
 42
0.0000001
 43
0.0000001
 44
0.0000000001
 40
0.0
 40
0.0
 40
0.0
 40
0.0
 40
0.0114383715
 40
0.0223684771
 40
0.0328126504
 40
0.0428001268
 40
0.0523677452
 40
0.0615605213
 40
0.0704319558
 40
0.0790439011
 40
0.087465816
 40
0.0957732919
 40
0.1040458679
 40
0.1123643282
 40
0.1208078243
 40
0.1294512251
 40
0.1383630221
 40
0.1476039574
 40
0.1523655214
 40
0.1572282673
 40
0.1672760334
 40
0.1777849162
 40
0.1887831672
 40
0.2002922355
 40
0.2123274968
 40
0.2248989483
 40
0.2380118398
 40
0.2516672329
 40
0.2658624874
 40
0.2805916809
 40
0.2958459697
 40
0.3116138989
 40
0.3278816706
 40
0.3446333764
 40
0.3618512013
 40
0.3795156029
 40
0.3976054727
 40
0.4160982797
 40
0.4349702023
 40
0.4541962495
 40
0.4737503731
 40
0.4936055732
 40
0.5137339987
 40
0.5546938576
 40
0.5963952996
 40
0.6385941418
 40
0.6810410459
 40
0.7234841311
 40
0.7656715557
 40
0.8073540986
 40
0.8482877747
 40
0.8684004636
 40
0.8882382184
 40
0.9077732365
 40
0.9269785731
 40
0.9458282409
 40
0.9642973159
 40
0.9823620524
 40
1.0
 40
1.0
 40
1.0
 40
1.0
 10
15.5659113183
 20
13.731718217
 30
0.0
 10
15.5723949231
 20
13.7394858942
 30
0.0
 10
15.5854756922
 20
13.7543477865
 30
0.0
 10
15.6059099608
 20
13.7749853398
 30
0.0
 10
15.6266712708
 20
13.7934171691
 30
0.0
 10
15.6477251793
 20
13.8096091479
 30
0.0
 10
15.6690376886
 20
13.8235311097
 30
0.0
 10
15.690573839
 20
13.8351553743
 30
0.0
 10
15.7122974294
 20
13.8444570566
 30
0.0
 10
15.7341702815
 20
13.8514143121
 30
0.0
 10
15.7561516955
 20
13.8560091516
 30
0.0
 10
15.7781983387
 20
13.8582286369
 30
0.0
 10
15.8002648649
 20
13.8580661492
 30
0.0
 10
15.8223052567
 20
13.8555221747
 30
0.0
 10
15.8442743304
 20
13.8506042878
 30
0.0
 10
15.8661292841
 20
13.8433260807
 30
0.0
 10
15.887829037
 20
13.8337065713
 30
0.0
 10
15.9055743122
 20
13.8238559571
 30
0.0
 10
15.919642659
 20
13.8148739675
 30
0.0
 10
15.9339296979
 20
13.8049327495
 30
0.0
 10
15.9516329045
 20
13.7910343402
 30
0.0
 10
15.9723509769
 20
13.7723001511
 30
0.0
 10
15.9927387212
 20
13.7513637986
 30
0.0
 10
16.012761697
 20
13.7282628991
 30
0.0
 10
16.0323869515
 20
13.703037496
 30
0.0
 10
16.0515814906
 20
13.6757313663
 30
0.0
 10
16.0703128423
 20
13.6463917305
 30
0.0
 10
16.0885490407
 20
13.61506935
 30
0.0
 10
16.1062587761
 20
13.58181846
 30
0.0
 10
16.1234114885
 20
13.5466967102
 30
0.0
 10
16.139977465
 20
13.5097650742
 30
0.0
 10
16.1559279231
 20
13.4710877481
 30
0.0
 10
16.1712350867
 20
13.4307320373
 30
0.0
 10
16.1858722532
 20
13.3887682348
 30
0.0
 10
16.1998138552
 20
13.3452694939
 30
0.0
 10
16.2130355158
 20
13.3003116947
 30
0.0
 10
16.2255140989
 20
13.2539733067
 30
0.0
 10
16.2372277569
 20
13.2063352457
 30
0.0
 10
16.2481559701
 20
13.1574807326
 30
0.0
 10
16.258279597
 20
13.1074951249
 30
0.0
 10
16.2675808681
 20
13.0564658372
 30
0.0
 10
16.2760435796
 20
13.0044819067
 30
0.0
 10
16.2862478091
 20
12.9336095198
 30
0.0
 10
16.2967746133
 20
12.843275989
 30
0.0
 10
16.3057939288
 20
12.7331774036
 30
0.0
 10
16.3112087648
 20
12.6215257417
 30
0.0
 10
16.3129810181
 20
12.509101346
 30
0.0
 10
16.3110981766
 20
12.3966888441
 30
0.0
 10
16.3055735319
 20
12.285072777
 30
0.0
 10
16.2964459612
 20
12.1750332365
 30
0.0
 10
16.2858298722
 20
12.0847642813
 30
0.0
 10
16.2755553197
 20
12.013955108
 30
0.0
 10
16.2670413934
 20
11.9620264009
 30
0.0
 10
16.2576898541
 20
11.9110577894
 30
0.0
 10
16.2475169909
 20
11.8611381958
 30
0.0
 10
16.2365406677
 20
11.8123549461
 30
0.0
 10
16.2247800798
 20
11.7647931702
 30
0.0
 10
16.2122559374
 20
11.7185363199
 30
0.0
 10
16.2033012713
 20
11.6882473804
 30
0.0
 10
16.19869484
 20
11.6733409632
 30
0.0
  0
SPLINE
  5
2FB
100
AcDbEntity
  8
LAYER_CHAMFER_FEAT
100
AcDbSpline
 62
7
  6
CONTINUOUS
 70
0
 71
3
 72
49
 73
45
 74
0
 42
0.0000001
 43
0.0000001
 44
0.0000000001
 40
0.0
 40
0.0
 40
0.0
 40
0.0
 40
0.007694579
 40
0.0154416413
 40
0.0232923633
 40
0.0312954361
 40
0.0394961204
 40
0.0479355675
 40
0.0656625522
 40
0.0750196785
 40
0.084734692
 40
0.094826518
 40
0.1053103074
 40
0.1161977545
 40
0.1274974169
 40
0.1392150454
 40
0.1513538612
 40
0.1639147838
 40
0.1768966755
 40
0.1902965506
 40
0.2041097311
 40
0.218329996
 40
0.2329497407
 40
0.2633489813
 40
0.2952252076
 40
0.328478022
 40
0.3629935708
 40
0.3986465922
 40
0.4353021544
 40
0.4728172008
 40
0.5110419998
 40
0.5498214447
 40
0.588996346
 40
0.6284046365
 40
0.6678825729
 40
0.7072659142
 40
0.7463910971
 40
0.7850964114
 40
0.8232232114
 40
0.8606171231
 40
0.8971293429
 40
0.9326179605
 40
0.9669492821
 40
1.0
 40
1.0
 40
1.0
 40
1.0
 10
15.6048965779
 20
11.7295550023
 30
0.0
 10
15.6013418048
 20
11.7295550089
 30
0.0
 10
15.5942038955
 20
11.7298770455
 30
0.0
 10
15.5835273281
 20
11.7313237918
 30
0.0
 10
15.5728792727
 20
11.7337321142
 30
0.0
 10
15.562275128
 20
11.7370977453
 30
0.0
 10
15.5517276417
 20
11.7414155179
 30
0.0
 10
15.537528566
 20
11.7485478708
 30
0.0
 10
15.5237125293
 20
11.7575161601
 30
0.0
 10
15.5103663666
 20
11.7680567731
 30
0.0
 10
15.5002925089
 20
11.777015785
 30
0.0
 10
15.4903503485
 20
11.7868722198
 30
0.0
 10
15.4805502213
 20
11.7976147833
 30
0.0
 10
15.4709040512
 20
11.8092300616
 30
0.0
 10
15.4614231465
 20
11.8217039329
 30
0.0
 10
15.4521188447
 20
11.8350211975
 30
0.0
 10
15.4430023104
 20
11.8491656783
 30
0.0
 10
15.4340845073
 20
11.8641201564
 30
0.0
 10
15.425376209
 20
11.8798664274
 30
0.0
 10
15.4168879824
 20
11.8963853309
 30
0.0
 10
15.4086301784
 20
11.9136567202
 30
0.0
 10
15.4006127343
 20
11.9316595835
 30
0.0
 10
15.3901201245
 20
11.9569385461
 30
0.0
 10
15.3777090878
 20
11.9902392509
 30
0.0
 10
15.3641111661
 20
12.0322375581
 30
0.0
 10
15.351687218
 20
12.0765754045
 30
0.0
 10
15.3404982232
 20
12.1230361515
 30
0.0
 10
15.3305991201
 20
12.1713935506
 30
0.0
 10
15.3220386216
 20
12.2214114692
 30
0.0
 10
15.3148588351
 20
12.2728455203
 30
0.0
 10
15.3090951697
 20
12.3254442035
 30
0.0
 10
15.3047759758
 20
12.3789501978
 30
0.0
 10
15.3019225778
 20
12.4331016573
 30
0.0
 10
15.300549014
 20
12.4876335161
 30
0.0
 10
15.3006620593
 20
12.5422788146
 30
0.0
 10
15.3022611722
 20
12.5967700283
 30
0.0
 10
15.3053384378
 20
12.6508403997
 30
0.0
 10
15.3098787349
 20
12.7042252682
 30
0.0
 10
15.3158596417
 20
12.7566633862
 30
0.0
 10
15.3232517358
 20
12.8078982577
 30
0.0
 10
15.3320185651
 20
12.8576793028
 30
0.0
 10
15.3421170536
 20
12.9057635454
 30
0.0
 10
15.3534972619
 20
12.9519153515
 30
0.0
 10
15.3620745152
 20
12.9818495495
 30
0.0
 10
15.3665826195
 20
12.9964377806
 30
0.0
  0
SPLINE
  5
2FC
100
AcDbEntity
  8
LAYER_FEATURE
100
AcDbSpline
 62
7
  6
CONTINUOUS
 70
0
 71
3
 72
63
 73
59
 74
0
 42
0.0000001
 43
0.0000001
 44
0.0000000001
 40
0.0
 40
0.0
 40
0.0
 40
0.0
 40
0.0080810355
 40
0.0160342008
 40
0.023929244
 40
0.0318378307
 40
0.0398311751
 40
0.0479777295
 40
0.0563412224
 40
0.0649792313
 40
0.0739423488
 40
0.0832738841
 40
0.0930099758
 40
0.1031799801
 40
0.1138070099
 40
0.1249085344
 40
0.1364969782
 40
0.1485802849
 40
0.1611624265
 40
0.1742438558
 40
0.1878219
 40
0.2018911026
 40
0.2164435184
 40
0.2314689688
 40
0.2469552633
 40
0.2628883931
 40
0.2792527006
 40
0.2960310302
 40
0.3132048628
 40
0.3307544378
 40
0.3486588633
 40
0.3668962188
 40
0.3854436494
 40
0.4042774556
 40
0.4233731766
 40
0.442705671
 40
0.4819760949
 40
0.52187829
 40
0.5621941635
 40
0.602701642
 40
0.6431768253
 40
0.6833961207
 40
0.7231383791
 40
0.7621870616
 40
0.781386186
 40
0.800333967
 40
0.8190056458
 40
0.8373771904
 40
0.8554253777
 40
0.87312788
 40
0.8904633577
 40
0.9074115581
 40
0.9239534218
 40
0.9400712006
 40
0.9557485832
 40
0.9709708478
 40
0.9857249996
 40
1.0
 40
1.0
 40
1.0
 40
1.0
 10
15.8679687087
 20
14.1260888928
 30
0.0
 10
15.8595947563
 20
14.1285407727
 30
0.0
 10
15.8427330501
 20
14.1326121358
 30
0.0
 10
15.8170906984
 20
14.136118324
 30
0.0
 10
15.7914060031
 20
14.1369520803
 30
0.0
 10
15.7657312495
 20
14.1351102926
 30
0.0
 10
15.7401146289
 20
14.1305981967
 30
0.0
 10
15.7146036919
 20
14.1234274936
 30
0.0
 10
15.6892432454
 20
14.1136155903
 30
0.0
 10
15.664075588
 20
14.1011843006
 30
0.0
 10
15.6391408203
 20
14.0861589594
 30
0.0
 10
15.6144774908
 20
14.0685679345
 30
0.0
 10
15.5901231673
 20
14.0484425194
 30
0.0
 10
15.5661148498
 20
14.0258170454
 30
0.0
 10
15.5424891941
 20
14.0007290803
 30
0.0
 10
15.5192825848
 20
13.9732196227
 30
0.0
 10
15.4965311098
 20
13.9433332475
 30
0.0
 10
15.474270478
 20
13.911118193
 30
0.0
 10
15.4525359128
 20
13.8766263924
 30
0.0
 10
15.43136204
 20
13.8399134605
 30
0.0
 10
15.410782778
 20
13.8010386459
 30
0.0
 10
15.3908312373
 20
13.7600647587
 30
0.0
 10
15.3715396286
 20
13.7170580795
 30
0.0
 10
15.3529391802
 20
13.6720882553
 30
0.0
 10
15.3350600639
 20
13.6252281851
 30
0.0
 10
15.3179313272
 20
13.5765538978
 30
0.0
 10
15.3015808322
 20
13.5261444244
 30
0.0
 10
15.2860352004
 20
13.4740816636
 30
0.0
 10
15.2713197605
 20
13.4204502442
 30
0.0
 10
15.257458502
 20
13.3653373827
 30
0.0
 10
15.2444740308
 20
13.3088327358
 30
0.0
 10
15.2323875318
 20
13.251028256
 30
0.0
 10
15.2212187211
 20
13.1920180175
 30
0.0
 10
15.2109858542
 20
13.1318981403
 30
0.0
 10
15.2017055331
 20
13.0707663255
 30
0.0
 10
15.1905647667
 20
12.9876104075
 30
0.0
 10
15.1791540504
 20
12.8818410714
 30
0.0
 10
15.1695304771
 20
12.7531604833
 30
0.0
 10
15.1639692436
 20
12.6229033065
 30
0.0
 10
15.1625067731
 20
12.4919174686
 30
0.0
 10
15.1651526806
 20
12.3610544444
 30
0.0
 10
15.1718895877
 20
12.2311648792
 30
0.0
 10
15.1826733569
 20
12.1030942893
 30
0.0
 10
15.195041655
 20
11.9979921905
 30
0.0
 10
15.2069374525
 20
11.9154895876
 30
0.0
 10
15.2167688204
 20
11.8549289146
 30
0.0
 10
15.2275432893
 20
11.7954368175
 30
0.0
 10
15.2392433805
 20
11.7371099666
 30
0.0
 10
15.2518499715
 20
11.6800433583
 30
0.0
 10
15.265342501
 20
11.6243298533
 30
0.0
 10
15.2796989586
 20
11.5700601019
 30
0.0
 10
15.2948959368
 20
11.5173223709
 30
0.0
 10
15.3109086664
 20
11.4662024062
 30
0.0
 10
15.3277110747
 20
11.416783268
 30
0.0
 10
15.3452757941
 20
11.3691452639
 30
0.0
 10
15.3635743577
 20
11.3233655426
 30
0.0
 10
15.3825767569
 20
11.2795189661
 30
0.0
 10
15.3959173778
 20
11.2511484386
 30
0.0
 10
15.4027076741
 20
11.2373112696
 30
0.0
  0
SPLINE
  5
2FD
100
AcDbEntity
  8
LAYER_CUT_FEAT
100
AcDbSpline
 62
7
  6
CONTINUOUS
 70
0
 71
3
 72
23
 73
19
 74
0
 42
0.0000001
 43
0.0000001
 44
0.0000000001
 40
0.0
 40
0.0
 40
0.0
 40
0.0
 40
0.0478180054
 40
0.0968452491
 40
0.1473255624
 40
0.1994755586
 40
0.2534839413
 40
0.3095119588
 40
0.367694653
 40
0.4281425903
 40
0.4909438229
 40
0.5561659037
 40
0.6238578493
 40
0.6940519194
 40
0.7667655243
 40
0.8420019629
 40
0.9197537668
 40
1.0
 40
1.0
 40
1.0
 40
1.0
 10
15.7271179147
 20
11.0855277992
 30
0.0
 10
15.720550079
 20
11.0873695522
 30
0.0
 10
15.707402205
 20
11.0916712236
 30
0.0
 10
15.6880038142
 20
11.0998095322
 30
0.0
 10
15.6687361549
 20
11.1096915677
 30
0.0
 10
15.6496244232
 20
11.121302483
 30
0.0
 10
15.6306907065
 20
11.1346264205
 30
0.0
 10
15.611957366
 20
11.1496457097
 30
0.0
 10
15.5934462731
 20
11.1663410721
 30
0.0
 10
15.575179143
 20
11.1846914973
 30
0.0
 10
15.557177496
 20
11.2046741989
 30
0.0
 10
15.5394626729
 20
11.2262645576
 30
0.0
 10
15.5220558105
 20
11.249436082
 30
0.0
 10
15.5049777757
 20
11.2741604163
 30
0.0
 10
15.4882492272
 20
11.3004072696
 30
0.0
 10
15.4718903018
 20
11.328144673
 30
0.0
 10
15.4559211725
 20
11.3573382929
 30
0.0
 10
15.4457074995
 20
11.3774336752
 30
0.0
 10
15.440664594
 20
11.3877100362
 30
0.0
  0
SPLINE
  5
2FE
100
AcDbEntity
  8
LAYER_FEATURE
100
AcDbSpline
 62
7
  6
CONTINUOUS
 70
0
 71
3
 72
13
 73
9
 74
0
 42
0.0000001
 43
0.0000001
 44
0.0000000001
 40
0.0
 40
0.0
 40
0.0
 40
0.0
 40
0.2013364212
 40
0.3129891935
 40
0.4328559485
 40
0.5613693882
 40
0.6987435825
 40
1.0
 40
1.0
 40
1.0
 40
1.0
 10
14.6421773386
 20
13.0861011253
 30
0.0
 10
14.64299556
 20
13.0864888986
 30
0.0
 10
14.6441796731
 20
13.087284882
 30
0.0
 10
14.6456044029
 20
13.0886127159
 30
0.0
 10
14.6466813686
 20
13.0898252787
 30
0.0
 10
14.6477239061
 20
13.0912138976
 30
0.0
 10
14.6491061438
 20
13.0933594459
 30
0.0
 10
14.6500121385
 20
13.0951180662
 30
0.0
 10
14.65057623
 20
13.0963498714
 30
0.0
  0
SPLINE
  5
2FF
100
AcDbEntity
  8
LAYER_FEATURE
100
AcDbSpline
 62
7
  6
CONTINUOUS
 70
0
 71
3
 72
11
 73
7
 74
0
 42
0.0000001
 43
0.0000001
 44
0.0000000001
 40
0.0
 40
0.0
 40
0.0
 40
0.0
 40
0.2553250409
 40
0.5118768144
 40
0.7624153647
 40
1.0
 40
1.0
 40
1.0
 40
1.0
 10
14.7352807194
 20
13.4593055785
 30
0.0
 10
14.7355162913
 20
13.4620930197
 30
0.0
 10
14.7357808462
 20
13.4677006785
 30
0.0
 10
14.7355861499
 20
13.4760582748
 30
0.0
 10
14.7348114406
 20
13.484187147
 30
0.0
 10
14.7338935963
 20
13.4894632226
 30
0.0
 10
14.7333299464
 20
13.4920044757
 30
0.0
  0
SPLINE
  5
300
100
AcDbEntity
  8
LAYER_FEATURE
100
AcDbSpline
 62
7
  6
CONTINUOUS
 70
0
 71
3
 72
11
 73
7
 74
0
 42
0.0000001
 43
0.0000001
 44
0.0000000001
 40
0.0
 40
0.0
 40
0.0
 40
0.0
 40
0.2605380673
 40
0.5188009028
 40
0.767542408
 40
1.0
 40
1.0
 40
1.0
 40
1.0
 10
14.704824011
 20
13.3536255494
 30
0.0
 10
14.704963127
 20
13.3564358443
 30
0.0
 10
14.7050385549
 20
13.3620437671
 30
0.0
 10
14.7045649465
 20
13.3703264237
 30
0.0
 10
14.7035216091
 20
13.3782512955
 30
0.0
 10
14.7024236466
 20
13.3833392956
 30
0.0
 10
14.7017708592
 20
13.3857634148
 30
0.0
  0
SPLINE
  5
301
100
AcDbEntity
  8
LAYER_FEATURE
100
AcDbSpline
 62
7
  6
CONTINUOUS
 70
0
 71
3
 72
9
 73
5
 74
0
 42
0.0000001
 43
0.0000001
 44
0.0000000001
 40
0.0
 40
0.0
 40
0.0
 40
0.0
 40
0.4723965836
 40
1.0
 40
1.0
 40
1.0
 40
1.0
 10
14.6691088661
 20
13.2102778926
 30
0.0
 10
14.6697428561
 20
13.2109679547
 30
0.0
 10
14.6709706905
 20
13.2125348481
 30
0.0
 10
14.6720041487
 20
13.2142324587
 30
0.0
 10
14.6725074196
 20
13.2151501113
 30
0.0
  0
SPLINE
  5
302
100
AcDbEntity
  8
LAYER_FEATURE
100
AcDbSpline
 62
7
  6
CONTINUOUS
 70
0
 71
3
 72
12
 73
8
 74
0
 42
0.0000001
 43
0.0000001
 44
0.0000000001
 40
0.0
 40
0.0
 40
0.0
 40
0.0
 40
0.2658603135
 40
0.5258294356
 40
0.7726952947
 40
0.8891680217
 40
1.0
 40
1.0
 40
1.0
 40
1.0
 10
14.6780699844
 20
13.2415311469
 30
0.0
 10
14.6781128977
 20
13.244342759
 30
0.0
 10
14.6780011588
 20
13.2499088303
 30
0.0
 10
14.6772522849
 20
13.2580537131
 30
0.0
 10
14.6761454047
 20
13.2645613494
 30
0.0
 10
14.6749730754
 20
13.2694391197
 30
0.0
 10
14.6742978878
 20
13.2717478603
 30
0.0
 10
14.6739376903
 20
13.2728633919
 30
0.0
  0
SPLINE
  5
303
100
AcDbEntity
  8
LAYER_FEATURE
100
AcDbSpline
 62
7
  6
CONTINUOUS
 70
0
 71
3
 72
13
 73
9
 74
0
 42
0.0000001
 43
0.0000001
 44
0.0000000001
 40
0.0
 40
0.0
 40
0.0
 40
0.0
 40
0.2713475828
 40
0.5330400694
 40
0.6580356093
 40
0.7780080307
 40
0.8922140483
 40
1.0
 40
1.0
 40
1.0
 40
1.0
 10
14.6552222541
 20
13.1238754772
 30
0.0
 10
14.6551699339
 20
13.1266669951
 30
0.0
 10
14.6548743373
 20
13.1321490155
 30
0.0
 10
14.6540134288
 20
13.1388722011
 30
0.0
 10
14.6530309047
 20
13.143993458
 30
0.0
 10
14.6521742879
 20
13.1475899118
 30
0.0
 10
14.6511941568
 20
13.1509707092
 30
0.0
 10
14.6504406357
 20
13.1531286063
 30
0.0
 10
14.6500422667
 20
13.1541636445
 30
0.0
  0
SPLINE
  5
304
100
AcDbEntity
  8
LAYER_FEATURE
100
AcDbSpline
 62
7
  6
CONTINUOUS
 70
0
 71
3
 72
78
 73
74
 74
0
 42
0.0000001
 43
0.0000001
 44
0.0000000001
 40
0.0
 40
0.0
 40
0.0
 40
0.0
 40
0.0151596229
 40
0.0309326032
 40
0.0473007829
 40
0.0642423025
 40
0.0817322719
 40
0.0997430082
 40
0.1182443552
 40
0.1372039495
 40
0.1565874594
 40
0.1763588035
 40
0.1964803508
 40
0.2169131129
 40
0.2376169252
 40
0.2585506189
 40
0.2796721868
 40
0.3009389453
 40
0.3223076946
 40
0.3437348748
 40
0.3651767203
 40
0.3865894138
 40
0.4079292409
 40
0.4291527435
 40
0.4502168751
 40
0.4710791578
 40
0.4916978437
 40
0.5120320776
 40
0.5320420643
 40
0.5516892436
 40
0.5709364756
 40
0.5897482346
 40
0.6080908146
 40
0.6259325542
 40
0.6432440846
 40
0.6599986086
 40
0.6761722094
 40
0.6917442079
 40
0.7066975777
 40
0.7210194375
 40
0.734701632
 40
0.7477414201
 40
0.7601423005
 40
0.771914991
 40
0.7830785758
 40
0.7936617947
 40
0.8037044262
 40
0.8132586273
 40
0.822389983
 40
0.8268231096
 40
0.8311814447
 40
0.8354769418
 40
0.8397222349
 40
0.8439305361
 40
0.8481154968
 40
0.8522910534
 40
0.8564712597
 40
0.8606701117
 40
0.8649013754
 40
0.8691784266
 40
0.8735141114
 40
0.8779206212
 40
0.8824094079
 40
0.891672488
 40
0.9013816306
 40
0.911597896
 40
0.9223692107
 40
0.9337315487
 40
0.9457103065
 40
0.9583216625
 40
0.9715738443
 40
0.98546812
 40
1.0
 40
1.0
 40
1.0
 40
1.0
 10
16.154665377
 20
13.7280229616
 30
0.0
 10
16.1625836864
 20
13.7118871437
 30
0.0
 10
16.1780733681
 20
13.6786317167
 30
0.0
 10
16.1998783902
 20
13.6269503724
 30
0.0
 10
16.2206716345
 20
13.5725857617
 30
0.0
 10
16.2404027349
 20
13.5156689292
 30
0.0
 10
16.2590244444
 20
13.4563359344
 30
0.0
 10
16.2764919259
 20
13.3947290988
 30
0.0
 10
16.292763136
 20
13.3309962325
 30
0.0
 10
16.3077988565
 20
13.2652903767
 30
0.0
 10
16.321562828
 20
13.1977693832
 30
0.0
 10
16.3340218374
 20
13.1285955369
 30
0.0
 10
16.3451458238
 20
13.0579351562
 30
0.0
 10
16.3549079401
 20
12.9859581806
 30
0.0
 10
16.3632846191
 20
12.9128377504
 30
0.0
 10
16.3702556313
 20
12.8387497853
 30
0.0
 10
16.3758041414
 20
12.7638725575
 30
0.0
 10
16.3799167586
 20
12.688386258
 30
0.0
 10
16.382583553
 20
12.6124725559
 30
0.0
 10
16.3837980835
 20
12.5363141571
 30
0.0
 10
16.38355741
 20
12.4600943616
 30
0.0
 10
16.3818621169
 20
12.3839966187
 30
0.0
 10
16.3787163032
 20
12.308204081
 30
0.0
 10
16.3741275654
 20
12.2328991606
 30
0.0
 10
16.3681069806
 20
12.1582630866
 30
0.0
 10
16.3606690812
 20
12.0844754639
 30
0.0
 10
16.3518318333
 20
12.0117138342
 30
0.0
 10
16.3416165747
 20
11.9401532451
 30
0.0
 10
16.3300479649
 20
11.8699658252
 30
0.0
 10
16.3171539189
 20
11.8013203629
 30
0.0
 10
16.3029655514
 20
11.734381887
 30
0.0
 10
16.2875170937
 20
11.6693112601
 30
0.0
 10
16.2708457934
 20
11.6062647852
 30
0.0
 10
16.2529918177
 20
11.5453938188
 30
0.0
 10
16.233998139
 20
11.4868443886
 30
0.0
 10
16.2139104306
 20
11.4307568176
 30
0.0
 10
16.192776908
 20
11.3772653745
 30
0.0
 10
16.1706481729
 20
11.3264979385
 30
0.0
 10
16.1475770287
 20
11.2785756763
 30
0.0
 10
16.1236182837
 20
11.2336127357
 30
0.0
 10
16.0988285138
 20
11.1917159775
 30
0.0
 10
16.0732657689
 20
11.1529847787
 30
0.0
 10
16.0469892489
 20
11.1175109018
 30
0.0
 10
16.020058987
 20
11.0853784988
 30
0.0
 10
15.9925354144
 20
11.0566642209
 30
0.0
 10
15.964479537
 20
11.0314377649
 30
0.0
 10
15.935951494
 20
11.0097620909
 30
0.0
 10
15.907016212
 20
10.9916958047
 30
0.0
 10
15.8823696088
 20
10.9795720842
 30
0.0
 10
15.8625789184
 20
10.9718061856
 30
0.0
 10
15.8478270526
 20
10.9669664795
 30
0.0
 10
15.8330315914
 20
10.9630587206
 30
0.0
 10
15.81820134
 20
10.9600855387
 30
0.0
 10
15.8033457458
 20
10.9580491304
 30
0.0
 10
15.7884742271
 20
10.9569509798
 30
0.0
 10
15.7735963133
 20
10.9567919826
 30
0.0
 10
15.7587215601
 20
10.9575721719
 30
0.0
 10
15.7438595072
 20
10.9592910287
 30
0.0
 10
15.7290196412
 20
10.9619472421
 30
0.0
 10
15.7142113036
 20
10.9655388398
 30
0.0
 10
15.6994438566
 20
10.9700632462
 30
0.0
 10
15.6847260331
 20
10.9755174183
 30
0.0
 10
15.6649765923
 20
10.9841127376
 30
0.0
 10
15.6404060039
 20
10.9972678788
 30
0.0
 10
15.611599164
 20
11.0165335495
 30
0.0
 10
15.5832202748
 20
11.0393901998
 30
0.0
 10
15.5553337556
 20
11.0657773511
 30
0.0
 10
15.5279996604
 20
11.0956300516
 30
0.0
 10
15.5012789179
 20
11.1288763372
 30
0.0
 10
15.4752318399
 20
11.1654370702
 30
0.0
 10
15.4499181784
 20
11.2052257727
 30
0.0
 10
15.4253971269
 20
11.2481472996
 30
0.0
 10
15.4099581946
 20
11.2781193723
 30
0.0
 10
15.4023677734
 20
11.2935870242
 30
0.0
  0
SPLINE
  5
305
100
AcDbEntity
  8
LAYER_CUT_FEAT
100
AcDbSpline
 62
7
  6
CONTINUOUS
 70
0
 71
3
 72
53
 73
49
 74
0
 42
0.0000001
 43
0.0000001
 44
0.0000000001
 40
0.0
 40
0.0
 40
0.0
 40
0.0
 40
0.0076944604
 40
0.0154414028
 40
0.0232920034
 40
0.0312949543
 40
0.0394955122
 40
0.0479348257
 40
0.0566495454
 40
0.0656716825
 40
0.0750286632
 40
0.084743525
 40
0.0948351974
 40
0.1053188246
 40
0.1162060998
 40
0.1275055901
 40
0.1392230426
 40
0.1513616679
 40
0.1639223932
 40
0.1769040868
 40
0.1903037564
 40
0.2041167214
 40
0.2183367686
 40
0.2329562906
 40
0.247966406
 40
0.2633570667
 40
0.2791171516
 40
0.2952345511
 40
0.3116962475
 40
0.3284883863
 40
0.3630034015
 40
0.3986558755
 40
0.4353108694
 40
0.4728253386
 40
0.5110495467
 40
0.5498283936
 40
0.5890026901
 40
0.6284103723
 40
0.6678876996
 40
0.7072704334
 40
0.7463950111
 40
0.7850997302
 40
0.8232259399
 40
0.8606192755
 40
0.8971309309
 40
0.932618988
 40
0.9669498496
 40
1.0
 40
1.0
 40
1.0
 40
1.0
 10
15.7775955142
 20
13.8470549883
 30
0.0
 10
15.7836755983
 20
13.8470549787
 30
0.0
 10
15.795884275
 20
13.8465041481
 30
0.0
 10
15.8141454871
 20
13.8440296439
 30
0.0
 10
15.8323578861
 20
13.8399104786
 30
0.0
 10
15.8504953567
 20
13.8341537916
 30
0.0
 10
15.8685352045
 20
13.8267690173
 30
0.0
 10
15.8864549594
 20
13.8177675195
 30
0.0
 10
15.904233106
 20
13.8071623431
 30
0.0
 10
15.921848656
 20
13.7949680804
 30
0.0
 10
15.9392810538
 20
13.7812008429
 30
0.0
 10
15.9565100173
 20
13.7658782636
 30
0.0
 10
15.9735154679
 20
13.749019551
 30
0.0
 10
15.9902774941
 20
13.7306455451
 30
0.0
 10
16.0067763483
 20
13.7107787658
 30
0.0
 10
16.0229924738
 20
13.6894434543
 30
0.0
 10
16.0389065394
 20
13.6666655893
 30
0.0
 10
16.0544994695
 20
13.6424728783
 30
0.0
 10
16.0697524876
 20
13.6168947474
 30
0.0
 10
16.0846471553
 20
13.5899623197
 30
0.0
 10
16.0991654065
 20
13.5617083887
 30
0.0
 10
16.1132895934
 20
13.5321673905
 30
0.0
 10
16.1270025126
 20
13.5013753594
 30
0.0
 10
16.1402874308
 20
13.46936988
 30
0.0
 10
16.1531281156
 20
13.4361900399
 30
0.0
 10
16.1655088566
 20
13.4018763846
 30
0.0
 10
16.1774144998
 20
13.3664708583
 30
0.0
 10
16.1888304379
 20
13.3300167993
 30
0.0
 10
16.1997427826
 20
13.2925587072
 30
0.0
 10
16.2137306821
 20
13.2408647883
 30
0.0
 10
16.2298224854
 20
13.1740443685
 30
0.0
 10
16.2467538731
 20
13.0913344521
 30
0.0
 10
16.2613957748
 20
13.0057836428
 30
0.0
 10
16.2736760634
 20
12.9178108856
 30
0.0
 10
16.2835342504
 20
12.8278460857
 30
0.0
 10
16.2909217875
 20
12.7363294356
 30
0.0
 10
16.295802252
 20
12.6437087788
 30
0.0
 10
16.2981515864
 20
12.5504374871
 30
0.0
 10
16.2979582336
 20
12.4569721679
 30
0.0
 10
16.2952231243
 20
12.3637703958
 30
0.0
 10
16.2899597435
 20
12.271288433
 30
0.0
 10
16.2821940483
 20
12.179978952
 30
0.0
 10
16.2719642844
 20
12.0902887958
 30
0.0
 10
16.259320853
 20
12.0026566721
 30
0.0
 10
16.2443260776
 20
11.9175111806
 30
0.0
 10
16.2270536049
 20
11.8352678501
 30
0.0
 10
16.2075888946
 20
11.7563298015
 30
0.0
 10
16.1929183568
 20
11.7051303399
 30
0.0
 10
16.1852077085
 20
11.6801786728
 30
0.0
  0
SPLINE
  5
306
100
AcDbEntity
  8
LAYER_CUT_FEAT
100
AcDbSpline
 62
7
  6
CONTINUOUS
 70
0
 71
3
 72
33
 73
29
 74
0
 42
0.0000001
 43
0.0000001
 44
0.0000000001
 40
0.0
 40
0.0
 40
0.0
 40
0.0
 40
0.0212777907
 40
0.042649365
 40
0.0642069938
 40
0.0860400061
 40
0.1082335499
 40
0.1308676117
 40
0.1540162488
 40
0.1777471269
 40
0.2271755513
 40
0.252993027
 40
0.2795977015
 40
0.3070252019
 40
0.3353055603
 40
0.3644636306
 40
0.3945193991
 40
0.4254884048
 40
0.4573821224
 40
0.4902082147
 40
0.5239708923
 40
0.5586712152
 40
0.5943072672
 40
0.6683604272
 40
0.7460707431
 40
0.8273382196
 40
0.9120328241
 40
1.0
 40
1.0
 40
1.0
 40
1.0
 10
15.7775955142
 20
11.1745549975
 30
0.0
 10
15.7824764283
 20
11.1745549898
 30
0.0
 10
15.7922634235
 20
11.1749091906
 30
0.0
 10
15.8069176206
 20
11.1765012312
 30
0.0
 10
15.8215475137
 20
11.1791528362
 30
0.0
 10
15.8361397744
 20
11.1828612658
 30
0.0
 10
15.850682658
 20
11.1876228362
 30
0.0
 10
15.8651641425
 20
11.1934329589
 30
0.0
 10
15.8795732182
 20
11.2002865485
 30
0.0
 10
15.8989330429
 20
11.2109504344
 30
0.0
 10
15.9178505663
 20
11.2235986819
 30
0.0
 10
15.9362560654
 20
11.2379986209
 30
0.0
 10
15.9501352636
 20
11.2499625629
 30
0.0
 10
15.9638753353
 20
11.2629218705
 30
0.0
 10
15.9774668019
 20
11.2768669166
 30
0.0
 10
15.9908988909
 20
11.2917864671
 30
0.0
 10
16.0041613465
 20
11.3076687683
 30
0.0
 10
16.0172438979
 20
11.3245012761
 30
0.0
 10
16.0301363645
 20
11.342270766
 30
0.0
 10
16.0428287426
 20
11.3609632431
 30
0.0
 10
16.0553111059
 20
11.380563979
 30
0.0
 10
16.0675737904
 20
11.4010576506
 30
0.0
 10
16.0838260849
 20
11.4299213139
 30
0.0
 10
16.1034884675
 20
11.4681689259
 30
0.0
 10
16.1257620057
 20
11.5167798019
 30
0.0
 10
16.1469382975
 20
11.5685251833
 30
0.0
 10
16.1669505348
 20
11.6232413954
 30
0.0
 10
16.1792499716
 20
11.6608994291
 30
0.0
 10
16.1852077085
 20
11.6801786728
 30
0.0
  0
SPLINE
  5
307
100
AcDbEntity
  8
LAYER_CHAMFER_FEAT
100
AcDbSpline
 62
7
  6
CONTINUOUS
 70
0
 71
3
 72
26
 73
22
 74
0
 42
0.0000001
 43
0.0000001
 44
0.0000000001
 40
0.0
 40
0.0
 40
0.0
 40
0.0
 40
0.0879742356
 40
0.1726755667
 40
0.2539496161
 40
0.3316661359
 40
0.4057252459
 40
0.4760611227
 40
0.5426480106
 40
0.6055071769
 40
0.6647154642
 40
0.7204154389
 40
0.7728269722
 40
0.8222593565
 40
0.8691219041
 40
0.8917577701
 40
0.9139531035
 40
0.9357878588
 40
0.9573472165
 40
0.9787205047
 40
1.0
 40
1.0
 40
1.0
 40
1.0
 10
15.3665826195
 20
12.9964377806
 30
0.0
 10
15.3700658618
 20
13.0077095567
 30
0.0
 10
15.3772568255
 20
13.0297266353
 30
0.0
 10
15.3889571674
 20
13.0617169678
 30
0.0
 10
15.4013380333
 20
13.0919702345
 30
0.0
 10
15.4143605709
 20
13.1203913871
 30
0.0
 10
15.4279841972
 20
13.1468918051
 30
0.0
 10
15.4421668258
 20
13.1713890395
 30
0.0
 10
15.4568651435
 20
13.1938071315
 30
0.0
 10
15.4720349607
 20
13.2140766963
 30
0.0
 10
15.4876317024
 20
13.2321349154
 30
0.0
 10
15.5036104514
 20
13.2479251098
 30
0.0
 10
15.5199273049
 20
13.2613964384
 30
0.0
 10
15.5365350502
 20
13.2725016481
 30
0.0
 10
15.5507462791
 20
13.2798334355
 30
0.0
 10
15.5621654425
 20
13.2844146657
 30
0.0
 10
15.5706681998
 20
13.2871986974
 30
0.0
 10
15.5791996605
 20
13.2893668041
 30
0.0
 10
15.5877531589
 20
13.2909171075
 30
0.0
 10
15.5963208583
 20
13.2918479114
 30
0.0
 10
15.6020429098
 20
13.2920549889
 30
0.0
 10
15.6048965779
 20
13.2920549835
 30
0.0
  0
SPLINE
  5
308
100
AcDbEntity
  8
LAYER_CHAMFER_FEAT
100
AcDbSpline
 62
7
  6
CONTINUOUS
 70
0
 71
3
 72
39
 73
35
 74
0
 42
0.0000001
 43
0.0000001
 44
0.0000000001
 40
0.0
 40
0.0
 40
0.0
 40
0.0
 40
0.0475915715
 40
0.0939248458
 40
0.1389515295
 40
0.1826308621
 40
0.2249259609
 40
0.265806487
 40
0.3052485828
 40
0.343235839
 40
0.3797601409
 40
0.4148226874
 40
0.4484351846
 40
0.4806212048
 40
0.5114177362
 40
0.5408768934
 40
0.5690677148
 40
0.5960779666
 40
0.6220157581
 40
0.6470106752
 40
0.6712140602
 40
0.6947979978
 40
0.7179526387
 40
0.7408817248
 40
0.763796524
 40
0.7869087921
 40
0.8104236672
 40
0.8345334214
 40
0.8594127541
 40
0.8852158845
 40
0.9120753355
 40
0.9401020588
 40
0.9693864671
 40
1.0
 40
1.0
 40
1.0
 40
1.0
 10
15.380069751
 20
12.989600071
 30
0.0
 10
15.382572234
 20
12.9976981088
 30
0.0
 10
15.3876974926
 20
13.0136232785
 30
0.0
 10
15.3958627467
 20
13.0369868895
 30
0.0
 10
15.4043918656
 20
13.0594768687
 30
0.0
 10
15.4132705303
 20
13.0810556972
 30
0.0
 10
15.4224841602
 20
13.1016878441
 30
0.0
 10
15.432017493
 20
13.1213391668
 30
0.0
 10
15.4418548496
 20
13.1399772532
 30
0.0
 10
15.4519800774
 20
13.1575713873
 30
0.0
 10
15.462376633
 20
13.1740926129
 30
0.0
 10
15.4730276268
 20
13.1895137624
 30
0.0
 10
15.4839158761
 20
13.2038094793
 30
0.0
 10
15.4950239644
 20
13.2169562252
 30
0.0
 10
15.5063342929
 20
13.228932265
 30
0.0
 10
15.5178291131
 20
13.2397176319
 30
0.0
 10
15.5294905499
 20
13.2492940411
 30
0.0
 10
15.5413005581
 20
13.2576447876
 30
0.0
 10
15.5532408039
 20
13.2647546463
 30
0.0
 10
15.565292451
 20
13.2706098161
 30
0.0
 10
15.577435859
 20
13.2751979917
 30
0.0
 10
15.5896502688
 20
13.2785086373
 30
0.0
 10
15.6019136203
 20
13.2805334482
 30
0.0
 10
15.614202639
 20
13.2812669675
 30
0.0
 10
15.6264932838
 20
13.2807071326
 30
0.0
 10
15.6387614602
 20
13.2788555113
 30
0.0
 10
15.650983754
 20
13.2757171297
 30
0.0
 10
15.6631379302
 20
13.2712999607
 30
0.0
 10
15.6752030638
 20
13.265614286
 30
0.0
 10
15.6871593884
 20
13.2586721821
 30
0.0
 10
15.6989879499
 20
13.2504872763
 30
0.0
 10
15.7106704631
 20
13.2410744747
 30
0.0
 10
15.7221884316
 20
13.2304507464
 30
0.0
 10
15.7295781319
 20
13.222747376
 30
0.0
 10
15.7332434693
 20
13.2187111231
 30
0.0
  0
SPLINE
  5
309
100
AcDbEntity
  8
LAYER_CUT_FEAT
100
AcDbSpline
 62
7
  6
CONTINUOUS
 70
0
 71
3
 72
40
 73
36
 74
0
 42
0.0000001
 43
0.0000001
 44
0.0000000001
 40
0.0
 40
0.0
 40
0.0
 40
0.0
 40
0.0475560976
 40
0.0938221457
 40
0.1387493223
 40
0.1822941032
 40
0.2244187888
 40
0.2650921668
 40
0.3042902457
 40
0.3419971159
 40
0.3782059469
 40
0.4129201472
 40
0.4461547089
 40
0.4779377506
 40
0.5083122591
 40
0.5373380019
 40
0.5650935307
 40
0.5785276683
 40
0.5916833725
 40
0.6172186666
 40
0.6418495943
 40
0.6657441767
 40
0.6890916787
 40
0.71209879
 40
0.7349838302
 40
0.7579694477
 40
0.7812747179
 40
0.8051077394
 40
0.829659664
 40
0.8551006803
 40
0.881577989
 40
0.9092154544
 40
0.9381144568
 40
0.9683554727
 40
1.0
 40
1.0
 40
1.0
 40
1.0
 10
16.19869484
 20
11.6733409632
 30
0.0
 10
16.194213741
 20
11.6588401215
 30
0.0
 10
16.185031433
 20
11.630335836
 30
0.0
 10
16.1703826493
 20
11.5885422756
 30
0.0
 10
16.1550678013
 20
11.5483545368
 30
0.0
 10
16.1391135993
 20
11.5098426754
 30
0.0
 10
16.1225476928
 20
11.4730733695
 30
0.0
 10
16.1053987591
 20
11.438110311
 30
0.0
 10
16.0876963867
 20
11.405013961
 30
0.0
 10
16.0694710029
 20
11.3738414843
 30
0.0
 10
16.0507537749
 20
11.3446466514
 30
0.0
 10
16.0315765169
 20
11.3174797834
 30
0.0
 10
16.0119715413
 20
11.2923876858
 30
0.0
 10
15.9919716758
 20
11.2694137476
 30
0.0
 10
15.9716097024
 20
11.2485976537
 30
0.0
 10
15.9509198889
 20
11.2299766853
 30
0.0
 10
15.9332430574
 20
11.2161679588
 30
0.0
 10
15.918978424
 20
11.2062945107
 30
0.0
 10
15.9049315253
 20
11.1973755261
 30
0.0
 10
15.8872140368
 20
11.1875990324
 30
0.0
 10
15.8655508361
 20
11.178061825
 30
0.0
 10
15.8437341174
 20
11.1708575768
 30
0.0
 10
15.8218047921
 20
11.1660050688
 30
0.0
 10
15.79980546
 20
11.163517666
 30
0.0
 10
15.7777810586
 20
11.1634027429
 30
0.0
 10
15.7557773181
 20
11.1656606392
 30
0.0
 10
15.7338392759
 20
11.1702846623
 30
0.0
 10
15.7120099614
 20
11.1772618747
 30
0.0
 10
15.6903297965
 20
11.1865743492
 30
0.0
 10
15.6688367144
 20
11.1982003452
 30
0.0
 10
15.6475666994
 20
11.2121151069
 30
0.0
 10
15.6265545137
 20
11.2282911007
 30
0.0
 10
15.605833969
 20
11.2466983207
 30
0.0
 10
15.5854393204
 20
11.2673028227
 30
0.0
 10
15.5723829351
 20
11.2821384564
 30
0.0
 10
15.5659113184
 20
11.2898917694
 30
0.0
  0
SPLINE
  5
30A
100
AcDbEntity
  8
LAYER_CUT_FEAT
100
AcDbSpline
 62
7
  6
CONTINUOUS
 70
0
 71
3
 72
14
 73
10
 74
0
 42
0.0000001
 43
0.0000001
 44
0.0000000001
 40
0.0
 40
0.0
 40
0.0
 40
0.0
 40
0.2655114762
 40
0.3928804511
 40
0.5173700471
 40
0.6396231309
 40
0.7603275732
 40
0.880206155
 40
1.0
 40
1.0
 40
1.0
 40
1.0
 10
15.6636730373
 20
11.9944500542
 30
0.0
 10
15.6593393427
 20
11.991757816
 30
0.0
 10
15.6526582915
 20
11.98817295
 30
0.0
 10
15.6434196058
 20
11.9844817992
 30
0.0
 10
15.6365497273
 20
11.9823379882
 30
0.0
 10
15.6296539862
 20
11.980785078
 30
0.0
 10
15.6227398828
 20
11.9798251667
 30
0.0
 10
15.6158167193
 20
11.9794598508
 30
0.0
 10
15.6112072291
 20
11.9796128835
 30
0.0
 10
15.6089119726
 20
11.9797872214
 30
0.0
  0
SPLINE
  5
30B
100
AcDbEntity
  8
LAYER_CUT_FEAT
100
AcDbSpline
 62
7
  6
CONTINUOUS
 70
0
 71
3
 72
22
 73
18
 74
0
 42
0.0000001
 43
0.0000001
 44
0.0000000001
 40
0.0
 40
0.0
 40
0.0
 40
0.0
 40
0.17517156
 40
0.2578880525
 40
0.3370556014
 40
0.412486931
 40
0.4840357163
 40
0.5515999396
 40
0.6151297494
 40
0.674638558
 40
0.730216365
 40
0.7820457413
 40
0.8304202519
 40
0.875763592
 40
0.9186443867
 40
0.9597772181
 40
1.0
 40
1.0
 40
1.0
 40
1.0
 10
15.6020393269
 20
13.0410068679
 30
0.0
 10
15.6013886395
 20
13.0437767048
 30
0.0
 10
15.6003038705
 20
13.047827241
 30
0.0
 10
15.5985908297
 20
13.0530281146
 30
0.0
 10
15.5972377451
 20
13.0566387174
 30
0.0
 10
15.5957974313
 20
13.0600191992
 30
0.0
 10
15.5942757066
 20
13.0631558628
 30
0.0
 10
15.5926787167
 20
13.0660360152
 30
0.0
 10
15.5910127836
 20
13.0686480638
 30
0.0
 10
15.5892843591
 20
13.0709815194
 30
0.0
 10
15.5874999425
 20
13.0730270103
 30
0.0
 10
15.585665991
 20
13.0747761853
 30
0.0
 10
15.5837888531
 20
13.0762215148
 30
0.0
 10
15.5818750044
 20
13.0773560023
 30
0.0
 10
15.5799311772
 20
13.0781730003
 30
0.0
 10
15.5779662822
 20
13.0786663725
 30
0.0
 10
15.5766423742
 20
13.0787768448
 30
0.0
 10
15.5759890521
 20
13.0787768379
 30
0.0
  0
SPLINE
  5
30C
100
AcDbEntity
  8
LAYER_CUT_FEAT
100
AcDbSpline
 62
7
  6
CONTINUOUS
 70
0
 71
3
 72
57
 73
53
 74
0
 42
0.0000001
 43
0.0000001
 44
0.0000000001
 40
0.0
 40
0.0
 40
0.0
 40
0.0
 40
0.0136266771
 40
0.0276728571
 40
0.0421297691
 40
0.0569874669
 40
0.0722345455
 40
0.0878584711
 40
0.1038455929
 40
0.1201812638
 40
0.1368499135
 40
0.1538351258
 40
0.1886843828
 40
0.2245848123
 40
0.2613811738
 40
0.2989104697
 40
0.3370035572
 40
0.3754866766
 40
0.4141829265
 40
0.4529137066
 40
0.4915001429
 40
0.5297645098
 40
0.5675316624
 40
0.6046304975
 40
0.640895461
 40
0.676168123
 40
0.6933859023
 40
0.7103003213
 40
0.7268943586
 40
0.7431517846
 40
0.7590572324
 40
0.774596275
 40
0.7897555089
 40
0.8045226464
 40
0.8188866179
 40
0.8328376864
 40
0.8463675764
 40
0.85946962
 40
0.8721389225
 40
0.8843725523
 40
0.8961697574
 40
0.907532213
 40
0.9184643028
 40
0.9289734354
 40
0.9390703966
 40
0.9487697321
 40
0.9580901499
 40
0.9670549202
 40
0.9756922394
 40
0.9840355064
 40
0.9921234457
 40
1.0
 40
1.0
 40
1.0
 40
1.0
 10
15.440664594
 20
11.3877100362
 30
0.0
 10
15.4351992743
 20
11.3988471867
 30
0.0
 10
15.4244437394
 20
11.4216343038
 30
0.0
 10
15.4090523503
 20
11.4567709819
 30
0.0
 10
15.3941757478
 20
11.4933415189
 30
0.0
 10
15.3798343067
 20
11.5312958187
 30
0.0
 10
15.3660474517
 20
11.5705825884
 30
0.0
 10
15.3528339374
 20
11.6111484311
 30
0.0
 10
15.3402117312
 20
11.6529382926
 30
0.0
 10
15.3281980424
 20
11.695895359
 30
0.0
 10
15.3168091187
 20
11.7399613883
 30
0.0
 10
15.3023546924
 20
11.8006324491
 30
0.0
 10
15.2860005463
 20
11.8788340802
 30
0.0
 10
15.2692565011
 20
11.9753206697
 30
0.0
 10
15.2553208916
 20
12.0747166476
 30
0.0
 10
15.2442699697
 20
12.1764815471
 30
0.0
 10
15.236164217
 20
12.2800630544
 30
0.0
 10
15.231048012
 20
12.3848984044
 30
0.0
 10
15.2289493654
 20
12.4904179799
 30
0.0
 10
15.2298797636
 20
12.5960483478
 30
0.0
 10
15.2338341114
 20
12.7012154632
 30
0.0
 10
15.240790759
 20
12.8053478704
 30
0.0
 10
15.2507116246
 20
12.9078797523
 30
0.0
 10
15.2635424075
 20
13.0082545177
 30
0.0
 10
15.279212891
 20
13.1059263077
 30
0.0
 10
15.2946884082
 20
13.1852526529
 30
0.0
 10
15.3084576871
 20
13.246924174
 30
0.0
 10
15.3193537745
 20
13.291805003
 30
0.0
 10
15.3308866808
 20
13.3356229643
 30
0.0
 10
15.343040802
 20
13.3783186285
 30
0.0
 10
15.355799562
 20
13.4198339425
 30
0.0
 10
15.3691456026
 20
13.4601125213
 30
0.0
 10
15.3830607684
 20
13.4990996719
 30
0.0
 10
15.3975261468
 20
13.5367424835
 30
0.0
 10
15.4125220953
 20
13.5729898984
 30
0.0
 10
15.4280282766
 20
13.6077927843
 30
0.0
 10
15.4440236938
 20
13.6411040024
 30
0.0
 10
15.46048673
 20
13.6728784721
 30
0.0
 10
15.4773951918
 20
13.7030732309
 30
0.0
 10
15.4947263554
 20
13.7316474889
 30
0.0
 10
15.5124570189
 20
13.7585626756
 30
0.0
 10
15.5305635557
 20
13.7837824772
 30
0.0
 10
15.549021973
 20
13.8072728609
 30
0.0
 10
15.5678079712
 20
13.8290020792
 30
0.0
 10
15.5868969952
 20
13.8489406548
 30
0.0
 10
15.6062642811
 20
13.8670613416
 30
0.0
 10
15.6258848456
 20
13.8833390521
 30
0.0
 10
15.6457335389
 20
13.8977507924
 30
0.0
 10
15.6657846512
 20
13.9102754957
 30
0.0
 10
15.6860127863
 20
13.9208942387
 30
0.0
 10
15.7063888809
 20
13.9295892942
 30
0.0
 10
15.7202133458
 20
13.9341460125
 30
0.0
 10
15.7271179145
 20
13.9360821901
 30
0.0
  0
ENDSEC
  0
SECTION
  2
OBJECTS
  0
DICTIONARY
  5
C
100
AcDbDictionary
280
0
281
1
  3
ACAD_GROUP
350
D
  3
ACAD_MLINESTYLE
350
17
  3
ACAD_LAYOUT
350
1A
  3
ACAD_PLOTSETTINGS
350
19
  3
ACAD_PLOTSTYLENAME
350
E
  0
DICTIONARY
  5
D
102
{ACAD_REACTORS
330
C
102
}
100
AcDbDictionary
280
0
281
1
  0
ACDBDICTIONARYWDFLT
  5
E
102
{ACAD_REACTORS
330
C
102
}
100
AcDbDictionary
281
1
  3
Normal
350
F
100
AcDbDictionaryWithDefault
340
F
  0
DICTIONARY
  5
17
102
{ACAD_REACTORS
330
C
102
}
100
AcDbDictionary
280
0
281
1
  3
Standard
350
18
  0
DICTIONARY
  5
19
102
{ACAD_REACTORS
330
C
102
}
100
AcDbDictionary
281
1
  0
DICTIONARY
  5
1A
102
{ACAD_REACTORS
330
C
102
}
100
AcDbDictionary
281
1
  3
Model
350
30D
  3
Layout1
350
30E
  0
ACDBPLACEHOLDER
  5
F
102
{ACAD_REACTORS
330
E
102
}
  0
MLINESTYLE
  5
18
102
{ACAD_REACTORS
330
17
102
}
100
AcDbMlineStyle
  2
STANDARD
 70
0
  3

 62
256
 51
90.0
 52
90.0
 71
2
 49
0.5
 62
256
  6
BYLAYER
 49
-0.5
 62
256
  6
BYLAYER
  0
LAYOUT
  5
30D
102
{ACAD_REACTORS
330
1A
102
}
100
AcDbPlotSettings
  1

  2
none_device
  4
ANSI_C_(22.00_x_17.00_Inches)
  6

 40
0.0
 41
0.0
 42
0.0
 43
0.0
 44
558.8
 45
431.8
 46
0.0
 47
0.0
 48
0.0
 49
0.0
140
0.0
141
0.0
142
1.0
143
1.0
 70
1024
 72
0
 73
0
 74
0
  7

 75
0
147
1.0
148
0.0
149
0.0
100
AcDbLayout
  1
Model
 70
0
 71
0
 10
0.0
 20
0.0
 11
22.0
 21
17.0
 12
0.0
 22
0.0
 32
0.0
 14
0.0
 24
0.0
 34
0.0
 15
0.0
 25
0.0
 35
0.0
146
0.0
 13
0.0
 23
0.0
 33
0.0
 16
1.0
 26
0.0
 36
0.0
 17
0.0
 27
1.0
 37
0.0
 76
0
330
222
345
0
346
0
  0
LAYOUT
  5
30E
102
{ACAD_REACTORS
330
1A
102
}
100
AcDbPlotSettings
  1

  2
none_device
  4
ANSI_C_(22.00_x_17.00_Inches)
  6

 40
0.0
 41
0.0
 42
0.0
 43
0.0
 44
558.8
 45
431.8
 46
0.0
 47
0.0
 48
0.0
 49
0.0
140
0.0
141
0.0
142
1.0
143
1.0
 70
0
 72
0
 73
0
 74
0
  7

 75
0
147
1.0
148
0.0
149
0.0
100
AcDbLayout
  1
Layout1
 70
0
 71
1
 10
0.0
 20
0.0
 11
22.0
 21
17.0
 12
0.0
 22
0.0
 32
0.0
 14
0.0
 24
0.0
 34
0.0
 15
0.0
 25
0.0
 35
0.0
146
0.0
 13
0.0
 23
0.0
 33
0.0
 16
1.0
 26
0.0
 36
0.0
 17
0.0
 27
1.0
 37
0.0
 76
0
330
223
345
0
346
0
  0
ENDSEC
  0
EOF