999
DXF file: _cgs_temp_output.dxf
999
Pro/ENGINEER 2016360 by Parametric Technology Corporation
  0
SECTION
  2
HEADER
  9
$ACADVER
  1
AC1021
  9
$DWGCODEPAGE
  3
ANSI_1252
  9
$EXTMAX
 10
22.0
 20
17.0
 30
0.0
  9
$EXTMIN
 10
0.0
 20
0.0
 30
0.0
  9
$LIMMIN
 10
0.0
 20
0.0
  9
$LIMMAX
 10
22.0
 20
17.0
  9
$VIEWCTR
 10
11.0
 20
8.5
  9
$VIEWSIZE
 40
17.0
  9
$CLAYER
  8
0
  9
$LTSCALE
 40
1.21
  9
$CELTYPE
  6
BYLAYER
  9
$DIMSCALE
 40
1.0
  9
$DIMASZ
 40
0.1875
  9
$DIMEXO
 40
0.0625
  9
$DIMDLI
 40
0.836
  9
$DIMEXE
 40
0.125
  9
$DIMCEN
 40
0.198
  9
$DIMLFAC
 40
1.0
  9
$DIMBLK
  1
_CLOSED
  9
$DIMALT
 70
0
  9
$DIMALTF
 40
25.4
  9
$DIMTXT
 40
0.15625
  9
$DIMTOL
 70
0
  9
$DIMLIM
 70
0
  9
$DIMTFAC
 40
1.0
  9
$DIMGAP
 40
0.09
  9
$DIMDSEP
 70
46
  9
$AUNITS
 70
0
  9
$PDMODE
 70
3
  9
$PDSIZE
 40
0.3125
  9
$HANDSEED
  5
337
  9
$TILEMODE
 70
1
  9
$MEASUREMENT
 70
0
  9
$INSUNITS
 70
1
  0
ENDSEC
  0
SECTION
  2
CLASSES
  0
CLASS
  1
ACDBDICTIONARYWDFLT
  2
AcDbDictionaryWithDefault
  3
AutoCAD 2000
 90
0
 91
1
280
0
281
0
  0
CLASS
  1
ACDBPLACEHOLDER
  2
AcDbPlaceHolder
  3
AutoCAD 2000
 90
0
 91
1
280
0
281
0
  0
CLASS
  1
LAYOUT
  2
AcDbLayout
  3
AutoCAD 2000
 90
0
 91
0
280
0
281
0
  0
ENDSEC
  0
SECTION
  2
TABLES
  0
TABLE
  2
VPORT
  5
8
100
AcDbSymbolTable
 70
2
  0
VPORT
  5
1F4
100
AcDbSymbolTableRecord
100
AcDbViewportTableRecord
  2
*ACTIVE
 70
0
 10
0.0
 20
0.0
 11
1.0
 21
1.0
 12
11.0
 22
8.5
 13
0.0
 23
0.0
 14
1.0
 24
1.0
 15
0.0
 25
0.0
 16
0.0
 26
0.0
 36
1.0
 17
0.0
 27
0.0
 37
0.0
 40
17.0
 41
1.2941176471
 42
50.0
 43
0.0
 44
0.0
 50
0.0
 51
0.0
 71
0
 72
100
 73
1
 74
1
 75
0
 76
0
 77
0
 78
0
  0
ENDTAB
  0
TABLE
  2
LTYPE
  5
5
100
AcDbSymbolTable
 70
6
  0
LTYPE
  5
14
100
AcDbSymbolTableRecord
100
AcDbLinetypeTableRecord
  2
BYBLOCK
 70
0
  3

 72
65
 73
0
 40
0.0
  0
LTYPE
  5
15
100
AcDbSymbolTableRecord
100
AcDbLinetypeTableRecord
  2
BYLAYER
 70
0
  3

 72
65
 73
0
 40
0.0
  0
LTYPE
  5
16
100
AcDbSymbolTableRecord
100
AcDbLinetypeTableRecord
  2
CONTINUOUS
 70
64
  3
Solid line
 72
65
 73
0
 40
0.0
  0
LTYPE
  5
1F5
100
AcDbSymbolTableRecord
100
AcDbLinetypeTableRecord
  2
CENTER
 70
64
  3
____ _ ____ _ ____ _ ____ _ ____ _ ____ _ ____
 72
65
 73
4
 40
0.6
 49
0.375
 74
0
 49
-0.075
 74
0
 49
0.075
 74
0
 49
-0.075
 74
0
  0
LTYPE
  5
1F6
100
AcDbSymbolTableRecord
100
AcDbLinetypeTableRecord
  2
HIDDEN
 70
64
  3
- - - - - - - - - - - - - - - - - - - -
 72
65
 73
2
 40
0.2
 49
0.1
 74
0
 49
-0.1
 74
0
  0
LTYPE
  5
1F7
100
AcDbSymbolTableRecord
100
AcDbLinetypeTableRecord
  2
PHANTOM
 70
64
  3
_____ _ _ _____ _ _ _____ _ _ _____
 72
65
 73
6
 40
0.8
 49
0.45
 74
0
 49
-0.05
 74
0
 49
0.1
 74
0
 49
-0.05
 74
0
 49
0.1
 74
0
 49
-0.05
 74
0
  0
LTYPE
  5
1F8
100
AcDbSymbolTableRecord
100
AcDbLinetypeTableRecord
  2
DOT
 70
64
  3
. . . . . . . . . . . . . . . . . . . .
 72
65
 73
2
 40
0.2
 49
0.1
 74
0
 49
-0.1
 74
0
  0
LTYPE
  5
1F9
100
AcDbSymbolTableRecord
100
AcDbLinetypeTableRecord
  2
DASHED
 70
64
  3
- - - - - - - - - - - - - - - - - - - -
 72
65
 73
2
 40
0.2
 49
0.1
 74
0
 49
-0.1
 74
0
  0
ENDTAB
  0
TABLE
  2
LAYER
  5
2
100
AcDbSymbolTable
 70
36
  0
LAYER
  5
10
100
AcDbSymbolTableRecord
100
AcDbLayerTableRecord
  2
0
 70
0
 62
7
  6
CONTINUOUS
370
-3
390
F
  0
LAYER
  5
1FA
100
AcDbSymbolTableRecord
100
AcDbLayerTableRecord
  2
DEFAULT_1
 70
0
 62
7
  6
CENTER
370
-3
390
F
  0
LAYER
  5
1FB
100
AcDbSymbolTableRecord
100
AcDbLayerTableRecord
  2
DEFAULT_2
 70
0
 62
8
  6
HIDDEN
370
-3
390
F
  0
LAYER
  5
1FC
100
AcDbSymbolTableRecord
100
AcDbLayerTableRecord
  2
DEFAULT_3
 70
0
 62
7
  6
PHANTOM
370
-3
390
F
  0
LAYER
  5
1FD
100
AcDbSymbolTableRecord
100
AcDbLayerTableRecord
  2
01_ALL_DTM_PLN
 70
0
 62
7
  6
CONTINUOUS
370
-3
390
F
  0
LAYER
  5
1FE
100
AcDbSymbolTableRecord
100
AcDbLayerTableRecord
  2
01__ASM_ALL_DTM_PLN
 70
0
 62
7
  6
CONTINUOUS
370
-3
390
F
  0
LAYER
  5
1FF
100
AcDbSymbolTableRecord
100
AcDbLayerTableRecord
  2
01__ASM_DEF_DTM_PLN
 70
0
 62
7
  6
CONTINUOUS
370
-3
390
F
  0
LAYER
  5
200
100
AcDbSymbolTableRecord
100
AcDbLayerTableRecord
  2
01___PRT_ALL_DTM_PLN
 70
0
 62
7
  6
CONTINUOUS
370
-3
390
F
  0
LAYER
  5
201
100
AcDbSymbolTableRecord
100
AcDbLayerTableRecord
  2
01___PRT_DEF_DTM_PLN
 70
0
 62
7
  6
CONTINUOUS
370
-3
390
F
  0
LAYER
  5
202
100
AcDbSymbolTableRecord
100
AcDbLayerTableRecord
  2
02_ALL_AXES
 70
0
 62
7
  6
CONTINUOUS
370
-3
390
F
  0
LAYER
  5
203
100
AcDbSymbolTableRecord
100
AcDbLayerTableRecord
  2
02__ASM_ALL_AXES
 70
0
 62
7
  6
CONTINUOUS
370
-3
390
F
  0
LAYER
  5
204
100
AcDbSymbolTableRecord
100
AcDbLayerTableRecord
  2
02___PRT_ALL_AXES
 70
0
 62
7
  6
CONTINUOUS
370
-3
390
F
  0
LAYER
  5
205
100
AcDbSymbolTableRecord
100
AcDbLayerTableRecord
  2
03_ALL_CURVES
 70
0
 62
7
  6
CONTINUOUS
370
-3
390
F
  0
LAYER
  5
206
100
AcDbSymbolTableRecord
100
AcDbLayerTableRecord
  2
03__ASM_ALL_CURVES
 70
0
 62
7
  6
CONTINUOUS
370
-3
390
F
  0
LAYER
  5
207
100
AcDbSymbolTableRecord
100
AcDbLayerTableRecord
  2
03___PRT_ALL_CURVES
 70
0
 62
7
  6
CONTINUOUS
370
-3
390
F
  0
LAYER
  5
208
100
AcDbSymbolTableRecord
100
AcDbLayerTableRecord
  2
04_ALL_DTM_PNT
 70
0
 62
7
  6
CONTINUOUS
370
-3
390
F
  0
LAYER
  5
209
100
AcDbSymbolTableRecord
100
AcDbLayerTableRecord
  2
04__ASM_ALL_DTM_PNT
 70
0
 62
7
  6
CONTINUOUS
370
-3
390
F
  0
LAYER
  5
20A
100
AcDbSymbolTableRecord
100
AcDbLayerTableRecord
  2
04___PRT_ALL_DTM_PNT
 70
0
 62
7
  6
CONTINUOUS
370
-3
390
F
  0
LAYER
  5
20B
100
AcDbSymbolTableRecord
100
AcDbLayerTableRecord
  2
05_ALL_DTM_CSYS
 70
0
 62
7
  6
CONTINUOUS
370
-3
390
F
  0
LAYER
  5
20C
100
AcDbSymbolTableRecord
100
AcDbLayerTableRecord
  2
05__ASM_ALL_DTM_CSYS
 70
0
 62
7
  6
CONTINUOUS
370
-3
390
F
  0
LAYER
  5
20D
100
AcDbSymbolTableRecord
100
AcDbLayerTableRecord
  2
05__ASM_DEF_DTM_CSYS
 70
0
 62
7
  6
CONTINUOUS
370
-3
390
F
  0
LAYER
  5
20E
100
AcDbSymbolTableRecord
100
AcDbLayerTableRecord
  2
05___PRT_ALL_DTM_CSYS
 70
0
 62
7
  6
CONTINUOUS
370
-3
390
F
  0
LAYER
  5
20F
100
AcDbSymbolTableRecord
100
AcDbLayerTableRecord
  2
05___PRT_DEF_DTM_CSYS
 70
0
 62
7
  6
CONTINUOUS
370
-3
390
F
  0
LAYER
  5
210
100
AcDbSymbolTableRecord
100
AcDbLayerTableRecord
  2
06_ALL_SURFS
 70
0
 62
7
  6
CONTINUOUS
370
-3
390
F
  0
LAYER
  5
211
100
AcDbSymbolTableRecord
100
AcDbLayerTableRecord
  2
06__ASM_ALL_SURFS
 70
0
 62
7
  6
CONTINUOUS
370
-3
390
F
  0
LAYER
  5
212
100
AcDbSymbolTableRecord
100
AcDbLayerTableRecord
  2
06___PRT_ALL_SURFS
 70
0
 62
7
  6
CONTINUOUS
370
-3
390
F
  0
LAYER
  5
213
100
AcDbSymbolTableRecord
100
AcDbLayerTableRecord
  2
07__ASM_ALL_SKELETONS
 70
0
 62
7
  6
CONTINUOUS
370
-3
390
F
  0
LAYER
  5
214
100
AcDbSymbolTableRecord
100
AcDbLayerTableRecord
  2
DRAWINGS
 70
0
 62
7
  6
CONTINUOUS
370
-3
390
F
  0
LAYER
  5
215
100
AcDbSymbolTableRecord
100
AcDbLayerTableRecord
  2
SHELL
 70
0
 62
7
  6
CONTINUOUS
370
-3
390
F
  0
ENDTAB
  0
TABLE
  2
STYLE
  5
3
100
AcDbSymbolTable
 70
1
  0
STYLE
  5
11
100
AcDbSymbolTableRecord
100
AcDbTextStyleTableRecord
  2
STANDARD
 70
0
 40
0.0
 41
0.8
 50
0.0
 71
0
 42
0.2
  3
txt
  4

  0
STYLE
  5
216
100
AcDbSymbolTableRecord
100
AcDbTextStyleTableRecord
  2
TEXTSTYLE_1
 70
0
 40
0.0
 41
0.8
 50
0.0
 71
0
 42
0.2
  3
gdt
  4

  0
ENDTAB
  0
TABLE
  2
VIEW
  5
6
100
AcDbSymbolTable
 70
0
  0
ENDTAB
  0
TABLE
  2
UCS
  5
7
100
AcDbSymbolTable
 70
0
  0
ENDTAB
  0
TABLE
  2
APPID
  5
9
100
AcDbSymbolTable
 70
1
  0
APPID
  5
217
100
AcDbSymbolTableRecord
100
AcDbRegAppTableRecord
  2
ACAD
 70
0
  0
ENDTAB
  0
TABLE
  2
BLOCK_RECORD
  5
1
100
AcDbSymbolTable
 70
0
  0
BLOCK_RECORD
  5
218
100
AcDbSymbolTableRecord
100
AcDbBlockTableRecord
  2
*Model_Space
  0
BLOCK_RECORD
  5
219
100
AcDbSymbolTableRecord
100
AcDbBlockTableRecord
  2
*Paper_Space
  0
ENDTAB
  0
TABLE
  2
DIMSTYLE
  5
A
100
AcDbSymbolTable
 70
1
100
AcDbDimStyleTable
 71
0
  0
DIMSTYLE
105
21A
100
AcDbSymbolTableRecord
100
AcDbDimStyleTableRecord
  2
STANDARD
 70
0
  3

  4

 40
1.0
 41
0.1875
 42
0.0625
 43
0.38
 44
0.125
 45
0.0
 46
0.0
 47
0.0001
 48
0.0001
140
0.15625
141
0.09
142
0.0
143
25.4
144
1.0
145
0.0
146
1.0
147
0.09
 71
0.0
 72
0.0
 73
1
 74
1
 75
0
 76
0
 77
0
 78
4
 79
1
170
0
171
3
172
0
173
0
174
0
175
0
176
0
177
0
178
0
270
2
179
4
271
4
272
4
273
2
274
2
275
0
280
0
281
0
282
0
283
1
284
4
285
0
286
0
287
3
288
0
340
11
278
46
  0
ENDTAB
  0
ENDSEC
  0
SECTION
  2
BLOCKS
  0
BLOCK
  5
20
100
AcDbEntity
  8
0
100
AcDbBlockBegin
  2
*Model_Space
 70
0
 10
0.0
 20
0.0
 30
0.0
  3
*Model_Space
  1

  0
ENDBLK
  5
21
100
AcDbEntity
  8
0
100
AcDbBlockEnd
  0
BLOCK
  5
1C
100
AcDbEntity
  8
0
100
AcDbBlockBegin
  2
*Paper_Space
 70
0
 10
0.0
 20
0.0
 30
0.0
  3
*Paper_Space
  1

  0
ENDBLK
  5
1D
100
AcDbEntity
  8
0
100
AcDbBlockEnd
  0
ENDSEC
  0
SECTION
  2
ENTITIES
  0
MTEXT
  5
21B
100
AcDbEntity
  8
0
100
AcDbMText
 62
7
  6
CONTINUOUS
  7
STANDARD
 71
1
 72
1
 10
15.9560215477
 20
0.9479130325
 30
0.0
 11
1.0
 21
0.0
 31
0.0
 44
0.9
  1
SCALE: 1:1.000
 40
0.3
 41
3.36
  0
LINE
  5
21C
100
AcDbEntity
  8
0
100
AcDbLine
 62
7
  6
CONTINUOUS
 10
0.0
 20
0.0
 11
0.0
 21
17.0
  0
LINE
  5
21D
100
AcDbEntity
  8
0
100
AcDbLine
 62
7
  6
CONTINUOUS
 10
0.0
 20
0.0
 11
22.0
 21
0.0
  0
LINE
  5
21E
100
AcDbEntity
  8
0
100
AcDbLine
 62
7
  6
CONTINUOUS
 10
0.0
 20
17.0
 11
22.0
 21
17.0
  0
LINE
  5
21F
100
AcDbEntity
  8
0
100
AcDbLine
 62
7
  6
CONTINUOUS
 10
22.0
 20
0.0
 11
22.0
 21
17.0
  0
LINE
  5
220
100
AcDbEntity
  8
0
100
AcDbLine
 62
7
  6
CONTINUOUS
 10
5.1303672762
 20
5.6051198968
 11
5.1303672762
 21
5.4851198968
  0
LINE
  5
221
100
AcDbEntity
  8
0
100
AcDbLine
 62
7
  6
CONTINUOUS
 10
5.6303672762
 20
5.4851198968
 11
5.6303672762
 21
5.6451198968
  0
LINE
  5
222
100
AcDbEntity
  8
0
100
AcDbLine
 62
7
  6
CONTINUOUS
 10
5.3803672762
 20
5.2351198968
 11
6.8803672762
 21
5.2351198968
  0
LINE
  5
223
100
AcDbEntity
  8
0
100
AcDbLine
 62
7
  6
CONTINUOUS
 10
5.6303672762
 20
5.6451198968
 11
5.6453672762
 21
5.6301198968
  0
LINE
  5
224
100
AcDbEntity
  8
0
100
AcDbLine
 62
7
  6
CONTINUOUS
 10
6.7558682802
 20
5.6451198968
 11
6.7420557256
 21
5.6451198968
  0
LINE
  5
225
100
AcDbEntity
  8
0
100
AcDbLine
 62
7
  6
CONTINUOUS
 10
5.6256561989
 20
5.6451198968
 11
6.7418032116
 21
5.6451198968
  0
LINE
  5
226
100
AcDbEntity
  8
0
100
AcDbLine
 62
7
  6
CONTINUOUS
 10
7.0048662721
 20
5.6451198968
 11
7.0882439104
 21
5.6451198968
  0
LINE
  5
227
100
AcDbEntity
  8
0
100
AcDbLine
 62
7
  6
CONTINUOUS
 10
5.3303672762
 20
5.8051198968
 11
6.8742672762
 21
5.8051198968
  0
LINE
  5
228
100
AcDbEntity
  8
0
100
AcDbLine
 62
7
  6
CONTINUOUS
 10
6.6303672762
 20
5.6451198968
 11
6.6303672762
 21
5.4851198968
  0
LINE
  5
229
100
AcDbEntity
  8
0
100
AcDbLine
 62
7
  6
CONTINUOUS
 10
7.1303672762
 20
5.4851198968
 11
7.1303672762
 21
5.5490198968
  0
LINE
  5
22A
100
AcDbEntity
  8
0
100
AcDbLine
 62
7
  6
CONTINUOUS
 10
5.5087206096
 20
10.3500477814
 11
7.0287487181
 21
10.3500477814
  0
LINE
  5
22B
100
AcDbEntity
  8
0
100
AcDbLine
 62
7
  6
CONTINUOUS
 10
5.0708720839
 20
13.0850477814
 11
5.0708720839
 21
12.7350477814
  0
LINE
  5
22C
100
AcDbEntity
  8
0
100
AcDbLine
 62
7
  6
CONTINUOUS
 10
5.0708720839
 20
12.4650477814
 11
5.0708720839
 21
12.1150477814
  0
LINE
  5
22D
100
AcDbEntity
  8
0
100
AcDbLine
 62
7
  6
CONTINUOUS
 10
7.0558720839
 20
11.7800477814
 11
7.0437487181
 21
11.7800477814
  0
LINE
  5
22E
100
AcDbEntity
  8
0
100
AcDbLine
 62
7
  6
CONTINUOUS
 10
5.4937206096
 20
12.0700459002
 11
5.4937206096
 21
10.3650477814
  0
LINE
  5
22F
100
AcDbEntity
  8
0
100
AcDbLine
 62
7
  6
CONTINUOUS
 10
5.4937206096
 20
13.1300477814
 11
5.4937206096
 21
14.8350477814
  0
LINE
  5
230
100
AcDbEntity
  8
0
100
AcDbLine
 62
7
  6
CONTINUOUS
 10
5.5708720839
 20
12.6900477814
 11
5.5708720839
 21
12.5100477814
  0
LWPOLYLINE
  5
231
100
AcDbEntity
  8
0
100
AcDbPolyline
 62
7
  6
CONTINUOUS
 90
9
 70
0
 10
5.4937206476
 20
13.1300477433
 10
5.4933708815
 20
13.1265273646
 10
5.4899064321
 20
13.1185889144
 10
5.4835151561
 20
13.111900209
 10
5.4752900654
 20
13.106815656
 10
5.465679881
 20
13.1031850323
 10
5.4551003649
 20
13.1009641564
 10
5.4441818899
 20
13.1000818022
 10
5.4414698596
 20
13.1000477744
  0
LINE
  5
232
100
AcDbEntity
  8
0
100
AcDbLine
 62
7
  6
CONTINUOUS
 10
5.0858720839
 20
12.1000477814
 11
5.4414673316
 21
12.1000477814
  0
LINE
  5
233
100
AcDbEntity
  8
0
100
AcDbLine
 62
7
  6
CONTINUOUS
 10
6.5858720839
 20
12.1000477814
 11
7.0558720839
 21
12.1000477814
  0
LWPOLYLINE
  5
234
100
AcDbEntity
  8
0
100
AcDbPolyline
 62
7
  6
CONTINUOUS
 90
9
 70
0
 10
5.4414626714
 20
12.1000478166
 10
5.442624251
 20
12.100041699
 10
5.4537456105
 20
12.0993111343
 10
5.4645348247
 20
12.0972286213
 10
5.4743746878
 20
12.0937124455
 10
5.4828383759
 20
12.0887174945
 10
5.4895130717
 20
12.0820608311
 10
5.4932638829
 20
12.0740705067
 10
5.493720975
 20
12.0700459002
  0
LINE
  5
235
100
AcDbEntity
  8
0
100
AcDbLine
 62
7
  6
CONTINUOUS
 10
5.0858720839
 20
12.4800477814
 11
5.5408720839
 21
12.4800477814
  0
LINE
  5
236
100
AcDbEntity
  8
0
100
AcDbLine
 62
7
  6
CONTINUOUS
 10
6.5708720839
 20
12.4800477814
 11
7.0558720839
 21
12.4800477814
  0
LINE
  5
237
100
AcDbEntity
  8
0
100
AcDbLine
 62
7
  6
CONTINUOUS
 10
5.0858720839
 20
12.7200477814
 11
5.5408720839
 21
12.7200477814
  0
LINE
  5
238
100
AcDbEntity
  8
0
100
AcDbLine
 62
7
  6
CONTINUOUS
 10
6.5708720839
 20
12.7200477814
 11
7.0558720839
 21
12.7200477814
  0
LINE
  5
239
100
AcDbEntity
  8
0
100
AcDbLine
 62
7
  6
CONTINUOUS
 10
6.5708720839
 20
12.1110285435
 11
6.5708720839
 21
12.4950477814
  0
LINE
  5
23A
100
AcDbEntity
  8
0
100
AcDbLine
 62
7
  6
CONTINUOUS
 10
6.5708720839
 20
12.7050477814
 11
6.5708720839
 21
13.0890670193
  0
LINE
  5
23B
100
AcDbEntity
  8
0
100
AcDbLine
 62
7
  6
CONTINUOUS
 10
5.0858720839
 20
13.1000477814
 11
5.4414673316
 21
13.1000477814
  0
LINE
  5
23C
100
AcDbEntity
  8
0
100
AcDbLine
 62
7
  6
CONTINUOUS
 10
6.5858720839
 20
13.1000477814
 11
7.0558720839
 21
13.1000477814
  0
LINE
  5
23D
100
AcDbEntity
  8
0
100
AcDbLine
 62
7
  6
CONTINUOUS
 10
6.6958720839
 20
12.1000477814
 11
6.6958720839
 21
12.4800477814
  0
LINE
  5
23E
100
AcDbEntity
  8
0
100
AcDbLine
 62
7
  6
CONTINUOUS
 10
6.6958720839
 20
12.7200477814
 11
6.6958720839
 21
13.1000477814
  0
LINE
  5
23F
100
AcDbEntity
  8
0
100
AcDbLine
 62
7
  6
CONTINUOUS
 10
7.0467415955
 20
13.4200477814
 11
7.0558720839
 21
13.4200477814
  0
LINE
  5
240
100
AcDbEntity
  8
0
100
AcDbLine
 62
7
  6
CONTINUOUS
 10
6.9458720839
 20
12.1000477814
 11
6.9458720839
 21
12.4800477814
  0
LINE
  5
241
100
AcDbEntity
  8
0
100
AcDbLine
 62
7
  6
CONTINUOUS
 10
6.9458720839
 20
12.7200477814
 11
6.9458720839
 21
13.1000477814
  0
LINE
  5
242
100
AcDbEntity
  8
0
100
AcDbLine
 62
7
  6
CONTINUOUS
 10
7.0437487181
 20
10.3650477814
 11
7.0437487181
 21
11.7883196043
  0
LINE
  5
243
100
AcDbEntity
  8
0
100
AcDbLine
 62
7
  6
CONTINUOUS
 10
7.0437487181
 20
13.4350477814
 11
7.0437487181
 21
14.8350477814
  0
LINE
  5
244
100
AcDbEntity
  8
0
100
AcDbLine
 62
7
  6
CONTINUOUS
 10
7.0708720839
 20
11.7950477814
 11
7.0708720839
 21
12.0850477814
  0
LINE
  5
245
100
AcDbEntity
  8
0
100
AcDbLine
 62
7
  6
CONTINUOUS
 10
7.0708720839
 20
12.4950477814
 11
7.0708720839
 21
12.7050477814
  0
LINE
  5
246
100
AcDbEntity
  8
0
100
AcDbLine
 62
7
  6
CONTINUOUS
 10
7.0708720839
 20
13.1150477814
 11
7.0708720839
 21
13.4050477814
  0
LWPOLYLINE
  5
247
100
AcDbEntity
  8
0
100
AcDbPolyline
 62
7
  6
CONTINUOUS
 90
3
 70
0
 10
7.0451700053
 20
13.4243128412
 10
7.0440091295
 20
13.4303490023
 10
7.043748703
 20
13.4350477264
  0
LWPOLYLINE
  5
248
100
AcDbEntity
  8
0
100
AcDbPolyline
 62
7
  6
CONTINUOUS
 90
4
 70
0
 10
7.0480059518
 20
13.4179261668
 10
7.0478780229
 20
13.4180855741
 10
7.0467387627
 20
13.4200526725
 10
7.0451700053
 20
13.4243128412
  0
LINE
  5
249
100
AcDbEntity
  8
0
100
AcDbLine
 62
7
  6
CONTINUOUS
 10
5.5087206096
 20
14.8500477814
 11
7.0287487181
 21
14.8500477814
  0
LINE
  5
24A
100
AcDbEntity
  8
0
100
AcDbLine
 62
7
  6
CONTINUOUS
 10
13.3103552569
 20
5.6006247044
 11
13.3103552569
 21
5.7306247044
  0
LINE
  5
24B
100
AcDbEntity
  8
0
100
AcDbLine
 62
7
  6
CONTINUOUS
 10
14.7403552569
 20
5.1906247044
 11
14.7403552569
 21
5.5871036065
  0
LINE
  5
24C
100
AcDbEntity
  8
0
100
AcDbLine
 62
7
  6
CONTINUOUS
 10
15.0603552569
 20
5.190625419
 11
15.0603552569
 21
5.7306247044
  0
LINE
  5
24D
100
AcDbEntity
  8
0
100
AcDbLine
 62
7
  6
CONTINUOUS
 10
15.1903552569
 20
5.3306247044
 11
15.1903552569
 21
5.1906247044
  0
LINE
  5
24E
100
AcDbEntity
  8
0
100
AcDbLine
 62
7
  6
CONTINUOUS
 10
16.3653552569
 20
5.1756247044
 11
16.0753552569
 21
5.1756247044
  0
LINE
  5
24F
100
AcDbEntity
  8
0
100
AcDbLine
 62
7
  6
CONTINUOUS
 10
15.0453552569
 20
5.1756247044
 11
14.7553552569
 21
5.1756247044
  0
LINE
  5
250
100
AcDbEntity
  8
0
100
AcDbLine
 62
7
  6
CONTINUOUS
 10
15.0753552569
 20
5.1756247044
 11
16.0453552569
 21
5.1756247044
  0
LINE
  5
251
100
AcDbEntity
  8
0
100
AcDbLine
 62
7
  6
CONTINUOUS
 10
15.4403552569
 20
5.1906247044
 11
15.4403552569
 21
5.7306247044
  0
LINE
  5
252
100
AcDbEntity
  8
0
100
AcDbLine
 62
7
  6
CONTINUOUS
 10
15.0603552569
 20
5.3306247044
 11
15.4403552569
 21
5.3306247044
  0
LINE
  5
253
100
AcDbEntity
  8
0
100
AcDbLine
 62
7
  6
CONTINUOUS
 10
15.6803552569
 20
5.3306247044
 11
16.0603552569
 21
5.3306247044
  0
LINE
  5
254
100
AcDbEntity
  8
0
100
AcDbLine
 62
7
  6
CONTINUOUS
 10
15.6803552569
 20
5.1906247044
 11
15.6803552569
 21
5.7306247044
  0
LINE
  5
255
100
AcDbEntity
  8
0
100
AcDbLine
 62
7
  6
CONTINUOUS
 10
15.0603552569
 20
5.5806247044
 11
15.4403552569
 21
5.5806247044
  0
LINE
  5
256
100
AcDbEntity
  8
0
100
AcDbLine
 62
7
  6
CONTINUOUS
 10
15.6803552569
 20
5.5806247044
 11
16.0603552569
 21
5.5806247044
  0
LINE
  5
257
100
AcDbEntity
  8
0
100
AcDbLine
 62
7
  6
CONTINUOUS
 10
16.0603552569
 20
5.5856247044
 11
15.7195438686
 21
5.5856247044
  0
LINE
  5
258
100
AcDbEntity
  8
0
100
AcDbLine
 62
7
  6
CONTINUOUS
 10
15.4011666452
 20
5.5856247044
 11
15.0603552569
 21
5.5856247044
  0
LINE
  5
259
100
AcDbEntity
  8
0
100
AcDbLine
 62
7
  6
CONTINUOUS
 10
13.3253552569
 20
5.5856247044
 11
14.7403552569
 21
5.5856247044
  0
LINE
  5
25A
100
AcDbEntity
  8
0
100
AcDbLine
 62
7
  6
CONTINUOUS
 10
16.3953552569
 20
5.5856247044
 11
17.7953552569
 21
5.5856247044
  0
LINE
  5
25B
100
AcDbEntity
  8
0
100
AcDbLine
 62
7
  6
CONTINUOUS
 10
13.3253552569
 20
5.7456247044
 11
17.7953552569
 21
5.7456247044
  0
LINE
  5
25C
100
AcDbEntity
  8
0
100
AcDbLine
 62
7
  6
CONTINUOUS
 10
15.9303552569
 20
5.1906247044
 11
15.9303552569
 21
5.3306247044
  0
LINE
  5
25D
100
AcDbEntity
  8
0
100
AcDbLine
 62
7
  6
CONTINUOUS
 10
16.0603552569
 20
5.1906247044
 11
16.0603552569
 21
5.7306247044
  0
LINE
  5
25E
100
AcDbEntity
  8
0
100
AcDbLine
 62
7
  6
CONTINUOUS
 10
16.3803552569
 20
5.190625419
 11
16.3803552569
 21
5.5706247044
  0
LINE
  5
25F
100
AcDbEntity
  8
0
100
AcDbLine
 62
7
  6
CONTINUOUS
 10
17.8103552569
 20
5.7306247044
 11
17.8103552569
 21
5.6006247044
  0
LINE
  5
260
100
AcDbEntity
  8
0
100
AcDbLine
 62
7
  6
CONTINUOUS
 10
14.3177939531
 20
10.7047113597
 11
15.3325371802
 21
10.7047113597
  0
LINE
  5
261
100
AcDbEntity
  8
0
100
AcDbLine
 62
7
  6
CONTINUOUS
 10
15.5844112156
 20
10.7047113597
 11
15.6499412572
 21
10.7047113597
  0
LINE
  5
262
100
AcDbEntity
  8
0
100
AcDbLine
 62
7
  6
CONTINUOUS
 10
14.2873607671
 20
12.0497367626
 11
14.3239657911
 21
11.9751435664
  0
LINE
  5
263
100
AcDbEntity
  8
0
100
AcDbLine
 62
7
  6
CONTINUOUS
 10
14.280138857
 20
12.1153943776
 11
14.3648620701
 21
12.3895587959
  0
LINE
  5
264
100
AcDbEntity
  8
0
100
AcDbLine
 62
7
  6
CONTINUOUS
 10
14.4302199775
 20
12.6010570615
 11
14.5149431907
 21
12.8752214799
  0
LINE
  5
265
100
AcDbEntity
  8
0
100
AcDbLine
 62
7
  6
CONTINUOUS
 10
14.4740469116
 20
12.4608062504
 11
14.4374418876
 21
12.5353994466
  0
LWPOLYLINE
  5
266
100
AcDbEntity
  8
0
100
AcDbPolyline
 62
7
  6
CONTINUOUS
 90
10
 70
0
 10
14.8652260096
 20
12.9708375141
 10
14.8640281206
 20
12.9681659848
 10
14.8597750442
 20
12.9628860308
 10
14.8532372727
 20
12.9577988674
 10
14.8452845975
 20
12.9535622543
 10
14.8365572274
 20
12.9503350874
 10
14.8272211602
 20
12.9480437355
 10
14.8176129398
 20
12.9466791777
 10
14.8080290187
 20
12.9461769653
 10
14.8067227518
 20
12.9461698452
  0
LWPOLYLINE
  5
267
100
AcDbEntity
  8
0
100
AcDbPolyline
 62
7
  6
CONTINUOUS
 90
6
 70
0
 10
14.6009719835
 20
12.1511671124
 10
14.6049302278
 20
12.1488213696
 10
14.6079096371
 20
12.1458997642
 10
14.6088939809
 20
12.1437523636
 10
14.6088708232
 20
12.1414334135
 10
14.6086383862
 20
12.1405187746
  0
LINE
  5
268
100
AcDbEntity
  8
0
100
AcDbLine
 62
7
  6
CONTINUOUS
 10
14.6086389828
 20
12.140521747
 11
14.1959159014
 21
10.8049493661
  0
LINE
  5
269
100
AcDbEntity
  8
0
100
AcDbLine
 62
7
  6
CONTINUOUS
 10
14.8652259859
 20
12.9708375501
 11
15.277952367
 21
14.3064206521
  0
LINE
  5
26A
100
AcDbEntity
  8
0
100
AcDbLine
 62
7
  6
CONTINUOUS
 10
14.8297813169
 20
12.626184431
 11
14.7862093787
 21
12.4851855873
  0
LINE
  5
26B
100
AcDbEntity
  8
0
100
AcDbLine
 62
7
  6
CONTINUOUS
 10
14.6009719319
 20
12.1511667694
 11
14.6009677356
 21
12.1511687982
  0
LINE
  5
26C
100
AcDbEntity
  8
0
100
AcDbLine
 62
7
  6
CONTINUOUS
 10
16.0935992023
 20
12.1183375902
 11
16.0991426321
 21
12.1183375902
  0
LINE
  5
26D
100
AcDbEntity
  8
0
100
AcDbLine
 62
7
  6
CONTINUOUS
 10
15.6187234979
 20
12.1628429401
 11
15.8295543594
 21
12.1628429401
  0
LINE
  5
26E
100
AcDbEntity
  8
0
100
AcDbLine
 62
7
  6
CONTINUOUS
 10
14.4995134937
 20
12.4605071658
 11
14.7481999621
 21
12.4605071658
  0
LINE
  5
26F
100
AcDbEntity
  8
0
100
AcDbLine
 62
7
  6
CONTINUOUS
 10
15.7549887035
 20
12.6485056241
 11
15.9796354799
 21
12.6485056241
  0
LINE
  5
270
100
AcDbEntity
  8
0
100
AcDbLine
 62
7
  6
CONTINUOUS
 10
15.6066210225
 20
12.1775185197
 11
15.6995791476
 21
12.4783311226
  0
LINE
  5
271
100
AcDbEntity
  8
0
100
AcDbLine
 62
7
  6
CONTINUOUS
 10
15.7504130755
 20
12.6428297736
 11
15.8433712005
 21
12.9436423764
  0
LINE
  5
272
100
AcDbEntity
  8
0
100
AcDbLine
 62
7
  6
CONTINUOUS
 10
15.8912049771
 20
12.8410364043
 11
15.831708466
 21
12.6485056241
  0
LINE
  5
273
100
AcDbEntity
  8
0
100
AcDbLine
 62
7
  6
CONTINUOUS
 10
15.7352686082
 20
12.3364261299
 11
15.6816273455
 21
12.1628429401
  0
LINE
  5
274
100
AcDbEntity
  8
0
100
AcDbLine
 62
7
  6
CONTINUOUS
 10
15.7935615501
 20
12.2676660291
 11
15.7005237807
 21
12.4572570694
  0
LINE
  5
275
100
AcDbEntity
  8
0
100
AcDbLine
 62
7
  6
CONTINUOUS
 10
15.8453305456
 20
12.1616875117
 11
15.8976686003
 21
12.3310535187
  0
LINE
  5
276
100
AcDbEntity
  8
0
100
AcDbLine
 62
7
  6
CONTINUOUS
 10
15.9954116661
 20
12.6473501956
 11
16.0477497208
 21
12.8167162026
  0
LINE
  5
277
100
AcDbEntity
  8
0
100
AcDbLine
 62
7
  6
CONTINUOUS
 10
14.8067232427
 20
12.9461698497
 11
14.6495946142
 21
12.9461698497
  0
LINE
  5
278
100
AcDbEntity
  8
0
100
AcDbLine
 62
7
  6
CONTINUOUS
 10
16.1386337339
 20
12.0045809174
 11
16.1581259092
 21
11.9648600404
  0
LINE
  5
279
100
AcDbEntity
  8
0
100
AcDbLine
 62
7
  6
CONTINUOUS
 10
15.9020277518
 20
12.851385057
 11
15.9476236055
 21
12.7584704761
  0
LINE
  5
27A
100
AcDbEntity
  8
0
100
AcDbLine
 62
7
  6
CONTINUOUS
 10
16.0802022819
 20
12.0749851398
 11
16.1365238113
 21
12.2572416758
  0
LINE
  5
27B
100
AcDbEntity
  8
0
100
AcDbLine
 62
7
  6
CONTINUOUS
 10
16.2302834024
 20
12.5606478238
 11
16.2866049318
 21
12.7429043598
  0
LINE
  5
27C
100
AcDbEntity
  8
0
100
AcDbLine
 62
7
  6
CONTINUOUS
 10
15.6642725699
 20
10.7152826491
 11
16.0074764938
 21
11.8258909537
  0
LINE
  5
27D
100
AcDbEntity
  8
0
100
AcDbLine
 62
7
  6
CONTINUOUS
 10
16.4074161828
 20
13.1200962617
 11
16.7463090355
 21
14.2167539351
  0
LINE
  5
27E
100
AcDbEntity
  8
0
100
AcDbLine
 62
7
  6
CONTINUOUS
 10
16.2887148544
 20
12.4902436014
 11
16.3082070297
 21
12.4505227244
  0
LINE
  5
27F
100
AcDbEntity
  8
0
100
AcDbLine
 62
7
  6
CONTINUOUS
 10
16.4865933588
 20
12.9184315776
 11
16.416394125
 21
12.6912667738
  0
LINE
  5
280
100
AcDbEntity
  8
0
100
AcDbLine
 62
7
  6
CONTINUOUS
 10
16.3171469324
 20
12.3701027409
 11
16.2663130045
 21
12.2056040899
  0
LINE
  5
281
100
AcDbEntity
  8
0
100
AcDbLine
 62
7
  6
CONTINUOUS
 10
16.1670658119
 20
11.8844400569
 11
16.0968665781
 21
11.6572752531
  0
LINE
  5
282
100
AcDbEntity
  8
0
100
AcDbLine
 62
7
  6
CONTINUOUS
 10
16.4175152611
 20
13.0930898368
 11
16.4175172408
 21
13.0930878972
  0
LWPOLYLINE
  5
283
100
AcDbEntity
  8
0
100
AcDbPolyline
 62
7
  6
CONTINUOUS
 90
7
 70
0
 10
16.4175424592
 20
13.0930632131
 10
16.4150795006
 20
13.0958368731
 10
16.4116422347
 20
13.1010620122
 10
16.4089033393
 20
13.1070667935
 10
16.4073122594
 20
13.112989448
 10
16.4070175176
 20
13.1177452287
 10
16.4074153744
 20
13.1200936562
  0
LINE
  5
284
100
AcDbEntity
  8
0
100
AcDbLine
 62
7
  6
CONTINUOUS
 10
16.4581612808
 20
13.0385724381
 11
16.4776534561
 21
12.9988515611
  0
LINE
  5
285
100
AcDbEntity
  8
0
100
AcDbLine
 62
7
  6
CONTINUOUS
 10
16.4952367488
 20
14.3169919416
 11
15.2922836797
 21
14.3169919416
  0
ARC
  5
286
100
AcDbEntity
  8
0
100
AcDbCircle
 62
7
  6
CONTINUOUS
 10
5.3388737957
 20
5.5741864714
 40
0.3
100
AcDbArc
 50
15.8312208051
 51
43.2751731783
  0
ARC
  5
287
100
AcDbEntity
  8
0
100
AcDbCircle
 62
7
  6
CONTINUOUS
 10
5.3803672762
 20
5.4851198968
 40
0.25
100
AcDbArc
 50
180.0
 51
360.0
  0
ARC
  5
288
100
AcDbEntity
  8
0
100
AcDbCircle
 62
7
  6
CONTINUOUS
 10
5.3303672762
 20
5.6051198968
 40
0.2
100
AcDbArc
 50
90.0
 51
180.0
  0
CIRCLE
  5
289
100
AcDbEntity
  8
0
100
AcDbCircle
 62
7
  6
CONTINUOUS
 10
5.3803672762
 20
5.5151198968
 40
0.135
  0
CIRCLE
  5
28A
100
AcDbEntity
  8
0
100
AcDbCircle
 62
7
  6
CONTINUOUS
 10
5.3803672762
 20
5.5151198968
 40
0.125
  0
ARC
  5
28B
100
AcDbEntity
  8
0
100
AcDbCircle
 62
7
  6
CONTINUOUS
 10
5.641925683
 20
5.6601198968
 40
0.015
100
AcDbArc
 50
195.8312208051
 51
270.0
  0
ARC
  5
28C
100
AcDbEntity
  8
0
100
AcDbCircle
 62
7
  6
CONTINUOUS
 10
5.5682158019
 20
5.7901198968
 40
0.015
100
AcDbArc
 50
90.0
 51
223.2751731782
  0
ARC
  5
28D
100
AcDbEntity
  8
0
100
AcDbCircle
 62
7
  6
CONTINUOUS
 10
6.8742672762
 20
5.5490198968
 40
0.2561
100
AcDbArc
 50
0.0
 51
90.0
  0
ARC
  5
28E
100
AcDbEntity
  8
0
100
AcDbCircle
 62
7
  6
CONTINUOUS
 10
6.8803672762
 20
5.4851198968
 40
0.25
100
AcDbArc
 50
180.0
 51
360.0
  0
ARC
  5
28F
100
AcDbEntity
  8
0
100
AcDbCircle
 62
7
  6
CONTINUOUS
 10
6.8803672762
 20
5.5151198968
 40
0.19
100
AcDbArc
 50
43.1735511073
 51
136.8264488927
  0
CIRCLE
  5
290
100
AcDbEntity
  8
0
100
AcDbCircle
 62
7
  6
CONTINUOUS
 10
6.8803672762
 20
5.5151198968
 40
0.135
  0
CIRCLE
  5
291
100
AcDbEntity
  8
0
100
AcDbCircle
 62
7
  6
CONTINUOUS
 10
6.8803672762
 20
5.5151198968
 40
0.125
  0
CIRCLE
  5
292
100
AcDbEntity
  8
0
100
AcDbCircle
 62
7
  6
CONTINUOUS
 10
6.8803672762
 20
5.5151198968
 40
0.115
  0
ARC
  5
293
100
AcDbEntity
  8
0
100
AcDbCircle
 62
7
  6
CONTINUOUS
 10
7.0882439104
 20
5.6601198968
 40
0.015
100
AcDbArc
 50
270.0
 51
27.4390419944
  0
ARC
  5
294
100
AcDbEntity
  8
0
100
AcDbCircle
 62
7
  6
CONTINUOUS
 10
5.5408720839
 20
12.6900477814
 40
0.03
100
AcDbArc
 50
0.0
 51
90.0
  0
ARC
  5
295
100
AcDbEntity
  8
0
100
AcDbCircle
 62
7
  6
CONTINUOUS
 10
5.5408720839
 20
12.5100477814
 40
0.03
100
AcDbArc
 50
270.0
 51
360.0
  0
ARC
  5
296
100
AcDbEntity
  8
0
100
AcDbCircle
 62
7
  6
CONTINUOUS
 10
7.0287487181
 20
10.3650477814
 40
0.015
100
AcDbArc
 50
270.0
 51
360.0
  0
ARC
  5
297
100
AcDbEntity
  8
0
100
AcDbCircle
 62
7
  6
CONTINUOUS
 10
5.5087206096
 20
14.8350477814
 40
0.015
100
AcDbArc
 50
90.0
 51
180.0
  0
ARC
  5
298
100
AcDbEntity
  8
0
100
AcDbCircle
 62
7
  6
CONTINUOUS
 10
7.0287487181
 20
14.8350477814
 40
0.015
100
AcDbArc
 50
0.0
 51
90.0
  0
ARC
  5
299
100
AcDbEntity
  8
0
100
AcDbCircle
 62
7
  6
CONTINUOUS
 10
5.5087206096
 20
10.3650477814
 40
0.015
100
AcDbArc
 50
180.0
 51
270.0
  0
ARC
  5
29A
100
AcDbEntity
  8
0
100
AcDbCircle
 62
7
  6
CONTINUOUS
 10
6.5858720839
 20
13.0850477814
 40
0.015
100
AcDbArc
 50
90.0
 51
157.5
  0
ARC
  5
29B
100
AcDbEntity
  8
0
100
AcDbCircle
 62
7
  6
CONTINUOUS
 10
7.0558720839
 20
13.4050477814
 40
0.015
100
AcDbArc
 50
0.0
 51
90.0
  0
ARC
  5
29C
100
AcDbEntity
  8
0
100
AcDbCircle
 62
7
  6
CONTINUOUS
 10
7.0558720839
 20
13.1150477814
 40
0.015
100
AcDbArc
 50
270.0
 51
360.0
  0
ARC
  5
29D
100
AcDbEntity
  8
0
100
AcDbCircle
 62
7
  6
CONTINUOUS
 10
5.0858720839
 20
13.0850477814
 40
0.015
100
AcDbArc
 50
90.0
 51
180.0
  0
ARC
  5
29E
100
AcDbEntity
  8
0
100
AcDbCircle
 62
7
  6
CONTINUOUS
 10
7.0558720839
 20
12.7050477814
 40
0.015
100
AcDbArc
 50
0.0
 51
90.0
  0
ARC
  5
29F
100
AcDbEntity
  8
0
100
AcDbCircle
 62
7
  6
CONTINUOUS
 10
5.0858720839
 20
12.7350477814
 40
0.015
100
AcDbArc
 50
180.0
 51
270.0
  0
ARC
  5
2A0
100
AcDbEntity
  8
0
100
AcDbCircle
 62
7
  6
CONTINUOUS
 10
5.0858720839
 20
12.4650477814
 40
0.015
100
AcDbArc
 50
90.0
 51
180.0
  0
ARC
  5
2A1
100
AcDbEntity
  8
0
100
AcDbCircle
 62
7
  6
CONTINUOUS
 10
5.0858720839
 20
12.1150477814
 40
0.015
100
AcDbArc
 50
180.0
 51
270.0
  0
ARC
  5
2A2
100
AcDbEntity
  8
0
100
AcDbCircle
 62
7
  6
CONTINUOUS
 10
7.0558720839
 20
12.0850477814
 40
0.015
100
AcDbArc
 50
0.0
 51
90.0
  0
ARC
  5
2A3
100
AcDbEntity
  8
0
100
AcDbCircle
 62
7
  6
CONTINUOUS
 10
7.0558720839
 20
12.4950477814
 40
0.015
100
AcDbArc
 50
270.0
 51
360.0
  0
ARC
  5
2A4
100
AcDbEntity
  8
0
100
AcDbCircle
 62
7
  6
CONTINUOUS
 10
6.5858720839
 20
12.1150477814
 40
0.015
100
AcDbArc
 50
195.1545550162
 51
270.0
  0
ARC
  5
2A5
100
AcDbEntity
  8
0
100
AcDbCircle
 62
7
  6
CONTINUOUS
 10
7.0558720839
 20
11.7950477814
 40
0.015
100
AcDbArc
 50
270.0
 51
360.0
  0
ARC
  5
2A6
100
AcDbEntity
  8
0
100
AcDbCircle
 62
7
  6
CONTINUOUS
 10
16.0753552569
 20
5.1906247044
 40
0.015
100
AcDbArc
 50
180.0
 51
270.0
  0
ARC
  5
2A7
100
AcDbEntity
  8
0
100
AcDbCircle
 62
7
  6
CONTINUOUS
 10
16.3653552569
 20
5.1906247044
 40
0.015
100
AcDbArc
 50
270.0
 51
360.0
  0
ARC
  5
2A8
100
AcDbEntity
  8
0
100
AcDbCircle
 62
7
  6
CONTINUOUS
 10
16.0453552569
 20
5.1906247044
 40
0.015
100
AcDbArc
 50
270.0
 51
360.0
  0
ARC
  5
2A9
100
AcDbEntity
  8
0
100
AcDbCircle
 62
7
  6
CONTINUOUS
 10
14.7553552569
 20
5.1906247044
 40
0.015
100
AcDbArc
 50
180.0
 51
270.0
  0
ARC
  5
2AA
100
AcDbEntity
  8
0
100
AcDbCircle
 62
7
  6
CONTINUOUS
 10
15.0453552569
 20
5.1906247044
 40
0.015
100
AcDbArc
 50
270.0
 51
360.0
  0
ARC
  5
2AB
100
AcDbEntity
  8
0
100
AcDbCircle
 62
7
  6
CONTINUOUS
 10
15.0753552569
 20
5.1906247044
 40
0.015
100
AcDbArc
 50
180.0
 51
270.0
  0
ARC
  5
2AC
100
AcDbEntity
  8
0
100
AcDbCircle
 62
7
  6
CONTINUOUS
 10
13.3253552569
 20
5.6006247044
 40
0.015
100
AcDbArc
 50
180.0
 51
270.0
  0
ARC
  5
2AD
100
AcDbEntity
  8
0
100
AcDbCircle
 62
7
  6
CONTINUOUS
 10
15.9153552569
 20
5.1906247044
 40
0.015
100
AcDbArc
 50
270.0
 51
360.0
  0
ARC
  5
2AE
100
AcDbEntity
  8
0
100
AcDbCircle
 62
7
  6
CONTINUOUS
 10
13.3253552569
 20
5.7306247044
 40
0.015
100
AcDbArc
 50
90.0
 51
180.0
  0
ARC
  5
2AF
100
AcDbEntity
  8
0
100
AcDbCircle
 62
7
  6
CONTINUOUS
 10
15.0453552569
 20
5.7306247044
 40
0.015
100
AcDbArc
 50
0.0
 51
90.0
  0
ARC
  5
2B0
100
AcDbEntity
  8
0
100
AcDbCircle
 62
7
  6
CONTINUOUS
 10
17.7953552569
 20
5.7306247044
 40
0.015
100
AcDbArc
 50
0.0
 51
90.0
  0
ARC
  5
2B1
100
AcDbEntity
  8
0
100
AcDbCircle
 62
7
  6
CONTINUOUS
 10
17.7953552569
 20
5.6006247044
 40
0.015
100
AcDbArc
 50
270.0
 51
360.0
  0
ARC
  5
2B2
100
AcDbEntity
  8
0
100
AcDbCircle
 62
7
  6
CONTINUOUS
 10
15.4553552569
 20
5.7306247044
 40
0.015
100
AcDbArc
 50
90.0
 51
180.0
  0
ARC
  5
2B3
100
AcDbEntity
  8
0
100
AcDbCircle
 62
7
  6
CONTINUOUS
 10
15.4553552569
 20
5.1906247044
 40
0.015
100
AcDbArc
 50
180.0
 51
270.0
  0
ARC
  5
2B4
100
AcDbEntity
  8
0
100
AcDbCircle
 62
7
  6
CONTINUOUS
 10
15.2053552569
 20
5.1906247044
 40
0.015
100
AcDbArc
 50
180.0
 51
270.0
  0
ARC
  5
2B5
100
AcDbEntity
  8
0
100
AcDbCircle
 62
7
  6
CONTINUOUS
 10
15.1753552569
 20
5.5706247044
 40
0.015
100
AcDbArc
 50
42.1953233946
 51
90.0
  0
ARC
  5
2B6
100
AcDbEntity
  8
0
100
AcDbCircle
 62
7
  6
CONTINUOUS
 10
16.0753552569
 20
5.7306247044
 40
0.015
100
AcDbArc
 50
90.0
 51
180.0
  0
ARC
  5
2B7
100
AcDbEntity
  8
0
100
AcDbCircle
 62
7
  6
CONTINUOUS
 10
16.3953552569
 20
5.5706247044
 40
0.015
100
AcDbArc
 50
90.0
 51
180.0
  0
ARC
  5
2B8
100
AcDbEntity
  8
0
100
AcDbCircle
 62
7
  6
CONTINUOUS
 10
15.6653552569
 20
5.1906247044
 40
0.015
100
AcDbArc
 50
270.0
 51
360.0
  0
ARC
  5
2B9
100
AcDbEntity
  8
0
100
AcDbCircle
 62
7
  6
CONTINUOUS
 10
15.6653552569
 20
5.7306247044
 40
0.015
100
AcDbArc
 50
0.0
 51
90.0
  0
ARC
  5
2BA
100
AcDbEntity
  8
0
100
AcDbCircle
 62
7
  6
CONTINUOUS
 10
15.9453552569
 20
5.5706247044
 40
0.015
100
AcDbArc
 50
90.0
 51
137.8046766054
  0
ARC
  5
2BB
100
AcDbEntity
  8
0
100
AcDbCircle
 62
7
  6
CONTINUOUS
 10
13.9793757943
 20
10.3651342145
 40
0.4778112879
100
AcDbArc
 50
61.8023856733
 51
62.0644342431
  0
ARC
  5
2BC
100
AcDbEntity
  8
0
100
AcDbCircle
 62
7
  6
CONTINUOUS
 10
16.2492676714
 20
12.9453799329
 40
0.3413798697
100
AcDbArc
 50
269.09354887
 51
269.3521796675
  0
ARC
  5
2BD
100
AcDbEntity
  8
0
100
AcDbCircle
 62
7
  6
CONTINUOUS
 10
16.2492391138
 20
12.9428140432
 40
0.3388138212
100
AcDbArc
 50
269.3521027142
 51
269.6701362243
  0
ARC
  5
2BE
100
AcDbEntity
  8
0
100
AcDbCircle
 62
7
  6
CONTINUOUS
 10
15.4430096498
 20
10.4262851989
 40
0.312075902
100
AcDbArc
 50
63.225374019
 51
63.7536811713
  0
ARC
  5
2BF
100
AcDbEntity
  8
0
100
AcDbCircle
 62
7
  6
CONTINUOUS
 10
14.6495897533
 20
12.6831903121
 40
0.2629795377
100
AcDbArc
 50
89.9989409478
 51
91.122013583
  0
ARC
  5
2C0
100
AcDbEntity
  8
0
100
AcDbCircle
 62
7
  6
CONTINUOUS
 10
16.2391151695
 20
12.9110768743
 40
0.2548633192
100
AcDbArc
 50
44.1505668561
 51
45.5737048902
  0
ARC
  5
2C1
100
AcDbEntity
  8
0
100
AcDbCircle
 62
7
  6
CONTINUOUS
 10
16.0895597201
 20
12.8282390066
 40
0.1581565948
100
AcDbArc
 50
206.1763699306
 51
209.5440692625
  0
ARC
  5
2C2
100
AcDbEntity
  8
0
100
AcDbCircle
 62
7
  6
CONTINUOUS
 10
14.4659019057
 20
12.044912097
 40
0.1581565948
100
AcDbArc
 50
206.1763699306
 51
209.5440692625
  0
ARC
  5
2C3
100
AcDbEntity
  8
0
100
AcDbCircle
 62
7
  6
CONTINUOUS
 10
14.6107642847
 20
12.52790593
 40
0.1522957882
100
AcDbArc
 50
206.1413966964
 51
207.0833063565
  0
ARC
  5
2C4
100
AcDbEntity
  8
0
100
AcDbCircle
 62
7
  6
CONTINUOUS
 10
16.3463336979
 20
12.9343587633
 40
0.1463017426
100
AcDbArc
 50
23.6060403528
 51
26.1562398566
  0
ARC
  5
2C5
100
AcDbEntity
  8
0
100
AcDbCircle
 62
7
  6
CONTINUOUS
 10
16.1768872715
 20
12.3860299265
 40
0.1463017426
100
AcDbArc
 50
23.6060403528
 51
26.1562398566
  0
ARC
  5
2C6
100
AcDbEntity
  8
0
100
AcDbCircle
 62
7
  6
CONTINUOUS
 10
16.026806151
 20
11.9003672426
 40
0.1463017426
100
AcDbArc
 50
23.6060403528
 51
26.1562398566
  0
ARC
  5
2C7
100
AcDbEntity
  8
0
100
AcDbCircle
 62
7
  6
CONTINUOUS
 10
16.0341221989
 20
12.2280985149
 40
0.1203696607
100
AcDbArc
 50
39.6774132157
 51
42.4572046112
  0
ARC
  5
2C8
100
AcDbEntity
  8
0
100
AcDbCircle
 62
7
  6
CONTINUOUS
 10
16.1842033194
 20
12.7137611989
 40
0.1203696607
100
AcDbArc
 50
39.6774132157
 51
42.4572046112
  0
ARC
  5
2C9
100
AcDbEntity
  8
0
100
AcDbCircle
 62
7
  6
CONTINUOUS
 10
15.9227240692
 20
11.7112244831
 40
0.0535076379
100
AcDbArc
 50
5.3472586574
 51
9.5679251305
  0
ARC
  5
2CA
100
AcDbEntity
  8
0
100
AcDbCircle
 62
7
  6
CONTINUOUS
 10
16.7318968391
 20
14.2211125862
 40
0.0151051713
100
AcDbArc
 50
30.3075191119
 51
51.4890897635
  0
ARC
  5
2CB
100
AcDbEntity
  8
0
100
AcDbCircle
 62
7
  6
CONTINUOUS
 10
15.6498714646
 20
10.719746682
 40
0.0150771159
100
AcDbArc
 50
323.5340030855
 51
342.7776880585
  0
ARC
  5
2CC
100
AcDbEntity
  8
0
100
AcDbCircle
 62
7
  6
CONTINUOUS
 10
14.3178018666
 20
10.7197709275
 40
0.0150595699
100
AcDbArc
 50
254.8953752567
 51
269.9698921782
  0
ARC
  5
2CD
100
AcDbEntity
  8
0
100
AcDbCircle
 62
7
  6
CONTINUOUS
 10
16.7319696472
 20
14.2211835582
 40
0.0150071032
100
AcDbArc
 50
342.8334028788
 51
30.2138609381
  0
ARC
  5
2CE
100
AcDbEntity
  8
0
100
AcDbCircle
 62
7
  6
CONTINUOUS
 10
14.3177953066
 20
10.7197135769
 40
0.0150024937
100
AcDbArc
 50
222.3328408553
 51
254.8624883956
  0
ARC
  5
2CF
100
AcDbEntity
  8
0
100
AcDbCircle
 62
7
  6
CONTINUOUS
 10
14.2102477335
 20
10.8005208128
 40
0.0150004161
100
AcDbArc
 50
162.8287881204
 51
242.0628791962
  0
ARC
  5
2D0
100
AcDbEntity
  8
0
100
AcDbCircle
 62
7
  6
CONTINUOUS
 10
15.2922837436
 20
14.3019919437
 40
0.0149999989
100
AcDbArc
 50
90.0002441495
 51
162.8277085701
  0
ARC
  5
2D1
100
AcDbEntity
  8
0
100
AcDbCircle
 62
7
  6
CONTINUOUS
 10
15.6499413255
 20
10.7197112621
 40
0.0149998871
100
AcDbArc
 50
270.019499701
 51
323.4842071735
  0
SPLINE
  5
2D2
100
AcDbEntity
  8
0
100
AcDbSpline
 62
7
  6
CONTINUOUS
 70
0
 71
3
 72
15
 73
11
 74
0
 42
0.0000001
 43
0.0000001
 44
0.0000000001
 40
0.0
 40
0.0
 40
0.0
 40
0.0
 40
0.3177880195
 40
0.4673369214
 40
0.6058108937
 40
0.7297700249
 40
0.8365245745
 40
0.8831595606
 40
0.9255128924
 40
1.0
 40
1.0
 40
1.0
 40
1.0
 10
7.0181170493
 20
5.6601198968
 30
0.0
 10
7.0179160833
 20
5.6586071069
 30
0.0
 10
7.0176062353
 20
5.6563842064
 30
0.0
 10
7.0172743908
 20
5.6534937776
 30
0.0
 10
7.0171115687
 20
5.65152138
 30
0.0
 10
7.0170639102
 20
5.6497480995
 30
0.0
 10
7.0171532546
 20
5.6484149932
 30
0.0
 10
7.0173389811
 20
5.6474913479
 30
0.0
 10
7.0175781782
 20
5.646743768
 30
0.0
 10
7.0178684282
 20
5.6462441293
 30
0.0
 10
7.0181147864
 20
5.6459847877
 30
0.0
  0
SPLINE
  5
2D3
100
AcDbEntity
  8
0
100
AcDbSpline
 62
7
  6
CONTINUOUS
 70
0
 71
3
 72
11
 73
7
 74
0
 42
0.0000001
 43
0.0000001
 44
0.0000000001
 40
0.0
 40
0.0
 40
0.0
 40
0.0
 40
0.2115712126
 40
0.4440484585
 40
0.7057496876
 40
1.0
 40
1.0
 40
1.0
 40
1.0
 10
6.7426168158
 20
5.6459816922
 30
0.0
 10
6.7427672013
 20
5.6461400031
 30
0.0
 10
6.743036335
 20
5.6465179748
 30
0.0
 10
6.743318408
 20
5.6471938563
 30
0.0
 10
6.7435077636
 20
5.6479877692
 30
0.0
 10
6.743576598
 20
5.6485583722
 30
0.0
 10
6.7436014645
 20
5.648861035
 30
0.0
  0
SPLINE
  5
2D4
100
AcDbEntity
  8
0
100
AcDbSpline
 62
7
  6
CONTINUOUS
 70
0
 71
3
 72
12
 73
8
 74
0
 42
0.0000001
 43
0.0000001
 44
0.0000000001
 40
0.0
 40
0.0
 40
0.0
 40
0.0
 40
0.0988551899
 40
0.2078491956
 40
0.4514088467
 40
0.7195351623
 40
1.0
 40
1.0
 40
1.0
 40
1.0
 10
6.7436014645
 20
5.648861035
 30
0.0
 10
6.7436320045
 20
5.6492327519
 30
0.0
 10
6.7436596528
 20
5.6500173618
 30
0.0
 10
6.7436160147
 20
5.6517204887
 30
0.0
 10
6.74340866
 20
5.6540547646
 30
0.0
 10
6.7430376925
 20
5.6570202636
 30
0.0
 10
6.7427568499
 20
5.6590709502
 30
0.0
 10
6.742617503
 20
5.6601198968
 30
0.0
  0
SPLINE
  5
2D5
100
AcDbEntity
  8
0
100
AcDbSpline
 62
7
  6
CONTINUOUS
 70
0
 71
3
 72
11
 73
7
 74
0
 42
0.0000001
 43
0.0000001
 44
0.0000000001
 40
0.0
 40
0.0
 40
0.0
 40
0.0
 40
0.216759723
 40
0.4631781107
 40
0.7275903547
 40
1.0
 40
1.0
 40
1.0
 40
1.0
 10
5.6256561989
 20
5.6451198968
 30
0.0
 10
5.6248721521
 20
5.6451198968
 30
0.0
 10
5.6231978256
 20
5.6453563528
 30
0.0
 10
5.6206786073
 20
5.6461318167
 30
0.0
 10
5.6180541308
 20
5.647203725
 30
0.0
 10
5.6162782413
 20
5.6479887416
 30
0.0
 10
5.6153672762
 20
5.6483642895
 30
0.0
  0
SPLINE
  5
2D6
100
AcDbEntity
  8
0
100
AcDbSpline
 62
7
  6
CONTINUOUS
 70
0
 71
3
 72
9
 73
5
 74
0
 42
0.0000001
 43
0.0000001
 44
0.0000000001
 40
0.0
 40
0.0
 40
0.0
 40
0.0
 40
0.4998715645
 40
1.0
 40
1.0
 40
1.0
 40
1.0
 10
5.6153672762
 20
5.6483642895
 30
0.0
 10
5.6117185635
 20
5.6498684814
 30
0.0
 10
5.6047326278
 20
5.6536235171
 30
0.0
 10
5.5981380379
 20
5.6579582487
 30
0.0
 10
5.5948336488
 20
5.6601198968
 30
0.0
  0
SPLINE
  5
2D7
100
AcDbEntity
  8
0
100
AcDbSpline
 62
7
  6
CONTINUOUS
 70
0
 71
3
 72
9
 73
5
 74
0
 42
0.0000001
 43
0.0000001
 44
0.0000000001
 40
0.0
 40
0.0
 40
0.0
 40
0.0
 40
0.462728789
 40
1.0
 40
1.0
 40
1.0
 40
1.0
 10
6.8199795991
 20
5.2385183721
 30
0.0
 10
6.8199341171
 20
5.2387621742
 30
0.0
 10
6.8196614776
 20
5.2392498989
 30
0.0
 10
6.8192787009
 20
5.2396248996
 30
0.0
 10
6.81906212
 20
5.2398146733
 30
0.0
  0
SPLINE
  5
2D8
100
AcDbEntity
  8
0
100
AcDbSpline
 62
7
  6
CONTINUOUS
 70
0
 71
3
 72
18
 73
14
 74
0
 42
0.0000001
 43
0.0000001
 44
0.0000000001
 40
0.0
 40
0.0
 40
0.0
 40
0.0
 40
0.0565722903
 40
0.1161759999
 40
0.1773108735
 40
0.2391954365
 40
0.3015798826
 40
0.3643474104
 40
0.4906587614
 40
0.6176121004
 40
0.7449185985
 40
0.8724154362
 40
1.0
 40
1.0
 40
1.0
 40
1.0
 10
6.81906212
 20
5.2398146733
 30
0.0
 10
6.8186907731
 20
5.2401400567
 30
0.0
 10
6.8178614192
 20
5.2407309985
 30
0.0
 10
6.8165201238
 20
5.2415040897
 30
0.0
 10
6.815091618
 20
5.2422124027
 30
0.0
 10
6.8136294256
 20
5.2429052356
 30
0.0
 10
6.8121438652
 20
5.2435820367
 30
0.0
 10
6.8101317094
 20
5.2444583944
 30
0.0
 10
6.8075790385
 20
5.2455040408
 30
0.0
 10
6.8044771579
 20
5.2466920378
 30
0.0
 10
6.8013497901
 20
5.2478412236
 30
0.0
 10
6.7982091341
 20
5.2489698636
 30
0.0
 10
6.7961203481
 20
5.2497400017
 30
0.0
 10
6.7950736656
 20
5.2501198968
 30
0.0
  0
SPLINE
  5
2D9
100
AcDbEntity
  8
0
100
AcDbSpline
 62
7
  6
CONTINUOUS
 70
0
 71
3
 72
15
 73
11
 74
0
 42
0.0000001
 43
0.0000001
 44
0.0000000001
 40
0.0
 40
0.0
 40
0.0
 40
0.0
 40
0.0535623081
 40
0.1203263689
 40
0.2074800351
 40
0.3179135189
 40
0.4526169232
 40
0.6116337113
 40
0.7944800397
 40
1.0
 40
1.0
 40
1.0
 40
1.0
 10
6.8214419934
 20
5.2351198968
 30
0.0
 10
6.8213733829
 20
5.2351198968
 30
0.0
 10
6.8212188787
 20
5.2351689774
 30
0.0
 10
6.8210205679
 20
5.2353522955
 30
0.0
 10
6.8208302965
 20
5.2356342438
 30
0.0
 10
6.8206451962
 20
5.2360186519
 30
0.0
 10
6.8204652702
 20
5.2365045862
 30
0.0
 10
6.8202918416
 20
5.2370902468
 30
0.0
 10
6.8201264294
 20
5.23777184
 30
0.0
 10
6.8200278724
 20
5.2382595756
 30
0.0
 10
6.8199795991
 20
5.2385183721
 30
0.0
  0
SPLINE
  5
2DA
100
AcDbEntity
  8
0
100
AcDbSpline
 62
7
  6
CONTINUOUS
 70
0
 71
3
 72
13
 73
9
 74
0
 42
0.0000001
 43
0.0000001
 44
0.0000000001
 40
0.0
 40
0.0
 40
0.0
 40
0.0
 40
0.1250012386
 40
0.2500348626
 40
0.3750716994
 40
0.5001187763
 40
0.7500095205
 40
1.0
 40
1.0
 40
1.0
 40
1.0
 10
6.5708720839
 20
13.0890670193
 30
0.0
 10
6.5708720839
 20
13.0903511738
 30
0.0
 10
6.5711210621
 20
13.0929248844
 30
0.0
 10
6.5721431671
 20
13.0966557304
 30
0.0
 10
6.573700929
 20
13.1001935942
 30
0.0
 10
6.5763383709
 20
13.1046132834
 30
0.0
 10
6.5804247585
 20
13.1096013809
 30
0.0
 10
6.5840561022
 20
13.1132317998
 30
0.0
 10
6.5858720839
 20
13.1150477814
 30
0.0
  0
SPLINE
  5
2DB
100
AcDbEntity
  8
0
100
AcDbSpline
 62
7
  6
CONTINUOUS
 70
0
 71
3
 72
13
 73
9
 74
0
 42
0.0000001
 43
0.0000001
 44
0.0000000001
 40
0.0
 40
0.0
 40
0.0
 40
0.0
 40
0.2499904795
 40
0.4998812237
 40
0.6249283006
 40
0.7499651374
 40
0.8749987614
 40
1.0
 40
1.0
 40
1.0
 40
1.0
 10
6.5858720839
 20
12.0850477814
 30
0.0
 10
6.5840561022
 20
12.086863763
 30
0.0
 10
6.5804247585
 20
12.0904941818
 30
0.0
 10
6.5763383709
 20
12.0954822794
 30
0.0
 10
6.573700929
 20
12.0999019685
 30
0.0
 10
6.5721431671
 20
12.1034398323
 30
0.0
 10
6.5711210621
 20
12.1071706783
 30
0.0
 10
6.5708720839
 20
12.1097443889
 30
0.0
 10
6.5708720839
 20
12.1110285435
 30
0.0
  0
SPLINE
  5
2DC
100
AcDbEntity
  8
0
100
AcDbSpline
 62
7
  6
CONTINUOUS
 70
0
 71
3
 72
9
 73
5
 74
0
 42
0.0000001
 43
0.0000001
 44
0.0000000001
 40
0.0
 40
0.0
 40
0.0
 40
0.0
 40
0.2664734024
 40
1.0
 40
1.0
 40
1.0
 40
1.0
 10
7.042061242
 20
11.7950477814
 30
0.0
 10
7.0423266854
 20
11.7944888623
 30
0.0
 10
7.0432316124
 20
11.792353435
 30
0.0
 10
7.0437486839
 20
11.7900228398
 30
0.0
 10
7.0437487181
 20
11.7883195963
 30
0.0
  0
SPLINE
  5
2DD
100
AcDbEntity
  8
0
100
AcDbSpline
 62
7
  6
CONTINUOUS
 70
0
 71
3
 72
13
 73
9
 74
0
 42
0.0000001
 43
0.0000001
 44
0.0000000001
 40
0.0
 40
0.0
 40
0.0
 40
0.0
 40
0.2500092285
 40
0.4999870616
 40
0.625001179
 40
0.7500141645
 40
0.8750195302
 40
1.0
 40
1.0
 40
1.0
 40
1.0
 10
15.4011666452
 20
5.5856247044
 30
0.0
 10
15.403880073
 20
5.5856247044
 30
0.0
 10
15.4093066973
 20
5.5855763646
 30
0.0
 10
15.4160852993
 20
5.5851647341
 30
0.0
 10
15.4214643423
 20
5.5844246918
 30
0.0
 10
15.4254536764
 20
5.583594687
 30
0.0
 10
15.4293526566
 20
5.5824058039
 30
0.0
 10
15.4318421866
 20
5.5812973835
 30
0.0
 10
15.4330293575
 20
5.5806411925
 30
0.0
  0
SPLINE
  5
2DE
100
AcDbEntity
  8
0
100
AcDbSpline
 62
7
  6
CONTINUOUS
 70
0
 71
3
 72
13
 73
9
 74
0
 42
0.0000001
 43
0.0000001
 44
0.0000000001
 40
0.0
 40
0.0
 40
0.0
 40
0.0
 40
0.1249801064
 40
0.249984588
 40
0.3749967539
 40
0.5000107846
 40
0.7499894548
 40
1.0
 40
1.0
 40
1.0
 40
1.0
 10
15.687665547
 20
5.5806325457
 30
0.0
 10
15.6888528882
 20
5.5812899531
 30
0.0
 10
15.6913431275
 20
5.5824005075
 30
0.0
 10
15.6952438084
 20
5.5835914604
 30
0.0
 10
15.6992351171
 20
5.5844228685
 30
0.0
 10
15.7046170022
 20
5.585164093
 30
0.0
 10
15.7113993282
 20
5.5855763113
 30
0.0
 10
15.7168289428
 20
5.5856247044
 30
0.0
 10
15.7195438686
 20
5.5856247044
 30
0.0
  0
SPLINE
  5
2DF
100
AcDbEntity
  8
0
100
AcDbSpline
 62
7
  6
CONTINUOUS
 70
0
 71
3
 72
15
 73
11
 74
0
 42
0.0000001
 43
0.0000001
 44
0.0000000001
 40
0.0
 40
0.0
 40
0.0
 40
0.0
 40
0.2968890679
 40
0.4413748524
 40
0.5801353573
 40
0.70981565
 40
0.8260886659
 40
0.9240488749
 40
0.9648992278
 40
1.0
 40
1.0
 40
1.0
 40
1.0
 10
14.7486270719
 20
5.6006249667
 30
0.0
 10
14.7475853973
 20
5.599427352
 30
0.0
 10
14.7460851133
 20
5.5976033777
 30
0.0
 10
14.7442403652
 20
5.5951093107
 30
0.0
 10
14.7430012997
 20
5.5932813646
 30
0.0
 10
14.7419362176
 20
5.591520081
 30
0.0
 10
14.7410982755
 20
5.5898820727
 30
0.0
 10
14.740603325
 20
5.5886050538
 30
0.0
 10
14.7403951917
 20
5.5876973591
 30
0.0
 10
14.7403552569
 20
5.587291265
 30
0.0
 10
14.7403552569
 20
5.5871036065
 30
0.0
  0
SPLINE
  5
2E0
100
AcDbEntity
  8
0
100
AcDbSpline
 62
7
  6
CONTINUOUS
 70
0
 71
3
 72
9
 73
5
 74
0
 42
0.0000001
 43
0.0000001
 44
0.0000000001
 40
0.0
 40
0.0
 40
0.0
 40
0.0
 40
0.4926855991
 40
1.0
 40
1.0
 40
1.0
 40
1.0
 10
14.7553552569
 20
5.6075367741
 30
0.0
 10
14.7541859088
 20
5.6064671796
 30
0.0
 10
14.7518789589
 20
5.6042229076
 30
0.0
 10
14.7496979802
 20
5.6018561914
 30
0.0
 10
14.7486270719
 20
5.6006249667
 30
0.0
  0
SPLINE
  5
2E1
100
AcDbEntity
  8
0
100
AcDbSpline
 62
7
  6
CONTINUOUS
 70
0
 71
3
 72
15
 73
11
 74
0
 42
0.0000001
 43
0.0000001
 44
0.0000000001
 40
0.0
 40
0.0
 40
0.0
 40
0.0
 40
0.1182078307
 40
0.241151412
 40
0.3674330834
 40
0.4957615493
 40
0.6246536313
 40
0.7525993712
 40
0.8782241882
 40
1.0
 40
1.0
 40
1.0
 40
1.0
 10
16.7413022802
 20
14.2329322257
 30
0.0
 10
16.7331384704
 20
14.2394110882
 30
0.0
 10
16.7158078216
 20
14.2517930499
 30
0.0
 10
16.6878436536
 20
14.2682227157
 30
0.0
 10
16.6578006459
 20
14.2826466197
 30
0.0
 10
16.6262174818
 20
14.2948187525
 30
0.0
 10
16.5936437766
 20
14.3045416627
 30
0.0
 10
16.5606405042
 20
14.3116368628
 30
0.0
 10
16.5277963745
 20
14.315970504
 30
0.0
 10
16.5059735913
 20
14.3169919416
 30
0.0
 10
16.4952367488
 20
14.3169919416
 30
0.0
  0
SPLINE
  5
2E2
100
AcDbEntity
  8
0
100
AcDbSpline
 62
7
  6
CONTINUOUS
 70
0
 71
3
 72
17
 73
13
 74
0
 42
0.0000001
 43
0.0000001
 44
0.0000000001
 40
0.0
 40
0.0
 40
0.0
 40
0.0
 40
0.0529885582
 40
0.1061418718
 40
0.1598304878
 40
0.2143867287
 40
0.3270797768
 40
0.4460503191
 40
0.5725728884
 40
0.7072389866
 40
0.8499451361
 40
1.0
 40
1.0
 40
1.0
 40
1.0
 10
16.416394125
 20
12.6912667738
 30
0.0
 10
16.4153340261
 20
12.6878362926
 30
0.0
 10
16.4128030667
 20
12.6810832662
 30
0.0
 10
16.4078441551
 20
12.6714299654
 30
0.0
 10
16.4017709691
 20
12.6623066446
 30
0.0
 10
16.3921532726
 20
12.6508011655
 30
0.0
 10
16.3774620337
 20
12.6379357458
 30
0.0
 10
16.3565449206
 20
12.6254152824
 30
0.0
 10
16.3325981638
 20
12.6156883543
 30
0.0
 10
16.3060457261
 20
12.6087808621
 30
0.0
 10
16.2773143105
 20
12.6047254426
 30
0.0
 10
16.2574561652
 20
12.6039473385
 30
0.0
 10
16.2472885026
 20
12.6040058371
 30
0.0
  0
SPLINE
  5
2E3
100
AcDbEntity
  8
0
100
AcDbSpline
 62
7
  6
CONTINUOUS
 70
0
 71
3
 72
11
 73
7
 74
0
 42
0.0000001
 43
0.0000001
 44
0.0000000001
 40
0.0
 40
0.0
 40
0.0
 40
0.0
 40
0.266860298
 40
0.5226666478
 40
0.7671327824
 40
1.0
 40
1.0
 40
1.0
 40
1.0
 10
16.007443289
 20
12.6873790825
 30
0.0
 10
16.0016023264
 20
12.6920831649
 30
0.0
 10
15.990503022
 20
12.7017319119
 30
0.0
 10
15.9754544047
 20
12.7172083509
 30
0.0
 10
15.9625054963
 20
12.7332741568
 30
0.0
 10
15.9551929236
 20
12.7445589854
 30
0.0
 10
15.9519671694
 20
12.7502531203
 30
0.0
  0
SPLINE
  5
2E4
100
AcDbEntity
  8
0
100
AcDbSpline
 62
7
  6
CONTINUOUS
 70
0
 71
3
 72
13
 73
9
 74
0
 42
0.0000001
 43
0.0000001
 44
0.0000000001
 40
0.0
 40
0.0
 40
0.0
 40
0.0
 40
0.1203431344
 40
0.2409554489
 40
0.3624669838
 40
0.4854471318
 40
0.7373631921
 40
1.0
 40
1.0
 40
1.0
 40
1.0
 10
16.4865933588
 20
12.9184315776
 30
0.0
 10
16.4874975751
 20
12.9213576228
 30
0.0
 10
16.4890153863
 20
12.9273112502
 30
0.0
 10
16.4904002938
 20
12.9364451753
 30
0.0
 10
16.4908945575
 20
12.9457383434
 30
0.0
 10
16.4903702769
 20
12.9583764822
 30
0.0
 10
16.4874808506
 20
12.9744296785
 30
0.0
 10
16.4830688291
 20
12.986819916
 30
0.0
 10
16.4803929864
 20
12.9929446578
 30
0.0
  0
SPLINE
  5
2E5
100
AcDbEntity
  8
0
100
AcDbSpline
 62
7
  6
CONTINUOUS
 70
0
 71
3
 72
10
 73
6
 74
0
 42
0.0000001
 43
0.0000001
 44
0.0000000001
 40
0.0
 40
0.0
 40
0.0
 40
0.0
 40
0.4817385764
 40
0.7362671265
 40
1.0
 40
1.0
 40
1.0
 40
1.0
 10
16.4581612808
 20
13.0385724381
 30
0.0
 10
16.4537788631
 20
13.0475028664
 30
0.0
 10
16.445755717
 20
13.0605309781
 30
0.0
 10
16.4329844462
 20
13.0767673232
 30
0.0
 10
16.4257758592
 20
13.0846932488
 30
0.0
 10
16.4219826172
 20
13.0886009798
 30
0.0
  0
SPLINE
  5
2E6
100
AcDbEntity
  8
0
100
AcDbSpline
 62
7
  6
CONTINUOUS
 70
0
 71
3
 72
9
 73
5
 74
0
 42
0.0000001
 43
0.0000001
 44
0.0000000001
 40
0.0
 40
0.0
 40
0.0
 40
0.0
 40
0.4842683499
 40
1.0
 40
1.0
 40
1.0
 40
1.0
 10
16.0883700262
 20
12.8520765715
 30
0.0
 10
16.0939436957
 20
12.8533874361
 30
0.0
 10
16.1056454463
 20
12.8553057058
 30
0.0
 10
16.1174782596
 20
12.8558943578
 30
0.0
 10
16.1235760111
 20
12.8558943578
 30
0.0
  0
SPLINE
  5
2E7
100
AcDbEntity
  8
0
100
AcDbSpline
 62
7
  6
CONTINUOUS
 70
0
 71
3
 72
9
 73
5
 74
0
 42
0.0000001
 43
0.0000001
 44
0.0000000001
 40
0.0
 40
0.0
 40
0.0
 40
0.0
 40
0.5142283542
 40
1.0
 40
1.0
 40
1.0
 40
1.0
 10
16.2730056339
 20
12.7945218954
 30
0.0
 10
16.2748372711
 20
12.792161678
 30
0.0
 10
16.2781988534
 20
12.7874115141
 30
0.0
 10
16.2810666362
 20
12.7823438894
 30
0.0
 10
16.2823099505
 20
12.7798102812
 30
0.0
  0
SPLINE
  5
2E8
100
AcDbEntity
  8
0
100
AcDbSpline
 62
7
  6
CONTINUOUS
 70
0
 71
3
 72
13
 73
9
 74
0
 42
0.0000001
 43
0.0000001
 44
0.0000000001
 40
0.0
 40
0.0
 40
0.0
 40
0.0
 40
0.1147901005
 40
0.2307092823
 40
0.3487990503
 40
0.4700097331
 40
0.7247115322
 40
1.0
 40
1.0
 40
1.0
 40
1.0
 10
16.0477495642
 20
12.816716251
 30
0.0
 10
16.0482362123
 20
12.8182910251
 30
0.0
 10
16.0494081159
 20
12.8213997488
 30
0.0
 10
16.051728015
 20
12.8258508448
 30
0.0
 10
16.0545992282
 20
12.8300801325
 30
0.0
 10
16.0592167179
 20
12.8354816002
 30
0.0
 10
16.0664002663
 20
12.8415684695
 30
0.0
 10
16.0730281288
 20
12.8453859739
 30
0.0
 10
16.0765892635
 20
12.8471015342
 30
0.0
  0
SPLINE
  5
2E9
100
AcDbEntity
  8
0
100
AcDbSpline
 62
7
  6
CONTINUOUS
 70
0
 71
3
 72
9
 73
5
 74
0
 42
0.0000001
 43
0.0000001
 44
0.0000000001
 40
0.0
 40
0.0
 40
0.0
 40
0.0
 40
0.2428763973
 40
1.0
 40
1.0
 40
1.0
 40
1.0
 10
16.0765892635
 20
12.8471015342
 30
0.0
 10
16.077499812
 20
12.8475401867
 30
0.0
 10
16.0812830366
 20
12.849274888
 30
0.0
 10
16.0851919419
 20
12.8507312277
 30
0.0
 10
16.0881922547
 20
12.8516929368
 30
0.0
  0
SPLINE
  5
2EA
100
AcDbEntity
  8
0
100
AcDbSpline
 62
7
  6
CONTINUOUS
 70
0
 71
3
 72
17
 73
13
 74
0
 42
0.0000001
 43
0.0000001
 44
0.0000000001
 40
0.0
 40
0.0
 40
0.0
 40
0.0
 40
0.1480857717
 40
0.2891691455
 40
0.42258762
 40
0.5485571714
 40
0.667817811
 40
0.7816276739
 40
0.8369971658
 40
0.8916363912
 40
0.9458548188
 40
1.0
 40
1.0
 40
1.0
 40
1.0
 10
14.6444401985
 20
12.9461194267
 30
0.0
 10
14.6366714074
 20
12.9459668276
 30
0.0
 10
14.6215027328
 20
12.9449912255
 30
0.0
 10
14.5995889432
 20
12.9413477772
 30
0.0
 10
14.5793379495
 20
12.9355477555
 30
0.0
 10
14.56105129
 20
12.9276123222
 30
0.0
 10
14.5450346186
 20
12.9175402781
 30
0.0
 10
14.533762497
 20
12.9072923547
 30
0.0
 10
14.5263453713
 20
12.8981632836
 30
0.0
 10
14.5216362593
 20
12.8909259617
 30
0.0
 10
14.517770444
 20
12.8832781315
 30
0.0
 10
14.5157820125
 20
12.8779359084
 30
0.0
 10
14.5149431907
 20
12.8752214799
 30
0.0
  0
SPLINE
  5
2EB
100
AcDbEntity
  8
0
100
AcDbSpline
 62
7
  6
CONTINUOUS
 70
0
 71
3
 72
20
 73
16
 74
0
 42
0.0000001
 43
0.0000001
 44
0.0000000001
 40
0.0
 40
0.0
 40
0.0
 40
0.0
 40
0.0504479059
 40
0.1033419163
 40
0.1586380638
 40
0.2162882552
 40
0.2762194011
 40
0.3382612149
 40
0.467496304
 40
0.6014354936
 40
0.7369558394
 40
0.804313886
 40
0.870881665
 40
0.936261122
 40
1.0
 40
1.0
 40
1.0
 40
1.0
 10
16.2887148544
 20
12.4902436014
 30
0.0
 10
16.2860287885
 20
12.4957172282
 30
0.0
 10
16.2798566159
 20
12.5066099206
 30
0.0
 10
16.2687243817
 20
12.5222548752
 30
0.0
 10
16.2556216532
 20
12.5374580186
 30
0.0
 10
16.2406843493
 20
12.5520991069
 30
0.0
 10
16.2240479761
 20
12.5660776424
 30
0.0
 10
16.1994679146
 20
12.583934619
 30
0.0
 10
16.1654300982
 20
12.6038178303
 30
0.0
 10
16.121157417
 20
12.623087952
 30
0.0
 10
16.0821565386
 20
12.6350795115
 30
0.0
 10
16.0503158944
 20
12.6419804553
 30
0.0
 10
16.0265040859
 20
12.6457155147
 30
0.0
 10
16.0029482835
 20
12.6479789983
 30
0.0
 10
15.9873390125
 20
12.6485056241
 30
0.0
 10
15.9796354799
 20
12.6485056241
 30
0.0
  0
SPLINE
  5
2EC
100
AcDbEntity
  8
0
100
AcDbSpline
 62
7
  6
CONTINUOUS
 70
0
 71
3
 72
13
 73
9
 74
0
 42
0.0000001
 43
0.0000001
 44
0.0000000001
 40
0.0
 40
0.0
 40
0.0
 40
0.0
 40
0.1203431344
 40
0.2409554489
 40
0.3624669838
 40
0.4854471318
 40
0.7373631921
 40
1.0
 40
1.0
 40
1.0
 40
1.0
 10
16.3171469324
 20
12.3701027409
 30
0.0
 10
16.3180511487
 20
12.3730287861
 30
0.0
 10
16.3195689599
 20
12.3789824135
 30
0.0
 10
16.3209538674
 20
12.3881163386
 30
0.0
 10
16.3214481312
 20
12.3974095066
 30
0.0
 10
16.3209238506
 20
12.4100476455
 30
0.0
 10
16.3180344242
 20
12.4261008418
 30
0.0
 10
16.3136224027
 20
12.4384910793
 30
0.0
 10
16.31094656
 20
12.444615821
 30
0.0
  0
SPLINE
  5
2ED
100
AcDbEntity
  8
0
100
AcDbSpline
 62
7
  6
CONTINUOUS
 70
0
 71
3
 72
13
 73
9
 74
0
 42
0.0000001
 43
0.0000001
 44
0.0000000001
 40
0.0
 40
0.0
 40
0.0
 40
0.0
 40
0.1147901005
 40
0.2307092823
 40
0.3487990503
 40
0.4700097331
 40
0.7247115322
 40
1.0
 40
1.0
 40
1.0
 40
1.0
 10
15.8976684437
 20
12.331053567
 30
0.0
 10
15.8981550918
 20
12.3326283412
 30
0.0
 10
15.8993269954
 20
12.3357370649
 30
0.0
 10
15.9016468945
 20
12.3401881608
 30
0.0
 10
15.9045181077
 20
12.3444174486
 30
0.0
 10
15.9091355974
 20
12.3498189163
 30
0.0
 10
15.9163191458
 20
12.3559057855
 30
0.0
 10
15.9229470083
 20
12.35972329
 30
0.0
 10
15.9265081429
 20
12.3614388502
 30
0.0
  0
SPLINE
  5
2EE
100
AcDbEntity
  8
0
100
AcDbSpline
 62
7
  6
CONTINUOUS
 70
0
 71
3
 72
9
 73
5
 74
0
 42
0.0000001
 43
0.0000001
 44
0.0000000001
 40
0.0
 40
0.0
 40
0.0
 40
0.0
 40
0.2428763973
 40
1.0
 40
1.0
 40
1.0
 40
1.0
 10
15.9265081429
 20
12.3614388502
 30
0.0
 10
15.9274186915
 20
12.3618775028
 30
0.0
 10
15.9312019161
 20
12.363612204
 30
0.0
 10
15.9351108214
 20
12.3650685437
 30
0.0
 10
15.9381111342
 20
12.3660302528
 30
0.0
  0
SPLINE
  5
2EF
100
AcDbEntity
  8
0
100
AcDbSpline
 62
7
  6
CONTINUOUS
 70
0
 71
3
 72
9
 73
5
 74
0
 42
0.0000001
 43
0.0000001
 44
0.0000000001
 40
0.0
 40
0.0
 40
0.0
 40
0.0
 40
0.4842683499
 40
1.0
 40
1.0
 40
1.0
 40
1.0
 10
15.9382889056
 20
12.3664138875
 30
0.0
 10
15.9438625752
 20
12.3677247521
 30
0.0
 10
15.9555643258
 20
12.3696430218
 30
0.0
 10
15.9673971391
 20
12.3702316738
 30
0.0
 10
15.9734948906
 20
12.3702316738
 30
0.0
  0
SPLINE
  5
2F0
100
AcDbEntity
  8
0
100
AcDbSpline
 62
7
  6
CONTINUOUS
 70
0
 71
3
 72
9
 73
5
 74
0
 42
0.0000001
 43
0.0000001
 44
0.0000000001
 40
0.0
 40
0.0
 40
0.0
 40
0.0
 40
0.5142283542
 40
1.0
 40
1.0
 40
1.0
 40
1.0
 10
16.1229245134
 20
12.3088592114
 30
0.0
 10
16.1247561506
 20
12.306498994
 30
0.0
 10
16.1281177329
 20
12.3017488301
 30
0.0
 10
16.1309855157
 20
12.2966812055
 30
0.0
 10
16.13222883
 20
12.2941475972
 30
0.0
  0
SPLINE
  5
2F1
100
AcDbEntity
  8
0
100
AcDbSpline
 62
7
  6
CONTINUOUS
 70
0
 71
3
 72
9
 73
5
 74
0
 42
0.0000001
 43
0.0000001
 44
0.0000000001
 40
0.0
 40
0.0
 40
0.0
 40
0.0
 40
0.4893809719
 40
1.0
 40
1.0
 40
1.0
 40
1.0
 10
15.9086518868
 20
12.852786308
 30
0.0
 10
15.9075411606
 20
12.852786308
 30
0.0
 10
15.9052683239
 20
12.852551099
 30
0.0
 10
15.9030746288
 20
12.8519221062
 30
0.0
 10
15.9019919574
 20
12.8515086575
 30
0.0
  0
SPLINE
  5
2F2
100
AcDbEntity
  8
0
100
AcDbSpline
 62
7
  6
CONTINUOUS
 70
0
 71
3
 72
11
 73
7
 74
0
 42
0.0000001
 43
0.0000001
 44
0.0000000001
 40
0.0
 40
0.0
 40
0.0
 40
0.0
 40
0.2653187089
 40
0.5254492184
 40
0.7724637532
 40
1.0
 40
1.0
 40
1.0
 40
1.0
 10
15.9019919574
 20
12.8515086575
 30
0.0
 10
15.9007116048
 20
12.8510197186
 30
0.0
 10
15.8982655843
 20
12.8497963844
 30
0.0
 10
15.8950952986
 20
12.8473288184
 30
0.0
 10
15.8926411842
 20
12.8443949975
 30
0.0
 10
15.8915520004
 20
12.8421593722
 30
0.0
 10
15.8912049771
 20
12.8410364043
 30
0.0
  0
SPLINE
  5
2F3
100
AcDbEntity
  8
0
100
AcDbSpline
 62
7
  6
CONTINUOUS
 70
0
 71
3
 72
15
 73
11
 74
0
 42
0.0000001
 43
0.0000001
 44
0.0000000001
 40
0.0
 40
0.0
 40
0.0
 40
0.0
 40
0.1229384786
 40
0.2503376011
 40
0.3801819389
 40
0.5106034274
 40
0.6396356092
 40
0.765342555
 40
0.8859520677
 40
1.0
 40
1.0
 40
1.0
 40
1.0
 10
14.6499993172
 20
12.5582301322
 30
0.0
 10
14.6563746909
 20
12.5582301322
 30
0.0
 10
14.669363569
 20
12.5575571561
 30
0.0
 10
14.6888988783
 20
12.5547187378
 30
0.0
 10
14.7084872763
 20
12.5500837363
 30
0.0
 10
14.7276862279
 20
12.5437624329
 30
0.0
 10
14.7460758809
 20
12.5359028812
 30
0.0
 10
14.7632466238
 20
12.5266745183
 30
0.0
 10
14.7788022775
 20
12.5162657208
 30
0.0
 10
14.7881757215
 20
12.5084578088
 30
0.0
 10
14.7924787634
 20
12.5044003371
 30
0.0
  0
SPLINE
  5
2F4
100
AcDbEntity
  8
0
100
AcDbSpline
 62
7
  6
CONTINUOUS
 70
0
 71
3
 72
17
 73
13
 74
0
 42
0.0000001
 43
0.0000001
 44
0.0000000001
 40
0.0
 40
0.0
 40
0.0
 40
0.0
 40
0.0530808775
 40
0.1063222288
 40
0.1600908213
 40
0.2147159635
 40
0.3275033372
 40
0.4465001805
 40
0.5729541795
 40
0.707493921
 40
0.8501611259
 40
1.0
 40
1.0
 40
1.0
 40
1.0
 10
16.2663130045
 20
12.2056040899
 30
0.0
 10
16.2652611551
 20
12.2022003042
 30
0.0
 10
16.2627532306
 20
12.1954992277
 30
0.0
 10
16.2578465746
 20
12.1859157775
 30
0.0
 10
16.2518420789
 20
12.1768531817
 30
0.0
 10
16.2423388674
 20
12.1654170639
 30
0.0
 10
16.2278279372
 20
12.1526103024
 30
0.0
 10
16.2071637625
 20
12.1401136187
 30
0.0
 10
16.1835054684
 20
12.130362169
 30
0.0
 10
16.1572576468
 20
12.123383663
 30
0.0
 10
16.12884642
 20
12.1192211064
 30
0.0
 10
16.1091992951
 20
12.1183375902
 30
0.0
 10
16.0991426321
 20
12.1183375902
 30
0.0
  0
SPLINE
  5
2F5
100
AcDbEntity
  8
0
100
AcDbSpline
 62
7
  6
CONTINUOUS
 70
0
 71
3
 72
17
 73
13
 74
0
 42
0.0000001
 43
0.0000001
 44
0.0000000001
 40
0.0
 40
0.0
 40
0.0
 40
0.0
 40
0.0397214249
 40
0.0756860539
 40
0.1212480972
 40
0.1760600793
 40
0.2398265784
 40
0.3122676884
 40
0.3927595487
 40
0.5745775283
 40
0.7789409302
 40
1.0
 40
1.0
 40
1.0
 40
1.0
 10
15.6121184617
 20
12.1654499353
 30
0.0
 10
15.6120925541
 20
12.1654888279
 30
0.0
 10
15.6122303774
 20
12.1653162235
 30
0.0
 10
15.6122959834
 20
12.1652523519
 30
0.0
 10
15.612419712
 20
12.1651247327
 30
0.0
 10
15.6125573315
 20
12.1649980119
 30
0.0
 10
15.6127291298
 20
12.1648499046
 30
0.0
 10
15.6129290286
 20
12.1646926002
 30
0.0
 10
15.6132479362
 20
12.1644609459
 30
0.0
 10
15.6137102701
 20
12.1641640788
 30
0.0
 10
15.6143384575
 20
12.1638224618
 30
0.0
 10
15.6147964424
 20
12.1636188023
 30
0.0
 10
15.6150385083
 20
12.1635237152
 30
0.0
  0
SPLINE
  5
2F6
100
AcDbEntity
  8
0
100
AcDbSpline
 62
7
  6
CONTINUOUS
 70
0
 71
3
 72
9
 73
5
 74
0
 42
0.0000001
 43
0.0000001
 44
0.0000000001
 40
0.0
 40
0.0
 40
0.0
 40
0.0
 40
0.4835331551
 40
1.0
 40
1.0
 40
1.0
 40
1.0
 10
15.6150385083
 20
12.1635237152
 30
0.0
 10
15.6156030754
 20
12.1633019446
 30
0.0
 10
15.6168187862
 20
12.1629612105
 30
0.0
 10
15.618075622
 20
12.1628429401
 30
0.0
 10
15.6187234979
 20
12.1628429401
 30
0.0
  0
SPLINE
  5
2F7
100
AcDbEntity
  8
0
100
AcDbSpline
 62
7
  6
CONTINUOUS
 70
0
 71
3
 72
17
 73
13
 74
0
 42
0.0000001
 43
0.0000001
 44
0.0000000001
 40
0.0
 40
0.0
 40
0.0
 40
0.0
 40
0.0530213695
 40
0.1062060917
 40
0.1599230917
 40
0.21450329
 40
0.327228551
 40
0.4462062771
 40
0.5727092803
 40
0.7073360285
 40
0.849992288
 40
1.0
 40
1.0
 40
1.0
 40
1.0
 10
16.0968665781
 20
11.6572752531
 30
0.0
 10
16.09580937
 20
11.6538541264
 30
0.0
 10
16.0932864708
 20
11.6471193016
 30
0.0
 10
16.0883458724
 20
11.6374904814
 30
0.0
 10
16.0822968673
 20
11.6283884245
 30
0.0
 10
16.0727194406
 20
11.6169073469
 30
0.0
 10
16.0580916638
 20
11.6040628211
 30
0.0
 10
16.0372638704
 20
11.5915498041
 30
0.0
 10
16.0134177333
 20
11.5818145923
 30
0.0
 10
15.9869741001
 20
11.5748830563
 30
0.0
 10
15.9583557706
 20
11.5707874964
 30
0.0
 10
15.9385722092
 20
11.5699732677
 30
0.0
 10
15.9284416349
 20
11.5700110874
 30
0.0
  0
SPLINE
  5
2F8
100
AcDbEntity
  8
0
100
AcDbSpline
 62
7
  6
CONTINUOUS
 70
0
 71
3
 72
13
 73
9
 74
0
 42
0.0000001
 43
0.0000001
 44
0.0000000001
 40
0.0
 40
0.0
 40
0.0
 40
0.0
 40
0.1203431344
 40
0.2409554489
 40
0.3624669838
 40
0.4854471318
 40
0.7373631921
 40
1.0
 40
1.0
 40
1.0
 40
1.0
 10
16.1670658119
 20
11.8844400569
 30
0.0
 10
16.1679700282
 20
11.8873661021
 30
0.0
 10
16.1694878394
 20
11.8933197295
 30
0.0
 10
16.1708727469
 20
11.9024536546
 30
0.0
 10
16.1713670107
 20
11.9117468227
 30
0.0
 10
16.17084273
 20
11.9243849615
 30
0.0
 10
16.1679533037
 20
11.9404381578
 30
0.0
 10
16.1635412822
 20
11.9528283953
 30
0.0
 10
16.1608654395
 20
11.9589531371
 30
0.0
  0
SPLINE
  5
2F9
100
AcDbEntity
  8
0
100
AcDbSpline
 62
7
  6
CONTINUOUS
 70
0
 71
3
 72
20
 73
16
 74
0
 42
0.0000001
 43
0.0000001
 44
0.0000000001
 40
0.0
 40
0.0
 40
0.0
 40
0.0
 40
0.0504479059
 40
0.1033419163
 40
0.1586380638
 40
0.2162882552
 40
0.2762194011
 40
0.3382612149
 40
0.467496304
 40
0.6014354936
 40
0.7369558394
 40
0.804313886
 40
0.870881665
 40
0.936261122
 40
1.0
 40
1.0
 40
1.0
 40
1.0
 10
16.1386337339
 20
12.0045809174
 30
0.0
 10
16.135947668
 20
12.0100545442
 30
0.0
 10
16.1297754953
 20
12.0209472366
 30
0.0
 10
16.1186432612
 20
12.0365921913
 30
0.0
 10
16.1055405327
 20
12.0517953346
 30
0.0
 10
16.0906032288
 20
12.0664364229
 30
0.0
 10
16.0739668556
 20
12.0804149585
 30
0.0
 10
16.0493867941
 20
12.098271935
 30
0.0
 10
16.0153489776
 20
12.1181551464
 30
0.0
 10
15.9710762965
 20
12.137425268
 30
0.0
 10
15.9320754181
 20
12.1494168276
 30
0.0
 10
15.9002347739
 20
12.1563177714
 30
0.0
 10
15.8764229654
 20
12.1600528307
 30
0.0
 10
15.852867163
 20
12.1623163143
 30
0.0
 10
15.8372578919
 20
12.1628429401
 30
0.0
 10
15.8295543594
 20
12.1628429401
 30
0.0
  0
SPLINE
  5
2FA
100
AcDbEntity
  8
0
100
AcDbSpline
 62
7
  6
CONTINUOUS
 70
0
 71
3
 72
15
 73
11
 74
0
 42
0.0000001
 43
0.0000001
 44
0.0000000001
 40
0.0
 40
0.0
 40
0.0
 40
0.0
 40
0.137713165
 40
0.2741943381
 40
0.4080223232
 40
0.5378898882
 40
0.6626738969
 40
0.7815080311
 40
0.8940090293
 40
1.0
 40
1.0
 40
1.0
 40
1.0
 10
14.5149443958
 20
11.8372958603
 30
0.0
 10
14.5047151258
 20
11.8403142949
 30
0.0
 10
14.4845653897
 20
11.8470913603
 30
0.0
 10
14.4554326333
 20
11.8594069033
 30
0.0
 10
14.4278817236
 20
11.8736728282
 30
0.0
 10
14.4023600654
 20
11.8896727795
 30
0.0
 10
14.3792704699
 20
11.9071622655
 30
0.0
 10
14.3589729282
 20
11.9259088022
 30
0.0
 10
14.3418028425
 20
11.9456711804
 30
0.0
 10
14.3323554032
 20
11.9597840843
 30
0.0
 10
14.328309355
 20
11.9669262106
 30
0.0
  0
SPLINE
  5
2FB
100
AcDbEntity
  8
0
100
AcDbSpline
 62
7
  6
CONTINUOUS
 70
0
 71
3
 72
14
 73
10
 74
0
 42
0.0000001
 43
0.0000001
 44
0.0000000001
 40
0.0
 40
0.0
 40
0.0
 40
0.0
 40
0.2629263865
 40
0.3901483313
 40
0.5150322804
 40
0.637934933
 40
0.7593085832
 40
0.8797594874
 40
1.0
 40
1.0
 40
1.0
 40
1.0
 10
14.2873607671
 20
12.0497367626
 30
0.0
 10
14.2847489104
 20
12.0550591669
 30
0.0
 10
14.2814370439
 20
12.063263787
 30
0.0
 10
14.2785199747
 20
12.0745172488
 30
0.0
 10
14.2771510607
 20
12.0828749217
 30
0.0
 10
14.2765968607
 20
12.0911938964
 30
0.0
 10
14.2768808587
 20
12.0994280518
 30
0.0
 10
14.2780147847
 20
12.1075277199
 30
0.0
 10
14.279338352
 20
12.1128039427
 30
0.0
 10
14.280138857
 20
12.1153943776
 30
0.0
  0
SPLINE
  5
2FC
100
AcDbEntity
  8
0
100
AcDbSpline
 62
7
  6
CONTINUOUS
 70
0
 71
3
 72
17
 73
13
 74
0
 42
0.0000001
 43
0.0000001
 44
0.0000000001
 40
0.0
 40
0.0
 40
0.0
 40
0.0
 40
0.1484972471
 40
0.2900960231
 40
0.4238994689
 40
0.5500377848
 40
0.6692124345
 40
0.7827102818
 40
0.8378550433
 40
0.8922300403
 40
0.9461574176
 40
1.0
 40
1.0
 40
1.0
 40
1.0
 10
14.4995134937
 20
12.4605071658
 30
0.0
 10
14.4914667955
 20
12.4605071658
 30
0.0
 10
14.4757350404
 20
12.45979649
 30
0.0
 10
14.452967358
 20
12.4564477485
 30
0.0
 10
14.4318924304
 20
12.4508218047
 30
0.0
 10
14.4128458166
 20
12.4429411038
 30
0.0
 10
14.3961528857
 20
12.4328062501
 30
0.0
 10
14.3843997072
 20
12.4223934777
 30
0.0
 10
14.3766757435
 20
12.4130737152
 30
0.0
 10
14.3717812152
 20
12.4056699135
 30
0.0
 10
14.3677743697
 20
12.3978306446
 30
0.0
 10
14.3657234828
 20
12.3923463282
 30
0.0
 10
14.3648620701
 20
12.3895587959
 30
0.0
  0
SPLINE
  5
2FD
100
AcDbEntity
  8
0
100
AcDbSpline
 62
7
  6
CONTINUOUS
 70
0
 71
3
 72
19
 73
15
 74
0
 42
0.0000001
 43
0.0000001
 44
0.0000000001
 40
0.0
 40
0.0
 40
0.0
 40
0.0
 40
0.0459716991
 40
0.0962586144
 40
0.1505727303
 40
0.2086299966
 40
0.2699569146
 40
0.3339663336
 40
0.4676552657
 40
0.6054214341
 40
0.6745269573
 40
0.7430412794
 40
0.8760680727
 40
1.0
 40
1.0
 40
1.0
 40
1.0
 10
14.7862093787
 20
12.4851855873
 30
0.0
 10
14.7859924361
 20
12.4844835608
 30
0.0
 10
14.7854525849
 20
12.4830392594
 30
0.0
 10
14.7843907246
 20
12.4808758303
 30
0.0
 10
14.7830336241
 20
12.4786540047
 30
0.0
 10
14.7813785111
 20
12.4764207781
 30
0.0
 10
14.7794439727
 20
12.4742144162
 30
0.0
 10
14.7764803117
 20
12.4713183558
 30
0.0
 10
14.7722221775
 20
12.4680259404
 30
0.0
 10
14.7674776239
 20
12.4653201672
 30
0.0
 10
14.7634432415
 20
12.4635521962
 30
0.0
 10
14.7593672401
 20
12.4620939046
 30
0.0
 10
14.7542920073
 20
12.4608704252
 30
0.0
 10
14.7501808113
 20
12.4605071658
 30
0.0
 10
14.7481999621
 20
12.4605071658
 30
0.0
  0
SPLINE
  5
2FE
100
AcDbEntity
  8
0
100
AcDbSpline
 62
7
  6
CONTINUOUS
 70
0
 71
3
 72
11
 73
7
 74
0
 42
0.0000001
 43
0.0000001
 44
0.0000000001
 40
0.0
 40
0.0
 40
0.0
 40
0.0
 40
0.1961801049
 40
0.4186018047
 40
0.6822800075
 40
1.0
 40
1.0
 40
1.0
 40
1.0
 10
14.8295968344
 20
12.6349720017
 30
0.0
 10
14.8298557947
 20
12.6344442961
 30
0.0
 10
14.8302885796
 20
12.633256067
 30
0.0
 10
14.8305824619
 20
12.6312194596
 30
0.0
 10
14.8304548969
 20
12.6288008835
 30
0.0
 10
14.830062391
 20
12.627093987
 30
0.0
 10
14.8297813169
 20
12.626184431
 30
0.0
  0
SPLINE
  5
2FF
100
AcDbEntity
  8
0
100
AcDbSpline
 62
7
  6
CONTINUOUS
 70
0
 71
3
 72
14
 73
10
 74
0
 42
0.0000001
 43
0.0000001
 44
0.0000000001
 40
0.0
 40
0.0
 40
0.0
 40
0.0
 40
0.2629263865
 40
0.3901483313
 40
0.5150322804
 40
0.637934933
 40
0.7593085832
 40
0.8797594874
 40
1.0
 40
1.0
 40
1.0
 40
1.0
 10
14.4374418876
 20
12.5353994466
 30
0.0
 10
14.4348300309
 20
12.5407218509
 30
0.0
 10
14.4315181644
 20
12.548926471
 30
0.0
 10
14.4286010952
 20
12.5601799328
 30
0.0
 10
14.4272321812
 20
12.5685376057
 30
0.0
 10
14.4266779812
 20
12.5768565804
 30
0.0
 10
14.4269619792
 20
12.5850907358
 30
0.0
 10
14.4280959052
 20
12.5931904038
 30
0.0
 10
14.4294194725
 20
12.5984666266
 30
0.0
 10
14.4302199775
 20
12.6010570615
 30
0.0
  0
SPLINE
  5
300
100
AcDbEntity
  8
0
100
AcDbSpline
 62
7
  6
CONTINUOUS
 70
0
 71
3
 72
9
 73
5
 74
0
 42
0.0000001
 43
0.0000001
 44
0.0000000001
 40
0.0
 40
0.0
 40
0.0
 40
0.0
 40
0.4842683499
 40
1.0
 40
1.0
 40
1.0
 40
1.0
 10
14.6147933323
 20
12.5544123459
 30
0.0
 10
14.6203670019
 20
12.5557232105
 30
0.0
 10
14.6320687524
 20
12.5576414801
 30
0.0
 10
14.6439015657
 20
12.5582301322
 30
0.0
 10
14.6499993172
 20
12.5582301322
 30
0.0
  0
SPLINE
  5
301
100
AcDbEntity
  8
0
100
AcDbSpline
 62
7
  6
CONTINUOUS
 70
0
 71
3
 72
22
 73
18
 74
0
 42
0.0000001
 43
0.0000001
 44
0.0000000001
 40
0.0
 40
0.0
 40
0.0
 40
0.0
 40
0.1545625887
 40
0.3064310896
 40
0.4536040754
 40
0.5932539692
 40
0.6590359971
 40
0.7212278951
 40
0.7789527011
 40
0.8311988646
 40
0.877011311
 40
0.8974944331
 40
0.9166312232
 40
0.9351178375
 40
0.9541448114
 40
0.9752833251
 40
1.0
 40
1.0
 40
1.0
 40
1.0
 10
15.7352686082
 20
12.3364261299
 30
0.0
 10
15.7357083487
 20
12.3378491305
 30
0.0
 10
15.736590125
 20
12.340667277
 30
0.0
 10
15.7379611151
 20
12.3448181209
 30
0.0
 10
15.7393988587
 20
12.3487940917
 30
0.0
 10
15.7406987466
 20
12.3519360393
 30
0.0
 10
15.7418238751
 20
12.3542575208
 30
0.0
 10
15.7426882012
 20
12.3558254741
 30
0.0
 10
15.743593585
 20
12.3572185396
 30
0.0
 10
15.7445413871
 20
12.3583861035
 30
0.0
 10
15.7454053125
 20
12.3591509893
 30
0.0
 10
15.7461314609
 20
12.359547147
 30
0.0
 10
15.746671039
 20
12.3597140379
 30
0.0
 10
15.7472239698
 20
12.3597360628
 30
0.0
 10
15.7477780759
 20
12.3595847739
 30
0.0
 10
15.7483110421
 20
12.3592428107
 30
0.0
 10
15.7486150099
 20
12.3589164456
 30
0.0
 10
15.7487613503
 20
12.3587285313
 30
0.0
  0
LINE
  5
302
100
AcDbEntity
  8
0
100
AcDbLine
 62
7
  6
CONTINUOUS
 10
15.7487613503
 20
12.3587285313
 11
15.7493304794
 21
12.3577994745
  0
SPLINE
  5
303
100
AcDbEntity
  8
0
100
AcDbSpline
 62
7
  6
CONTINUOUS
 70
0
 71
3
 72
16
 73
12
 74
0
 42
0.0000001
 43
0.0000001
 44
0.0000000001
 40
0.0
 40
0.0
 40
0.0
 40
0.0
 40
0.1242767116
 40
0.2532193115
 40
0.3845163519
 40
0.5159744012
 40
0.6452994604
 40
0.7702842117
 40
0.8305568802
 40
0.8890564081
 40
1.0
 40
1.0
 40
1.0
 40
1.0
 10
15.9734948906
 20
12.3702316738
 30
0.0
 10
15.980349613
 20
12.3702316738
 30
0.0
 10
15.9943246835
 20
12.3694542318
 30
0.0
 10
16.0153112582
 20
12.3661882789
 30
0.0
 10
16.0362840226
 20
12.3608713395
 30
0.0
 10
16.0567007403
 20
12.3536492381
 30
0.0
 10
16.0760453908
 20
12.3447135722
 30
0.0
 10
16.0910369091
 20
12.3359105461
 30
0.0
 10
16.1020420685
 20
12.3281749771
 30
0.0
 10
16.1119828499
 20
12.3203130297
 30
0.0
 10
16.1187987915
 20
12.313868242
 30
0.0
 10
16.122928737
 20
12.3093527702
 30
0.0
  0
SPLINE
  5
304
100
AcDbEntity
  8
0
100
AcDbSpline
 62
7
  6
CONTINUOUS
 70
0
 71
3
 72
11
 73
7
 74
0
 42
0.0000001
 43
0.0000001
 44
0.0000000001
 40
0.0
 40
0.0
 40
0.0
 40
0.0
 40
0.2260801427
 40
0.4685061405
 40
0.7267831814
 40
1.0
 40
1.0
 40
1.0
 40
1.0
 10
15.7935615501
 20
12.2676660291
 30
0.0
 10
15.796730916
 20
12.2612075404
 30
0.0
 10
15.804301792
 20
12.2483023463
 30
0.0
 10
15.8184101564
 20
12.2299161558
 30
0.0
 10
15.8354668359
 20
12.2120926916
 30
0.0
 10
15.8483023864
 20
12.2010374595
 30
0.0
 10
15.8551243958
 20
12.1956477272
 30
0.0
  0
SPLINE
  5
305
100
AcDbEntity
  8
0
100
AcDbSpline
 62
7
  6
CONTINUOUS
 70
0
 71
3
 72
9
 73
5
 74
0
 42
0.0000001
 43
0.0000001
 44
0.0000000001
 40
0.0
 40
0.0
 40
0.0
 40
0.0
 40
0.2561797122
 40
1.0
 40
1.0
 40
1.0
 40
1.0
 10
16.13222883
 20
12.2941475972
 30
0.0
 10
16.1325992034
 20
12.2933928557
 30
0.0
 10
16.133992975
 20
12.2904216693
 30
0.0
 10
16.1351734711
 20
12.2873490285
 30
0.0
 10
16.1359074801
 20
12.2850209586
 30
0.0
  0
SPLINE
  5
306
100
AcDbEntity
  8
0
100
AcDbSpline
 62
7
  6
CONTINUOUS
 70
0
 71
3
 72
11
 73
7
 74
0
 42
0.0000001
 43
0.0000001
 44
0.0000000001
 40
0.0
 40
0.0
 40
0.0
 40
0.0
 40
0.2639132343
 40
0.5163113037
 40
0.7603271482
 40
1.0
 40
1.0
 40
1.0
 40
1.0
 10
16.1359074801
 20
12.2850209586
 30
0.0
 10
16.136653334
 20
12.2826553199
 30
0.0
 10
16.1378258838
 20
12.277928841
 30
0.0
 10
16.1385475861
 20
12.2707932057
 30
0.0
 10
16.1381716546
 20
12.2638571111
 30
0.0
 10
16.1371890511
 20
12.2593938109
 30
0.0
 10
16.1365239678
 20
12.2572416274
 30
0.0
  0
SPLINE
  5
307
100
AcDbEntity
  8
0
100
AcDbSpline
 62
7
  6
CONTINUOUS
 70
0
 71
3
 72
13
 73
9
 74
0
 42
0.0000001
 43
0.0000001
 44
0.0000000001
 40
0.0
 40
0.0
 40
0.0
 40
0.0
 40
0.1147901005
 40
0.2307092823
 40
0.3487990503
 40
0.4700097331
 40
0.7247115322
 40
1.0
 40
1.0
 40
1.0
 40
1.0
 10
14.5741728703
 20
12.5190520253
 30
0.0
 10
14.5746595184
 20
12.5206267995
 30
0.0
 10
14.575831422
 20
12.5237355232
 30
0.0
 10
14.5781513211
 20
12.5281866191
 30
0.0
 10
14.5810225343
 20
12.5324159069
 30
0.0
 10
14.585640024
 20
12.5378173746
 30
0.0
 10
14.5928235724
 20
12.5439042438
 30
0.0
 10
14.5994514349
 20
12.5477217483
 30
0.0
 10
14.6030125696
 20
12.5494373085
 30
0.0
  0
SPLINE
  5
308
100
AcDbEntity
  8
0
100
AcDbSpline
 62
7
  6
CONTINUOUS
 70
0
 71
3
 72
9
 73
5
 74
0
 42
0.0000001
 43
0.0000001
 44
0.0000000001
 40
0.0
 40
0.0
 40
0.0
 40
0.0
 40
0.2428763973
 40
1.0
 40
1.0
 40
1.0
 40
1.0
 10
14.6030125696
 20
12.5494373085
 30
0.0
 10
14.6039231181
 20
12.5498759611
 30
0.0
 10
14.6077063427
 20
12.5516106623
 30
0.0
 10
14.611615248
 20
12.553067002
 30
0.0
 10
14.6146155608
 20
12.5540287111
 30
0.0
  0
SPLINE
  5
309
100
AcDbEntity
  8
0
100
AcDbSpline
 62
7
  6
CONTINUOUS
 70
0
 71
3
 72
13
 73
9
 74
0
 42
0.0000001
 43
0.0000001
 44
0.0000000001
 40
0.0
 40
0.0
 40
0.0
 40
0.0
 40
0.1147901005
 40
0.2307092823
 40
0.3487990503
 40
0.4700097331
 40
0.7247115322
 40
1.0
 40
1.0
 40
1.0
 40
1.0
 10
14.4240917498
 20
12.0333893414
 30
0.0
 10
14.4245783979
 20
12.0349641155
 30
0.0
 10
14.4257503015
 20
12.0380728392
 30
0.0
 10
14.4280702006
 20
12.0425239352
 30
0.0
 10
14.4309414138
 20
12.0467532229
 30
0.0
 10
14.4355589035
 20
12.0521546906
 30
0.0
 10
14.4427424519
 20
12.0582415598
 30
0.0
 10
14.4493703144
 20
12.0620590643
 30
0.0
 10
14.452931449
 20
12.0637746245
 30
0.0
  0
SPLINE
  5
30A
100
AcDbEntity
  8
0
100
AcDbSpline
 62
7
  6
CONTINUOUS
 70
0
 71
3
 72
9
 73
5
 74
0
 42
0.0000001
 43
0.0000001
 44
0.0000000001
 40
0.0
 40
0.0
 40
0.0
 40
0.0
 40
0.2428767157
 40
1.0
 40
1.0
 40
1.0
 40
1.0
 10
14.452931449
 20
12.0637746245
 30
0.0
 10
14.4538419546
 20
12.0642132564
 30
0.0
 10
14.457624994
 20
12.0659478768
 30
0.0
 10
14.4615337028
 20
12.0674041621
 30
0.0
 10
14.4645338629
 20
12.0683658421
 30
0.0
  0
SPLINE
  5
30B
100
AcDbEntity
  8
0
100
AcDbSpline
 62
7
  6
CONTINUOUS
 70
0
 71
3
 72
13
 73
9
 74
0
 42
0.0000001
 43
0.0000001
 44
0.0000000001
 40
0.0
 40
0.0
 40
0.0
 40
0.0
 40
0.1104831521
 40
0.2269589103
 40
0.3486950678
 40
0.4747860963
 40
0.7355427148
 40
1.0
 40
1.0
 40
1.0
 40
1.0
 10
14.4647130714
 20
12.0687487548
 30
0.0
 10
14.4690268016
 20
12.069763799
 30
0.0
 10
14.4780034612
 20
12.0713784122
 30
0.0
 10
14.4919535557
 20
12.0725893743
 30
0.0
 10
14.5065821485
 20
12.0726394771
 30
0.0
 10
14.5269433121
 20
12.0711400535
 30
0.0
 10
14.5527210149
 20
12.0663854038
 30
0.0
 10
14.5728116456
 20
12.0598102077
 30
0.0
 10
14.5826440504
 20
12.0558297992
 30
0.0
  0
SPLINE
  5
30C
100
AcDbEntity
  8
0
100
AcDbSpline
 62
7
  6
CONTINUOUS
 70
0
 71
3
 72
11
 73
7
 74
0
 42
0.0000001
 43
0.0000001
 44
0.0000000001
 40
0.0
 40
0.0
 40
0.0
 40
0.0
 40
0.2310246056
 40
0.4759937359
 40
0.7330647358
 40
1.0
 40
1.0
 40
1.0
 40
1.0
 10
14.3067047849
 20
10.7096103523
 30
0.0
 10
14.3000781858
 20
10.716885218
 30
0.0
 10
14.2856200901
 20
10.7311537868
 30
0.0
 10
14.2614568082
 20
10.7509889017
 30
0.0
 10
14.2344738282
 20
10.7696170992
 30
0.0
 10
14.2151690904
 20
10.7808677975
 30
0.0
 10
14.2051483501
 20
10.786240353
 30
0.0
  0
SPLINE
  5
30D
100
AcDbEntity
  8
0
100
AcDbSpline
 62
7
  6
CONTINUOUS
 70
0
 71
3
 72
9
 73
5
 74
0
 42
0.0000001
 43
0.0000001
 44
0.0000000001
 40
0.0
 40
0.0
 40
0.0
 40
0.0
 40
0.4915430708
 40
1.0
 40
1.0
 40
1.0
 40
1.0
 10
15.3340352291
 20
10.7053276081
 30
0.0
 10
15.3338488943
 20
10.7051304687
 30
0.0
 10
15.3333782945
 20
10.7048053273
 30
0.0
 10
15.3328177852
 20
10.7047114867
 30
0.0
 10
15.3325371863
 20
10.7047113966
 30
0.0
  0
LINE
  5
30E
100
AcDbEntity
  8
0
100
AcDbLine
 62
7
  6
CONTINUOUS
 10
15.5835945521
 20
10.7049023701
 11
15.5844111996
 21
10.7047113979
  0
SPLINE
  5
30F
100
AcDbEntity
  8
0
100
AcDbSpline
 62
7
  6
CONTINUOUS
 70
0
 71
3
 72
23
 73
19
 74
0
 42
0.0000001
 43
0.0000001
 44
0.0000000001
 40
0.0
 40
0.0
 40
0.0
 40
0.0
 40
0.0714231249
 40
0.1437707151
 40
0.2164685828
 40
0.2890381264
 40
0.3610176519
 40
0.4319332542
 40
0.5013093242
 40
0.5687017857
 40
0.6337063317
 40
0.6959555387
 40
0.7551422742
 40
0.7835119189
 40
0.8110290657
 40
0.8634406448
 40
0.9123403969
 40
1.0
 40
1.0
 40
1.0
 40
1.0
 10
15.5810193088
 20
10.7061864362
 30
0.0
 10
15.5754568714
 20
10.7089291428
 30
0.0
 10
15.5640944321
 20
10.7141203801
 30
0.0
 10
15.5465747784
 20
10.7209560862
 30
0.0
 10
15.5286035551
 20
10.7268276317
 30
0.0
 10
15.510365059
 20
10.7316837729
 30
0.0
 10
15.4920331722
 20
10.7354733287
 30
0.0
 10
15.4737882904
 20
10.7381658568
 30
0.0
 10
15.4558116208
 20
10.7397348217
 30
0.0
 10
15.4382843849
 20
10.7401631257
 30
0.0
 10
15.421383885
 20
10.7394590944
 30
0.0
 10
15.4052843948
 20
10.7376256798
 30
0.0
 10
15.3924969026
 20
10.7351554328
 30
0.0
 10
15.382827742
 20
10.7326222299
 30
0.0
 10
15.3738473683
 20
10.7298256256
 30
0.0
 10
15.3634039508
 20
10.7257475993
 30
0.0
 10
15.3488305329
 20
10.7181822269
 30
0.0
 10
15.339266536
 20
10.7108568658
 30
0.0
 10
15.3340354125
 20
10.7053275169
 30
0.0
  0
SPLINE
  5
310
100
AcDbEntity
  8
0
100
AcDbSpline
 62
7
  6
CONTINUOUS
 70
0
 71
3
 72
9
 73
5
 74
0
 42
0.0000001
 43
0.0000001
 44
0.0000000001
 40
0.0
 40
0.0
 40
0.0
 40
0.0
 40
0.2561797122
 40
1.0
 40
1.0
 40
1.0
 40
1.0
 10
16.2823099505
 20
12.7798102812
 30
0.0
 10
16.2826803239
 20
12.7790555397
 30
0.0
 10
16.2840740955
 20
12.7760843533
 30
0.0
 10
16.2852545916
 20
12.7730117124
 30
0.0
 10
16.2859886006
 20
12.7706836425
 30
0.0
  0
SPLINE
  5
311
100
AcDbEntity
  8
0
100
AcDbSpline
 62
7
  6
CONTINUOUS
 70
0
 71
3
 72
11
 73
7
 74
0
 42
0.0000001
 43
0.0000001
 44
0.0000000001
 40
0.0
 40
0.0
 40
0.0
 40
0.0
 40
0.2639132343
 40
0.5163113037
 40
0.7603271482
 40
1.0
 40
1.0
 40
1.0
 40
1.0
 10
16.2859886006
 20
12.7706836425
 30
0.0
 10
16.2867344545
 20
12.7683180039
 30
0.0
 10
16.2879070043
 20
12.763591525
 30
0.0
 10
16.2886287066
 20
12.7564558897
 30
0.0
 10
16.2882527751
 20
12.749519795
 30
0.0
 10
16.2872701716
 20
12.7450564949
 30
0.0
 10
16.2866050884
 20
12.7429043114
 30
0.0
  0
SPLINE
  5
312
100
AcDbEntity
  8
0
100
AcDbSpline
 62
7
  6
CONTINUOUS
 70
0
 71
3
 72
16
 73
12
 74
0
 42
0.0000001
 43
0.0000001
 44
0.0000000001
 40
0.0
 40
0.0
 40
0.0
 40
0.0
 40
0.1242767116
 40
0.2532193115
 40
0.3845163519
 40
0.5159744012
 40
0.6452994604
 40
0.7702842117
 40
0.8305568802
 40
0.8890564081
 40
1.0
 40
1.0
 40
1.0
 40
1.0
 10
16.1235760111
 20
12.8558943578
 30
0.0
 10
16.1304307335
 20
12.8558943578
 30
0.0
 10
16.144405804
 20
12.8551169158
 30
0.0
 10
16.1653923787
 20
12.8518509629
 30
0.0
 10
16.1863651431
 20
12.8465340234
 30
0.0
 10
16.2067818608
 20
12.8393119221
 30
0.0
 10
16.2261265113
 20
12.8303762561
 30
0.0
 10
16.2411180296
 20
12.82157323
 30
0.0
 10
16.252123189
 20
12.8138376611
 30
0.0
 10
16.2620639705
 20
12.8059757136
 30
0.0
 10
16.268879912
 20
12.7995309259
 30
0.0
 10
16.2730098575
 20
12.7950154542
 30
0.0
  0
SPLINE
  5
313
100
AcDbEntity
  8
0
100
AcDbSpline
 62
7
  6
CONTINUOUS
 70
0
 71
3
 72
14
 73
10
 74
0
 42
0.0000001
 43
0.0000001
 44
0.0000000001
 40
0.0
 40
0.0
 40
0.0
 40
0.0
 40
0.2722869015
 40
0.4004313726
 40
0.5240950664
 40
0.6444428893
 40
0.7628757763
 40
0.8808893183
 40
1.0
 40
1.0
 40
1.0
 40
1.0
 10
14.4167556145
 20
11.9886501025
 30
0.0
 10
14.4146918143
 20
11.992855685
 30
0.0
 10
14.4122028477
 20
11.9993501963
 30
0.0
 10
14.4104489884
 20
12.0082119618
 30
0.0
 10
14.4099783463
 20
12.0146154287
 30
0.0
 10
14.410333347
 20
12.0208592966
 30
0.0
 10
14.4115083067
 20
12.0269042828
 30
0.0
 10
14.4134988646
 20
12.032708563
 30
0.0
 10
14.4153467309
 20
12.0363622334
 30
0.0
 10
14.4163894776
 20
12.0381263966
 30
0.0
  0
SPLINE
  5
314
100
AcDbEntity
  8
0
100
AcDbSpline
 62
7
  6
CONTINUOUS
 70
0
 71
3
 72
14
 73
10
 74
0
 42
0.0000001
 43
0.0000001
 44
0.0000000001
 40
0.0
 40
0.0
 40
0.0
 40
0.0
 40
0.1080800723
 40
0.2195635144
 40
0.3354452718
 40
0.4564808777
 40
0.7157539769
 40
0.8547814811
 40
1.0
 40
1.0
 40
1.0
 40
1.0
 10
14.4163894776
 20
12.0381263966
 30
0.0
 10
14.417465937
 20
12.0399475964
 30
0.0
 10
14.4199064008
 20
12.0435028672
 30
0.0
 10
14.4242908342
 20
12.048411567
 30
0.0
 10
14.4294188131
 20
12.0529305335
 30
0.0
 10
14.4373728348
 20
12.0585308232
 30
0.0
 10
14.4465371089
 20
12.0630848848
 30
0.0
 10
14.4565703954
 20
12.0666378551
 30
0.0
 10
14.4619461508
 20
12.0680976834
 30
0.0
 10
14.4647130714
 20
12.0687487548
 30
0.0
  0
SPLINE
  5
315
100
AcDbEntity
  8
0
100
AcDbSpline
 62
7
  6
CONTINUOUS
 70
0
 71
3
 72
16
 73
12
 74
0
 42
0.0000001
 43
0.0000001
 44
0.0000000001
 40
0.0
 40
0.0
 40
0.0
 40
0.0
 40
0.1386376063
 40
0.2771959276
 40
0.4135251734
 40
0.5455701625
 40
0.6714678544
 40
0.7316551429
 40
0.7898010665
 40
0.8994909746
 40
1.0
 40
1.0
 40
1.0
 40
1.0
 10
14.5374845786
 20
11.9097475528
 30
0.0
 10
14.5307796232
 20
11.9112110602
 30
0.0
 10
14.5174958868
 20
11.9147325613
 30
0.0
 10
14.4982183855
 20
11.9216909768
 30
0.0
 10
14.4799216896
 20
11.9301845505
 30
0.0
 10
14.4630339354
 20
11.9400255281
 30
0.0
 10
14.4502605251
 20
11.9492924964
 30
0.0
 10
14.4411133472
 20
11.9572077784
 30
0.0
 10
14.433032541
 20
11.96509718
 30
0.0
 10
14.4244282489
 20
11.9752713856
 30
0.0
 10
14.4189474833
 20
11.9841835435
 30
0.0
 10
14.4167556145
 20
11.9886501025
 30
0.0
  0
SPLINE
  5
316
100
AcDbEntity
  8
0
100
AcDbSpline
 62
7
  6
CONTINUOUS
 70
0
 71
3
 72
11
 73
7
 74
0
 42
0.0000001
 43
0.0000001
 44
0.0000000001
 40
0.0
 40
0.0
 40
0.0
 40
0.0
 40
0.2712944054
 40
0.5254898456
 40
0.7663491583
 40
1.0
 40
1.0
 40
1.0
 40
1.0
 10
14.4283868876
 20
11.9964833716
 30
0.0
 10
14.4268723831
 20
11.9995696073
 30
0.0
 10
14.4243619181
 20
12.0057716363
 30
0.0
 10
14.4222713268
 20
12.0153087846
 30
0.0
 10
14.4220696141
 20
12.024602141
 30
0.0
 10
14.4232175716
 20
12.0305605345
 30
0.0
 10
14.4240917498
 20
12.0333893414
 30
0.0
  0
SPLINE
  5
317
100
AcDbEntity
  8
0
100
AcDbSpline
 62
7
  6
CONTINUOUS
 70
0
 71
3
 72
9
 73
5
 74
0
 42
0.0000001
 43
0.0000001
 44
0.0000000001
 40
0.0
 40
0.0
 40
0.0
 40
0.0
 40
0.5106932778
 40
1.0
 40
1.0
 40
1.0
 40
1.0
 10
16.0082832676
 20
11.834598635
 30
0.0
 10
16.0083914164
 20
11.8331076792
 30
0.0
 10
16.008403285
 20
11.830169614
 30
0.0
 10
16.0078993079
 20
11.8272593837
 30
0.0
 10
16.0074765045
 20
11.8258909397
 30
0.0
  0
SPLINE
  5
318
100
AcDbEntity
  8
0
100
AcDbSpline
 62
7
  6
CONTINUOUS
 70
0
 71
3
 72
9
 73
5
 74
0
 42
0.0000001
 43
0.0000001
 44
0.0000000001
 40
0.0
 40
0.0
 40
0.0
 40
0.0
 40
0.5014652356
 40
1.0
 40
1.0
 40
1.0
 40
1.0
 10
16.0062492756
 20
11.8441654518
 30
0.0
 10
16.006791765
 20
11.8426194616
 30
0.0
 10
16.0076842665
 20
11.8394669386
 30
0.0
 10
16.0081654273
 20
11.8362232001
 30
0.0
 10
16.0082832676
 20
11.834598635
 30
0.0
  0
SPLINE
  5
319
100
AcDbEntity
  8
0
100
AcDbSpline
 62
7
  6
CONTINUOUS
 70
0
 71
3
 72
9
 73
5
 74
0
 42
0.0000001
 43
0.0000001
 44
0.0000000001
 40
0.0
 40
0.0
 40
0.0
 40
0.0
 40
0.2537323326
 40
1.0
 40
1.0
 40
1.0
 40
1.0
 10
15.975998851
 20
11.7162109588
 30
0.0
 10
15.9760656767
 20
11.7154918293
 30
0.0
 10
15.9762693304
 20
11.7126524836
 30
0.0
 10
15.9762286064
 20
11.709794888
 30
0.0
 10
15.9760523975
 20
11.707678021
 30
0.0
  0
SPLINE
  5
31A
100
AcDbEntity
  8
0
100
AcDbSpline
 62
7
  6
CONTINUOUS
 70
0
 71
3
 72
11
 73
7
 74
0
 42
0.0000001
 43
0.0000001
 44
0.0000000001
 40
0.0
 40
0.0
 40
0.0
 40
0.0
 40
0.2461986
 40
0.4913363921
 40
0.7409520459
 40
1.0
 40
1.0
 40
1.0
 40
1.0
 10
15.9760523975
 20
11.707678021
 30
0.0
 10
15.9758262557
 20
11.7049612914
 30
0.0
 10
15.9748922103
 20
11.6995654282
 30
0.0
 10
15.9720055491
 20
11.6918368934
 30
0.0
 10
15.9676914728
 20
11.6846414608
 30
0.0
 10
15.9639929843
 20
11.6803542762
 30
0.0
 10
15.9619578651
 20
11.6783328818
 30
0.0
  0
SPLINE
  5
31B
100
AcDbEntity
  8
0
100
AcDbSpline
 62
7
  6
CONTINUOUS
 70
0
 71
3
 72
14
 73
10
 74
0
 42
0.0000001
 43
0.0000001
 44
0.0000000001
 40
0.0
 40
0.0
 40
0.0
 40
0.0
 40
0.3311687509
 40
0.4761342343
 40
0.6059377155
 40
0.7208768932
 40
0.8226544779
 40
0.9141910063
 40
1.0
 40
1.0
 40
1.0
 40
1.0
 10
15.7504130755
 20
12.6428297736
 30
0.0
 10
15.7506645343
 20
12.6436434947
 30
0.0
 10
15.7510964159
 20
12.6447962834
 30
0.0
 10
15.7518363812
 20
12.6461701517
 30
0.0
 10
15.7524073853
 20
12.6469970109
 30
0.0
 10
15.7530135732
 20
12.6476551249
 30
0.0
 10
15.7536489766
 20
12.6481379236
 30
0.0
 10
15.7543095247
 20
12.6484369412
 30
0.0
 10
15.7547680196
 20
12.6485050628
 30
0.0
 10
15.7549887003
 20
12.6485049688
 30
0.0
  0
SPLINE
  5
31C
100
AcDbEntity
  8
0
100
AcDbSpline
 62
7
  6
CONTINUOUS
 70
0
 71
3
 72
9
 73
5
 74
0
 42
0.0000001
 43
0.0000001
 44
0.0000000001
 40
0.0
 40
0.0
 40
0.0
 40
0.0
 40
0.2514524681
 40
1.0
 40
1.0
 40
1.0
 40
1.0
 10
15.6141478699
 20
12.1571670896
 30
0.0
 10
15.6136570401
 20
12.1577333388
 30
0.0
 10
15.6117066598
 20
12.1599834394
 30
0.0
 10
15.6098379917
 20
12.1623295147
 30
0.0
 10
15.6086856976
 20
12.1642396553
 30
0.0
  0
SPLINE
  5
31D
100
AcDbEntity
  8
0
100
AcDbSpline
 62
7
  6
CONTINUOUS
 70
0
 71
3
 72
11
 73
7
 74
0
 42
0.0000001
 43
0.0000001
 44
0.0000000001
 40
0.0
 40
0.0
 40
0.0
 40
0.0
 40
0.241684069
 40
0.4849704652
 40
0.7352989885
 40
1.0
 40
1.0
 40
1.0
 40
1.0
 10
15.6086856976
 20
12.1642396553
 30
0.0
 10
15.6081095805
 20
12.1651946758
 30
0.0
 10
15.6070763358
 20
12.1671914724
 30
0.0
 10
15.6060816782
 20
12.1704603863
 30
0.0
 10
15.6058320401
 20
12.1739832588
 30
0.0
 10
15.6062603613
 20
12.1763514196
 30
0.0
 10
15.6066210225
 20
12.1775185197
 30
0.0
  0
SPLINE
  5
31E
100
AcDbEntity
  8
0
100
AcDbSpline
 62
7
  6
CONTINUOUS
 70
0
 71
3
 72
15
 73
11
 74
0
 42
0.0000001
 43
0.0000001
 44
0.0000000001
 40
0.0
 40
0.0
 40
0.0
 40
0.0
 40
0.1024386236
 40
0.2191725723
 40
0.3465919609
 40
0.4807546543
 40
0.6175151393
 40
0.752578908
 40
0.8815920975
 40
1.0
 40
1.0
 40
1.0
 40
1.0
 10
15.7005237807
 20
12.4572570694
 30
0.0
 10
15.7002006005
 20
12.4579156415
 30
0.0
 10
15.6996285697
 20
12.4593835235
 30
0.0
 10
15.6989923295
 20
12.4617863778
 30
0.0
 10
15.6985499527
 20
12.4644629856
 30
0.0
 10
15.6983139536
 20
12.4673087042
 30
0.0
 10
15.6982961634
 20
12.4702187939
 30
0.0
 10
15.6984947894
 20
12.4730854721
 30
0.0
 10
15.6989067253
 20
12.475796354
 30
0.0
 10
15.6993287905
 20
12.4775209669
 30
0.0
 10
15.6995791476
 20
12.4783311226
 30
0.0
  0
SPLINE
  5
31F
100
AcDbEntity
  8
0
100
AcDbSpline
 62
7
  6
CONTINUOUS
 70
0
 71
3
 72
9
 73
5
 74
0
 42
0.0000001
 43
0.0000001
 44
0.0000000001
 40
0.0
 40
0.0
 40
0.0
 40
0.0
 40
0.2564111468
 40
1.0
 40
1.0
 40
1.0
 40
1.0
 10
16.1267648655
 20
12.3049502653
 30
0.0
 10
16.1274417439
 20
12.3041333601
 30
0.0
 10
16.1300368579
 20
12.3009108408
 30
0.0
 10
16.1324494629
 20
12.2975399727
 30
0.0
 10
16.1341157547
 20
12.2949536963
 30
0.0
  0
SPLINE
  5
320
100
AcDbEntity
  8
0
100
AcDbSpline
 62
7
  6
CONTINUOUS
 70
0
 71
3
 72
9
 73
5
 74
0
 42
0.0000001
 43
0.0000001
 44
0.0000000001
 40
0.0
 40
0.0
 40
0.0
 40
0.0
 40
0.2559462857
 40
1.0
 40
1.0
 40
1.0
 40
1.0
 10
16.1341157547
 20
12.2949536963
 30
0.0
 10
16.1345748898
 20
12.2942410659
 30
0.0
 10
16.1363309875
 20
12.2914327349
 30
0.0
 10
16.1379323854
 20
12.2885267089
 30
0.0
 10
16.1390180642
 20
12.2863143282
 30
0.0
  0
SPLINE
  5
321
100
AcDbEntity
  8
0
100
AcDbSpline
 62
7
  6
CONTINUOUS
 70
0
 71
3
 72
9
 73
5
 74
0
 42
0.0000001
 43
0.0000001
 44
0.0000000001
 40
0.0
 40
0.0
 40
0.0
 40
0.0
 40
0.5203873808
 40
1.0
 40
1.0
 40
1.0
 40
1.0
 10
14.5936922924
 20
12.4604516794
 30
0.0
 10
14.5905690153
 20
12.4638412202
 30
0.0
 10
14.5849458296
 20
12.4707189579
 30
0.0
 10
14.580339416
 20
12.4783325274
 30
0.0
 10
14.5784680081
 20
12.4821460555
 30
0.0
  0
SPLINE
  5
322
100
AcDbEntity
  8
0
100
AcDbSpline
 62
7
  6
CONTINUOUS
 70
0
 71
3
 72
11
 73
7
 74
0
 42
0.0000001
 43
0.0000001
 44
0.0000000001
 40
0.0
 40
0.0
 40
0.0
 40
0.0
 40
0.2636956131
 40
0.5136537671
 40
0.7565163283
 40
1.0
 40
1.0
 40
1.0
 40
1.0
 10
15.8860729366
 20
12.2971073169
 30
0.0
 10
15.885069696
 20
12.3004685015
 30
0.0
 10
15.8836546547
 20
12.3071994504
 30
0.0
 10
15.8835623942
 20
12.3173329783
 30
0.0
 10
15.8855767583
 20
12.326996172
 30
0.0
 10
15.8882859939
 20
12.3329371954
 30
0.0
 10
15.8899295592
 20
12.335728047
 30
0.0
  0
SPLINE
  5
323
100
AcDbEntity
  8
0
100
AcDbSpline
 62
7
  6
CONTINUOUS
 70
0
 71
3
 72
14
 73
10
 74
0
 42
0.0000001
 43
0.0000001
 44
0.0000000001
 40
0.0
 40
0.0
 40
0.0
 40
0.0
 40
0.1080685028
 40
0.2195433431
 40
0.3354258973
 40
0.4564635933
 40
0.7157067952
 40
0.854725836
 40
1.0
 40
1.0
 40
1.0
 40
1.0
 10
15.8899295592
 20
12.335728047
 30
0.0
 10
15.8910042945
 20
12.3375529984
 30
0.0
 10
15.893442325
 20
12.3411159283
 30
0.0
 10
15.897826617
 20
12.3460351339
 30
0.0
 10
15.9029571603
 20
12.3505637118
 30
0.0
 10
15.9109166728
 20
12.3561759354
 30
0.0
 10
15.9200892428
 20
12.3607401901
 30
0.0
 10
15.9301342121
 20
12.3643002552
 30
0.0
 10
15.9355174748
 20
12.3657620781
 30
0.0
 10
15.9382889056
 20
12.3664138875
 30
0.0
  0
SPLINE
  5
324
100
AcDbEntity
  8
0
100
AcDbSpline
 62
7
  6
CONTINUOUS
 70
0
 71
3
 72
9
 73
5
 74
0
 42
0.0000001
 43
0.0000001
 44
0.0000000001
 40
0.0
 40
0.0
 40
0.0
 40
0.0
 40
0.5169821313
 40
1.0
 40
1.0
 40
1.0
 40
1.0
 10
16.1390180642
 20
12.2863143282
 30
0.0
 10
16.1407304617
 20
12.2828248288
 30
0.0
 10
16.1435435845
 20
12.2758121837
 30
0.0
 10
16.1450687273
 20
12.268394967
 30
0.0
 10
16.1454215735
 20
12.2647804965
 30
0.0
  0
SPLINE
  5
325
100
AcDbEntity
  8
0
100
AcDbSpline
 62
7
  6
CONTINUOUS
 70
0
 71
3
 72
15
 73
11
 74
0
 42
0.0000001
 43
0.0000001
 44
0.0000000001
 40
0.0
 40
0.0
 40
0.0
 40
0.0
 40
0.1257102745
 40
0.2485015624
 40
0.3697129704
 40
0.4907617407
 40
0.6130647846
 40
0.7379373399
 40
0.866571329
 40
1.0
 40
1.0
 40
1.0
 40
1.0
 10
16.1454215735
 20
12.2647804965
 30
0.0
 10
16.1456178674
 20
12.2627697092
 30
0.0
 10
16.145771795
 20
12.2587670961
 30
0.0
 10
16.1452517622
 20
12.2528324212
 30
0.0
 10
16.1439814893
 20
12.2470870879
 30
0.0
 10
16.1419643131
 20
12.2415679514
 30
0.0
 10
16.1392146909
 20
12.2363090492
 30
0.0
 10
16.1357540506
 20
12.2313400603
 30
0.0
 10
16.1316029451
 20
12.2266913905
 30
0.0
 10
16.1284529246
 20
12.2238810656
 30
0.0
 10
16.1267823346
 20
12.2225366163
 30
0.0
  0
SPLINE
  5
326
100
AcDbEntity
  8
0
100
AcDbSpline
 62
7
  6
CONTINUOUS
 70
0
 71
3
 72
11
 73
7
 74
0
 42
0.0000001
 43
0.0000001
 44
0.0000000001
 40
0.0
 40
0.0
 40
0.0
 40
0.0
 40
0.3137871678
 40
0.5815478779
 40
0.8065546201
 40
1.0
 40
1.0
 40
1.0
 40
1.0
 10
15.581719146
 20
10.707961456
 30
0.0
 10
15.5818274928
 20
10.7075927894
 30
0.0
 10
15.5820538464
 20
10.706916273
 30
0.0
 10
15.582477616
 20
10.7060203217
 30
0.0
 10
15.5829708941
 20
10.705332213
 30
0.0
 10
15.5833830429
 20
10.7050090498
 30
0.0
 10
15.5835945521
 20
10.7049023701
 30
0.0
  0
SPLINE
  5
327
100
AcDbEntity
  8
0
100
AcDbSpline
 62
7
  6
CONTINUOUS
 70
0
 71
3
 72
16
 73
12
 74
0
 42
0.0000001
 43
0.0000001
 44
0.0000000001
 40
0.0
 40
0.0
 40
0.0
 40
0.0
 40
0.138428947
 40
0.2769242026
 40
0.4132925113
 40
0.5454290099
 40
0.6714320896
 40
0.7316618999
 40
0.7898385197
 40
0.8995449507
 40
1.0
 40
1.0
 40
1.0
 40
1.0
 10
14.541600027
 20
11.9231185892
 30
0.0
 10
14.5353261536
 20
11.9244431968
 30
0.0
 10
14.5228873773
 20
11.9276575015
 30
0.0
 10
14.5048230863
 20
11.9340666997
 30
0.0
 10
14.4876609748
 20
11.9419339047
 30
0.0
 10
14.4718105683
 20
11.9510826281
 30
0.0
 10
14.4598174489
 20
11.9597177281
 30
0.0
 10
14.4512289622
 20
11.9671035186
 30
0.0
 10
14.4436444322
 20
11.9744684539
 30
0.0
 10
14.4355726422
 20
11.9839719233
 30
0.0
 10
14.430436816
 20
11.9923060568
 30
0.0
 10
14.4283868876
 20
11.9964833716
 30
0.0
  0
SPLINE
  5
328
100
AcDbEntity
  8
0
100
AcDbSpline
 62
7
  6
CONTINUOUS
 70
0
 71
3
 72
11
 73
7
 74
0
 42
0.0000001
 43
0.0000001
 44
0.0000000001
 40
0.0
 40
0.0
 40
0.0
 40
0.0
 40
0.2712944054
 40
0.5254898456
 40
0.7663491583
 40
1.0
 40
1.0
 40
1.0
 40
1.0
 10
14.5784680081
 20
12.4821460555
 30
0.0
 10
14.5769535036
 20
12.4852322912
 30
0.0
 10
14.5744430386
 20
12.4914343202
 30
0.0
 10
14.5723524473
 20
12.5009714686
 30
0.0
 10
14.5721507346
 20
12.5102648249
 30
0.0
 10
14.5732986921
 20
12.5162232184
 30
0.0
 10
14.5741728703
 20
12.5190520253
 30
0.0
  0
SPLINE
  5
329
100
AcDbEntity
  8
0
100
AcDbSpline
 62
7
  6
CONTINUOUS
 70
0
 71
3
 72
9
 73
5
 74
0
 42
0.0000001
 43
0.0000001
 44
0.0000000001
 40
0.0
 40
0.0
 40
0.0
 40
0.0
 40
0.2564111468
 40
1.0
 40
1.0
 40
1.0
 40
1.0
 10
16.276845986
 20
12.7906129493
 30
0.0
 10
16.2775228645
 20
12.7897960441
 30
0.0
 10
16.2801179784
 20
12.7865735248
 30
0.0
 10
16.2825305834
 20
12.7832026567
 30
0.0
 10
16.2841968752
 20
12.7806163803
 30
0.0
  0
SPLINE
  5
32A
100
AcDbEntity
  8
0
100
AcDbSpline
 62
7
  6
CONTINUOUS
 70
0
 71
3
 72
9
 73
5
 74
0
 42
0.0000001
 43
0.0000001
 44
0.0000000001
 40
0.0
 40
0.0
 40
0.0
 40
0.0
 40
0.2559462857
 40
1.0
 40
1.0
 40
1.0
 40
1.0
 10
16.2841968752
 20
12.7806163803
 30
0.0
 10
16.2846560104
 20
12.7799037498
 30
0.0
 10
16.286412108
 20
12.7770954188
 30
0.0
 10
16.2880135059
 20
12.7741893929
 30
0.0
 10
16.2890991847
 20
12.7719770121
 30
0.0
  0
SPLINE
  5
32B
100
AcDbEntity
  8
0
100
AcDbSpline
 62
7
  6
CONTINUOUS
 70
0
 71
3
 72
10
 73
6
 74
0
 42
0.0000001
 43
0.0000001
 44
0.0000000001
 40
0.0
 40
0.0
 40
0.0
 40
0.0
 40
0.4424898767
 40
0.706315108
 40
1.0
 40
1.0
 40
1.0
 40
1.0
 10
15.3325371863
 20
10.7047113966
 30
0.0
 10
15.3320195025
 20
10.7047112305
 30
0.0
 10
15.3311941239
 20
10.7049626212
 30
0.0
 10
15.3301958238
 20
10.7055707427
 30
0.0
 10
15.3296911255
 20
10.7059893153
 30
0.0
 10
15.3294403271
 20
10.7062241675
 30
0.0
  0
LINE
  5
32C
100
AcDbEntity
  8
0
100
AcDbLine
 62
7
  6
CONTINUOUS
 10
15.3294403271
 20
10.7062241675
 11
15.3279672601
 21
10.707961456
  0
SPLINE
  5
32D
100
AcDbEntity
  8
0
100
AcDbSpline
 62
7
  6
CONTINUOUS
 70
0
 71
3
 72
14
 73
10
 74
0
 42
0.0000001
 43
0.0000001
 44
0.0000000001
 40
0.0
 40
0.0
 40
0.0
 40
0.0
 40
0.2722955636
 40
0.4004472885
 40
0.5241187388
 40
0.6444752377
 40
0.7629109008
 40
0.8809154679
 40
1.0
 40
1.0
 40
1.0
 40
1.0
 10
14.5668391892
 20
12.4743092369
 30
0.0
 10
14.5647780697
 20
12.4785093568
 30
0.0
 10
14.5622911511
 20
12.4849947723
 30
0.0
 10
14.5605353168
 20
12.4938442658
 30
0.0
 10
14.5600611242
 20
12.5002392488
 30
0.0
 10
14.5604098909
 20
12.506475388
 30
0.0
 10
14.5615762775
 20
12.5125136801
 30
0.0
 10
14.5635562694
 20
12.518312296
 30
0.0
 10
14.5653956786
 20
12.5219634106
 30
0.0
 10
14.5664339858
 20
12.5237265054
 30
0.0
  0
SPLINE
  5
32E
100
AcDbEntity
  8
0
100
AcDbSpline
 62
7
  6
CONTINUOUS
 70
0
 71
3
 72
14
 73
10
 74
0
 42
0.0000001
 43
0.0000001
 44
0.0000000001
 40
0.0
 40
0.0
 40
0.0
 40
0.0
 40
0.1080685028
 40
0.2195433431
 40
0.3354258973
 40
0.4564635933
 40
0.7157067952
 40
0.854725836
 40
1.0
 40
1.0
 40
1.0
 40
1.0
 10
14.5664339858
 20
12.5237265054
 30
0.0
 10
14.5675087211
 20
12.5255514568
 30
0.0
 10
14.5699467516
 20
12.5291143866
 30
0.0
 10
14.5743310437
 20
12.5340335922
 30
0.0
 10
14.5794615869
 20
12.5385621701
 30
0.0
 10
14.5874210994
 20
12.5441743937
 30
0.0
 10
14.5965936694
 20
12.5487386484
 30
0.0
 10
14.6066386388
 20
12.5522987135
 30
0.0
 10
14.6120219014
 20
12.5537605364
 30
0.0
 10
14.6147933323
 20
12.5544123459
 30
0.0
  0
SPLINE
  5
32F
100
AcDbEntity
  8
0
100
AcDbSpline
 62
7
  6
CONTINUOUS
 70
0
 71
3
 72
9
 73
5
 74
0
 42
0.0000001
 43
0.0000001
 44
0.0000000001
 40
0.0
 40
0.0
 40
0.0
 40
0.0
 40
0.2594244645
 40
1.0
 40
1.0
 40
1.0
 40
1.0
 10
14.5753581034
 20
12.4604404637
 30
0.0
 10
14.5745208863
 20
12.4615731618
 30
0.0
 10
14.5713827021
 20
12.4660036634
 30
0.0
 10
14.5686105639
 20
12.4706995547
 30
0.0
 10
14.5668391892
 20
12.4743092369
 30
0.0
  0
SPLINE
  5
330
100
AcDbEntity
  8
0
100
AcDbSpline
 62
7
  6
CONTINUOUS
 70
0
 71
3
 72
13
 73
9
 74
0
 42
0.0000001
 43
0.0000001
 44
0.0000000001
 40
0.0
 40
0.0
 40
0.0
 40
0.0
 40
0.1118471039
 40
0.229919603
 40
0.3528826637
 40
0.4793429972
 40
0.7380710565
 40
1.0
 40
1.0
 40
1.0
 40
1.0
 10
15.8433712005
 20
12.9436423764
 30
0.0
 10
15.843691763
 20
12.9446797169
 30
0.0
 10
15.8445780296
 20
12.9467446893
 30
0.0
 10
15.8464217204
 20
12.9496439067
 30
0.0
 10
15.8487047782
 20
12.9523951378
 30
0.0
 10
15.8522193678
 20
12.9558651072
 30
0.0
 10
15.8571755167
 20
12.9597505957
 30
0.0
 10
15.8613672181
 20
12.96257349
 30
0.0
 10
15.863476183
 20
12.9639938065
 30
0.0
  0
SPLINE
  5
331
100
AcDbEntity
  8
0
100
AcDbSpline
 62
7
  6
CONTINUOUS
 70
0
 71
3
 72
11
 73
7
 74
0
 42
0.0000001
 43
0.0000001
 44
0.0000000001
 40
0.0
 40
0.0
 40
0.0
 40
0.0
 40
0.2636956131
 40
0.5136537671
 40
0.7565163283
 40
1.0
 40
1.0
 40
1.0
 40
1.0
 10
16.0361540571
 20
12.7827700009
 30
0.0
 10
16.0351508165
 20
12.7861311855
 30
0.0
 10
16.0337357752
 20
12.7928621343
 30
0.0
 10
16.0336435147
 20
12.8029956623
 30
0.0
 10
16.0356578788
 20
12.812658856
 30
0.0
 10
16.0383671144
 20
12.8185998794
 30
0.0
 10
16.0400106797
 20
12.821390731
 30
0.0
  0
SPLINE
  5
332
100
AcDbEntity
  8
0
100
AcDbSpline
 62
7
  6
CONTINUOUS
 70
0
 71
3
 72
14
 73
10
 74
0
 42
0.0000001
 43
0.0000001
 44
0.0000000001
 40
0.0
 40
0.0
 40
0.0
 40
0.0
 40
0.1080685028
 40
0.2195433431
 40
0.3354258973
 40
0.4564635933
 40
0.7157067952
 40
0.854725836
 40
1.0
 40
1.0
 40
1.0
 40
1.0
 10
16.0400106797
 20
12.821390731
 30
0.0
 10
16.041085415
 20
12.8232156824
 30
0.0
 10
16.0435234455
 20
12.8267786122
 30
0.0
 10
16.0479077376
 20
12.8316978178
 30
0.0
 10
16.0530382808
 20
12.8362263957
 30
0.0
 10
16.0609977933
 20
12.8418386194
 30
0.0
 10
16.0701703633
 20
12.846402874
 30
0.0
 10
16.0802153327
 20
12.8499629392
 30
0.0
 10
16.0855985953
 20
12.851424762
 30
0.0
 10
16.0883700262
 20
12.8520765715
 30
0.0
  0
SPLINE
  5
333
100
AcDbEntity
  8
0
100
AcDbSpline
 62
7
  6
CONTINUOUS
 70
0
 71
3
 72
9
 73
5
 74
0
 42
0.0000001
 43
0.0000001
 44
0.0000000001
 40
0.0
 40
0.0
 40
0.0
 40
0.0
 40
0.5169821313
 40
1.0
 40
1.0
 40
1.0
 40
1.0
 10
16.2890991847
 20
12.7719770121
 30
0.0
 10
16.2908115822
 20
12.7684875128
 30
0.0
 10
16.293624705
 20
12.7614748677
 30
0.0
 10
16.2951498478
 20
12.754057651
 30
0.0
 10
16.295502694
 20
12.7504431805
 30
0.0
  0
SPLINE
  5
334
100
AcDbEntity
  8
0
100
AcDbSpline
 62
7
  6
CONTINUOUS
 70
0
 71
3
 72
15
 73
11
 74
0
 42
0.0000001
 43
0.0000001
 44
0.0000000001
 40
0.0
 40
0.0
 40
0.0
 40
0.0
 40
0.1257102745
 40
0.2485015624
 40
0.3697129704
 40
0.4907617407
 40
0.6130647846
 40
0.7379373399
 40
0.866571329
 40
1.0
 40
1.0
 40
1.0
 40
1.0
 10
16.295502694
 20
12.7504431805
 30
0.0
 10
16.2956989879
 20
12.7484323932
 30
0.0
 10
16.2958529155
 20
12.7444297801
 30
0.0
 10
16.2953328827
 20
12.7384951052
 30
0.0
 10
16.2940626098
 20
12.7327497719
 30
0.0
 10
16.2920454336
 20
12.7272306354
 30
0.0
 10
16.2892958114
 20
12.7219717332
 30
0.0
 10
16.2858351711
 20
12.7170027443
 30
0.0
 10
16.2816840657
 20
12.7123540744
 30
0.0
 10
16.2785340451
 20
12.7095437496
 30
0.0
 10
16.2768634551
 20
12.7081993003
 30
0.0
  0
ENDSEC
  0
SECTION
  2
OBJECTS
  0
DICTIONARY
  5
C
100
AcDbDictionary
280
0
281
1
  3
ACAD_GROUP
350
D
  3
ACAD_MLINESTYLE
350
17
  3
ACAD_LAYOUT
350
1A
  3
ACAD_PLOTSETTINGS
350
19
  3
ACAD_PLOTSTYLENAME
350
E
  0
DICTIONARY
  5
D
102
{ACAD_REACTORS
330
C
102
}
100
AcDbDictionary
280
0
281
1
  0
ACDBDICTIONARYWDFLT
  5
E
102
{ACAD_REACTORS
330
C
102
}
100
AcDbDictionary
281
1
  3
Normal
350
F
100
AcDbDictionaryWithDefault
340
F
  0
DICTIONARY
  5
17
102
{ACAD_REACTORS
330
C
102
}
100
AcDbDictionary
280
0
281
1
  3
Standard
350
18
  0
DICTIONARY
  5
19
102
{ACAD_REACTORS
330
C
102
}
100
AcDbDictionary
281
1
  0
DICTIONARY
  5
1A
102
{ACAD_REACTORS
330
C
102
}
100
AcDbDictionary
281
1
  3
Model
350
335
  3
Layout1
350
336
  0
ACDBPLACEHOLDER
  5
F
102
{ACAD_REACTORS
330
E
102
}
  0
MLINESTYLE
  5
18
102
{ACAD_REACTORS
330
17
102
}
100
AcDbMlineStyle
  2
STANDARD
 70
0
  3

 62
256
 51
90.0
 52
90.0
 71
2
 49
0.5
 62
256
  6
BYLAYER
 49
-0.5
 62
256
  6
BYLAYER
  0
LAYOUT
  5
335
102
{ACAD_REACTORS
330
1A
102
}
100
AcDbPlotSettings
  1

  2
none_device
  4
ANSI_C_(22.00_x_17.00_Inches)
  6

 40
0.0
 41
0.0
 42
0.0
 43
0.0
 44
558.8
 45
431.8
 46
0.0
 47
0.0
 48
0.0
 49
0.0
140
0.0
141
0.0
142
1.0
143
1.0
 70
1024
 72
0
 73
0
 74
0
  7

 75
0
147
1.0
148
0.0
149
0.0
100
AcDbLayout
  1
Model
 70
0
 71
0
 10
0.0
 20
0.0
 11
22.0
 21
17.0
 12
0.0
 22
0.0
 32
0.0
 14
0.0
 24
0.0
 34
0.0
 15
0.0
 25
0.0
 35
0.0
146
0.0
 13
0.0
 23
0.0
 33
0.0
 16
1.0
 26
0.0
 36
0.0
 17
0.0
 27
1.0
 37
0.0
 76
0
330
218
345
0
346
0
  0
LAYOUT
  5
336
102
{ACAD_REACTORS
330
1A
102
}
100
AcDbPlotSettings
  1

  2
none_device
  4
ANSI_C_(22.00_x_17.00_Inches)
  6

 40
0.0
 41
0.0
 42
0.0
 43
0.0
 44
558.8
 45
431.8
 46
0.0
 47
0.0
 48
0.0
 49
0.0
140
0.0
141
0.0
142
1.0
143
1.0
 70
0
 72
0
 73
0
 74
0
  7

 75
0
147
1.0
148
0.0
149
0.0
100
AcDbLayout
  1
Layout1
 70
0
 71
1
 10
0.0
 20
0.0
 11
22.0
 21
17.0
 12
0.0
 22
0.0
 32
0.0
 14
0.0
 24
0.0
 34
0.0
 15
0.0
 25
0.0
 35
0.0
146
0.0
 13
0.0
 23
0.0
 33
0.0
 16
1.0
 26
0.0
 36
0.0
 17
0.0
 27
1.0
 37
0.0
 76
0
330
219
345
0
346
0
  0
ENDSEC
  0
EOF