999
DXF file: _cgs_temp_output.dxf
999
Pro/ENGINEER 2016360 by Parametric Technology Corporation
  0
SECTION
  2
HEADER
  9
$ACADVER
  1
AC1021
  9
$DWGCODEPAGE
  3
ANSI_1252
  9
$EXTMAX
 10
22.0
 20
17.0
 30
0.0
  9
$EXTMIN
 10
0.0
 20
0.0
 30
0.0
  9
$LIMMIN
 10
0.0
 20
0.0
  9
$LIMMAX
 10
22.0
 20
17.0
  9
$VIEWCTR
 10
11.0
 20
8.5
  9
$VIEWSIZE
 40
17.0
  9
$CLAYER
  8
0
  9
$LTSCALE
 40
1.21
  9
$CELTYPE
  6
BYLAYER
  9
$DIMSCALE
 40
1.0
  9
$DIMASZ
 40
0.1875
  9
$DIMEXO
 40
0.0625
  9
$DIMDLI
 40
0.836
  9
$DIMEXE
 40
0.125
  9
$DIMCEN
 40
0.198
  9
$DIMLFAC
 40
1.0
  9
$DIMBLK
  1
_CLOSED
  9
$DIMALT
 70
0
  9
$DIMALTF
 40
25.4
  9
$DIMTXT
 40
0.15625
  9
$DIMTOL
 70
0
  9
$DIMLIM
 70
0
  9
$DIMTFAC
 40
1.0
  9
$DIMGAP
 40
0.09
  9
$DIMDSEP
 70
46
  9
$AUNITS
 70
0
  9
$PDMODE
 70
3
  9
$PDSIZE
 40
0.3125
  9
$HANDSEED
  5
308
  9
$TILEMODE
 70
1
  9
$MEASUREMENT
 70
0
  9
$INSUNITS
 70
1
  0
ENDSEC
  0
SECTION
  2
CLASSES
  0
CLASS
  1
ACDBDICTIONARYWDFLT
  2
AcDbDictionaryWithDefault
  3
AutoCAD 2000
 90
0
 91
1
280
0
281
0
  0
CLASS
  1
ACDBPLACEHOLDER
  2
AcDbPlaceHolder
  3
AutoCAD 2000
 90
0
 91
1
280
0
281
0
  0
CLASS
  1
LAYOUT
  2
AcDbLayout
  3
AutoCAD 2000
 90
0
 91
0
280
0
281
0
  0
ENDSEC
  0
SECTION
  2
TABLES
  0
TABLE
  2
VPORT
  5
8
100
AcDbSymbolTable
 70
2
  0
VPORT
  5
1F4
100
AcDbSymbolTableRecord
100
AcDbViewportTableRecord
  2
*ACTIVE
 70
0
 10
0.0
 20
0.0
 11
1.0
 21
1.0
 12
11.0
 22
8.5
 13
0.0
 23
0.0
 14
1.0
 24
1.0
 15
0.0
 25
0.0
 16
0.0
 26
0.0
 36
1.0
 17
0.0
 27
0.0
 37
0.0
 40
17.0
 41
1.2941176471
 42
50.0
 43
0.0
 44
0.0
 50
0.0
 51
0.0
 71
0
 72
100
 73
1
 74
1
 75
0
 76
0
 77
0
 78
0
  0
ENDTAB
  0
TABLE
  2
LTYPE
  5
5
100
AcDbSymbolTable
 70
6
  0
LTYPE
  5
14
100
AcDbSymbolTableRecord
100
AcDbLinetypeTableRecord
  2
BYBLOCK
 70
0
  3

 72
65
 73
0
 40
0.0
  0
LTYPE
  5
15
100
AcDbSymbolTableRecord
100
AcDbLinetypeTableRecord
  2
BYLAYER
 70
0
  3

 72
65
 73
0
 40
0.0
  0
LTYPE
  5
16
100
AcDbSymbolTableRecord
100
AcDbLinetypeTableRecord
  2
CONTINUOUS
 70
64
  3
Solid line
 72
65
 73
0
 40
0.0
  0
LTYPE
  5
1F5
100
AcDbSymbolTableRecord
100
AcDbLinetypeTableRecord
  2
CENTER
 70
64
  3
____ _ ____ _ ____ _ ____ _ ____ _ ____ _ ____
 72
65
 73
4
 40
0.6
 49
0.375
 74
0
 49
-0.075
 74
0
 49
0.075
 74
0
 49
-0.075
 74
0
  0
LTYPE
  5
1F6
100
AcDbSymbolTableRecord
100
AcDbLinetypeTableRecord
  2
HIDDEN
 70
64
  3
- - - - - - - - - - - - - - - - - - - -
 72
65
 73
2
 40
0.2
 49
0.1
 74
0
 49
-0.1
 74
0
  0
LTYPE
  5
1F7
100
AcDbSymbolTableRecord
100
AcDbLinetypeTableRecord
  2
PHANTOM
 70
64
  3
_____ _ _ _____ _ _ _____ _ _ _____
 72
65
 73
6
 40
0.8
 49
0.45
 74
0
 49
-0.05
 74
0
 49
0.1
 74
0
 49
-0.05
 74
0
 49
0.1
 74
0
 49
-0.05
 74
0
  0
LTYPE
  5
1F8
100
AcDbSymbolTableRecord
100
AcDbLinetypeTableRecord
  2
DOT
 70
64
  3
. . . . . . . . . . . . . . . . . . . .
 72
65
 73
2
 40
0.2
 49
0.1
 74
0
 49
-0.1
 74
0
  0
LTYPE
  5
1F9
100
AcDbSymbolTableRecord
100
AcDbLinetypeTableRecord
  2
DASHED
 70
64
  3
- - - - - - - - - - - - - - - - - - - -
 72
65
 73
2
 40
0.2
 49
0.1
 74
0
 49
-0.1
 74
0
  0
ENDTAB
  0
TABLE
  2
LAYER
  5
2
100
AcDbSymbolTable
 70
36
  0
LAYER
  5
10
100
AcDbSymbolTableRecord
100
AcDbLayerTableRecord
  2
0
 70
0
 62
7
  6
CONTINUOUS
370
-3
390
F
  0
LAYER
  5
1FA
100
AcDbSymbolTableRecord
100
AcDbLayerTableRecord
  2
DEFAULT_1
 70
0
 62
7
  6
CENTER
370
-3
390
F
  0
LAYER
  5
1FB
100
AcDbSymbolTableRecord
100
AcDbLayerTableRecord
  2
DEFAULT_2
 70
0
 62
8
  6
HIDDEN
370
-3
390
F
  0
LAYER
  5
1FC
100
AcDbSymbolTableRecord
100
AcDbLayerTableRecord
  2
DEFAULT_3
 70
0
 62
7
  6
PHANTOM
370
-3
390
F
  0
LAYER
  5
1FD
100
AcDbSymbolTableRecord
100
AcDbLayerTableRecord
  2
01_ALL_DTM_PLN
 70
0
 62
7
  6
CONTINUOUS
370
-3
390
F
  0
LAYER
  5
1FE
100
AcDbSymbolTableRecord
100
AcDbLayerTableRecord
  2
01__ASM_ALL_DTM_PLN
 70
0
 62
7
  6
CONTINUOUS
370
-3
390
F
  0
LAYER
  5
1FF
100
AcDbSymbolTableRecord
100
AcDbLayerTableRecord
  2
01__ASM_DEF_DTM_PLN
 70
0
 62
7
  6
CONTINUOUS
370
-3
390
F
  0
LAYER
  5
200
100
AcDbSymbolTableRecord
100
AcDbLayerTableRecord
  2
01___PRT_ALL_DTM_PLN
 70
0
 62
7
  6
CONTINUOUS
370
-3
390
F
  0
LAYER
  5
201
100
AcDbSymbolTableRecord
100
AcDbLayerTableRecord
  2
01___PRT_DEF_DTM_PLN
 70
0
 62
7
  6
CONTINUOUS
370
-3
390
F
  0
LAYER
  5
202
100
AcDbSymbolTableRecord
100
AcDbLayerTableRecord
  2
02_ALL_AXES
 70
0
 62
7
  6
CONTINUOUS
370
-3
390
F
  0
LAYER
  5
203
100
AcDbSymbolTableRecord
100
AcDbLayerTableRecord
  2
02__ASM_ALL_AXES
 70
0
 62
7
  6
CONTINUOUS
370
-3
390
F
  0
LAYER
  5
204
100
AcDbSymbolTableRecord
100
AcDbLayerTableRecord
  2
02___PRT_ALL_AXES
 70
0
 62
7
  6
CONTINUOUS
370
-3
390
F
  0
LAYER
  5
205
100
AcDbSymbolTableRecord
100
AcDbLayerTableRecord
  2
03_ALL_CURVES
 70
0
 62
7
  6
CONTINUOUS
370
-3
390
F
  0
LAYER
  5
206
100
AcDbSymbolTableRecord
100
AcDbLayerTableRecord
  2
03__ASM_ALL_CURVES
 70
0
 62
7
  6
CONTINUOUS
370
-3
390
F
  0
LAYER
  5
207
100
AcDbSymbolTableRecord
100
AcDbLayerTableRecord
  2
03___PRT_ALL_CURVES
 70
0
 62
7
  6
CONTINUOUS
370
-3
390
F
  0
LAYER
  5
208
100
AcDbSymbolTableRecord
100
AcDbLayerTableRecord
  2
04_ALL_DTM_PNT
 70
0
 62
7
  6
CONTINUOUS
370
-3
390
F
  0
LAYER
  5
209
100
AcDbSymbolTableRecord
100
AcDbLayerTableRecord
  2
04__ASM_ALL_DTM_PNT
 70
0
 62
7
  6
CONTINUOUS
370
-3
390
F
  0
LAYER
  5
20A
100
AcDbSymbolTableRecord
100
AcDbLayerTableRecord
  2
04___PRT_ALL_DTM_PNT
 70
0
 62
7
  6
CONTINUOUS
370
-3
390
F
  0
LAYER
  5
20B
100
AcDbSymbolTableRecord
100
AcDbLayerTableRecord
  2
05_ALL_DTM_CSYS
 70
0
 62
7
  6
CONTINUOUS
370
-3
390
F
  0
LAYER
  5
20C
100
AcDbSymbolTableRecord
100
AcDbLayerTableRecord
  2
05__ASM_ALL_DTM_CSYS
 70
0
 62
7
  6
CONTINUOUS
370
-3
390
F
  0
LAYER
  5
20D
100
AcDbSymbolTableRecord
100
AcDbLayerTableRecord
  2
05__ASM_DEF_DTM_CSYS
 70
0
 62
7
  6
CONTINUOUS
370
-3
390
F
  0
LAYER
  5
20E
100
AcDbSymbolTableRecord
100
AcDbLayerTableRecord
  2
05___PRT_ALL_DTM_CSYS
 70
0
 62
7
  6
CONTINUOUS
370
-3
390
F
  0
LAYER
  5
20F
100
AcDbSymbolTableRecord
100
AcDbLayerTableRecord
  2
05___PRT_DEF_DTM_CSYS
 70
0
 62
7
  6
CONTINUOUS
370
-3
390
F
  0
LAYER
  5
210
100
AcDbSymbolTableRecord
100
AcDbLayerTableRecord
  2
06_ALL_SURFS
 70
0
 62
7
  6
CONTINUOUS
370
-3
390
F
  0
LAYER
  5
211
100
AcDbSymbolTableRecord
100
AcDbLayerTableRecord
  2
06__ASM_ALL_SURFS
 70
0
 62
7
  6
CONTINUOUS
370
-3
390
F
  0
LAYER
  5
212
100
AcDbSymbolTableRecord
100
AcDbLayerTableRecord
  2
06___PRT_ALL_SURFS
 70
0
 62
7
  6
CONTINUOUS
370
-3
390
F
  0
LAYER
  5
213
100
AcDbSymbolTableRecord
100
AcDbLayerTableRecord
  2
07__ASM_ALL_SKELETONS
 70
0
 62
7
  6
CONTINUOUS
370
-3
390
F
  0
LAYER
  5
214
100
AcDbSymbolTableRecord
100
AcDbLayerTableRecord
  2
LAYER_AXIS
 70
0
 62
7
  6
CONTINUOUS
370
-3
390
F
  0
LAYER
  5
215
100
AcDbSymbolTableRecord
100
AcDbLayerTableRecord
  2
LAYER_CHAMFER_FEAT
 70
0
 62
7
  6
CONTINUOUS
370
-3
390
F
  0
LAYER
  5
216
100
AcDbSymbolTableRecord
100
AcDbLayerTableRecord
  2
LAYER_CUT_FEAT
 70
0
 62
7
  6
CONTINUOUS
370
-3
390
F
  0
LAYER
  5
217
100
AcDbSymbolTableRecord
100
AcDbLayerTableRecord
  2
LAYER_DATUM
 70
0
 62
7
  6
CONTINUOUS
370
-3
390
F
  0
LAYER
  5
218
100
AcDbSymbolTableRecord
100
AcDbLayerTableRecord
  2
LAYER_DIM
 70
0
 62
7
  6
CONTINUOUS
370
-3
390
F
  0
LAYER
  5
219
100
AcDbSymbolTableRecord
100
AcDbLayerTableRecord
  2
LAYER_FEATURE
 70
0
 62
7
  6
CONTINUOUS
370
-3
390
F
  0
LAYER
  5
21A
100
AcDbSymbolTableRecord
100
AcDbLayerTableRecord
  2
LAYER_GEOM_FEAT
 70
0
 62
7
  6
CONTINUOUS
370
-3
390
F
  0
LAYER
  5
21B
100
AcDbSymbolTableRecord
100
AcDbLayerTableRecord
  2
LAYER_NOGEOM_FEAT
 70
0
 62
7
  6
CONTINUOUS
370
-3
390
F
  0
LAYER
  5
21C
100
AcDbSymbolTableRecord
100
AcDbLayerTableRecord
  2
LAYER_PARAMETER_DIM
 70
0
 62
7
  6
CONTINUOUS
370
-3
390
F
  0
LAYER
  5
21D
100
AcDbSymbolTableRecord
100
AcDbLayerTableRecord
  2
LAYER_PROTRUSION_FEAT
 70
0
 62
7
  6
CONTINUOUS
370
-3
390
F
  0
LAYER
  5
21E
100
AcDbSymbolTableRecord
100
AcDbLayerTableRecord
  2
LAYER_QUILT
 70
0
 62
7
  6
CONTINUOUS
370
-3
390
F
  0
LAYER
  5
21F
100
AcDbSymbolTableRecord
100
AcDbLayerTableRecord
  2
LAYER_ROUND_FEAT
 70
0
 62
7
  6
CONTINUOUS
370
-3
390
F
  0
ENDTAB
  0
TABLE
  2
STYLE
  5
3
100
AcDbSymbolTable
 70
1
  0
STYLE
  5
11
100
AcDbSymbolTableRecord
100
AcDbTextStyleTableRecord
  2
STANDARD
 70
0
 40
0.0
 41
0.8
 50
0.0
 71
0
 42
0.2
  3
txt
  4

  0
STYLE
  5
220
100
AcDbSymbolTableRecord
100
AcDbTextStyleTableRecord
  2
TEXTSTYLE_1
 70
0
 40
0.0
 41
0.8
 50
0.0
 71
0
 42
0.2
  3
gdt
  4

  0
ENDTAB
  0
TABLE
  2
VIEW
  5
6
100
AcDbSymbolTable
 70
0
  0
ENDTAB
  0
TABLE
  2
UCS
  5
7
100
AcDbSymbolTable
 70
0
  0
ENDTAB
  0
TABLE
  2
APPID
  5
9
100
AcDbSymbolTable
 70
1
  0
APPID
  5
221
100
AcDbSymbolTableRecord
100
AcDbRegAppTableRecord
  2
ACAD
 70
0
  0
ENDTAB
  0
TABLE
  2
BLOCK_RECORD
  5
1
100
AcDbSymbolTable
 70
0
  0
BLOCK_RECORD
  5
222
100
AcDbSymbolTableRecord
100
AcDbBlockTableRecord
  2
*Model_Space
  0
BLOCK_RECORD
  5
223
100
AcDbSymbolTableRecord
100
AcDbBlockTableRecord
  2
*Paper_Space
  0
ENDTAB
  0
TABLE
  2
DIMSTYLE
  5
A
100
AcDbSymbolTable
 70
1
100
AcDbDimStyleTable
 71
0
  0
DIMSTYLE
105
224
100
AcDbSymbolTableRecord
100
AcDbDimStyleTableRecord
  2
STANDARD
 70
0
  3

  4

 40
1.0
 41
0.1875
 42
0.0625
 43
0.38
 44
0.125
 45
0.0
 46
0.0
 47
0.0001
 48
0.0001
140
0.15625
141
0.09
142
0.0
143
25.4
144
1.0
145
0.0
146
1.0
147
0.09
 71
0.0
 72
0.0
 73
1
 74
1
 75
0
 76
0
 77
0
 78
4
 79
1
170
0
171
3
172
0
173
0
174
0
175
0
176
0
177
0
178
0
270
2
179
4
271
4
272
4
273
2
274
2
275
0
280
0
281
0
282
0
283
1
284
4
285
0
286
0
287
3
288
0
340
11
278
46
  0
ENDTAB
  0
ENDSEC
  0
SECTION
  2
BLOCKS
  0
BLOCK
  5
20
100
AcDbEntity
  8
0
100
AcDbBlockBegin
  2
*Model_Space
 70
0
 10
0.0
 20
0.0
 30
0.0
  3
*Model_Space
  1

  0
ENDBLK
  5
21
100
AcDbEntity
  8
0
100
AcDbBlockEnd
  0
BLOCK
  5
1C
100
AcDbEntity
  8
0
100
AcDbBlockBegin
  2
*Paper_Space
 70
0
 10
0.0
 20
0.0
 30
0.0
  3
*Paper_Space
  1

  0
ENDBLK
  5
1D
100
AcDbEntity
  8
0
100
AcDbBlockEnd
  0
ENDSEC
  0
SECTION
  2
ENTITIES
  0
MTEXT
  5
225
100
AcDbEntity
  8
0
100
AcDbMText
 62
7
  6
CONTINUOUS
  7
STANDARD
 71
1
 72
1
 10
15.9560215477
 20
0.9479130325
 30
0.0
 11
1.0
 21
0.0
 31
0.0
 44
0.9
  1
SCALE: 1:0.200
 40
0.3
 41
3.36
  0
LINE
  5
226
100
AcDbEntity
  8
0
100
AcDbLine
 62
7
  6
CONTINUOUS
 10
0.0
 20
0.0
 11
0.0
 21
17.0
  0
LINE
  5
227
100
AcDbEntity
  8
0
100
AcDbLine
 62
7
  6
CONTINUOUS
 10
0.0
 20
0.0
 11
22.0
 21
0.0
  0
LINE
  5
228
100
AcDbEntity
  8
0
100
AcDbLine
 62
7
  6
CONTINUOUS
 10
0.0
 20
17.0
 11
22.0
 21
17.0
  0
LINE
  5
229
100
AcDbEntity
  8
0
100
AcDbLine
 62
7
  6
CONTINUOUS
 10
22.0
 20
0.0
 11
22.0
 21
17.0
  0
LINE
  5
22A
100
AcDbEntity
  8
02___PRT_ALL_AXES
100
AcDbLine
 62
7
  6
CONTINUOUS
 10
5.3923672762
 20
3.9523730537
 11
6.8683672762
 21
3.9523730537
  0
LINE
  5
22B
100
AcDbEntity
  8
LAYER_CUT_FEAT
100
AcDbLine
 62
7
  6
CONTINUOUS
 10
5.3923672762
 20
3.9523731303
 11
5.3923672762
 21
7.0877127584
  0
LINE
  5
22C
100
AcDbEntity
  8
LAYER_CUT_FEAT
100
AcDbLine
 62
7
  6
CONTINUOUS
 10
6.8683672762
 20
3.9523731303
 11
6.8683672762
 21
7.0877127584
  0
LINE
  5
22D
100
AcDbEntity
  8
LAYER_CUT_FEAT
100
AcDbLine
 62
7
  6
CONTINUOUS
 10
5.3923672762
 20
7.0440026435
 11
6.8683672762
 21
7.0440026435
  0
LINE
  5
22E
100
AcDbEntity
  8
LAYER_CUT_FEAT
100
AcDbLine
 62
7
  6
CONTINUOUS
 10
5.3923672762
 20
7.0441585794
 11
6.8683672762
 21
7.0441585794
  0
LINE
  5
22F
100
AcDbEntity
  8
LAYER_CUT_FEAT
100
AcDbLine
 62
7
  6
CONTINUOUS
 10
5.3923672762
 20
7.0629226073
 11
6.8683672762
 21
7.0629226073
  0
LINE
  5
230
100
AcDbEntity
  8
LAYER_CUT_FEAT
100
AcDbLine
 62
7
  6
CONTINUOUS
 10
5.3923672762
 20
7.06612714
 11
6.8683672762
 21
7.06612714
  0
LINE
  5
231
100
AcDbEntity
  8
LAYER_CUT_FEAT
100
AcDbLine
 62
7
  6
CONTINUOUS
 10
5.3923672762
 20
7.0661965859
 11
6.8683672762
 21
7.0661965859
  0
LINE
  5
232
100
AcDbEntity
  8
LAYER_CUT_FEAT
100
AcDbLine
 62
7
  6
CONTINUOUS
 10
5.3923672762
 20
7.0787918922
 11
6.8683672762
 21
7.0787918922
  0
LINE
  5
233
100
AcDbEntity
  8
LAYER_CUT_FEAT
100
AcDbLine
 62
7
  6
CONTINUOUS
 10
5.3923672762
 20
7.0807208781
 11
6.8683672762
 21
7.0807208781
  0
LINE
  5
234
100
AcDbEntity
  8
LAYER_CUT_FEAT
100
AcDbLine
 62
7
  6
CONTINUOUS
 10
5.3923672762
 20
7.0807382607
 11
6.8683672762
 21
7.0807382607
  0
LINE
  5
235
100
AcDbEntity
  8
LAYER_CUT_FEAT
100
AcDbLine
 62
7
  6
CONTINUOUS
 10
5.3923672762
 20
7.0870687172
 11
6.8683672762
 21
7.0870687172
  0
LINE
  5
236
100
AcDbEntity
  8
0
100
AcDbLine
 62
7
  6
CONTINUOUS
 10
5.3923672762
 20
7.0877127584
 11
6.8683672762
 21
7.0877127584
  0
LINE
  5
237
100
AcDbEntity
  8
02___PRT_ALL_AXES
100
AcDbLine
 62
7
  6
CONTINUOUS
 10
5.3328720839
 20
11.0319798109
 11
6.8088720839
 21
11.0319798109
  0
LINE
  5
238
100
AcDbEntity
  8
LAYER_CUT_FEAT
100
AcDbLine
 62
7
  6
CONTINUOUS
 10
5.3328720839
 20
11.0319798817
 11
5.3328720839
 21
12.5544798109
  0
LINE
  5
239
100
AcDbEntity
  8
0
100
AcDbLine
 62
7
  6
CONTINUOUS
 10
5.3328720839
 20
12.5544798109
 11
5.3328720839
 21
12.6454798109
  0
LINE
  5
23A
100
AcDbEntity
  8
LAYER_CUT_FEAT
100
AcDbLine
 62
7
  6
CONTINUOUS
 10
5.3328720839
 20
12.6454798109
 11
5.3328720839
 21
14.1679798087
  0
LINE
  5
23B
100
AcDbEntity
  8
LAYER_CUT_FEAT
100
AcDbLine
 62
7
  6
CONTINUOUS
 10
5.3328720839
 20
12.229605847
 11
6.8088720839
 21
12.229605847
  0
LINE
  5
23C
100
AcDbEntity
  8
LAYER_CUT_FEAT
100
AcDbLine
 62
7
  6
CONTINUOUS
 10
6.8088720839
 20
12.2719293515
 11
5.3328720839
 21
12.2719293515
  0
LINE
  5
23D
100
AcDbEntity
  8
LAYER_CUT_FEAT
100
AcDbLine
 62
7
  6
CONTINUOUS
 10
6.8088720839
 20
12.2954048939
 11
5.3328720839
 21
12.2954048939
  0
LINE
  5
23E
100
AcDbEntity
  8
LAYER_CUT_FEAT
100
AcDbLine
 62
7
  6
CONTINUOUS
 10
5.3328720839
 20
12.3186172786
 11
6.8088720839
 21
12.3186172786
  0
LINE
  5
23F
100
AcDbEntity
  8
LAYER_CUT_FEAT
100
AcDbLine
 62
7
  6
CONTINUOUS
 10
5.3328720839
 20
12.3367910868
 11
6.8088720839
 21
12.3367910868
  0
LINE
  5
240
100
AcDbEntity
  8
LAYER_CUT_FEAT
100
AcDbLine
 62
7
  6
CONTINUOUS
 10
6.8088720839
 20
12.3763614217
 11
5.3328720839
 21
12.3763614217
  0
LINE
  5
241
100
AcDbEntity
  8
LAYER_CUT_FEAT
100
AcDbLine
 62
7
  6
CONTINUOUS
 10
6.8088720839
 20
12.4001278554
 11
5.3328720839
 21
12.4001278554
  0
LINE
  5
242
100
AcDbEntity
  8
LAYER_CUT_FEAT
100
AcDbLine
 62
7
  6
CONTINUOUS
 10
5.3328720839
 20
12.4269054811
 11
6.8088720839
 21
12.4269054811
  0
LINE
  5
243
100
AcDbEntity
  8
LAYER_CUT_FEAT
100
AcDbLine
 62
7
  6
CONTINUOUS
 10
5.3328720839
 20
12.4452585557
 11
6.8088720839
 21
12.4452585557
  0
LINE
  5
244
100
AcDbEntity
  8
LAYER_CUT_FEAT
100
AcDbLine
 62
7
  6
CONTINUOUS
 10
6.8088720839
 20
12.4818829383
 11
5.3328720839
 21
12.4818829383
  0
LINE
  5
245
100
AcDbEntity
  8
LAYER_CUT_FEAT
100
AcDbLine
 62
7
  6
CONTINUOUS
 10
6.8088720839
 20
12.5058244755
 11
5.3328720839
 21
12.5058244755
  0
LINE
  5
246
100
AcDbEntity
  8
LAYER_CUT_FEAT
100
AcDbLine
 62
7
  6
CONTINUOUS
 10
5.3328720839
 20
12.5360368842
 11
6.8088720839
 21
12.5360368842
  0
LINE
  5
247
100
AcDbEntity
  8
0
100
AcDbLine
 62
7
  6
CONTINUOUS
 10
5.3328720839
 20
12.5544798109
 11
6.8088720839
 21
12.5544798109
  0
LINE
  5
248
100
AcDbEntity
  8
0
100
AcDbLine
 62
7
  6
CONTINUOUS
 10
6.8088720839
 20
12.5879798109
 11
5.3328720839
 21
12.5879798109
  0
LINE
  5
249
100
AcDbEntity
  8
0
100
AcDbLine
 62
7
  6
CONTINUOUS
 10
6.8088720839
 20
12.6119798109
 11
5.3328720839
 21
12.6119798109
  0
LINE
  5
24A
100
AcDbEntity
  8
0
100
AcDbLine
 62
7
  6
CONTINUOUS
 10
5.3328720839
 20
12.6454798109
 11
6.8088720839
 21
12.6454798109
  0
LINE
  5
24B
100
AcDbEntity
  8
LAYER_CUT_FEAT
100
AcDbLine
 62
7
  6
CONTINUOUS
 10
6.8088720839
 20
14.1679798087
 11
6.8088720839
 21
12.6454798109
  0
LINE
  5
24C
100
AcDbEntity
  8
LAYER_CUT_FEAT
100
AcDbLine
 62
7
  6
CONTINUOUS
 10
6.8088720839
 20
11.0319798817
 11
6.8088720839
 21
12.5544798109
  0
LINE
  5
24D
100
AcDbEntity
  8
0
100
AcDbLine
 62
7
  6
CONTINUOUS
 10
6.8088720839
 20
12.5544798109
 11
6.8088720839
 21
12.6454798109
  0
LINE
  5
24E
100
AcDbEntity
  8
02___PRT_ALL_AXES
100
AcDbLine
 62
7
  6
CONTINUOUS
 10
5.3328720839
 20
14.1679798109
 11
6.8088720839
 21
14.1679798109
  0
LINE
  5
24F
100
AcDbEntity
  8
LAYER_CUT_FEAT
100
AcDbLine
 62
7
  6
CONTINUOUS
 10
15.2692855395
 20
6.9742254724
 11
15.2733788087
 21
6.9976745599
  0
LINE
  5
250
100
AcDbEntity
  8
LAYER_CUT_FEAT
100
AcDbLine
 62
7
  6
CONTINUOUS
 10
15.375560198
 20
6.9908382894
 11
15.3812792218
 21
7.0139447241
  0
LINE
  5
251
100
AcDbEntity
  8
LAYER_CUT_FEAT
100
AcDbLine
 62
7
  6
CONTINUOUS
 10
15.4827348284
 20
6.9999972929
 11
15.4900517443
 21
7.0226485027
  0
LINE
  5
252
100
AcDbEntity
  8
0
100
AcDbLine
 62
7
  6
CONTINUOUS
 10
15.5902872865
 20
7.0016578614
 11
15.5991664473
 21
7.0237434916
  0
LINE
  5
253
100
AcDbEntity
  8
LAYER_CUT_FEAT
100
AcDbLine
 62
7
  6
CONTINUOUS
 10
15.1973196929
 20
6.9815076958
 11
15.2105966835
 21
6.9617507709
  0
LINE
  5
254
100
AcDbEntity
  8
LAYER_CUT_FEAT
100
AcDbLine
 62
7
  6
CONTINUOUS
 10
15.3042776388
 20
7.0031228574
 11
15.3161441139
 21
6.9824879033
  0
LINE
  5
255
100
AcDbEntity
  8
LAYER_CUT_FEAT
100
AcDbLine
 62
7
  6
CONTINUOUS
 10
15.412482838
 20
7.0172243563
 11
15.4228809853
 21
6.9958119045
  0
LINE
  5
256
100
AcDbEntity
  8
0
100
AcDbLine
 62
7
  6
CONTINUOUS
 10
15.5214081256
 20
7.0237434916
 11
15.5302872865
 21
7.0016578614
  0
LINE
  5
257
100
AcDbEntity
  8
LAYER_CUT_FEAT
100
AcDbLine
 62
7
  6
CONTINUOUS
 10
15.2322368271
 20
6.9465171179
 11
15.2557123695
 21
6.9515069985
  0
LINE
  5
258
100
AcDbEntity
  8
LAYER_CUT_FEAT
100
AcDbLine
 62
7
  6
CONTINUOUS
 10
15.3366688973
 20
6.9657818186
 11
15.360435331
 21
6.969121973
  0
LINE
  5
259
100
AcDbEntity
  8
LAYER_CUT_FEAT
100
AcDbLine
 62
7
  6
CONTINUOUS
 10
15.4421904138
 20
6.9777147785
 11
15.466131951
 21
6.9793889338
  0
LINE
  5
25A
100
AcDbEntity
  8
0
100
AcDbLine
 62
7
  6
CONTINUOUS
 10
15.5482872865
 20
6.9822578614
 11
15.5722872865
 21
6.9822578614
  0
LINE
  5
25B
100
AcDbEntity
  8
02___PRT_ALL_AXES
100
AcDbLine
 62
7
  6
CONTINUOUS
 10
14.7913900615
 20
10.942713347
 11
16.1508760887
 21
10.942713347
  0
LINE
  5
25C
100
AcDbEntity
  8
LAYER_CUT_FEAT
100
AcDbLine
 62
7
  6
CONTINUOUS
 10
14.300493493
 20
13.3625446535
 11
14.3053887736
 21
13.3808805586
  0
LINE
  5
25D
100
AcDbEntity
  8
0
100
AcDbLine
 62
7
  6
CONTINUOUS
 10
14.3259543481
 20
13.4520460999
 11
14.3302102624
 21
13.4658182434
  0
LINE
  5
25E
100
AcDbEntity
  8
LAYER_CUT_FEAT
100
AcDbLine
 62
7
  6
CONTINUOUS
 10
14.258797921
 20
13.1772307655
 11
14.2629584368
 21
13.1987215491
  0
LINE
  5
25F
100
AcDbEntity
  8
LAYER_CUT_FEAT
100
AcDbLine
 62
7
  6
CONTINUOUS
 10
14.278200868
 20
13.2710103464
 11
14.2829350343
 21
13.2917035067
  0
LINE
  5
260
100
AcDbEntity
  8
LAYER_CUT_FEAT
100
AcDbLine
 62
7
  6
CONTINUOUS
 10
14.2593139584
 20
13.2234758083
 11
14.2531518476
 21
13.2412583627
  0
LINE
  5
261
100
AcDbEntity
  8
LAYER_CUT_FEAT
100
AcDbLine
 62
7
  6
CONTINUOUS
 10
14.2799718696
 20
13.3170503008
 11
14.2743078227
 21
13.3358933562
  0
LINE
  5
262
100
AcDbEntity
  8
LAYER_CUT_FEAT
100
AcDbLine
 62
7
  6
CONTINUOUS
 10
14.3031213588
 20
13.4066964007
 11
14.2979829704
 21
13.4265081556
  0
LINE
  5
263
100
AcDbEntity
  8
0
100
AcDbLine
 62
7
  6
CONTINUOUS
 10
14.3240619479
 20
13.5126612947
 11
14.328649644
 21
13.4919773612
  0
LINE
  5
264
100
AcDbEntity
  8
LAYER_CUT_FEAT
100
AcDbLine
 62
7
  6
CONTINUOUS
 10
15.7366835944
 20
11.8732137669
 11
15.7290591106
 21
11.8734920688
  0
LINE
  5
265
100
AcDbEntity
  8
LAYER_CUT_FEAT
100
AcDbLine
 62
7
  6
CONTINUOUS
 10
15.7366835944
 20
11.8732137669
 11
15.7228399632
 21
11.8742520669
  0
LINE
  5
266
100
AcDbEntity
  8
LAYER_CUT_FEAT
100
AcDbLine
 62
7
  6
CONTINUOUS
 10
15.6182839481
 20
13.1772307655
 11
15.6224444639
 21
13.1987215491
  0
LINE
  5
267
100
AcDbEntity
  8
LAYER_CUT_FEAT
100
AcDbLine
 62
7
  6
CONTINUOUS
 10
15.6376868952
 20
13.2710103464
 11
15.6424210614
 21
13.2917035067
  0
LINE
  5
268
100
AcDbEntity
  8
LAYER_CUT_FEAT
100
AcDbLine
 62
7
  6
CONTINUOUS
 10
15.6595900484
 20
13.3610858366
 11
15.6648748008
 21
13.3808805586
  0
LINE
  5
269
100
AcDbEntity
  8
0
100
AcDbLine
 62
7
  6
CONTINUOUS
 10
15.6838866978
 20
13.4470183976
 11
15.6896962895
 21
13.4658182434
  0
LINE
  5
26A
100
AcDbEntity
  8
LAYER_CUT_FEAT
100
AcDbLine
 62
7
  6
CONTINUOUS
 10
15.6187999856
 20
13.2234758083
 11
15.6126378747
 21
13.2412583627
  0
LINE
  5
26B
100
AcDbEntity
  8
LAYER_CUT_FEAT
100
AcDbLine
 62
7
  6
CONTINUOUS
 10
15.6394578967
 20
13.3170503008
 11
15.6337938498
 21
13.3358933562
  0
LINE
  5
26C
100
AcDbEntity
  8
LAYER_CUT_FEAT
100
AcDbLine
 62
7
  6
CONTINUOUS
 10
15.6626073859
 20
13.4066964007
 11
15.6574689976
 21
13.4265081556
  0
LINE
  5
26D
100
AcDbEntity
  8
0
100
AcDbLine
 62
7
  6
CONTINUOUS
 10
15.6881356711
 20
13.4919773612
 11
15.6835479751
 21
13.5126612947
  0
LINE
  5
26E
100
AcDbEntity
  8
LAYER_CUT_FEAT
100
AcDbLine
 62
7
  6
CONTINUOUS
 10
15.6845050002
 20
13.1341298944
 11
15.6547840427
 21
13.1320394331
  0
LINE
  5
26F
100
AcDbEntity
  8
LAYER_CUT_FEAT
100
AcDbLine
 62
7
  6
CONTINUOUS
 10
15.6845050002
 20
13.1341298944
 11
15.6548507247
 21
13.1320757916
  0
LINE
  5
270
100
AcDbEntity
  8
LAYER_CUT_FEAT
100
AcDbLine
 62
7
  6
CONTINUOUS
 10
14.2369641837
 20
13.1676927954
 11
15.5964502108
 21
13.1676927954
  0
LINE
  5
271
100
AcDbEntity
  8
LAYER_CUT_FEAT
100
AcDbLine
 62
7
  6
CONTINUOUS
 10
14.2394524939
 20
13.1716520383
 11
15.598938521
 21
13.1716520383
  0
LINE
  5
272
100
AcDbEntity
  8
LAYER_CUT_FEAT
100
AcDbLine
 62
7
  6
CONTINUOUS
 10
15.6182839481
 20
13.1772307655
 11
14.258797921
 21
13.1772307655
  0
LINE
  5
273
100
AcDbEntity
  8
LAYER_CUT_FEAT
100
AcDbLine
 62
7
  6
CONTINUOUS
 10
15.6224444639
 20
13.1987215491
 11
14.2629584368
 21
13.1987215491
  0
LINE
  5
274
100
AcDbEntity
  8
LAYER_CUT_FEAT
100
AcDbLine
 62
7
  6
CONTINUOUS
 10
15.5991580946
 20
13.1716297267
 11
15.598938521
 21
13.171651964
  0
LINE
  5
275
100
AcDbEntity
  8
LAYER_CUT_FEAT
100
AcDbLine
 62
7
  6
CONTINUOUS
 10
15.6083986962
 20
13.1697488493
 11
15.6095372007
 21
13.1696331681
  0
LINE
  5
276
100
AcDbEntity
  8
LAYER_CUT_FEAT
100
AcDbLine
 62
7
  6
CONTINUOUS
 10
15.5991580946
 20
13.1716297267
 11
15.6083986962
 21
13.1697488493
  0
LINE
  5
277
100
AcDbEntity
  8
LAYER_CUT_FEAT
100
AcDbLine
 62
7
  6
CONTINUOUS
 10
14.2527394726
 20
13.2491786832
 11
15.6122254997
 21
13.2491786832
  0
LINE
  5
278
100
AcDbEntity
  8
LAYER_CUT_FEAT
100
AcDbLine
 62
7
  6
CONTINUOUS
 10
14.2561612229
 20
13.2654066857
 11
15.61564725
 21
13.2654066857
  0
LINE
  5
279
100
AcDbEntity
  8
LAYER_CUT_FEAT
100
AcDbLine
 62
7
  6
CONTINUOUS
 10
14.2585571803
 20
13.2689279359
 11
15.6180432074
 21
13.2689279359
  0
LINE
  5
27A
100
AcDbEntity
  8
LAYER_CUT_FEAT
100
AcDbLine
 62
7
  6
CONTINUOUS
 10
15.6376868952
 20
13.2710103464
 11
14.278200868
 21
13.2710103464
  0
LINE
  5
27B
100
AcDbEntity
  8
LAYER_CUT_FEAT
100
AcDbLine
 62
7
  6
CONTINUOUS
 10
15.6424210614
 20
13.2917035067
 11
14.2829350343
 21
13.2917035067
  0
LINE
  5
27C
100
AcDbEntity
  8
LAYER_CUT_FEAT
100
AcDbLine
 62
7
  6
CONTINUOUS
 10
15.6184554821
 20
13.2688489639
 11
15.6180432074
 21
13.2689279359
  0
LINE
  5
27D
100
AcDbEntity
  8
LAYER_CUT_FEAT
100
AcDbLine
 62
7
  6
CONTINUOUS
 10
15.6184554821
 20
13.2688489639
 11
15.627622481
 21
13.2653174
  0
LINE
  5
27E
100
AcDbEntity
  8
LAYER_CUT_FEAT
100
AcDbLine
 62
7
  6
CONTINUOUS
 10
15.6403467693
 20
13.3623746405
 11
15.6493955049
 21
13.3572095956
  0
LINE
  5
27F
100
AcDbEntity
  8
LAYER_CHAMFER_FEAT
100
AcDbLine
 62
7
  6
CONTINUOUS
 10
15.8907353968
 20
11.6612169233
 11
15.8812045355
 21
11.6497984734
  0
LINE
  5
280
100
AcDbEntity
  8
LAYER_CUT_FEAT
100
AcDbLine
 62
7
  6
CONTINUOUS
 10
14.2741116033
 20
13.3438682518
 11
15.6335976305
 21
13.3438682518
  0
LINE
  5
281
100
AcDbEntity
  8
LAYER_CUT_FEAT
100
AcDbLine
 62
7
  6
CONTINUOUS
 10
14.2779658432
 20
13.3594437859
 11
15.6374518703
 21
13.3594437859
  0
LINE
  5
282
100
AcDbEntity
  8
LAYER_CUT_FEAT
100
AcDbLine
 62
7
  6
CONTINUOUS
 10
15.6595900484
 20
13.3610858366
 11
15.6426046481
 21
13.3610858366
  0
LINE
  5
283
100
AcDbEntity
  8
LAYER_CUT_FEAT
100
AcDbLine
 62
7
  6
CONTINUOUS
 10
14.2802577749
 20
13.3625446535
 11
15.639743802
 21
13.3625446535
  0
LINE
  5
284
100
AcDbEntity
  8
LAYER_CUT_FEAT
100
AcDbLine
 62
7
  6
CONTINUOUS
 10
15.6648748008
 20
13.3808805586
 11
14.3053887736
 21
13.3808805586
  0
LINE
  5
285
100
AcDbEntity
  8
LAYER_CUT_FEAT
100
AcDbLine
 62
7
  6
CONTINUOUS
 10
14.2980038627
 20
13.4344987735
 11
15.6574898899
 21
13.4344987735
  0
LINE
  5
286
100
AcDbEntity
  8
0
100
AcDbLine
 62
7
  6
CONTINUOUS
 10
15.6838866978
 20
13.4470183976
 11
15.670934437
 21
13.4470183976
  0
LINE
  5
287
100
AcDbEntity
  8
0
100
AcDbLine
 62
7
  6
CONTINUOUS
 10
14.3022718147
 20
13.4493459567
 11
15.6617578418
 21
13.4493459567
  0
LINE
  5
288
100
AcDbEntity
  8
0
100
AcDbLine
 62
7
  6
CONTINUOUS
 10
14.3044485546
 20
13.4520460999
 11
15.6639345818
 21
13.4520460999
  0
LINE
  5
289
100
AcDbEntity
  8
0
100
AcDbLine
 62
7
  6
CONTINUOUS
 10
15.6896962895
 20
13.4658182434
 11
14.3302102624
 21
13.4658182434
  0
LINE
  5
28A
100
AcDbEntity
  8
0
100
AcDbLine
 62
7
  6
CONTINUOUS
 10
15.664725304
 20
13.4517511089
 11
15.6736116917
 21
13.4449777466
  0
LINE
  5
28B
100
AcDbEntity
  8
LAYER_CHAMFER_FEAT
100
AcDbLine
 62
7
  6
CONTINUOUS
 10
15.8907353968
 20
13.3602097706
 11
15.8812045355
 21
13.3716282205
  0
LINE
  5
28C
100
AcDbEntity
  8
0
100
AcDbLine
 62
7
  6
CONTINUOUS
 10
14.3242998501
 20
13.5206287055
 11
15.6837858772
 21
13.5206287055
  0
LINE
  5
28D
100
AcDbEntity
  8
02___PRT_ALL_AXES
100
AcDbLine
 62
7
  6
CONTINUOUS
 10
14.7913900615
 20
14.078713347
 11
16.1508760887
 21
14.078713347
  0
ARC
  5
28E
100
AcDbEntity
  8
LAYER_CUT_FEAT
100
AcDbCircle
 62
7
  6
CONTINUOUS
 10
15.5602872865
 20
5.4608778614
 40
1.568
100
AcDbArc
 50
91.6628341615
 51
92.3371658385
  0
ARC
  5
28F
100
AcDbEntity
  8
LAYER_CUT_FEAT
100
AcDbCircle
 62
7
  6
CONTINUOUS
 10
15.5602872865
 20
5.4608778614
 40
1.568
100
AcDbArc
 50
95.6628341615
 51
96.3371658385
  0
ARC
  5
290
100
AcDbEntity
  8
LAYER_CUT_FEAT
100
AcDbCircle
 62
7
  6
CONTINUOUS
 10
15.5602872865
 20
5.4608778614
 40
1.568
100
AcDbArc
 50
99.6628341615
 51
100.3371658385
  0
ARC
  5
291
100
AcDbEntity
  8
LAYER_CUT_FEAT
100
AcDbCircle
 62
7
  6
CONTINUOUS
 10
15.5602872865
 20
5.4608778614
 40
1.568
100
AcDbArc
 50
103.6628341615
 51
88.3371658385
  0
CIRCLE
  5
292
100
AcDbEntity
  8
LAYER_CUT_FEAT
100
AcDbCircle
 62
7
  6
CONTINUOUS
 10
15.5602872865
 20
5.4608778614
 40
1.4176
  0
CIRCLE
  5
293
100
AcDbEntity
  8
LAYER_CUT_FEAT
100
AcDbCircle
 62
7
  6
CONTINUOUS
 10
15.5602872865
 20
5.4608778614
 40
1.405
  0
CIRCLE
  5
294
100
AcDbEntity
  8
LAYER_CHAMFER_FEAT
100
AcDbCircle
 62
7
  6
CONTINUOUS
 10
15.5602872865
 20
5.4608778614
 40
0.95
  0
CIRCLE
  5
295
100
AcDbEntity
  8
LAYER_CHAMFER_FEAT
100
AcDbCircle
 62
7
  6
CONTINUOUS
 10
15.5602872865
 20
5.4608778614
 40
0.9374
  0
ARC
  5
296
100
AcDbEntity
  8
LAYER_CUT_FEAT
100
AcDbCircle
 62
7
  6
CONTINUOUS
 10
15.5602872865
 20
5.4608778614
 40
0.6375
100
AcDbArc
 50
23.5004358716
 51
50.4995641284
  0
ARC
  5
297
100
AcDbEntity
  8
LAYER_CUT_FEAT
100
AcDbCircle
 62
7
  6
CONTINUOUS
 10
15.5602872865
 20
5.4608778614
 40
0.6375
100
AcDbArc
 50
271.5004358716
 51
10.4995641284
  0
ARC
  5
298
100
AcDbEntity
  8
LAYER_CUT_FEAT
100
AcDbCircle
 62
7
  6
CONTINUOUS
 10
15.5602872865
 20
5.4608778614
 40
0.6375
100
AcDbArc
 50
231.5004358716
 51
258.4995641284
  0
ARC
  5
299
100
AcDbEntity
  8
LAYER_CUT_FEAT
100
AcDbCircle
 62
7
  6
CONTINUOUS
 10
15.5602872865
 20
5.4608778614
 40
0.6375
100
AcDbArc
 50
151.5004358716
 51
218.4995641284
  0
ARC
  5
29A
100
AcDbEntity
  8
LAYER_CUT_FEAT
100
AcDbCircle
 62
7
  6
CONTINUOUS
 10
15.5602872865
 20
5.4608778614
 40
0.6375
100
AcDbArc
 50
63.5004358716
 51
138.4995641284
  0
ARC
  5
29B
100
AcDbEntity
  8
02___PRT_ALL_AXES
100
AcDbCircle
 62
7
  6
CONTINUOUS
 10
15.5602872865
 20
5.4608778614
 40
0.6016275455
100
AcDbArc
 50
218.0014386026
 51
231.9985613974
  0
ARC
  5
29C
100
AcDbEntity
  8
02___PRT_ALL_AXES
100
AcDbCircle
 62
7
  6
CONTINUOUS
 10
15.5602872865
 20
5.4608778614
 40
0.6016275455
100
AcDbArc
 50
50.0014386026
 51
63.9985613974
  0
ARC
  5
29D
100
AcDbEntity
  8
LAYER_CUT_FEAT
100
AcDbCircle
 62
7
  6
CONTINUOUS
 10
15.5602872865
 20
5.4608778614
 40
0.5745658693
100
AcDbArc
 50
151.2207914583
 51
258.7792085417
  0
ARC
  5
29E
100
AcDbEntity
  8
LAYER_CUT_FEAT
100
AcDbCircle
 62
7
  6
CONTINUOUS
 10
15.5602872865
 20
5.4608778614
 40
0.5745658693
100
AcDbArc
 50
271.2207914583
 51
10.7792085417
  0
ARC
  5
29F
100
AcDbEntity
  8
LAYER_CUT_FEAT
100
AcDbCircle
 62
7
  6
CONTINUOUS
 10
15.5602872865
 20
5.4608778614
 40
0.5745658693
100
AcDbArc
 50
23.2207914583
 51
138.7792085417
  0
ARC
  5
2A0
100
AcDbEntity
  8
LAYER_CUT_FEAT
100
AcDbCircle
 62
7
  6
CONTINUOUS
 10
15.5068608162
 20
4.8502105114
 40
0.075
100
AcDbArc
 50
141.1124619419
 51
28.8875380581
  0
ARC
  5
2A1
100
AcDbEntity
  8
LAYER_CUT_FEAT
100
AcDbCircle
 62
7
  6
CONTINUOUS
 10
15.1268308296
 20
5.0274214045
 40
0.075
100
AcDbArc
 50
122.7955491442
 51
327.2044508558
  0
ARC
  5
2A2
100
AcDbEntity
  8
LAYER_CUT_FEAT
100
AcDbCircle
 62
7
  6
CONTINUOUS
 10
15.0581470833
 20
5.8124802169
 40
0.075
100
AcDbArc
 50
21.1124619419
 51
268.8875380581
  0
ARC
  5
2A3
100
AcDbEntity
  8
0
100
AcDbCircle
 62
7
  6
CONTINUOUS
 10
15.5559577724
 20
7.0154594723
 40
0.037
100
AcDbArc
 50
296.189295886
 51
338.0982258445
  0
ARC
  5
2A4
100
AcDbEntity
  8
0
100
AcDbCircle
 62
7
  6
CONTINUOUS
 10
15.5646168005
 20
7.0154594723
 40
0.037
100
AcDbArc
 50
201.9017741555
 51
243.810704114
  0
ARC
  5
2A5
100
AcDbEntity
  8
LAYER_CUT_FEAT
100
AcDbCircle
 62
7
  6
CONTINUOUS
 10
15.4475261876
 20
7.011370578
 40
0.037
100
AcDbArc
 50
300.189295886
 51
342.0982258445
  0
ARC
  5
2A6
100
AcDbEntity
  8
LAYER_CUT_FEAT
100
AcDbCircle
 62
7
  6
CONTINUOUS
 10
15.4561641227
 20
7.0119746013
 40
0.037
100
AcDbArc
 50
205.9017741555
 51
247.810704114
  0
ARC
  5
2A7
100
AcDbEntity
  8
LAYER_CUT_FEAT
100
AcDbCircle
 62
7
  6
CONTINUOUS
 10
15.3396439635
 20
6.9997278391
 40
0.037
100
AcDbArc
 50
304.189295886
 51
346.0982258445
  0
ARC
  5
2A8
100
AcDbEntity
  8
LAYER_CUT_FEAT
100
AcDbCircle
 62
7
  6
CONTINUOUS
 10
15.3482187225
 20
7.0009329429
 40
0.037
100
AcDbArc
 50
209.9017741555
 51
251.810704114
  0
ARC
  5
2A9
100
AcDbEntity
  8
LAYER_CUT_FEAT
100
AcDbCircle
 62
7
  6
CONTINUOUS
 10
15.2328366914
 20
6.9805879777
 40
0.037
100
AcDbArc
 50
308.189295886
 51
350.0982258445
  0
ARC
  5
2AA
100
AcDbEntity
  8
LAYER_CUT_FEAT
100
AcDbCircle
 62
7
  6
CONTINUOUS
 10
15.241306499
 20
6.9823882909
 40
0.037
100
AcDbArc
 50
213.9017741555
 51
255.810704114
  0
ARC
  5
2AB
100
AcDbEntity
  8
0
100
AcDbCircle
 62
7
  6
CONTINUOUS
 10
15.5147872865
 20
7.0210816932
 40
0.0071358729
100
AcDbArc
 50
21.9017741555
 51
90.0
  0
ARC
  5
2AC
100
AcDbEntity
  8
LAYER_CUT_FEAT
100
AcDbCircle
 62
7
  6
CONTINUOUS
 10
15.4968421331
 20
7.0204550346
 40
0.0071358729
100
AcDbArc
 50
94.0000000001
 51
162.0982258445
  0
ARC
  5
2AD
100
AcDbEntity
  8
LAYER_CUT_FEAT
100
AcDbCircle
 62
7
  6
CONTINUOUS
 10
15.4060638045
 20
7.0141071955
 40
0.0071358729
100
AcDbArc
 50
25.9017741555
 51
94.0
  0
ARC
  5
2AE
100
AcDbEntity
  8
LAYER_CUT_FEAT
100
AcDbCircle
 62
7
  6
CONTINUOUS
 10
15.3882060782
 20
7.0122302728
 40
0.0071358729
100
AcDbArc
 50
98.0
 51
166.0982258445
  0
ARC
  5
2AF
100
AcDbEntity
  8
LAYER_CUT_FEAT
100
AcDbCircle
 62
7
  6
CONTINUOUS
 10
15.2980916839
 20
6.9995655207
 40
0.0071358729
100
AcDbArc
 50
29.9017741555
 51
98.0
  0
ARC
  5
2B0
100
AcDbEntity
  8
LAYER_CUT_FEAT
100
AcDbCircle
 62
7
  6
CONTINUOUS
 10
15.2804083856
 20
6.9964474781
 40
0.0071358729
100
AcDbArc
 50
102.0
 51
170.0982258445
  0
ARC
  5
2B1
100
AcDbEntity
  8
LAYER_CUT_FEAT
100
AcDbCircle
 62
7
  6
CONTINUOUS
 10
15.1913969539
 20
6.9775275142
 40
0.0071358729
100
AcDbArc
 50
33.9017741555
 51
102.0
  0
ARC
  5
2B2
100
AcDbEntity
  8
LAYER_CUT_FEAT
100
AcDbCircle
 62
7
  6
CONTINUOUS
 10
16.1465021019
 20
5.6401017164
 40
0.075
100
AcDbArc
 50
253.1124619419
 51
140.8875380581
  0
ARC
  5
2B3
100
AcDbEntity
  8
LAYER_CUT_FEAT
100
AcDbCircle
 62
7
  6
CONTINUOUS
 10
15.8941510149
 20
5.9749829195
 40
0.075
100
AcDbArc
 50
314.7955491442
 51
159.2044508558
  0
ARC
  5
2B4
100
AcDbEntity
  8
0
100
AcDbCircle
 62
7
  6
CONTINUOUS
 10
15.6057872865
 20
7.0210816932
 40
0.0071358729
100
AcDbArc
 50
90.0
 51
158.0982258445
  0
ARC
  5
2B5
100
AcDbEntity
  8
LAYER_CUT_FEAT
100
AcDbCircle
 62
7
  6
CONTINUOUS
 10
12.1216633039
 20
-33.2205466074
 40
45.2593785439
100
AcDbArc
 50
85.3477892861
 51
85.5091512012
  0
ARC
  5
2B6
100
AcDbEntity
  8
LAYER_CUT_FEAT
100
AcDbCircle
 62
7
  6
CONTINUOUS
 10
18.411599281
 20
-27.5579739537
 40
40.7683673816
100
AcDbArc
 50
93.6723264126
 51
93.8813531533
  0
ARC
  5
2B7
100
AcDbEntity
  8
LAYER_CUT_FEAT
100
AcDbCircle
 62
7
  6
CONTINUOUS
 10
13.90887395
 20
36.9949814325
 40
23.9998932304
100
AcDbArc
 50
274.140683129
 51
274.6456407622
  0
ARC
  5
2B8
100
AcDbEntity
  8
LAYER_CUT_FEAT
100
AcDbCircle
 62
7
  6
CONTINUOUS
 10
16.5961602303
 20
30.7784796225
 40
18.7687059505
100
AcDbArc
 50
267.0522684223
 51
267.8626893911
  0
ARC
  5
2B9
100
AcDbEntity
  8
LAYER_CUT_FEAT
100
AcDbCircle
 62
7
  6
CONTINUOUS
 10
14.8789588239
 20
-3.1960393398
 40
15.3600225479
100
AcDbArc
 50
86.0582672195
 51
87.2438201903
  0
ARC
  5
2BA
100
AcDbEntity
  8
LAYER_CUT_FEAT
100
AcDbCircle
 62
7
  6
CONTINUOUS
 10
17.1178962465
 20
12.6535217133
 40
2.9264194102
100
AcDbArc
 50
167.9309719838
 51
168.2556833965
  0
ARC
  5
2BB
100
AcDbEntity
  8
LAYER_CUT_FEAT
100
AcDbCircle
 62
7
  6
CONTINUOUS
 10
18.469981016
 20
12.6550823031
 40
2.9188554434
100
AcDbArc
 50
167.9305512516
 51
168.2561041287
  0
ARC
  5
2BC
100
AcDbEntity
  8
LAYER_CUT_FEAT
100
AcDbCircle
 62
7
  6
CONTINUOUS
 10
16.8489734255
 20
12.7149711127
 40
2.6505518321
100
AcDbArc
 50
165.9276698768
 51
166.2745149166
  0
ARC
  5
2BD
100
AcDbEntity
  8
LAYER_CUT_FEAT
100
AcDbCircle
 62
7
  6
CONTINUOUS
 10
18.2007796222
 20
12.7168715232
 40
2.6426403986
100
AcDbArc
 50
165.9271506897
 51
166.2750341038
  0
ARC
  5
2BE
100
AcDbEntity
  8
LAYER_CUT_FEAT
100
AcDbCircle
 62
7
  6
CONTINUOUS
 10
16.5741440365
 20
12.7882395074
 40
2.3661075905
100
AcDbArc
 50
163.7751986676
 51
164.1492864396
  0
ARC
  5
2BF
100
AcDbEntity
  8
LAYER_CUT_FEAT
100
AcDbCircle
 62
7
  6
CONTINUOUS
 10
17.9259026404
 20
12.7904608224
 40
2.3580672783
100
AcDbArc
 50
163.774560901
 51
164.1499242062
  0
ARC
  5
2C0
100
AcDbEntity
  8
LAYER_CUT_FEAT
100
AcDbCircle
 62
7
  6
CONTINUOUS
 10
16.35277391
 20
13.4128852063
 40
0.5792820658
100
AcDbArc
 50
138.678741695
 51
139.6297456588
  0
ARC
  5
2C1
100
AcDbEntity
  8
LAYER_CUT_FEAT
100
AcDbCircle
 62
7
  6
CONTINUOUS
 10
16.3519070239
 20
11.6077895948
 40
0.5781345585
100
AcDbArc
 50
220.4502103205
 51
221.3211100919
  0
ARC
  5
2C2
100
AcDbEntity
  8
LAYER_CHAMFER_FEAT
100
AcDbCircle
 62
7
  6
CONTINUOUS
 10
15.5940600435
 20
11.908771037
 40
0.3863926803
100
AcDbArc
 50
317.9309433339
 51
320.1574463567
  0
ARC
  5
2C3
100
AcDbEntity
  8
LAYER_CHAMFER_FEAT
100
AcDbCircle
 62
7
  6
CONTINUOUS
 10
15.5985709585
 20
13.1165718063
 40
0.380420176
100
AcDbArc
 50
39.8249617942
 51
42.0722475311
  0
SPLINE
  5
2C4
100
AcDbEntity
  8
LAYER_CUT_FEAT
100
AcDbSpline
 62
7
  6
CONTINUOUS
 70
0
 71
3
 72
27
 73
23
 74
0
 42
0.0000001
 43
0.0000001
 44
0.0000000001
 40
0.0
 40
0.0
 40
0.0
 40
0.0
 40
0.087583144
 40
0.1718774284
 40
0.2527468995
 40
0.330079855
 40
0.4037938052
 40
0.4738396281
 40
0.5402071414
 40
0.6029317481
 40
0.6621024388
 40
0.7178712932
 40
0.7704639356
 40
0.8201902808
 40
0.844110437
 40
0.8674735051
 40
0.8903450647
 40
0.9127965133
 40
0.9349045823
 40
0.9567506599
 40
0.9784198819
 40
1.0
 40
1.0
 40
1.0
 40
1.0
 10
14.3242998501
 20
13.5206287055
 30
0.0
 10
14.3313082766
 20
13.5420035768
 30
0.0
 10
14.3457357296
 20
13.583734172
 30
0.0
 10
14.3690923091
 20
13.6443160374
 30
0.0
 10
14.3936957999
 20
13.7015502291
 30
0.0
 10
14.4194739333
 20
13.7552683103
 30
0.0
 10
14.4463516271
 20
13.8053135086
 30
0.0
 10
14.4742512923
 20
13.8515399769
 30
0.0
 10
14.503093272
 20
13.8938134159
 30
0.0
 10
14.5327966366
 20
13.9320111928
 30
0.0
 10
14.5632793857
 20
13.9660218842
 30
0.0
 10
14.5944606958
 20
13.9957456382
 30
0.0
 10
14.6262550442
 20
14.0210898717
 30
0.0
 10
14.6535461603
 20
14.0387182721
 30
0.0
 10
14.6755485346
 20
14.0504346284
 30
0.0
 10
14.6919283711
 20
14.0579681779
 30
0.0
 10
14.7083852247
 20
14.06435393
 30
0.0
 10
14.7249071871
 20
14.0695866562
 30
0.0
 10
14.7414815176
 20
14.0736616135
 30
0.0
 10
14.7580957129
 20
14.076575044
 30
0.0
 10
14.7747356277
 20
14.0783242349
 30
0.0
 10
14.7858475079
 20
14.0787133475
 30
0.0
 10
14.7913900615
 20
14.078713347
 30
0.0
  0
SPLINE
  5
2C5
100
AcDbEntity
  8
LAYER_CHAMFER_FEAT
100
AcDbSpline
 62
7
  6
CONTINUOUS
 70
0
 71
3
 72
17
 73
13
 74
0
 42
0.0000001
 43
0.0000001
 44
0.0000000001
 40
0.0
 40
0.0
 40
0.0
 40
0.0
 40
0.1474334427
 40
0.287192489
 40
0.4197076737
 40
0.5455596776
 40
0.6654954238
 40
0.7804384259
 40
0.8363980161
 40
0.8915356892
 40
0.9460132608
 40
1.0
 40
1.0
 40
1.0
 40
1.0
 10
15.8812045355
 20
11.6497984736
 30
0.0
 10
15.8758539772
 20
11.6433882403
 30
0.0
 10
15.8650444747
 20
11.6312161775
 30
0.0
 10
15.8480407538
 20
11.6145766223
 30
0.0
 10
15.8307264978
 20
11.6000933971
 30
0.0
 10
15.8131395457
 20
11.5878045693
 30
0.0
 10
15.7953201507
 20
11.5777444187
 30
0.0
 10
15.7801712206
 20
11.5711849666
 30
0.0
 10
15.7680237539
 20
11.5671253967
 30
0.0
 10
15.7589653477
 20
11.5646785616
 30
0.0
 10
15.7498857108
 20
11.5628049655
 30
0.0
 10
15.7437999445
 20
11.5619358283
 30
0.0
 10
15.7407610749
 20
11.5615986903
 30
0.0
  0
SPLINE
  5
2C6
100
AcDbEntity
  8
LAYER_CHAMFER_FEAT
100
AcDbSpline
 62
7
  6
CONTINUOUS
 70
0
 71
3
 72
39
 73
35
 74
0
 42
0.0000001
 43
0.0000001
 44
0.0000000001
 40
0.0
 40
0.0
 40
0.0
 40
0.0
 40
0.02027904
 40
0.041776951
 40
0.0645047681
 40
0.0884573915
 40
0.1136160197
 40
0.1399501414
 40
0.1674191592
 40
0.1959737259
 40
0.225556854
 40
0.2561048672
 40
0.287548224
 40
0.3198122389
 40
0.3528177289
 40
0.3864816007
 40
0.4207174038
 40
0.4554358517
 40
0.4905453153
 40
0.5259522989
 40
0.561561903
 40
0.5972782829
 40
0.6330050985
 40
0.6686459616
 40
0.7041048814
 40
0.7392867165
 40
0.7740976288
 40
0.8084455448
 40
0.8422406285
 40
0.8753957725
 40
0.9078271068
 40
0.9394546002
 40
0.9702023584
 40
1.0
 40
1.0
 40
1.0
 40
1.0
 10
15.8907353948
 20
13.3602097599
 30
0.0
 10
15.8971441584
 20
13.35253174
 30
0.0
 10
15.9097617227
 20
13.336219395
 30
0.0
 10
15.9275846942
 20
13.3098468193
 30
0.0
 10
15.944798965
 20
13.2809438367
 30
0.0
 10
15.9613503353
 20
13.2496023396
 30
0.0
 10
15.977187949
 20
13.2159197605
 30
0.0
 10
15.9922621455
 20
13.1800018707
 30
0.0
 10
16.0065255179
 20
13.1419615719
 30
0.0
 10
16.0199329625
 20
13.1019187794
 30
0.0
 10
16.0324419762
 20
13.0599999486
 30
0.0
 10
16.0440128207
 20
13.0163376616
 30
0.0
 10
16.0546086825
 20
12.971070167
 30
0.0
 10
16.0641958147
 20
12.9243409194
 30
0.0
 10
16.0727436576
 20
12.8762981051
 30
0.0
 10
16.0802249607
 20
12.8270941593
 30
0.0
 10
16.086615868
 20
12.7768852645
 30
0.0
 10
16.0918959926
 20
12.7258308398
 30
0.0
 10
16.0960484867
 20
12.6740930241
 30
0.0
 10
16.0990600941
 20
12.6218361553
 30
0.0
 10
16.1009212086
 20
12.5692262413
 30
0.0
 10
16.1016258956
 20
12.5164304246
 30
0.0
 10
16.1011719065
 20
12.4636164438
 30
0.0
 10
16.0995606881
 20
12.4109520963
 30
0.0
 10
16.0967973753
 20
12.3586046995
 30
0.0
 10
16.0928907905
 20
12.3067405513
 30
0.0
 10
16.0878534027
 20
12.2555243958
 30
0.0
 10
16.0817012837
 20
12.2051188923
 30
0.0
 10
16.074454059
 20
12.1556840973
 30
0.0
 10
16.0661348318
 20
12.1073769276
 30
0.0
 10
16.0567701521
 20
12.0603506981
 30
0.0
 10
16.0463898147
 20
12.0147544507
 30
0.0
 10
16.0350270866
 20
11.97073324
 30
0.0
 10
16.0266837225
 20
11.9420566392
 30
0.0
 10
16.0223448872
 20
11.9280161627
 30
0.0
  0
SPLINE
  5
2C7
100
AcDbEntity
  8
LAYER_CUT_FEAT
100
AcDbSpline
 62
7
  6
CONTINUOUS
 70
0
 71
3
 72
22
 73
18
 74
0
 42
0.0000001
 43
0.0000001
 44
0.0000000001
 40
0.0
 40
0.0
 40
0.0
 40
0.0
 40
0.1476285084
 40
0.2183738085
 40
0.2871497609
 40
0.3540341379
 40
0.4191169793
 40
0.4825010304
 40
0.5443022735
 40
0.6046503728
 40
0.6636885505
 40
0.7215734737
 40
0.7784745647
 40
0.8345728401
 40
0.8900594519
 40
0.9451335733
 40
1.0
 40
1.0
 40
1.0
 40
1.0
 10
15.917715881
 20
11.2260598223
 30
0.0
 10
15.9261631132
 20
11.2164530596
 30
0.0
 10
15.9391472432
 20
11.2026561668
 30
0.0
 10
15.9572483131
 20
11.1855759036
 30
0.0
 10
15.9707573418
 20
11.1738454261
 30
0.0
 10
15.9843821805
 20
11.1630219043
 30
0.0
 10
15.9981141776
 20
11.1531125334
 30
0.0
 10
16.0119441791
 20
11.144124359
 30
0.0
 10
16.0258630789
 20
11.136063825
 30
0.0
 10
16.0398615692
 20
11.1289367462
 30
0.0
 10
16.0539302915
 20
11.1227484846
 30
0.0
 10
16.0680596889
 20
11.1175037678
 30
0.0
 10
16.0822400538
 20
11.1132066813
 30
0.0
 10
16.0964614528
 20
11.1098607825
 30
0.0
 10
16.1107140221
 20
11.1074687884
 30
0.0
 10
16.1249866968
 20
11.1060327527
 30
0.0
 10
16.1345163977
 20
11.1057133588
 30
0.0
 10
16.1392707202
 20
11.1057133582
 30
0.0
  0
SPLINE
  5
2C8
100
AcDbEntity
  8
LAYER_CUT_FEAT
100
AcDbSpline
 62
7
  6
CONTINUOUS
 70
0
 71
3
 72
39
 73
35
 74
0
 42
0.0000001
 43
0.0000001
 44
0.0000000001
 40
0.0
 40
0.0
 40
0.0
 40
0.0
 40
0.0202790413
 40
0.0417769531
 40
0.0645047726
 40
0.0884573917
 40
0.1136160182
 40
0.1399501435
 40
0.1674191616
 40
0.1959737287
 40
0.2255568553
 40
0.2561048658
 40
0.2875482255
 40
0.3198122419
 40
0.3528177303
 40
0.3864816019
 40
0.4207174041
 40
0.4554358525
 40
0.4905453174
 40
0.5259523001
 40
0.561561904
 40
0.597278284
 40
0.6330050996
 40
0.6686459621
 40
0.7041048823
 40
0.7392867185
 40
0.77409763
 40
0.8084455458
 40
0.8422406283
 40
0.8753957712
 40
0.9078271161
 40
0.9394545852
 40
0.9702023708
 40
1.0
 40
1.0
 40
1.0
 40
1.0
 10
15.9174775575
 20
11.2260471181
 30
0.0
 10
15.9077857957
 20
11.2376583482
 30
0.0
 10
15.88870465
 20
11.262326981
 30
0.0
 10
15.8617515419
 20
11.3022093884
 30
0.0
 10
15.8357189612
 20
11.3459184479
 30
0.0
 10
15.810688841
 20
11.3933151803
 30
0.0
 10
15.7867381221
 20
11.4442522633
 30
0.0
 10
15.7639419088
 20
11.4985697445
 30
0.0
 10
15.7423718631
 20
11.556096872
 30
0.0
 10
15.7220962171
 20
11.6166523054
 30
0.0
 10
15.7031792343
 20
11.6800448072
 30
0.0
 10
15.6856810059
 20
11.7460738823
 30
0.0
 10
15.6696572352
 20
11.8145304689
 30
0.0
 10
15.6551589258
 20
11.8851976165
 30
0.0
 10
15.6422322886
 20
11.9578512247
 30
0.0
 10
15.6309185573
 20
12.0322607749
 30
0.0
 10
15.6212537859
 20
12.1081900775
 30
0.0
 10
15.6132688251
 20
12.1853980504
 30
0.0
 10
15.6069891531
 20
12.263639494
 30
0.0
 10
15.6024347848
 20
12.3426658829
 30
0.0
 10
15.5996202801
 20
12.4222261706
 30
0.0
 10
15.5985546065
 20
12.5020675936
 30
0.0
 10
15.5992411552
 20
12.5819364853
 30
0.0
 10
15.6016777621
 20
12.6615790911
 30
0.0
 10
15.6058566264
 20
12.7407423839
 30
0.0
 10
15.6117644194
 20
12.8191748759
 30
0.0
 10
15.6193823077
 20
12.8966274274
 30
0.0
 10
15.6286859581
 20
12.972854055
 30
0.0
 10
15.6396457088
 20
13.04761271
 30
0.0
 10
15.6522266116
 20
13.1206661018
 30
0.0
 10
15.6663885059
 20
13.1917823537
 30
0.0
 10
15.6820863559
 20
13.2607361097
 30
0.0
 10
15.6992698593
 20
13.3273079666
 30
0.0
 10
15.7118872595
 20
13.3706746839
 30
0.0
 10
15.7184487386
 20
13.391907638
 30
0.0
  0
SPLINE
  5
2C9
100
AcDbEntity
  8
LAYER_CUT_FEAT
100
AcDbSpline
 62
7
  6
CONTINUOUS
 70
0
 71
3
 72
22
 73
18
 74
0
 42
0.0000001
 43
0.0000001
 44
0.0000000001
 40
0.0
 40
0.0
 40
0.0
 40
0.0
 40
0.1476276033
 40
0.2183725606
 40
0.2871482395
 40
0.3540324136
 40
0.419115129
 40
0.4824991192
 40
0.5443003733
 40
0.6046485492
 40
0.6636868601
 40
0.7215719754
 40
0.7784733046
 40
0.8345718579
 40
0.8900587801
 40
0.9451332317
 40
1.0
 40
1.0
 40
1.0
 40
1.0
 10
15.9177219546
 20
13.7953737785
 30
0.0
 10
15.9261689934
 20
13.8049800042
 30
0.0
 10
15.939152813
 20
13.8187761198
 30
0.0
 10
15.9572534157
 20
13.8358554032
 30
0.0
 10
15.9707620949
 20
13.8475852098
 30
0.0
 10
15.9843865754
 20
13.8584081088
 30
0.0
 10
15.9981182015
 20
13.8683169121
 30
0.0
 10
16.0119478276
 20
13.8773045654
 30
0.0
 10
16.0258663416
 20
13.8853646341
 30
0.0
 10
16.039864439
 20
13.8924913018
 30
0.0
 10
16.0539327647
 20
13.8986792005
 30
0.0
 10
16.0680617572
 20
13.9039236152
 30
0.0
 10
16.0822417144
 20
13.9082204504
 30
0.0
 10
16.0964627018
 20
13.9115661522
 30
0.0
 10
16.1107148558
 20
13.9139580106
 30
0.0
 10
16.1249871145
 20
13.9153939574
 30
0.0
 10
16.1345165362
 20
13.9157133363
 30
0.0
 10
16.1392707202
 20
13.9157133357
 30
0.0
  0
SPLINE
  5
2CA
100
AcDbEntity
  8
LAYER_CUT_FEAT
100
AcDbSpline
 62
7
  6
CONTINUOUS
 70
0
 71
3
 72
21
 73
17
 74
0
 42
0.0000001
 43
0.0000001
 44
0.0000000001
 40
0.0
 40
0.0
 40
0.0
 40
0.0
 40
0.1761941087
 40
0.3403274302
 40
0.4170828946
 40
0.4899300511
 40
0.5586600315
 40
0.6231225338
 40
0.6832380011
 40
0.7390139372
 40
0.7905659353
 40
0.8381441412
 40
0.8821640268
 40
0.9232357715
 40
0.9621787205
 40
1.0
 40
1.0
 40
1.0
 40
1.0
 10
15.7366835944
 20
11.8732137669
 30
0.0
 10
15.7372146199
 20
11.869897239
 30
0.0
 10
15.7384432224
 20
11.8635213371
 30
0.0
 10
15.7405146538
 20
11.8558355973
 30
0.0
 10
15.7424492632
 20
11.8501744008
 30
0.0
 10
15.7439827674
 20
11.8463032315
 30
0.0
 10
15.7456228477
 20
11.8427320336
 30
0.0
 10
15.7473609074
 20
11.839479782
 30
0.0
 10
15.7491879006
 20
11.8365636429
 30
0.0
 10
15.7510946475
 20
11.83399891
 30
0.0
 10
15.7530719957
 20
11.8317990631
 30
0.0
 10
15.7551110707
 20
11.8299760226
 30
0.0
 10
15.7572031137
 20
11.8285406906
 30
0.0
 10
15.7593393917
 20
11.8275036698
 30
0.0
 10
15.7615078983
 20
11.8268754784
 30
0.0
 10
15.7629748138
 20
11.8267343802
 30
0.0
 10
15.7636957972
 20
11.8267343877
 30
0.0
  0
SPLINE
  5
2CB
100
AcDbEntity
  8
LAYER_CUT_FEAT
100
AcDbSpline
 62
7
  6
CONTINUOUS
 70
0
 71
3
 72
14
 73
10
 74
0
 42
0.0000001
 43
0.0000001
 44
0.0000000001
 40
0.0
 40
0.0
 40
0.0
 40
0.0
 40
0.2951443816
 40
0.4289623044
 40
0.5544935377
 40
0.6728117089
 40
0.7853156387
 40
0.8937202343
 40
1.0
 40
1.0
 40
1.0
 40
1.0
 10
15.8961915424
 20
12.0228306897
 30
0.0
 10
15.897166775
 20
12.0215187126
 30
0.0
 10
15.8987130476
 20
12.0196965022
 30
0.0
 10
15.901009743
 20
12.0176513242
 30
0.0
 10
15.9027109333
 20
12.0164266259
 30
0.0
 10
15.904441172
 20
12.015466485
 30
0.0
 10
15.9061950454
 20
12.0147758472
 30
0.0
 10
15.9079652723
 20
12.0143592039
 30
0.0
 10
15.9091563415
 20
12.0142660546
 30
0.0
 10
15.9097450005
 20
12.0142660477
 30
0.0
  0
SPLINE
  5
2CC
100
AcDbEntity
  8
LAYER_CUT_FEAT
100
AcDbSpline
 62
7
  6
CONTINUOUS
 70
0
 71
3
 72
11
 73
7
 74
0
 42
0.0000001
 43
0.0000001
 44
0.0000000001
 40
0.0
 40
0.0
 40
0.0
 40
0.0
 40
0.2614258606
 40
0.5137070897
 40
0.7590715278
 40
1.0
 40
1.0
 40
1.0
 40
1.0
 10
15.6845050002
 20
13.1341298944
 30
0.0
 10
15.6880938382
 20
13.1360998519
 30
0.0
 10
15.6953288686
 20
13.1396508503
 30
0.0
 10
15.706494088
 20
13.1437916385
 30
0.0
 10
15.71773035
 20
13.1466282208
 30
0.0
 10
15.72529698
 20
13.1476489242
 30
0.0
 10
15.72905911
 20
13.1479346761
 30
0.0
  0
SPLINE
  5
2CD
100
AcDbEntity
  8
LAYER_CUT_FEAT
100
AcDbSpline
 62
7
  6
CONTINUOUS
 70
0
 71
3
 72
9
 73
5
 74
0
 42
0.0000001
 43
0.0000001
 44
0.0000000001
 40
0.0
 40
0.0
 40
0.0
 40
0.0
 40
0.5074151656
 40
1.0
 40
1.0
 40
1.0
 40
1.0
 10
15.627622481
 20
13.2653174
 30
0.0
 10
15.6279674817
 20
13.2651844894
 30
0.0
 10
15.6286709975
 20
13.2649787794
 30
0.0
 10
15.6294012431
 20
13.2649079251
 30
0.0
 10
15.6297601543
 20
13.2649079245
 30
0.0
  0
LINE
  5
2CE
100
AcDbEntity
  8
LAYER_CUT_FEAT
100
AcDbLine
 62
7
  6
CONTINUOUS
 10
15.6403467693
 20
13.3623746405
 11
15.639743802
 21
13.3625446536
  0
SPLINE
  5
2CF
100
AcDbEntity
  8
LAYER_CUT_FEAT
100
AcDbSpline
 62
7
  6
CONTINUOUS
 70
0
 71
3
 72
10
 73
6
 74
0
 42
0.0000001
 43
0.0000001
 44
0.0000000001
 40
0.0
 40
0.0
 40
0.0
 40
0.0
 40
0.5147185628
 40
0.7593432593
 40
1.0
 40
1.0
 40
1.0
 40
1.0
 10
15.6493955049
 20
13.3572095956
 30
0.0
 10
15.6498842812
 20
13.3569306007
 30
0.0
 10
15.6506553306
 20
13.3565936526
 30
0.0
 10
15.6517273659
 20
13.3563657353
 30
0.0
 10
15.6522587965
 20
13.356328073
 30
0.0
 10
15.6525219324
 20
13.3563280753
 30
0.0
  0
LINE
  5
2D0
100
AcDbEntity
  8
0
100
AcDbLine
 62
7
  6
CONTINUOUS
 10
15.664725304
 20
13.4517511089
 11
15.6639345818
 21
13.4520461007
  0
SPLINE
  5
2D1
100
AcDbEntity
  8
0
100
AcDbSpline
 62
7
  6
CONTINUOUS
 70
0
 71
3
 72
11
 73
7
 74
0
 42
0.0000001
 43
0.0000001
 44
0.0000000001
 40
0.0
 40
0.0
 40
0.0
 40
0.0
 40
0.2711474389
 40
0.5247531267
 40
0.7656966066
 40
1.0
 40
1.0
 40
1.0
 40
1.0
 10
15.6736116917
 20
13.4449777466
 30
0.0
 10
15.6739316454
 20
13.4447338722
 30
0.0
 10
15.6745808812
 20
13.4442990613
 30
0.0
 10
15.6756116072
 20
13.4438104559
 30
0.0
 10
15.676657248
 20
13.4435146128
 30
0.0
 10
15.6773640073
 20
13.4434481945
 30
0.0
 10
15.6777116418
 20
13.443448199
 30
0.0
  0
SPLINE
  5
2D2
100
AcDbEntity
  8
LAYER_CUT_FEAT
100
AcDbSpline
 62
7
  6
CONTINUOUS
 70
0
 71
3
 72
15
 73
11
 74
0
 42
0.0000001
 43
0.0000001
 44
0.0000000001
 40
0.0
 40
0.0
 40
0.0
 40
0.0
 40
0.1460586532
 40
0.286509552
 40
0.4210819318
 40
0.5495505691
 40
0.6717451384
 40
0.7875586192
 40
0.8969584657
 40
1.0
 40
1.0
 40
1.0
 40
1.0
 10
15.7184487386
 20
13.391907638
 30
0.0
 10
15.7249548496
 20
13.4129614212
 30
0.0
 10
15.7383975998
 20
13.4540549654
 30
0.0
 10
15.7603192008
 20
13.5136976287
 30
0.0
 10
15.7835461644
 20
13.5699863369
 30
0.0
 10
15.8080012433
 20
13.6227337002
 30
0.0
 10
15.8336035544
 20
13.6717652486
 30
0.0
 10
15.8602701827
 20
13.7169202425
 30
0.0
 10
15.887912603
 20
13.7580474268
 30
0.0
 10
15.9075156508
 20
13.7834447336
 30
0.0
 10
15.9174775569
 20
13.7953795792
 30
0.0
  0
SPLINE
  5
2D3
100
AcDbEntity
  8
LAYER_CHAMFER_FEAT
100
AcDbSpline
 62
7
  6
CONTINUOUS
 70
0
 71
3
 72
15
 73
11
 74
0
 42
0.0000001
 43
0.0000001
 44
0.0000000001
 40
0.0
 40
0.0
 40
0.0
 40
0.0
 40
0.1460587505
 40
0.2865094411
 40
0.4210819479
 40
0.5495505777
 40
0.6717451284
 40
0.7875586087
 40
0.8969584491
 40
1.0
 40
1.0
 40
1.0
 40
1.0
 10
16.0223448872
 20
11.9280161627
 30
0.0
 10
16.0180426633
 20
11.9140941611
 30
0.0
 10
16.0091535391
 20
11.8869207159
 30
0.0
 10
15.9946576794
 20
11.847481504
 30
0.0
 10
15.9792986651
 20
11.8102601241
 30
0.0
 10
15.9631275404
 20
11.7753804708
 30
0.0
 10
15.946197787
 20
11.7429579516
 30
0.0
 10
15.928564256
 20
11.7130988315
 30
0.0
 10
15.9102854731
 20
11.6859031295
 30
0.0
 10
15.8973227797
 20
11.6691089546
 30
0.0
 10
15.8907353965
 20
11.6612169251
 30
0.0
  0
SPLINE
  5
2D4
100
AcDbEntity
  8
LAYER_CHAMFER_FEAT
100
AcDbSpline
 62
7
  6
CONTINUOUS
 70
0
 71
3
 72
17
 73
13
 74
0
 42
0.0000001
 43
0.0000001
 44
0.0000000001
 40
0.0
 40
0.0
 40
0.0
 40
0.0
 40
0.0539855491
 40
0.1084638135
 40
0.1636036359
 40
0.2195664073
 40
0.3345173358
 40
0.4544604323
 40
0.5803166278
 40
0.7128307972
 40
0.8525820948
 40
1.0
 40
1.0
 40
1.0
 40
1.0
 10
15.740896265
 20
13.4598129422
 30
0.0
 10
15.7439323229
 20
13.4594732582
 30
0.0
 10
15.7500124039
 20
13.4585993774
 30
0.0
 10
15.7590833161
 20
13.4567198043
 30
0.0
 10
15.7681329647
 20
13.4542680815
 30
0.0
 10
15.7802686876
 20
13.4502033772
 30
0.0
 10
15.7954027179
 20
13.4436403551
 30
0.0
 10
15.8132045565
 20
13.4335803311
 30
0.0
 10
15.8307742763
 20
13.4212958883
 30
0.0
 10
15.8480717339
 20
13.4068212134
 30
0.0
 10
15.8650591904
 20
13.3901942722
 30
0.0
 10
15.8758588175
 20
13.3780326503
 30
0.0
 10
15.8812045354
 20
13.3716282198
 30
0.0
  0
SPLINE
  5
2D5
100
AcDbEntity
  8
0
100
AcDbSpline
 62
7
  6
CONTINUOUS
 70
0
 71
3
 72
11
 73
7
 74
0
 42
0.0000001
 43
0.0000001
 44
0.0000000001
 40
0.0
 40
0.0
 40
0.0
 40
0.0
 40
0.2332605325
 40
0.4902697556
 40
0.7523106374
 40
1.0
 40
1.0
 40
1.0
 40
1.0
 10
14.3242998501
 20
13.5206287055
 30
0.0
 10
14.3241151862
 20
13.520031133
 30
0.0
 10
14.3238391591
 20
13.5187400469
 30
0.0
 10
14.3236662028
 20
13.5167261871
 30
0.0
 10
14.3237220362
 20
13.5146669242
 30
0.0
 10
14.3239181358
 20
13.5133096811
 30
0.0
 10
14.3240619479
 20
13.5126612947
 30
0.0
  0
SPLINE
  5
2D6
100
AcDbEntity
  8
0
100
AcDbSpline
 62
7
  6
CONTINUOUS
 70
0
 71
3
 72
11
 73
7
 74
0
 42
0.0000001
 43
0.0000001
 44
0.0000000001
 40
0.0
 40
0.0
 40
0.0
 40
0.0
 40
0.2553250409
 40
0.5118768144
 40
0.7624153647
 40
1.0
 40
1.0
 40
1.0
 40
1.0
 10
14.3302102624
 20
13.4658182434
 30
0.0
 10
14.3303987199
 20
13.4680481964
 30
0.0
 10
14.3306103638
 20
13.4725343235
 30
0.0
 10
14.3304546068
 20
13.4792204005
 30
0.0
 10
14.3298348393
 20
13.4857234982
 30
0.0
 10
14.3291005639
 20
13.4899443588
 30
0.0
 10
14.328649644
 20
13.4919773612
 30
0.0
  0
SPLINE
  5
2D7
100
AcDbEntity
  8
LAYER_CUT_FEAT
100
AcDbSpline
 62
7
  6
CONTINUOUS
 70
0
 71
3
 72
11
 73
7
 74
0
 42
0.0000001
 43
0.0000001
 44
0.0000000001
 40
0.0
 40
0.0
 40
0.0
 40
0.0
 40
0.2398219562
 40
0.4991470279
 40
0.7589131308
 40
1.0
 40
1.0
 40
1.0
 40
1.0
 10
14.2980038627
 20
13.4344987735
 30
0.0
 10
14.2978375991
 20
13.4338760116
 30
0.0
 10
14.2975976981
 20
13.4325508857
 30
0.0
 10
14.2974777994
 20
13.4305105928
 30
0.0
 10
14.2975874117
 20
13.4284663119
 30
0.0
 10
14.2978202939
 20
13.427135377
 30
0.0
 10
14.2979829704
 20
13.4265081556
 30
0.0
  0
SPLINE
  5
2D8
100
AcDbEntity
  8
LAYER_CUT_FEAT
100
AcDbSpline
 62
7
  6
CONTINUOUS
 70
0
 71
3
 72
11
 73
7
 74
0
 42
0.0000001
 43
0.0000001
 44
0.0000000001
 40
0.0
 40
0.0
 40
0.0
 40
0.0
 40
0.2594865828
 40
0.5174064371
 40
0.7665117068
 40
1.0
 40
1.0
 40
1.0
 40
1.0
 10
14.3053887736
 20
13.3808805586
 30
0.0
 10
14.3055155014
 20
13.3831265173
 30
0.0
 10
14.3056060174
 20
13.387615529
 30
0.0
 10
14.3052715748
 20
13.3942576441
 30
0.0
 10
14.3044794148
 20
13.4006340172
 30
0.0
 10
14.3036295293
 20
13.4047370802
 30
0.0
 10
14.3031213588
 20
13.4066964007
 30
0.0
  0
SPLINE
  5
2D9
100
AcDbEntity
  8
LAYER_CUT_FEAT
100
AcDbSpline
 62
7
  6
CONTINUOUS
 70
0
 71
3
 72
11
 73
7
 74
0
 42
0.0000001
 43
0.0000001
 44
0.0000000001
 40
0.0
 40
0.0
 40
0.0
 40
0.0
 40
0.2464153233
 40
0.5080207798
 40
0.7654787318
 40
1.0
 40
1.0
 40
1.0
 40
1.0
 10
14.2741116033
 20
13.3438682518
 30
0.0
 10
14.2739641369
 20
13.3432236723
 30
0.0
 10
14.2737609289
 20
13.3418709793
 30
0.0
 10
14.2736947198
 20
13.3398138465
 30
0.0
 10
14.2738575331
 20
13.3377941637
 30
0.0
 10
14.2741266633
 20
13.336496034
 30
0.0
 10
14.2743078227
 20
13.3358933562
 30
0.0
  0
SPLINE
  5
2DA
100
AcDbEntity
  8
LAYER_CUT_FEAT
100
AcDbSpline
 62
7
  6
CONTINUOUS
 70
0
 71
3
 72
11
 73
7
 74
0
 42
0.0000001
 43
0.0000001
 44
0.0000000001
 40
0.0
 40
0.0
 40
0.0
 40
0.0
 40
0.263724375
 40
0.5230195497
 40
0.7706543571
 40
1.0
 40
1.0
 40
1.0
 40
1.0
 10
14.2829350343
 20
13.2917035067
 30
0.0
 10
14.283000089
 20
13.2939544388
 30
0.0
 10
14.2829703218
 20
13.2984246467
 30
0.0
 10
14.2824588708
 20
13.304990888
 30
0.0
 10
14.2814982944
 20
13.3112100478
 30
0.0
 10
14.2805356053
 20
13.3151748744
 30
0.0
 10
14.2799718696
 20
13.3170503008
 30
0.0
  0
SPLINE
  5
2DB
100
AcDbEntity
  8
LAYER_CUT_FEAT
100
AcDbSpline
 62
7
  6
CONTINUOUS
 70
0
 71
3
 72
12
 73
8
 74
0
 42
0.0000001
 43
0.0000001
 44
0.0000000001
 40
0.0
 40
0.0
 40
0.0
 40
0.0
 40
0.2530235411
 40
0.516838544
 40
0.7718993832
 40
0.8903605428
 40
1.0
 40
1.0
 40
1.0
 40
1.0
 10
14.2527394726
 20
13.2491786832
 30
0.0
 10
14.2526111209
 20
13.2485156935
 30
0.0
 10
14.252444972
 20
13.2471419054
 30
0.0
 10
14.2524329336
 20
13.2450781379
 30
0.0
 10
14.2526161668
 20
13.2433820521
 30
0.0
 10
14.2528841477
 20
13.2421197838
 30
0.0
 10
14.2530560371
 20
13.2415348518
 30
0.0
 10
14.2531518476
 20
13.2412583627
 30
0.0
  0
SPLINE
  5
2DC
100
AcDbEntity
  8
LAYER_CUT_FEAT
100
AcDbSpline
 62
7
  6
CONTINUOUS
 70
0
 71
3
 72
11
 73
7
 74
0
 42
0.0000001
 43
0.0000001
 44
0.0000000001
 40
0.0
 40
0.0
 40
0.0
 40
0.0
 40
0.2680591826
 40
0.5287406502
 40
0.7748580708
 40
1.0
 40
1.0
 40
1.0
 40
1.0
 10
14.2629584368
 20
13.1987215491
 30
0.0
 10
14.2629621673
 20
13.2009664543
 30
0.0
 10
14.2628135674
 20
13.205396366
 30
0.0
 10
14.262127671
 20
13.2118552347
 30
0.0
 10
14.2610034896
 20
13.2178875552
 30
0.0
 10
14.2599313137
 20
13.2216942511
 30
0.0
 10
14.2593139584
 20
13.2234758083
 30
0.0
  0
SPLINE
  5
2DD
100
AcDbEntity
  8
LAYER_CUT_FEAT
100
AcDbSpline
 62
7
  6
CONTINUOUS
 70
0
 71
3
 72
19
 73
15
 74
0
 42
0.0000001
 43
0.0000001
 44
0.0000000001
 40
0.0
 40
0.0
 40
0.0
 40
0.0
 40
0.042213006
 40
0.0851960457
 40
0.1296693954
 40
0.1762659711
 40
0.2255106565
 40
0.2778166174
 40
0.3926619976
 40
0.5223461578
 40
0.6671908012
 40
0.7451971201
 40
0.8267701002
 40
1.0
 40
1.0
 40
1.0
 40
1.0
 10
15.8236307272
 20
13.1563185215
 30
0.0
 10
15.8230689794
 20
13.156318523
 30
0.0
 10
15.8219335098
 20
13.1562338098
 30
0.0
 10
15.8202443722
 20
13.1558547888
 30
0.0
 10
15.818569224
 20
13.1552260751
 30
0.0
 10
15.8169144785
 20
13.1543513036
 30
0.0
 10
15.815285007
 20
13.1532347139
 30
0.0
 10
15.8130841819
 20
13.1513711427
 30
0.0
 10
15.8104367317
 20
13.1484140267
 30
0.0
 10
15.8075389196
 20
13.1441045657
 30
0.0
 10
15.8053580338
 20
13.139941636
 30
0.0
 10
15.8037164045
 20
13.1362371666
 30
0.0
 10
15.8020897525
 20
13.1321167425
 30
0.0
 10
15.8010264661
 20
13.1288931224
 30
0.0
 10
15.8003726193
 20
13.1266825434
 30
0.0
  0
SPLINE
  5
2DE
100
AcDbEntity
  8
LAYER_CUT_FEAT
100
AcDbSpline
 62
7
  6
CONTINUOUS
 70
0
 71
3
 72
51
 73
47
 74
0
 42
0.0000001
 43
0.0000001
 44
0.0000000001
 40
0.0
 40
0.0
 40
0.0
 40
0.0
 40
0.007790194
 40
0.0156228714
 40
0.0235396681
 40
0.0315805895
 40
0.0397833526
 40
0.0481828818
 40
0.0568109727
 40
0.065696109
 40
0.0748634153
 40
0.0843347183
 40
0.0941286814
 40
0.104260985
 40
0.11474453
 40
0.1255896547
 40
0.1368043521
 40
0.1483944748
 40
0.160363925
 40
0.172714825
 40
0.1854476785
 40
0.1985615163
 40
0.2120540235
 40
0.2259216523
 40
0.2401597197
 40
0.2547625032
 40
0.285032907
 40
0.3166711209
 40
0.3496012269
 40
0.383736816
 40
0.4189823828
 40
0.4552345743
 40
0.4923832766
 40
0.5303126008
 40
0.5689018114
 40
0.6080261739
 40
0.647557791
 40
0.6873663897
 40
0.7273201029
 40
0.7672862326
 40
0.8071320105
 40
0.8467253552
 40
0.8859356392
 40
0.9246344545
 40
0.9626963704
 40
1.0
 40
1.0
 40
1.0
 40
1.0
 10
14.7913900615
 20
10.942713356
 30
0.0
 10
14.7850155021
 20
10.9427133606
 30
0.0
 10
14.7722257169
 20
10.9432286846
 30
0.0
 10
14.7530839368
 20
10.9455445313
 30
0.0
 10
14.733982156
 20
10.9494007802
 30
0.0
 10
14.7149420788
 20
10.9547923362
 30
0.0
 10
14.6959827775
 20
10.9617123684
 30
0.0
 10
14.6771233166
 20
10.9701525124
 30
0.0
 10
14.6583820804
 20
10.9801030356
 30
0.0
 10
14.639777054
 20
10.9915529308
 30
0.0
 10
14.6213258571
 20
11.0044899676
 30
0.0
 10
14.6030458568
 20
11.018900734
 30
0.0
 10
14.5849542217
 20
11.0347706182
 30
0.0
 10
14.5670679684
 20
11.0520837855
 30
0.0
 10
14.5494039636
 20
11.0708231317
 30
0.0
 10
14.5319789284
 20
11.0909702667
 30
0.0
 10
14.5148094366
 20
11.112505511
 30
0.0
 10
14.4979118908
 20
11.1354078841
 30
0.0
 10
14.481302506
 20
11.1596551024
 30
0.0
 10
14.4649972662
 20
11.18522357
 30
0.0
 10
14.449011913
 20
11.2120884033
 30
0.0
 10
14.4333619269
 20
11.240223451
 30
0.0
 10
14.4180624876
 20
11.2696013252
 30
0.0
 10
14.4031285154
 20
11.3001933774
 30
0.0
 10
14.3885743947
 20
11.3319698812
 30
0.0
 10
14.369465867
 20
11.3764089855
 30
0.0
 10
14.3466814984
 20
11.4347461616
 30
0.0
 10
14.3213920372
 20
11.5081342977
 30
0.0
 10
14.2979346176
 20
11.5854385679
 30
0.0
 10
14.2764012154
 20
11.6663571164
 30
0.0
 10
14.2568761055
 20
11.7505751488
 30
0.0
 10
14.2394359094
 20
11.8377641715
 30
0.0
 10
14.2241491156
 20
11.9275839328
 30
0.0
 10
14.2110757528
 20
12.0196836384
 30
0.0
 10
14.2002672405
 20
12.1137034273
 30
0.0
 10
14.1917660328
 20
12.2092757932
 30
0.0
 10
14.1856055785
 20
12.3060270654
 30
0.0
 10
14.1818100948
 20
12.4035788935
 30
0.0
 10
14.1803944944
 20
12.5015497502
 30
0.0
 10
14.1813643726
 20
12.5995564497
 30
0.0
 10
14.1847158781
 20
12.6972156566
 30
0.0
 10
14.1904358702
 20
12.7941454393
 30
0.0
 10
14.1985018187
 20
12.8899666596
 30
0.0
 10
14.2088820602
 20
12.9843048965
 30
0.0
 10
14.2215356278
 20
13.0767904526
 30
0.0
 10
14.2315654362
 20
13.1376491995
 30
0.0
 10
14.2369641837
 20
13.1676927954
 30
0.0
  0
SPLINE
  5
2DF
100
AcDbEntity
  8
LAYER_CUT_FEAT
100
AcDbSpline
 62
7
  6
CONTINUOUS
 70
0
 71
3
 72
77
 73
73
 74
0
 42
0.0000001
 43
0.0000001
 44
0.0000000001
 40
0.0
 40
0.0
 40
0.0
 40
0.0
 40
0.0041771275
 40
0.0083682893
 40
0.0125873463
 40
0.0168478195
 40
0.0211627453
 40
0.0255445429
 40
0.0345514798
 40
0.0439562207
 40
0.0538289769
 40
0.0642263088
 40
0.0751919954
 40
0.0867583133
 40
0.0989474279
 40
0.1117727241
 40
0.1252399986
 40
0.1393484982
 40
0.1540917959
 40
0.1694585237
 40
0.1854329835
 40
0.2019956683
 40
0.2191237023
 40
0.236791216
 40
0.2549696684
 40
0.2736281359
 40
0.2927335711
 40
0.3122510339
 40
0.3321439013
 40
0.3523740672
 40
0.3729021302
 40
0.3936875712
 40
0.4146889219
 40
0.4358639301
 40
0.4571697223
 40
0.478562961
 40
0.4999999998
 40
0.5214370385
 40
0.5428302773
 40
0.5641360698
 40
0.5853110778
 40
0.606312428
 40
0.6270978693
 40
0.6476259332
 40
0.6678560986
 40
0.687748965
 40
0.707266428
 40
0.7263718647
 40
0.745030332
 40
0.7632087828
 40
0.7808762964
 40
0.7980043323
 40
0.8145670173
 40
0.8305414753
 40
0.8459082024
 40
0.8606515022
 40
0.8747600026
 40
0.8882272753
 40
0.9010525703
 40
0.9132416867
 40
0.9248080059
 40
0.935773691
 40
0.9461710216
 40
0.9560437789
 40
0.965448521
 40
0.9744554571
 40
0.9788372551
 40
0.9831521799
 40
0.987412654
 40
0.9916317106
 40
0.9958228723
 40
1.0
 40
1.0
 40
1.0
 40
1.0
 10
16.1508760887
 20
10.942713356
 30
0.0
 10
16.1558735917
 20
10.9427133524
 30
0.0
 10
16.1658882425
 20
10.9430294604
 30
0.0
 10
16.1808898852
 20
10.9444507705
 30
0.0
 10
16.1958729365
 20
10.9468184849
 30
0.0
 10
16.2108270178
 20
10.9501307166
 30
0.0
 10
16.2257433535
 20
10.9543853925
 30
0.0
 10
16.245748811
 20
10.9613729614
 30
0.0
 10
16.2706883102
 20
10.9725494019
 30
0.0
 10
16.3000099918
 20
10.9895488859
 30
0.0
 10
16.3289421159
 20
11.0102087333
 30
0.0
 10
16.357418506
 20
11.0344716665
 30
0.0
 10
16.3853783327
 20
11.0622760741
 30
0.0
 10
16.4127599616
 20
11.0935538748
 30
0.0
 10
16.4395023191
 20
11.1282301608
 30
0.0
 10
16.465544612
 20
11.1662225825
 30
0.0
 10
16.4908267996
 20
11.2074411197
 30
0.0
 10
16.515289878
 20
11.2517880513
 30
0.0
 10
16.5388762312
 20
11.2991580533
 30
0.0
 10
16.5615299191
 20
11.3494383816
 30
0.0
 10
16.5831969615
 20
11.4025091072
 30
0.0
 10
16.6038255339
 20
11.4582434215
 30
0.0
 10
16.6233661596
 20
11.5165079582
 30
0.0
 10
16.6417718723
 20
11.5771631284
 30
0.0
 10
16.6589983861
 20
11.6400634644
 30
0.0
 10
16.6750042102
 20
11.7050579941
 30
0.0
 10
16.6897507601
 20
11.7719906253
 30
0.0
 10
16.703202461
 20
11.8407005331
 30
0.0
 10
16.7153268589
 20
11.9110225518
 30
0.0
 10
16.7260946992
 20
11.9827875846
 30
0.0
 10
16.7354799891
 20
12.0558230245
 30
0.0
 10
16.7434600637
 20
12.1299531758
 30
0.0
 10
16.7500156538
 20
12.2049996793
 30
0.0
 10
16.7551309384
 20
12.2807819479
 30
0.0
 10
16.7587935655
 20
12.3571176086
 30
0.0
 10
16.7609946856
 20
12.433822946
 30
0.0
 10
16.7617289787
 20
12.5107133465
 30
0.0
 10
16.7609946803
 20
12.5876037471
 30
0.0
 10
16.7587935648
 20
12.664309085
 30
0.0
 10
16.7551309438
 20
12.7406447463
 30
0.0
 10
16.750015655
 20
12.816427014
 30
0.0
 10
16.7434600589
 20
12.8914735163
 30
0.0
 10
16.7354799869
 20
12.9656036686
 30
0.0
 10
16.7260947045
 20
13.0386391105
 30
0.0
 10
16.7153268612
 20
13.1104041423
 30
0.0
 10
16.703202457
 20
13.1807261583
 30
0.0
 10
16.6897507565
 20
13.2494360669
 30
0.0
 10
16.6750042149
 20
13.3163687018
 30
0.0
 10
16.6589983896
 20
13.381363231
 30
0.0
 10
16.6417718692
 20
13.4442635628
 30
0.0
 10
16.6233661548
 20
13.5049187326
 30
0.0
 10
16.6038255378
 20
13.5631832747
 30
0.0
 10
16.583196966
 20
13.6189175898
 30
0.0
 10
16.561529917
 20
13.6719883098
 30
0.0
 10
16.5388762254
 20
13.7222686356
 30
0.0
 10
16.5152898806
 20
13.7696386447
 30
0.0
 10
16.4908268051
 20
13.8139855795
 30
0.0
 10
16.4655446111
 20
13.8552041098
 30
0.0
 10
16.4395023129
 20
13.8931965259
 30
0.0
 10
16.4127599626
 20
13.92787282
 30
0.0
 10
16.3853783387
 20
13.959150628
 30
0.0
 10
16.357418506
 20
13.9869550274
 30
0.0
 10
16.3289421106
 20
14.011217951
 30
0.0
 10
16.3000099911
 20
14.0318778053
 30
0.0
 10
16.2706883161
 20
14.0488773075
 30
0.0
 10
16.2457488075
 20
14.0600537267
 30
0.0
 10
16.2257433574
 20
14.0670413141
 30
0.0
 10
16.2108270125
 20
14.0712959572
 30
0.0
 10
16.1958729405
 20
14.0746082274
 30
0.0
 10
16.1808898837
 20
14.076975916
 30
0.0
 10
16.1658882424
 20
14.0783972274
 30
0.0
 10
16.1558735918
 20
14.0787133465
 30
0.0
 10
16.1508760887
 20
14.078713347
 30
0.0
  0
SPLINE
  5
2E0
100
AcDbEntity
  8
0
100
AcDbSpline
 62
7
  6
CONTINUOUS
 70
0
 71
3
 72
14
 73
10
 74
0
 42
0.0000001
 43
0.0000001
 44
0.0000000001
 40
0.0
 40
0.0
 40
0.0
 40
0.0
 40
0.0858710022
 40
0.1774646854
 40
0.2792897418
 40
0.3942339669
 40
0.5237629857
 40
0.668260719
 40
1.0
 40
1.0
 40
1.0
 40
1.0
 10
14.3044485546
 20
13.4520461007
 30
0.0
 10
14.3043434873
 20
13.4520460986
 30
0.0
 10
14.3041252588
 20
13.452013425
 30
0.0
 10
14.3038107357
 20
13.4518712914
 30
0.0
 10
14.3035084081
 20
13.4516413341
 30
0.0
 10
14.3032205198
 20
13.4513281584
 30
0.0
 10
14.3029490599
 20
13.4509357699
 30
0.0
 10
14.3025963918
 20
13.4502826699
 30
0.0
 10
14.3023916552
 20
13.449733761
 30
0.0
 10
14.3022718147
 20
13.4493459567
 30
0.0
  0
SPLINE
  5
2E1
100
AcDbEntity
  8
LAYER_CUT_FEAT
100
AcDbSpline
 62
7
  6
CONTINUOUS
 70
0
 71
3
 72
14
 73
10
 74
0
 42
0.0000001
 43
0.0000001
 44
0.0000000001
 40
0.0
 40
0.0
 40
0.0
 40
0.0
 40
0.0832142553
 40
0.1728113383
 40
0.2736452862
 40
0.3886234964
 40
0.5190356514
 40
0.66499026
 40
1.0
 40
1.0
 40
1.0
 40
1.0
 10
14.2802577749
 20
13.3625446536
 30
0.0
 10
14.2801444138
 20
13.3625446519
 30
0.0
 10
14.2799076784
 20
13.3625062343
 30
0.0
 10
14.2795691848
 20
13.3623404122
 30
0.0
 10
14.2792460568
 20
13.3620736762
 30
0.0
 10
14.2789406309
 20
13.3617118003
 30
0.0
 10
14.2786553224
 20
13.3612598643
 30
0.0
 10
14.278289455
 20
13.3605103822
 30
0.0
 10
14.2780835626
 20
13.359884719
 30
0.0
 10
14.2779658432
 20
13.3594437859
 30
0.0
  0
SPLINE
  5
2E2
100
AcDbEntity
  8
LAYER_CUT_FEAT
100
AcDbSpline
 62
7
  6
CONTINUOUS
 70
0
 71
3
 72
14
 73
10
 74
0
 42
0.0000001
 43
0.0000001
 44
0.0000000001
 40
0.0
 40
0.0
 40
0.0
 40
0.0
 40
0.080790831
 40
0.1686252964
 40
0.2686821501
 40
0.383839427
 40
0.5151698042
 40
0.662475492
 40
1.0
 40
1.0
 40
1.0
 40
1.0
 10
14.2585571803
 20
13.268927936
 30
0.0
 10
14.2584354803
 20
13.2689279471
 30
0.0
 10
14.2581799075
 20
13.2688832094
 30
0.0
 10
14.2578177326
 20
13.2686917558
 30
0.0
 10
14.2574744788
 20
13.2683857695
 30
0.0
 10
14.2571525458
 20
13.2679721902
 30
0.0
 10
14.256854886
 20
13.2674573947
 30
0.0
 10
14.2564789266
 20
13.2666074263
 30
0.0
 10
14.2562746122
 20
13.2659023134
 30
0.0
 10
14.2561612229
 20
13.2654066857
 30
0.0
  0
LINE
  5
2E3
100
AcDbEntity
  8
LAYER_CUT_FEAT
100
AcDbLine
 62
7
  6
CONTINUOUS
 10
14.2767862667
 20
13.2689026176
 11
14.278200868
 21
13.2710103464
  0
SPLINE
  5
2E4
100
AcDbEntity
  8
LAYER_CUT_FEAT
100
AcDbSpline
 62
7
  6
CONTINUOUS
 70
0
 71
3
 72
15
 73
11
 74
0
 42
0.0000001
 43
0.0000001
 44
0.0000000001
 40
0.0
 40
0.0
 40
0.0
 40
0.0
 40
0.0785715924
 40
0.1648467803
 40
0.264305828
 40
0.3797524477
 40
0.5120020366
 40
0.6605209734
 40
0.8238848963
 40
1.0
 40
1.0
 40
1.0
 40
1.0
 10
14.2394524939
 20
13.1716520176
 30
0.0
 10
14.2393224066
 20
13.1716520176
 30
0.0
 10
14.2390476644
 20
13.1716003939
 30
0.0
 10
14.2386621321
 20
13.1713814081
 30
0.0
 10
14.2382994731
 20
13.1710337729
 30
0.0
 10
14.2379621024
 20
13.1705655996
 30
0.0
 10
14.2376537133
 20
13.1699848632
 30
0.0
 10
14.2373792574
 20
13.1693014791
 30
0.0
 10
14.2371437069
 20
13.1685277766
 30
0.0
 10
14.2370196043
 20
13.1679790656
 30
0.0
 10
14.2369641837
 20
13.1676927954
 30
0.0
  0
SPLINE
  5
2E5
100
AcDbEntity
  8
LAYER_CUT_FEAT
100
AcDbSpline
 62
7
  6
CONTINUOUS
 70
0
 71
3
 72
11
 73
7
 74
0
 42
0.0000001
 43
0.0000001
 44
0.0000000001
 40
0.0
 40
0.0
 40
0.0
 40
0.0
 40
0.2192455198
 40
0.4585140623
 40
0.7187045287
 40
1.0
 40
1.0
 40
1.0
 40
1.0
 10
14.2547042752
 20
13.1716156734
 30
0.0
 10
14.2550883091
 20
13.1719521814
 30
0.0
 10
14.2558439247
 20
13.1727110946
 30
0.0
 10
14.2568900799
 20
13.1740209498
 30
0.0
 10
14.2578908966
 20
13.175541651
 30
0.0
 10
14.2585003937
 20
13.1766471083
 30
0.0
 10
14.258797921
 20
13.1772307655
 30
0.0
  0
SPLINE
  5
2E6
100
AcDbEntity
  8
LAYER_CUT_FEAT
100
AcDbSpline
 62
7
  6
CONTINUOUS
 70
0
 71
3
 72
15
 73
11
 74
0
 42
0.0000001
 43
0.0000001
 44
0.0000000001
 40
0.0
 40
0.0
 40
0.0
 40
0.0
 40
0.1130353997
 40
0.2278189195
 40
0.3453005625
 40
0.4663451906
 40
0.5917229239
 40
0.7221000485
 40
0.8580384952
 40
1.0
 40
1.0
 40
1.0
 40
1.0
 10
15.7290591102
 20
11.8734920359
 30
0.0
 10
15.7256931087
 20
11.873747686
 30
0.0
 10
15.7189310076
 20
11.8746174389
 30
0.0
 10
15.7088736336
 20
11.8769675932
 30
0.0
 10
15.6988667993
 20
11.880363744
 30
0.0
 10
15.6889290863
 20
11.8847979733
 30
0.0
 10
15.6790763765
 20
11.8902607843
 30
0.0
 10
15.6693241701
 20
11.8967415435
 30
0.0
 10
15.6596878984
 20
11.9042279475
 30
0.0
 10
15.6534894743
 20
11.9097569619
 30
0.0
 10
15.6504129237
 20
11.9126739113
 30
0.0
  0
SPLINE
  5
2E7
100
AcDbEntity
  8
LAYER_CUT_FEAT
100
AcDbSpline
 62
7
  6
CONTINUOUS
 70
0
 71
3
 72
16
 73
12
 74
0
 42
0.0000001
 43
0.0000001
 44
0.0000000001
 40
0.0
 40
0.0
 40
0.0
 40
0.0
 40
0.151846413
 40
0.2959010795
 40
0.4320757568
 40
0.5603821516
 40
0.6809552125
 40
0.7384355575
 40
0.7941019175
 40
0.9002224542
 40
1.0
 40
1.0
 40
1.0
 40
1.0
 10
15.8961915424
 20
12.0228306897
 30
0.0
 10
15.892553589
 20
12.0149735147
 30
0.0
 10
15.8851236322
 20
11.9998163876
 30
0.0
 10
15.8731757497
 20
11.9782570583
 30
0.0
 10
15.8607527871
 20
11.9585341692
 30
0.0
 10
15.8478966264
 20
11.9407160614
 30
0.0
 10
15.8366828904
 20
11.9272968734
 30
0.0
 10
15.8275219296
 20
11.9176125311
 30
0.0
 10
15.8185434695
 20
11.9089065781
 30
0.0
 10
15.8071396529
 20
11.8992575426
 30
0.0
 10
15.797412258
 20
11.8926324612
 30
0.0
 10
15.7925249761
 20
11.8897196384
 30
0.0
  0
SPLINE
  5
2E8
100
AcDbEntity
  8
LAYER_CUT_FEAT
100
AcDbSpline
 62
7
  6
CONTINUOUS
 70
0
 71
3
 72
33
 73
29
 74
0
 42
0.0000001
 43
0.0000001
 44
0.0000000001
 40
0.0
 40
0.0
 40
0.0
 40
0.0
 40
0.0211175804
 40
0.0433988749
 40
0.0668416019
 40
0.0914309579
 40
0.1171417822
 40
0.1439397645
 40
0.1717826851
 40
0.2006213776
 40
0.2304005684
 40
0.2610595957
 40
0.2925330434
 40
0.3247513066
 40
0.3576411067
 40
0.3911259677
 40
0.4595573351
 40
0.5293906249
 40
0.5999418269
 40
0.670514626
 40
0.7404123378
 40
0.8089498405
 40
0.8425028408
 40
0.8754704426
 40
0.9077757887
 40
0.939345239
 40
0.9701085446
 40
1.0
 40
1.0
 40
1.0
 40
1.0
 10
15.8526952501
 20
13.0739355978
 30
0.0
 10
15.8567535479
 20
13.0684097573
 30
0.0
 10
15.864733068
 20
13.0567854448
 30
0.0
 10
15.8760064363
 20
13.0382318817
 30
0.0
 10
15.8868734579
 20
13.018146572
 30
0.0
 10
15.8973025569
 20
12.9965880066
 30
0.0
 10
15.9072640605
 20
12.9736179147
 30
0.0
 10
15.9167291948
 20
12.9493025669
 30
0.0
 10
15.9256705807
 20
12.9237121819
 30
0.0
 10
15.9340622522
 20
12.8969208177
 30
0.0
 10
15.9418797961
 20
12.8690061104
 30
0.0
 10
15.9491004312
 20
12.8400490475
 30
0.0
 10
15.9557031043
 20
12.8101336993
 30
0.0
 10
15.9616685123
 20
12.7793470323
 30
0.0
 10
15.9669793536
 20
12.7477783842
 30
0.0
 10
15.9732113717
 20
12.7044550287
 30
0.0
 10
15.9792329812
 20
12.6490005618
 30
0.0
 10
15.9836079358
 20
12.5813279381
 30
0.0
 10
15.9851312776
 20
12.5128355605
 30
0.0
 10
15.983785208
 20
12.4443185709
 30
0.0
 10
15.9795854324
 20
12.3765723955
 30
0.0
 10
15.9737082852
 20
12.3210246079
 30
0.0
 10
15.9675898951
 20
12.2776024367
 30
0.0
 10
15.9623611354
 20
12.2459434267
 30
0.0
 10
15.956475794
 20
12.2150551715
 30
0.0
 10
15.9499509076
 20
12.1850272495
 30
0.0
 10
15.9428056647
 20
12.1559472683
 30
0.0
 10
15.9375633429
 20
12.1369623094
 30
0.0
 10
15.9348368837
 20
12.1276486691
 30
0.0
  0
SPLINE
  5
2E9
100
AcDbEntity
  8
LAYER_CUT_FEAT
100
AcDbSpline
 62
7
  6
CONTINUOUS
 70
0
 71
3
 72
24
 73
20
 74
0
 42
0.0000001
 43
0.0000001
 44
0.0000000001
 40
0.0
 40
0.0
 40
0.0
 40
0.0
 40
0.1676186184
 40
0.2506095627
 40
0.3320263394
 40
0.4111357516
 40
0.4872431979
 40
0.5597072984
 40
0.6279559882
 40
0.6915058622
 40
0.749986984
 40
0.8031761092
 40
0.8510440593
 40
0.8938242367
 40
0.932106285
 40
0.9498965532
 40
0.9669988927
 40
0.9836224382
 40
1.0
 40
1.0
 40
1.0
 40
1.0
 10
15.8526952501
 20
13.0739355978
 30
0.0
 10
15.8528956928
 20
13.0791390578
 30
0.0
 10
15.8528789589
 20
13.0869359968
 30
0.0
 10
15.8522260489
 20
13.0972321804
 30
0.0
 10
15.8514295998
 20
13.1047578929
 30
0.0
 10
15.8503339627
 20
13.1120296747
 30
0.0
 10
15.8489510536
 20
13.1189693234
 30
0.0
 10
15.8472960407
 20
13.1255020593
 30
0.0
 10
15.8453869369
 20
13.1315578997
 30
0.0
 10
15.8432443432
 20
13.1370724238
 30
0.0
 10
15.8408908804
 20
13.1419877054
 30
0.0
 10
15.838350684
 20
13.1462529503
 30
0.0
 10
15.8356471071
 20
13.1498252088
 30
0.0
 10
15.8328039931
 20
13.1526674769
 30
0.0
 10
15.8302708211
 20
13.1544424187
 30
0.0
 10
15.8282151074
 20
13.1554235079
 30
0.0
 10
15.8266955802
 20
13.1559389121
 30
0.0
 10
15.8251660412
 20
13.1562492402
 30
0.0
 10
15.8241395203
 20
13.1563185201
 30
0.0
 10
15.8236307272
 20
13.1563185215
 30
0.0
  0
SPLINE
  5
2EA
100
AcDbEntity
  8
LAYER_CUT_FEAT
100
AcDbSpline
 62
7
  6
CONTINUOUS
 70
0
 71
3
 72
18
 73
14
 74
0
 42
0.0000001
 43
0.0000001
 44
0.0000000001
 40
0.0
 40
0.0
 40
0.0
 40
0.0
 40
0.1719003462
 40
0.331082184
 40
0.4763635247
 40
0.6070458821
 40
0.6669065786
 40
0.723180784
 40
0.8255288256
 40
0.8722671128
 40
0.9165480271
 40
0.9589114381
 40
1.0
 40
1.0
 40
1.0
 40
1.0
 10
15.6845050002
 20
13.1341298944
 30
0.0
 10
15.6838883753
 20
13.1364467394
 30
0.0
 10
15.6825676485
 20
13.1408754306
 30
0.0
 10
15.6802231386
 20
13.1470986754
 30
0.0
 10
15.6776157429
 20
13.1525876979
 30
0.0
 10
15.6751839543
 20
13.1566039068
 30
0.0
 10
15.673119242
 20
13.1593621018
 30
0.0
 10
15.6711205843
 20
13.1616638211
 30
0.0
 10
15.6689855131
 20
13.1636031569
 30
0.0
 10
15.6667185217
 20
13.165073463
 30
0.0
 10
15.6650443949
 20
13.1658960315
 30
0.0
 10
15.6633515041
 20
13.1664674578
 30
0.0
 10
15.6622023504
 20
13.1666807621
 30
0.0
 10
15.6616326708
 20
13.1667429437
 30
0.0
  0
SPLINE
  5
2EB
100
AcDbEntity
  8
LAYER_CUT_FEAT
100
AcDbSpline
 62
7
  6
CONTINUOUS
 70
0
 71
3
 72
11
 73
7
 74
0
 42
0.0000001
 43
0.0000001
 44
0.0000000001
 40
0.0
 40
0.0
 40
0.0
 40
0.0
 40
0.2680591826
 40
0.5287406502
 40
0.7748580708
 40
1.0
 40
1.0
 40
1.0
 40
1.0
 10
15.6224444639
 20
13.1987215491
 30
0.0
 10
15.6224481945
 20
13.2009664543
 30
0.0
 10
15.6222995946
 20
13.205396366
 30
0.0
 10
15.6216136982
 20
13.2118552347
 30
0.0
 10
15.6204895167
 20
13.2178875552
 30
0.0
 10
15.6194173408
 20
13.2216942511
 30
0.0
 10
15.6187999856
 20
13.2234758083
 30
0.0
  0
SPLINE
  5
2EC
100
AcDbEntity
  8
LAYER_CUT_FEAT
100
AcDbSpline
 62
7
  6
CONTINUOUS
 70
0
 71
3
 72
12
 73
8
 74
0
 42
0.0000001
 43
0.0000001
 44
0.0000000001
 40
0.0
 40
0.0
 40
0.0
 40
0.0
 40
0.2530235411
 40
0.516838544
 40
0.7718993832
 40
0.8903605428
 40
1.0
 40
1.0
 40
1.0
 40
1.0
 10
15.6122254997
 20
13.2491786832
 30
0.0
 10
15.612097148
 20
13.2485156935
 30
0.0
 10
15.6119309992
 20
13.2471419054
 30
0.0
 10
15.6119189607
 20
13.2450781379
 30
0.0
 10
15.6121021939
 20
13.2433820521
 30
0.0
 10
15.6123701749
 20
13.2421197838
 30
0.0
 10
15.6125420642
 20
13.2415348518
 30
0.0
 10
15.6126378747
 20
13.2412583627
 30
0.0
  0
SPLINE
  5
2ED
100
AcDbEntity
  8
LAYER_CUT_FEAT
100
AcDbSpline
 62
7
  6
CONTINUOUS
 70
0
 71
3
 72
11
 73
7
 74
0
 42
0.0000001
 43
0.0000001
 44
0.0000000001
 40
0.0
 40
0.0
 40
0.0
 40
0.0
 40
0.263724375
 40
0.5230195497
 40
0.7706543571
 40
1.0
 40
1.0
 40
1.0
 40
1.0
 10
15.6424210614
 20
13.2917035067
 30
0.0
 10
15.6424861161
 20
13.2939544388
 30
0.0
 10
15.642456349
 20
13.2984246467
 30
0.0
 10
15.641944898
 20
13.304990888
 30
0.0
 10
15.6409843216
 20
13.3112100478
 30
0.0
 10
15.6400216324
 20
13.3151748744
 30
0.0
 10
15.6394578967
 20
13.3170503008
 30
0.0
  0
SPLINE
  5
2EE
100
AcDbEntity
  8
LAYER_CUT_FEAT
100
AcDbSpline
 62
7
  6
CONTINUOUS
 70
0
 71
3
 72
11
 73
7
 74
0
 42
0.0000001
 43
0.0000001
 44
0.0000000001
 40
0.0
 40
0.0
 40
0.0
 40
0.0
 40
0.2464153233
 40
0.5080207798
 40
0.7654787318
 40
1.0
 40
1.0
 40
1.0
 40
1.0
 10
15.6335976305
 20
13.3438682518
 30
0.0
 10
15.633450164
 20
13.3432236723
 30
0.0
 10
15.6332469561
 20
13.3418709793
 30
0.0
 10
15.633180747
 20
13.3398138465
 30
0.0
 10
15.6333435602
 20
13.3377941637
 30
0.0
 10
15.6336126905
 20
13.336496034
 30
0.0
 10
15.6337938498
 20
13.3358933562
 30
0.0
  0
SPLINE
  5
2EF
100
AcDbEntity
  8
LAYER_CHAMFER_FEAT
100
AcDbSpline
 62
7
  6
CONTINUOUS
 70
0
 71
3
 72
18
 73
14
 74
0
 42
0.0000001
 43
0.0000001
 44
0.0000000001
 40
0.0
 40
0.0
 40
0.0
 40
0.0
 40
0.1468708
 40
0.2858632096
 40
0.4175534705
 40
0.4809089401
 40
0.5427399279
 40
0.6622981628
 40
0.7774238484
 40
0.8337645259
 40
0.8895134293
 40
0.9448602694
 40
1.0
 40
1.0
 40
1.0
 40
1.0
 10
15.8808939378
 20
11.6498779694
 30
0.0
 10
15.8753809586
 20
11.6437757584
 30
0.0
 10
15.8642454664
 20
11.6322542504
 30
0.0
 10
15.8467292864
 20
11.6167321627
 30
0.0
 10
15.8316900928
 20
11.6055635118
 30
0.0
 10
15.8195437925
 20
11.5978495893
 30
0.0
 10
15.8076152129
 20
11.5910936535
 30
0.0
 10
15.792539157
 20
11.5840557235
 30
0.0
 10
15.7770368165
 20
11.5788985183
 30
0.0
 10
15.7646366224
 20
11.5760212858
 30
0.0
 10
15.7553820383
 20
11.5744808692
 30
0.0
 10
15.7461150621
 20
11.5735447223
 30
0.0
 10
15.7399273509
 20
11.5733236135
 30
0.0
 10
15.7368399251
 20
11.5733140356
 30
0.0
  0
SPLINE
  5
2F0
100
AcDbEntity
  8
LAYER_CUT_FEAT
100
AcDbSpline
 62
7
  6
CONTINUOUS
 70
0
 71
3
 72
11
 73
7
 74
0
 42
0.0000001
 43
0.0000001
 44
0.0000000001
 40
0.0
 40
0.0
 40
0.0
 40
0.0
 40
0.2594865828
 40
0.5174064371
 40
0.7665117068
 40
1.0
 40
1.0
 40
1.0
 40
1.0
 10
15.6648748008
 20
13.3808805586
 30
0.0
 10
15.6650015286
 20
13.3831265173
 30
0.0
 10
15.6650920445
 20
13.387615529
 30
0.0
 10
15.664757602
 20
13.3942576441
 30
0.0
 10
15.663965442
 20
13.4006340172
 30
0.0
 10
15.6631155564
 20
13.4047370802
 30
0.0
 10
15.6626073859
 20
13.4066964007
 30
0.0
  0
SPLINE
  5
2F1
100
AcDbEntity
  8
LAYER_CUT_FEAT
100
AcDbSpline
 62
7
  6
CONTINUOUS
 70
0
 71
3
 72
11
 73
7
 74
0
 42
0.0000001
 43
0.0000001
 44
0.0000000001
 40
0.0
 40
0.0
 40
0.0
 40
0.0
 40
0.2398219562
 40
0.4991470279
 40
0.7589131308
 40
1.0
 40
1.0
 40
1.0
 40
1.0
 10
15.6574898899
 20
13.4344987735
 30
0.0
 10
15.6573236262
 20
13.4338760116
 30
0.0
 10
15.6570837253
 20
13.4325508857
 30
0.0
 10
15.6569638266
 20
13.4305105928
 30
0.0
 10
15.6570734389
 20
13.4284663119
 30
0.0
 10
15.657306321
 20
13.427135377
 30
0.0
 10
15.6574689976
 20
13.4265081556
 30
0.0
  0
SPLINE
  5
2F2
100
AcDbEntity
  8
0
100
AcDbSpline
 62
7
  6
CONTINUOUS
 70
0
 71
3
 72
11
 73
7
 74
0
 42
0.0000001
 43
0.0000001
 44
0.0000000001
 40
0.0
 40
0.0
 40
0.0
 40
0.0
 40
0.2553250409
 40
0.5118768144
 40
0.7624153647
 40
1.0
 40
1.0
 40
1.0
 40
1.0
 10
15.6896962895
 20
13.4658182434
 30
0.0
 10
15.689884747
 20
13.4680481964
 30
0.0
 10
15.6900963909
 20
13.4725343235
 30
0.0
 10
15.6899406339
 20
13.4792204005
 30
0.0
 10
15.6893208664
 20
13.4857234982
 30
0.0
 10
15.688586591
 20
13.4899443588
 30
0.0
 10
15.6881356711
 20
13.4919773612
 30
0.0
  0
SPLINE
  5
2F3
100
AcDbEntity
  8
0
100
AcDbSpline
 62
7
  6
CONTINUOUS
 70
0
 71
3
 72
11
 73
7
 74
0
 42
0.0000001
 43
0.0000001
 44
0.0000000001
 40
0.0
 40
0.0
 40
0.0
 40
0.0
 40
0.2332605325
 40
0.4902697556
 40
0.7523106374
 40
1.0
 40
1.0
 40
1.0
 40
1.0
 10
15.6837858772
 20
13.5206287055
 30
0.0
 10
15.6836012133
 20
13.520031133
 30
0.0
 10
15.6833251862
 20
13.5187400469
 30
0.0
 10
15.68315223
 20
13.5167261871
 30
0.0
 10
15.6832080634
 20
13.5146669242
 30
0.0
 10
15.683404163
 20
13.5133096811
 30
0.0
 10
15.6835479751
 20
13.5126612947
 30
0.0
  0
SPLINE
  5
2F4
100
AcDbEntity
  8
LAYER_CUT_FEAT
100
AcDbSpline
 62
7
  6
CONTINUOUS
 70
0
 71
3
 72
40
 73
36
 74
0
 42
0.0000001
 43
0.0000001
 44
0.0000000001
 40
0.0
 40
0.0
 40
0.0
 40
0.0
 40
0.0475561098
 40
0.0938221396
 40
0.1387493252
 40
0.1822941027
 40
0.2244187895
 40
0.2650921671
 40
0.3042902461
 40
0.3419971163
 40
0.3782059472
 40
0.4129201475
 40
0.4461547091
 40
0.4779377506
 40
0.508312259
 40
0.5373380018
 40
0.5650935305
 40
0.5785276706
 40
0.5916833723
 40
0.6172186663
 40
0.6418495939
 40
0.6657441763
 40
0.6890916782
 40
0.7120987894
 40
0.7349838297
 40
0.7579694471
 40
0.7812747174
 40
0.8051077389
 40
0.8296596636
 40
0.85510068
 40
0.8815779888
 40
0.9092154542
 40
0.9381144567
 40
0.9683554726
 40
1.0
 40
1.0
 40
1.0
 40
1.0
 10
16.5833034388
 20
11.629519056
 30
0.0
 10
16.578588347
 20
11.6142610131
 30
0.0
 10
16.5689265633
 20
11.5842683074
 30
0.0
 10
16.5535128551
 20
11.5402923924
 30
0.0
 10
16.5373983072
 20
11.4980061547
 30
0.0
 10
16.5206110153
 20
11.4574832993
 30
0.0
 10
16.5031800796
 20
11.4187939937
 30
0.0
 10
16.4851356715
 20
11.3820052523
 30
0.0
 10
16.4665089259
 20
11.3471806946
 30
0.0
 10
16.4473318585
 20
11.3143804698
 30
0.0
 10
16.427637264
 20
11.2836611565
 30
0.0
 10
16.4074586178
 20
11.2550757034
 30
0.0
 10
16.3868299197
 20
11.22867336
 30
0.0
 10
16.3657857118
 20
11.2044997807
 30
0.0
 10
16.3443604871
 20
11.1825967236
 30
0.0
 10
16.3225903049
 20
11.1630034137
 30
0.0
 10
16.3039904296
 20
11.1484736352
 30
0.0
 10
16.2889809397
 20
11.1380846107
 30
0.0
 10
16.2742005409
 20
11.1286999092
 30
0.0
 10
16.2555578935
 20
11.1184129077
 30
0.0
 10
16.2327634942
 20
11.1083776931
 30
0.0
 10
16.2098075617
 20
11.1007972572
 30
0.0
 10
16.1867331423
 20
11.0956913638
 30
0.0
 10
16.1635850606
 20
11.0930740754
 30
0.0
 10
16.1404106005
 20
11.0929531516
 30
0.0
 10
16.1172578802
 20
11.0953289499
 30
0.0
 10
16.0941742889
 20
11.1001944281
 30
0.0
 10
16.0712051026
 20
11.1075359731
 30
0.0
 10
16.0483928543
 20
11.1173347218
 30
0.0
 10
16.0257774577
 20
11.1295677982
 30
0.0
 10
16.0033967762
 20
11.1442091538
 30
0.0
 10
15.9812873875
 20
11.1612298177
 30
0.0
 10
15.9594848671
 20
11.1805982154
 30
0.0
 10
15.9380252664
 20
11.2022786368
 30
0.0
 10
15.9242870968
 20
11.2178889392
 30
0.0
 10
15.9174775575
 20
11.2260471181
 30
0.0
  0
SPLINE
  5
2F5
100
AcDbEntity
  8
LAYER_CHAMFER_FEAT
100
AcDbSpline
 62
7
  6
CONTINUOUS
 70
0
 71
3
 72
18
 73
14
 74
0
 42
0.0000001
 43
0.0000001
 44
0.0000000001
 40
0.0
 40
0.0
 40
0.0
 40
0.0
 40
0.0551352276
 40
0.110477307
 40
0.1662214057
 40
0.2225575096
 40
0.3376753905
 40
0.4572289737
 40
0.5190591834
 40
0.5824151399
 40
0.7141101951
 40
0.8531130021
 40
1.0
 40
1.0
 40
1.0
 40
1.0
 10
15.7368165772
 20
13.4481127271
 30
0.0
 10
15.7399059099
 20
13.4481036378
 30
0.0
 10
15.7460974661
 20
13.4478833184
 30
0.0
 10
15.7553702344
 20
13.4469475073
 30
0.0
 10
15.764630614
 20
13.4454067527
 30
0.0
 10
15.7770385957
 20
13.4425279383
 30
0.0
 10
15.7925507255
 20
13.4373668604
 30
0.0
 10
15.8076359357
 20
13.430322717
 30
0.0
 10
15.8195716603
 20
13.4235605087
 30
0.0
 10
15.8317253597
 20
13.4158389973
 30
0.0
 10
15.8467735685
 20
13.4046590153
 30
0.0
 10
15.8642997522
 20
13.3891208751
 30
0.0
 10
15.8754411676
 20
13.3775874331
 30
0.0
 10
15.8809570415
 20
13.3714788687
 30
0.0
  0
SPLINE
  5
2F6
100
AcDbEntity
  8
LAYER_CUT_FEAT
100
AcDbSpline
 62
7
  6
CONTINUOUS
 70
0
 71
3
 72
52
 73
48
 74
0
 42
0.0000001
 43
0.0000001
 44
0.0000000001
 40
0.0
 40
0.0
 40
0.0
 40
0.0
 40
0.0076944722
 40
0.015441426
 40
0.0232920381
 40
0.0312950014
 40
0.039495573
 40
0.0479349007
 40
0.0566496338
 40
0.0656717829
 40
0.0750287761
 40
0.0847436534
 40
0.0948353435
 40
0.1053189887
 40
0.1162062802
 40
0.1275057852
 40
0.1392232536
 40
0.1513618985
 40
0.1639226457
 40
0.1769043612
 40
0.1903040505
 40
0.204117034
 40
0.2183371013
 40
0.2329566468
 40
0.2479667879
 40
0.2633574737
 40
0.2791175816
 40
0.2952350038
 40
0.3284873532
 40
0.3630024244
 40
0.3986549506
 40
0.435310001
 40
0.4728245295
 40
0.5110487949
 40
0.5498277017
 40
0.5890020587
 40
0.6284098012
 40
0.6678871894
 40
0.7072699834
 40
0.7463946216
 40
0.7850994002
 40
0.823225668
 40
0.8606190616
 40
0.8971307728
 40
0.9326188844
 40
0.9669498037
 40
1.0
 40
1.0
 40
1.0
 40
1.0
 10
16.1392707202
 20
13.9157133357
 30
0.0
 10
16.1456636242
 20
13.915713335
 30
0.0
 10
16.158500436
 20
13.9151341452
 30
0.0
 10
16.1777011868
 20
13.9125323453
 30
0.0
 10
16.1968506149
 20
13.9082012585
 30
0.0
 10
16.2159212578
 20
13.9021483885
 30
0.0
 10
16.2348892535
 20
13.8943836589
 30
0.0
 10
16.2537309766
 20
13.8849190256
 30
0.0
 10
16.2724238067
 20
13.8737682128
 30
0.0
 10
16.2909456796
 20
13.8609465669
 30
0.0
 10
16.3092749771
 20
13.8464710143
 30
0.0
 10
16.3273903689
 20
13.8303600865
 30
0.0
 10
16.345270746
 20
13.8126339852
 30
0.0
 10
16.362895174
 20
13.7933146301
 30
0.0
 10
16.3802428937
 20
13.7724257075
 30
0.0
 10
16.3972933428
 20
13.7499927043
 30
0.0
 10
16.4140261902
 20
13.7260429257
 30
0.0
 10
16.4304213742
 20
13.7006054984
 30
0.0
 10
16.4464591552
 20
13.673711366
 30
0.0
 10
16.4621201489
 20
13.6453932605
 30
0.0
 10
16.4773853651
 20
13.6156856686
 30
0.0
 10
16.4922362454
 20
13.5846247947
 30
0.0
 10
16.5066546976
 20
13.5522485194
 30
0.0
 10
16.5206231212
 20
13.5185963582
 30
0.0
 10
16.5341244588
 20
13.4837094058
 30
0.0
 10
16.5471421648
 20
13.4476303286
 30
0.0
 10
16.5596604326
 20
13.4104031237
 30
0.0
 10
16.5758326643
 20
13.358760083
 30
0.0
 10
16.5946424688
 20
13.2916313712
 30
0.0
 10
16.6147647124
 20
13.2080769667
 30
0.0
 10
16.6325672665
 20
13.1211108494
 30
0.0
 10
16.6479624835
 20
13.0311586738
 30
0.0
 10
16.6608745833
 20
12.93865966
 30
0.0
 10
16.6712399847
 20
12.8440661931
 30
0.0
 10
16.6790076091
 20
12.7478410113
 30
0.0
 10
16.6841391645
 20
12.6504550266
 30
0.0
 10
16.6866093817
 20
12.552384931
 30
0.0
 10
16.6864060788
 20
12.4541108258
 30
0.0
 10
16.6835302424
 20
12.3561138269
 30
0.0
 10
16.6779960682
 20
12.258873671
 30
0.0
 10
16.6698308259
 20
12.1628663216
 30
0.0
 10
16.6590747379
 20
12.0685616114
 30
0.0
 10
16.6457808074
 20
11.9764208185
 30
0.0
 10
16.630014549
 20
11.8868945957
 30
0.0
 10
16.6118534072
 20
11.8004198461
 30
0.0
 10
16.5913872391
 20
11.7174204384
 30
0.0
 10
16.5759619024
 20
11.6635867669
 30
0.0
 10
16.5678545428
 20
11.6373513416
 30
0.0
  0
SPLINE
  5
2F7
100
AcDbEntity
  8
LAYER_CUT_FEAT
100
AcDbSpline
 62
7
  6
CONTINUOUS
 70
0
 71
3
 72
27
 73
23
 74
0
 42
0.0000001
 43
0.0000001
 44
0.0000000001
 40
0.0
 40
0.0
 40
0.0
 40
0.0
 40
0.0212790542
 40
0.0426518993
 40
0.0642108096
 40
0.0860451152
 40
0.1082399803
 40
0.1308753886
 40
0.1540253951
 40
0.1777576868
 40
0.2271890436
 40
0.2795994928
 40
0.3352983092
 40
0.3945053804
 40
0.4573632516
 40
0.5239487469
 40
0.5942831645
 40
0.6683407273
 40
0.7460556598
 40
0.8273279556
 40
0.9120276054
 40
1.0
 40
1.0
 40
1.0
 40
1.0
 10
16.1392707202
 20
11.1057133582
 30
0.0
 10
16.1444027569
 20
11.1057133577
 30
0.0
 10
16.1546932935
 20
11.1060857483
 30
0.0
 10
16.170101448
 20
11.1077597222
 30
0.0
 10
16.1854840449
 20
11.1105477598
 30
0.0
 10
16.2008270847
 20
11.1144469651
 30
0.0
 10
16.2161181886
 20
11.1194535285
 30
0.0
 10
16.2313447663
 20
11.1255626051
 30
0.0
 10
16.2464950991
 20
11.1327687305
 30
0.0
 10
16.2668514929
 20
11.1439816109
 30
0.0
 10
16.2920817145
 20
11.1608507139
 30
0.0
 10
16.3214230285
 20
11.1850762167
 30
0.0
 10
16.3501600737
 20
11.2134736895
 30
0.0
 10
16.3782089941
 20
11.2459494898
 30
0.0
 10
16.40549046
 20
11.282402316
 30
0.0
 10
16.4319239068
 20
11.3227189927
 30
0.0
 10
16.4574299458
 20
11.3667748194
 30
0.0
 10
16.4819306802
 20
11.4144331704
 30
0.0
 10
16.5053504092
 20
11.4655457586
 30
0.0
 10
16.5276161603
 20
11.519953241
 30
0.0
 10
16.5486580418
 20
11.5774846574
 30
0.0
 10
16.5615902811
 20
11.6170801833
 30
0.0
 10
16.5678545428
 20
11.6373513416
 30
0.0
  0
SPLINE
  5
2F8
100
AcDbEntity
  8
LAYER_CUT_FEAT
100
AcDbSpline
 62
7
  6
CONTINUOUS
 70
0
 71
3
 72
22
 73
18
 74
0
 42
0.0000001
 43
0.0000001
 44
0.0000000001
 40
0.0
 40
0.0
 40
0.0
 40
0.0
 40
0.0350538516
 40
0.0715736997
 40
0.1108203811
 40
0.153741006
 40
0.2009636841
 40
0.2528452023
 40
0.3095286058
 40
0.3709922548
 40
0.4370869687
 40
0.5075632153
 40
0.5820911345
 40
0.6602758262
 40
0.7416691989
 40
0.8257806514
 40
1.0
 40
1.0
 40
1.0
 40
1.0
 10
15.7636957972
 20
11.8267343877
 30
0.0
 10
15.7645580412
 20
11.8267343967
 30
0.0
 10
15.76632451
 20
11.8269385937
 30
0.0
 10
15.7689161725
 20
11.8278420203
 30
0.0
 10
15.7714495652
 20
11.8293242774
 30
0.0
 10
15.7739074335
 20
11.8313643707
 30
0.0
 10
15.7762773042
 20
11.8339428744
 30
0.0
 10
15.7785453239
 20
11.8370396788
 30
0.0
 10
15.7806968478
 20
11.840631946
 30
0.0
 10
15.7827167646
 20
11.8446931988
 30
0.0
 10
15.7845902172
 20
11.8491931439
 30
0.0
 10
15.7863030402
 20
11.8540978246
 30
0.0
 10
15.787842095
 20
11.8593699264
 30
0.0
 10
15.7891954464
 20
11.8649690536
 30
0.0
 10
15.7903526584
 20
11.8708523374
 30
0.0
 10
15.7916366577
 20
11.8791110947
 30
0.0
 10
15.7922546796
 20
11.8854427765
 30
0.0
 10
15.7925249761
 20
11.8897196384
 30
0.0
  0
SPLINE
  5
2F9
100
AcDbEntity
  8
LAYER_CUT_FEAT
100
AcDbSpline
 62
7
  6
CONTINUOUS
 70
0
 71
3
 72
29
 73
25
 74
0
 42
0.0000001
 43
0.0000001
 44
0.0000000001
 40
0.0
 40
0.0
 40
0.0
 40
0.0
 40
0.0154976396
 40
0.0313635212
 40
0.0479353239
 40
0.0654988163
 40
0.0842789688
 40
0.1044410576
 40
0.1260972589
 40
0.1493148444
 40
0.1741239666
 40
0.2005241971
 40
0.2284899105
 40
0.2579745865
 40
0.3212167282
 40
0.3895870568
 40
0.4622284363
 40
0.5381548128
 40
0.6162888124
 40
0.6954950719
 40
0.7746107164
 40
0.8524751768
 40
0.9279595885
 40
1.0
 40
1.0
 40
1.0
 40
1.0
 10
15.9097450005
 20
12.0142660477
 30
0.0
 10
15.9103881617
 20
12.0142660401
 30
0.0
 10
15.91169233
 20
12.014377685
 30
0.0
 10
15.9136267266
 20
12.0148760569
 30
0.0
 10
15.9155391222
 20
12.0157009477
 30
0.0
 10
15.917420397
 20
12.0168457985
 30
0.0
 10
15.919263713
 20
12.0183035998
 30
0.0
 10
15.9210624568
 20
12.0200670159
 30
0.0
 10
15.9228101124
 20
12.0221281332
 30
0.0
 10
15.9245000361
 20
12.0244781454
 30
0.0
 10
15.9261255375
 20
12.027107159
 30
0.0
 10
15.9276799567
 20
12.0300040922
 30
0.0
 10
15.9291568865
 20
12.0331566903
 30
0.0
 10
15.9310587628
 20
12.0377921484
 30
0.0
 10
15.9331780988
 20
12.0441415649
 30
0.0
 10
15.9352673398
 20
12.0523630647
 30
0.0
 10
15.9369224433
 20
12.0612184068
 30
0.0
 10
15.9381144151
 20
12.0705556953
 30
0.0
 10
15.9388223193
 20
12.0802149555
 30
0.0
 10
15.9390336545
 20
12.0900300262
 30
0.0
 10
15.9387447232
 20
12.0998319113
 30
0.0
 10
15.937960589
 20
12.1094520207
 30
0.0
 10
15.9366951453
 20
12.118724426
 30
0.0
 10
15.935512474
 20
12.1247362814
 30
0.0
 10
15.9348368837
 20
12.1276486691
 30
0.0
  0
SPLINE
  5
2FA
100
AcDbEntity
  8
LAYER_CUT_FEAT
100
AcDbSpline
 62
7
  6
CONTINUOUS
 70
0
 71
3
 72
27
 73
23
 74
0
 42
0.0000001
 43
0.0000001
 44
0.0000000001
 40
0.0
 40
0.0
 40
0.0
 40
0.0
 40
0.0215801181
 40
0.0432493401
 40
0.0650954177
 40
0.0872034867
 40
0.1096549353
 40
0.1325264949
 40
0.155889563
 40
0.1798097192
 40
0.2295360644
 40
0.2821287068
 40
0.3378975612
 40
0.3970682519
 40
0.4597928586
 40
0.5261603719
 40
0.5962061948
 40
0.669920145
 40
0.7472531005
 40
0.8281225716
 40
0.912416856
 40
1.0
 40
1.0
 40
1.0
 40
1.0
 10
16.1508760887
 20
14.078713347
 30
0.0
 10
16.1453335351
 20
14.0787133475
 30
0.0
 10
16.1342216548
 20
14.0783242349
 30
0.0
 10
16.1175817401
 20
14.076575044
 30
0.0
 10
16.1009675447
 20
14.0736616135
 30
0.0
 10
16.0843932143
 20
14.0695866562
 30
0.0
 10
16.0678712518
 20
14.06435393
 30
0.0
 10
16.0514143982
 20
14.0579681779
 30
0.0
 10
16.0350345618
 20
14.0504346284
 30
0.0
 10
16.0130321874
 20
14.0387182721
 30
0.0
 10
15.9857410714
 20
14.0210898717
 30
0.0
 10
15.953946723
 20
13.9957456382
 30
0.0
 10
15.9227654129
 20
13.9660218842
 30
0.0
 10
15.8922826638
 20
13.9320111928
 30
0.0
 10
15.8625792992
 20
13.8938134159
 30
0.0
 10
15.8337373194
 20
13.8515399769
 30
0.0
 10
15.8058376543
 20
13.8053135086
 30
0.0
 10
15.7789599604
 20
13.7552683103
 30
0.0
 10
15.7531818271
 20
13.7015502291
 30
0.0
 10
15.7285783363
 20
13.6443160374
 30
0.0
 10
15.7052217568
 20
13.583734172
 30
0.0
 10
15.6907943038
 20
13.5420035768
 30
0.0
 10
15.6837858772
 20
13.5206287055
 30
0.0
  0
SPLINE
  5
2FB
100
AcDbEntity
  8
LAYER_CUT_FEAT
100
AcDbSpline
 62
7
  6
CONTINUOUS
 70
0
 71
3
 72
51
 73
47
 74
0
 42
0.0000001
 43
0.0000001
 44
0.0000000001
 40
0.0
 40
0.0
 40
0.0
 40
0.0
 40
0.0373036296
 40
0.0753655455
 40
0.1140643608
 40
0.1532746448
 40
0.1928679895
 40
0.2327137674
 40
0.2726798971
 40
0.3126336103
 40
0.352442209
 40
0.3919738261
 40
0.4310981886
 40
0.4696873992
 40
0.5076167234
 40
0.5447654257
 40
0.5810176172
 40
0.616263184
 40
0.6503987731
 40
0.6833288791
 40
0.714967093
 40
0.7452374968
 40
0.7598402803
 40
0.7740783477
 40
0.7879459765
 40
0.8014384837
 40
0.8145523215
 40
0.827285175
 40
0.839636075
 40
0.8516055252
 40
0.8631956479
 40
0.8744103453
 40
0.88525547
 40
0.895739015
 40
0.9058713186
 40
0.9156652817
 40
0.9251365847
 40
0.934303891
 40
0.9431890273
 40
0.9518171182
 40
0.9602166474
 40
0.9684194105
 40
0.9764603319
 40
0.9843771286
 40
0.992209806
 40
1.0
 40
1.0
 40
1.0
 40
1.0
 10
15.5964502108
 20
13.1676927954
 30
0.0
 10
15.5910514634
 20
13.1376491995
 30
0.0
 10
15.581021655
 20
13.0767904526
 30
0.0
 10
15.5683680873
 20
12.9843048965
 30
0.0
 10
15.5579878458
 20
12.8899666596
 30
0.0
 10
15.5499218973
 20
12.7941454393
 30
0.0
 10
15.5442019053
 20
12.6972156566
 30
0.0
 10
15.5408503998
 20
12.5995564497
 30
0.0
 10
15.5398805216
 20
12.5015497502
 30
0.0
 10
15.5412961219
 20
12.4035788935
 30
0.0
 10
15.5450916056
 20
12.3060270654
 30
0.0
 10
15.55125206
 20
12.2092757932
 30
0.0
 10
15.5597532677
 20
12.1137034273
 30
0.0
 10
15.57056178
 20
12.0196836384
 30
0.0
 10
15.5836351428
 20
11.9275839328
 30
0.0
 10
15.5989219365
 20
11.8377641715
 30
0.0
 10
15.6163621327
 20
11.7505751488
 30
0.0
 10
15.6358872425
 20
11.6663571164
 30
0.0
 10
15.6574206447
 20
11.5854385679
 30
0.0
 10
15.6808780644
 20
11.5081342977
 30
0.0
 10
15.7061675256
 20
11.4347461616
 30
0.0
 10
15.7289518941
 20
11.3764089855
 30
0.0
 10
15.7480604218
 20
11.3319698812
 30
0.0
 10
15.7626145426
 20
11.3001933774
 30
0.0
 10
15.7775485148
 20
11.2696013252
 30
0.0
 10
15.792847954
 20
11.240223451
 30
0.0
 10
15.8084979401
 20
11.2120884033
 30
0.0
 10
15.8244832934
 20
11.18522357
 30
0.0
 10
15.8407885332
 20
11.1596551024
 30
0.0
 10
15.857397918
 20
11.1354078841
 30
0.0
 10
15.8742954638
 20
11.112505511
 30
0.0
 10
15.8914649556
 20
11.0909702667
 30
0.0
 10
15.9088899907
 20
11.0708231317
 30
0.0
 10
15.9265539956
 20
11.0520837855
 30
0.0
 10
15.9444402489
 20
11.0347706182
 30
0.0
 10
15.9625318839
 20
11.018900734
 30
0.0
 10
15.9808118843
 20
11.0044899676
 30
0.0
 10
15.9992630812
 20
10.9915529308
 30
0.0
 10
16.0178681075
 20
10.9801030356
 30
0.0
 10
16.0366093437
 20
10.9701525124
 30
0.0
 10
16.0554688046
 20
10.9617123684
 30
0.0
 10
16.0744281059
 20
10.9547923362
 30
0.0
 10
16.0934681831
 20
10.9494007802
 30
0.0
 10
16.1125699639
 20
10.9455445313
 30
0.0
 10
16.131711744
 20
10.9432286846
 30
0.0
 10
16.1445015292
 20
10.9427133606
 30
0.0
 10
16.1508760887
 20
10.942713356
 30
0.0
  0
SPLINE
  5
2FC
100
AcDbEntity
  8
0
100
AcDbSpline
 62
7
  6
CONTINUOUS
 70
0
 71
3
 72
14
 73
10
 74
0
 42
0.0000001
 43
0.0000001
 44
0.0000000001
 40
0.0
 40
0.0
 40
0.0
 40
0.0
 40
0.0858710022
 40
0.1774646854
 40
0.2792897418
 40
0.3942339669
 40
0.5237629857
 40
0.668260719
 40
1.0
 40
1.0
 40
1.0
 40
1.0
 10
15.6639345818
 20
13.4520461007
 30
0.0
 10
15.6638295145
 20
13.4520460986
 30
0.0
 10
15.663611286
 20
13.452013425
 30
0.0
 10
15.6632967628
 20
13.4518712914
 30
0.0
 10
15.6629944353
 20
13.4516413341
 30
0.0
 10
15.6627065469
 20
13.4513281584
 30
0.0
 10
15.6624350871
 20
13.4509357699
 30
0.0
 10
15.662082419
 20
13.4502826699
 30
0.0
 10
15.6618776824
 20
13.449733761
 30
0.0
 10
15.6617578418
 20
13.4493459567
 30
0.0
  0
SPLINE
  5
2FD
100
AcDbEntity
  8
0
100
AcDbSpline
 62
7
  6
CONTINUOUS
 70
0
 71
3
 72
12
 73
8
 74
0
 42
0.0000001
 43
0.0000001
 44
0.0000000001
 40
0.0
 40
0.0
 40
0.0
 40
0.0
 40
0.1085754297
 40
0.2189841424
 40
0.4515610979
 40
0.7094739881
 40
1.0
 40
1.0
 40
1.0
 40
1.0
 10
15.6777116418
 20
13.443448199
 30
0.0
 10
15.6779780798
 20
13.4434482024
 30
0.0
 10
15.6785162432
 20
13.4434868214
 30
0.0
 10
15.6796025303
 20
13.4437207462
 30
0.0
 10
15.6809662169
 20
13.4443250895
 30
0.0
 10
15.6825102204
 20
13.4454801551
 30
0.0
 10
15.6834343219
 20
13.4464673696
 30
0.0
 10
15.6838866978
 20
13.4470183976
 30
0.0
  0
SPLINE
  5
2FE
100
AcDbEntity
  8
LAYER_CUT_FEAT
100
AcDbSpline
 62
7
  6
CONTINUOUS
 70
0
 71
3
 72
14
 73
10
 74
0
 42
0.0000001
 43
0.0000001
 44
0.0000000001
 40
0.0
 40
0.0
 40
0.0
 40
0.0
 40
0.0832142553
 40
0.1728113383
 40
0.2736452862
 40
0.3886234964
 40
0.5190356514
 40
0.66499026
 40
1.0
 40
1.0
 40
1.0
 40
1.0
 10
15.639743802
 20
13.3625446536
 30
0.0
 10
15.639630441
 20
13.3625446519
 30
0.0
 10
15.6393937056
 20
13.3625062343
 30
0.0
 10
15.6390552119
 20
13.3623404122
 30
0.0
 10
15.638732084
 20
13.3620736762
 30
0.0
 10
15.6384266581
 20
13.3617118003
 30
0.0
 10
15.6381413495
 20
13.3612598643
 30
0.0
 10
15.6377754821
 20
13.3605103822
 30
0.0
 10
15.6375695897
 20
13.359884719
 30
0.0
 10
15.6374518703
 20
13.3594437859
 30
0.0
  0
SPLINE
  5
2FF
100
AcDbEntity
  8
LAYER_CUT_FEAT
100
AcDbSpline
 62
7
  6
CONTINUOUS
 70
0
 71
3
 72
14
 73
10
 74
0
 42
0.0000001
 43
0.0000001
 44
0.0000000001
 40
0.0
 40
0.0
 40
0.0
 40
0.0
 40
0.1046058668
 40
0.2115665128
 40
0.3230516994
 40
0.4409135642
 40
0.5666259002
 40
0.701286157
 40
1.0
 40
1.0
 40
1.0
 40
1.0
 10
15.6525219324
 20
13.3563280753
 30
0.0
 10
15.6528305791
 20
13.3563280781
 30
0.0
 10
15.6534559893
 20
13.3563801065
 30
0.0
 10
15.6543842495
 20
13.3566126076
 30
0.0
 10
15.6553026158
 20
13.3569976212
 30
0.0
 10
15.6562068776
 20
13.3575322618
 30
0.0
 10
15.6570939575
 20
13.358213443
 30
0.0
 10
15.658290758
 20
13.3593520675
 30
0.0
 10
15.6590886299
 20
13.3603609901
 30
0.0
 10
15.6595900484
 20
13.3610858366
 30
0.0
  0
SPLINE
  5
300
100
AcDbEntity
  8
LAYER_CUT_FEAT
100
AcDbSpline
 62
7
  6
CONTINUOUS
 70
0
 71
3
 72
62
 73
58
 74
0
 42
0.0000001
 43
0.0000001
 44
0.0000000001
 40
0.0
 40
0.0
 40
0.0
 40
0.0
 40
0.0114384101
 40
0.0223685527
 40
0.0328127613
 40
0.0428002715
 40
0.0523679222
 40
0.0615607294
 40
0.0704321938
 40
0.0790441683
 40
0.0874661117
 40
0.0957736157
 40
0.1040462197
 40
0.1123647082
 40
0.1208082329
 40
0.129451663
 40
0.1383634902
 40
0.1476044568
 40
0.1523660337
 40
0.1572287996
 40
0.1672765996
 40
0.177785518
 40
0.1887838063
 40
0.2002929135
 40
0.2123282156
 40
0.2248997096
 40
0.2380126455
 40
0.2516680848
 40
0.2658633873
 40
0.2805926307
 40
0.2958469711
 40
0.3116149536
 40
0.3278827803
 40
0.3446345428
 40
0.3618524259
 40
0.3795168873
 40
0.3976068183
 40
0.4160996879
 40
0.4349716743
 40
0.4541977866
 40
0.4737519763
 40
0.513734046
 40
0.5546940436
 40
0.5963956267
 40
0.6385946119
 40
0.6810416597
 40
0.7234848888
 40
0.7656724564
 40
0.8073551406
 40
0.8482889556
 40
0.8882378393
 40
0.9077729236
 40
0.9269783257
 40
0.9458280563
 40
0.9642971971
 40
0.9823619883
 40
1.0
 40
1.0
 40
1.0
 40
1.0
 10
15.9174775569
 20
13.7953795792
 30
0.0
 10
15.9242997217
 20
13.8035528627
 30
0.0
 10
15.938063532
 20
13.8191908083
 30
0.0
 10
15.959564828
 20
13.840906001
 30
0.0
 10
15.9814102409
 20
13.8603002938
 30
0.0
 10
16.0035635315
 20
13.8773377764
 30
0.0
 10
16.0259889263
 20
13.8919867076
 30
0.0
 10
16.0486496401
 20
13.9042179615
 30
0.0
 10
16.0715075815
 20
13.9140053538
 30
0.0
 10
16.0945225788
 20
13.9213258992
 30
0.0
 10
16.1176518067
 20
13.9261606693
 30
0.0
 10
16.14084967
 20
13.9284960501
 30
0.0
 10
16.1640684545
 20
13.9283250775
 30
0.0
 10
16.1872597397
 20
13.9256482627
 30
0.0
 10
16.2103759831
 20
13.9204735762
 30
0.0
 10
16.2333721465
 20
13.9128153178
 30
0.0
 10
16.256205009
 20
13.9026935071
 30
0.0
 10
16.2748768838
 20
13.8923285026
 30
0.0
 10
16.2896798684
 20
13.882877533
 30
0.0
 10
16.3047129151
 20
13.8724171722
 30
0.0
 10
16.3233405539
 20
13.8577930402
 30
0.0
 10
16.3451404672
 20
13.8380805924
 30
0.0
 10
16.3665928093
 20
13.8160509983
 30
0.0
 10
16.3876613339
 20
13.7917438276
 30
0.0
 10
16.4083113696
 20
13.7652012177
 30
0.0
 10
16.428508199
 20
13.7364692309
 30
0.0
 10
16.4482176546
 20
13.7055975535
 30
0.0
 10
16.4674061012
 20
13.6726395975
 30
0.0
 10
16.4860405942
 20
13.6376524301
 30
0.0
 10
16.5040889779
 20
13.6006967113
 30
0.0
 10
16.5215199878
 20
13.5618365986
 30
0.0
 10
16.5383033386
 20
13.5211396405
 30
0.0
 10
16.5544098036
 20
13.4786766566
 30
0.0
 10
16.569811286
 20
13.4345216104
 30
0.0
 10
16.5844808833
 20
13.3887514754
 30
0.0
 10
16.5983929459
 20
13.3414460932
 30
0.0
 10
16.6115231278
 20
13.2926880337
 30
0.0
 10
16.6238484488
 20
13.2425624264
 30
0.0
 10
16.6353472856
 20
13.1911568819
 30
0.0
 10
16.6459996202
 20
13.1385610456
 30
0.0
 10
16.6591455804
 20
13.0664371203
 30
0.0
 10
16.6732886777
 20
12.9739518045
 30
0.0
 10
16.6865047254
 20
12.8605458451
 30
0.0
 10
16.6959949597
 20
12.7446972912
 30
0.0
 10
16.7016925582
 20
12.6272157023
 30
0.0
 10
16.70355735
 20
12.5089207398
 30
0.0
 10
16.7015761961
 20
12.3906382917
 30
0.0
 10
16.6957630555
 20
12.2731941569
 30
0.0
 10
16.6861589134
 20
12.1574077271
 30
0.0
 10
16.6728313947
 20
12.0440881222
 30
0.0
 10
16.6585967491
 20
11.951690691
 30
0.0
 10
16.6453790856
 20
11.8796489403
 30
0.0
 10
16.6346749431
 20
11.8271225656
 30
0.0
 10
16.6231254845
 20
11.7757920029
 30
0.0
 10
16.610750783
 20
11.7257466682
 30
0.0
 10
16.597572664
 20
11.6770744024
 30
0.0
 10
16.5881504076
 20
11.6452038526
 30
0.0
 10
16.5833034388
 20
11.629519056
 30
0.0
  0
SPLINE
  5
301
100
AcDbEntity
  8
LAYER_CUT_FEAT
100
AcDbSpline
 62
7
  6
CONTINUOUS
 70
0
 71
3
 72
14
 73
10
 74
0
 42
0.0000001
 43
0.0000001
 44
0.0000000001
 40
0.0
 40
0.0
 40
0.0
 40
0.0
 40
0.080790831
 40
0.1686252964
 40
0.2686821501
 40
0.383839427
 40
0.5151698042
 40
0.662475492
 40
1.0
 40
1.0
 40
1.0
 40
1.0
 10
15.6180432074
 20
13.268927936
 30
0.0
 10
15.6179215075
 20
13.2689279471
 30
0.0
 10
15.6176659347
 20
13.2688832094
 30
0.0
 10
15.6173037598
 20
13.2686917558
 30
0.0
 10
15.616960506
 20
13.2683857695
 30
0.0
 10
15.6166385729
 20
13.2679721902
 30
0.0
 10
15.6163409131
 20
13.2674573947
 30
0.0
 10
15.6159649538
 20
13.2666074263
 30
0.0
 10
15.6157606394
 20
13.2659023134
 30
0.0
 10
15.61564725
 20
13.2654066857
 30
0.0
  0
SPLINE
  5
302
100
AcDbEntity
  8
LAYER_CUT_FEAT
100
AcDbSpline
 62
7
  6
CONTINUOUS
 70
0
 71
3
 72
15
 73
11
 74
0
 42
0.0000001
 43
0.0000001
 44
0.0000000001
 40
0.0
 40
0.0
 40
0.0
 40
0.0
 40
0.1007704217
 40
0.204455272
 40
0.3136731858
 40
0.4305687937
 40
0.556751077
 40
0.6933200835
 40
0.8409684261
 40
1.0
 40
1.0
 40
1.0
 40
1.0
 10
15.6297601543
 20
13.2649079245
 30
0.0
 10
15.6301110923
 20
13.2649079239
 30
0.0
 10
15.6308248089
 20
13.2649756468
 30
0.0
 10
15.631880357
 20
13.2652772145
 30
0.0
 10
15.6329207046
 20
13.2657752518
 30
0.0
 10
15.633940108
 20
13.2664648275
 30
0.0
 10
15.634934354
 20
13.2673409515
 30
0.0
 10
15.6358993321
 20
13.2683985008
 30
0.0
 10
15.6368306935
 20
13.2696318004
 30
0.0
 10
15.6374050747
 20
13.2705335752
 30
0.0
 10
15.6376868952
 20
13.2710103464
 30
0.0
  0
SPLINE
  5
303
100
AcDbEntity
  8
LAYER_CUT_FEAT
100
AcDbSpline
 62
7
  6
CONTINUOUS
 70
0
 71
3
 72
15
 73
11
 74
0
 42
0.0000001
 43
0.0000001
 44
0.0000000001
 40
0.0
 40
0.0
 40
0.0
 40
0.0
 40
0.0785715924
 40
0.1648467803
 40
0.264305828
 40
0.3797524477
 40
0.5120020366
 40
0.6605209734
 40
0.8238848963
 40
1.0
 40
1.0
 40
1.0
 40
1.0
 10
15.598938521
 20
13.1716520176
 30
0.0
 10
15.5988084338
 20
13.1716520176
 30
0.0
 10
15.5985336916
 20
13.1716003939
 30
0.0
 10
15.5981481592
 20
13.1713814081
 30
0.0
 10
15.5977855002
 20
13.1710337729
 30
0.0
 10
15.5974481295
 20
13.1705655996
 30
0.0
 10
15.5971397405
 20
13.1699848632
 30
0.0
 10
15.5968652845
 20
13.1693014791
 30
0.0
 10
15.5966297341
 20
13.1685277766
 30
0.0
 10
15.5965056314
 20
13.1679790656
 30
0.0
 10
15.5964502108
 20
13.1676927954
 30
0.0
  0
SPLINE
  5
304
100
AcDbEntity
  8
LAYER_CUT_FEAT
100
AcDbSpline
 62
7
  6
CONTINUOUS
 70
0
 71
3
 72
15
 73
11
 74
0
 42
0.0000001
 43
0.0000001
 44
0.0000000001
 40
0.0
 40
0.0
 40
0.0
 40
0.0
 40
0.0971172365
 40
0.1977276404
 40
0.3049055778
 40
0.4210438694
 40
0.5478239286
 40
0.6862885147
 40
0.8369760452
 40
1.0
 40
1.0
 40
1.0
 40
1.0
 10
15.6095372007
 20
13.1696331678
 30
0.0
 10
15.609930557
 20
13.1696331538
 30
0.0
 10
15.6107337644
 20
13.1697188175
 30
0.0
 10
15.6119165662
 20
13.1700989832
 30
0.0
 10
15.6130771504
 20
13.1707245876
 30
0.0
 10
15.6142081718
 20
13.171587946
 30
0.0
 10
15.6153043378
 20
13.1726816402
 30
0.0
 10
15.616360124
 20
13.1739981056
 30
0.0
 10
15.6173696474
 20
13.175528784
 30
0.0
 10
15.617984067
 20
13.1766424908
 30
0.0
 10
15.6182839481
 20
13.1772307655
 30
0.0
  0
SPLINE
  5
305
100
AcDbEntity
  8
LAYER_CUT_FEAT
100
AcDbSpline
 62
7
  6
CONTINUOUS
 70
0
 71
3
 72
14
 73
10
 74
0
 42
0.0000001
 43
0.0000001
 44
0.0000000001
 40
0.0
 40
0.0
 40
0.0
 40
0.0
 40
0.1187550664
 40
0.2376715486
 40
0.3576157317
 40
0.479426874
 40
0.6038970665
 40
0.7317540087
 40
1.0
 40
1.0
 40
1.0
 40
1.0
 10
15.72905911
 20
13.1479346761
 30
0.0
 10
15.7320532782
 20
13.1481620977
 30
0.0
 10
15.7380706222
 20
13.1483394431
 30
0.0
 10
15.7471070648
 20
13.1477605977
 30
0.0
 10
15.7561282833
 20
13.1463378034
 30
0.0
 10
15.7651198396
 20
13.1440739141
 30
0.0
 10
15.7740700141
 20
13.1409726804
 30
0.0
 10
15.7861194922
 20
13.135646477
 30
0.0
 10
15.7947764928
 20
13.1305151927
 30
0.0
 10
15.8003726193
 20
13.1266825434
 30
0.0
  0
ENDSEC
  0
SECTION
  2
OBJECTS
  0
DICTIONARY
  5
C
100
AcDbDictionary
280
0
281
1
  3
ACAD_GROUP
350
D
  3
ACAD_MLINESTYLE
350
17
  3
ACAD_LAYOUT
350
1A
  3
ACAD_PLOTSETTINGS
350
19
  3
ACAD_PLOTSTYLENAME
350
E
  0
DICTIONARY
  5
D
102
{ACAD_REACTORS
330
C
102
}
100
AcDbDictionary
280
0
281
1
  0
ACDBDICTIONARYWDFLT
  5
E
102
{ACAD_REACTORS
330
C
102
}
100
AcDbDictionary
281
1
  3
Normal
350
F
100
AcDbDictionaryWithDefault
340
F
  0
DICTIONARY
  5
17
102
{ACAD_REACTORS
330
C
102
}
100
AcDbDictionary
280
0
281
1
  3
Standard
350
18
  0
DICTIONARY
  5
19
102
{ACAD_REACTORS
330
C
102
}
100
AcDbDictionary
281
1
  0
DICTIONARY
  5
1A
102
{ACAD_REACTORS
330
C
102
}
100
AcDbDictionary
281
1
  3
Model
350
306
  3
Layout1
350
307
  0
ACDBPLACEHOLDER
  5
F
102
{ACAD_REACTORS
330
E
102
}
  0
MLINESTYLE
  5
18
102
{ACAD_REACTORS
330
17
102
}
100
AcDbMlineStyle
  2
STANDARD
 70
0
  3

 62
256
 51
90.0
 52
90.0
 71
2
 49
0.5
 62
256
  6
BYLAYER
 49
-0.5
 62
256
  6
BYLAYER
  0
LAYOUT
  5
306
102
{ACAD_REACTORS
330
1A
102
}
100
AcDbPlotSettings
  1

  2
none_device
  4
ANSI_C_(22.00_x_17.00_Inches)
  6

 40
0.0
 41
0.0
 42
0.0
 43
0.0
 44
558.8
 45
431.8
 46
0.0
 47
0.0
 48
0.0
 49
0.0
140
0.0
141
0.0
142
1.0
143
1.0
 70
1024
 72
0
 73
0
 74
0
  7

 75
0
147
1.0
148
0.0
149
0.0
100
AcDbLayout
  1
Model
 70
0
 71
0
 10
0.0
 20
0.0
 11
22.0
 21
17.0
 12
0.0
 22
0.0
 32
0.0
 14
0.0
 24
0.0
 34
0.0
 15
0.0
 25
0.0
 35
0.0
146
0.0
 13
0.0
 23
0.0
 33
0.0
 16
1.0
 26
0.0
 36
0.0
 17
0.0
 27
1.0
 37
0.0
 76
0
330
222
345
0
346
0
  0
LAYOUT
  5
307
102
{ACAD_REACTORS
330
1A
102
}
100
AcDbPlotSettings
  1

  2
none_device
  4
ANSI_C_(22.00_x_17.00_Inches)
  6

 40
0.0
 41
0.0
 42
0.0
 43
0.0
 44
558.8
 45
431.8
 46
0.0
 47
0.0
 48
0.0
 49
0.0
140
0.0
141
0.0
142
1.0
143
1.0
 70
0
 72
0
 73
0
 74
0
  7

 75
0
147
1.0
148
0.0
149
0.0
100
AcDbLayout
  1
Layout1
 70
0
 71
1
 10
0.0
 20
0.0
 11
22.0
 21
17.0
 12
0.0
 22
0.0
 32
0.0
 14
0.0
 24
0.0
 34
0.0
 15
0.0
 25
0.0
 35
0.0
146
0.0
 13
0.0
 23
0.0
 33
0.0
 16
1.0
 26
0.0
 36
0.0
 17
0.0
 27
1.0
 37
0.0
 76
0
330
223
345
0
346
0
  0
ENDSEC
  0
EOF