999
DXF file: _cgs_temp_output.dxf
999
Pro/ENGINEER 2015110 by Parametric Technology Corporation
  0
SECTION
  2
HEADER
  9
$ACADVER
  1
AC1021
  9
$DWGCODEPAGE
  3
ANSI_1252
  9
$EXTMAX
 10
22.0
 20
17.0
 30
0.0
  9
$EXTMIN
 10
0.0
 20
0.0
 30
0.0
  9
$LIMMIN
 10
0.0
 20
0.0
  9
$LIMMAX
 10
22.0
 20
17.0
  9
$VIEWCTR
 10
11.0
 20
8.5
  9
$VIEWSIZE
 40
17.0
  9
$CLAYER
  8
0
  9
$LTSCALE
 40
1.21
  9
$CELTYPE
  6
BYLAYER
  9
$DIMSCALE
 40
1.0
  9
$DIMASZ
 40
0.1875
  9
$DIMEXO
 40
0.0625
  9
$DIMDLI
 40
0.836
  9
$DIMEXE
 40
0.125
  9
$DIMCEN
 40
0.198
  9
$DIMLFAC
 40
1.0
  9
$DIMBLK
  1
_CLOSED
  9
$DIMALT
 70
0
  9
$DIMALTF
 40
25.4
  9
$DIMTXT
 40
0.15625
  9
$DIMTOL
 70
0
  9
$DIMLIM
 70
0
  9
$DIMTFAC
 40
1.0
  9
$DIMGAP
 40
0.09
  9
$DIMDSEP
 70
46
  9
$AUNITS
 70
0
  9
$PDMODE
 70
3
  9
$PDSIZE
 40
0.3125
  9
$HANDSEED
  5
2CD
  9
$TILEMODE
 70
1
  9
$MEASUREMENT
 70
0
  9
$INSUNITS
 70
1
  0
ENDSEC
  0
SECTION
  2
CLASSES
  0
CLASS
  1
ACDBDICTIONARYWDFLT
  2
AcDbDictionaryWithDefault
  3
AutoCAD 2000
 90
0
 91
1
280
0
281
0
  0
CLASS
  1
ACDBPLACEHOLDER
  2
AcDbPlaceHolder
  3
AutoCAD 2000
 90
0
 91
1
280
0
281
0
  0
CLASS
  1
LAYOUT
  2
AcDbLayout
  3
AutoCAD 2000
 90
0
 91
0
280
0
281
0
  0
ENDSEC
  0
SECTION
  2
TABLES
  0
TABLE
  2
VPORT
  5
8
100
AcDbSymbolTable
 70
2
  0
VPORT
  5
1F4
100
AcDbSymbolTableRecord
100
AcDbViewportTableRecord
  2
*ACTIVE
 70
0
 10
0.0
 20
0.0
 11
1.0
 21
1.0
 12
11.0
 22
8.5
 13
0.0
 23
0.0
 14
1.0
 24
1.0
 15
0.0
 25
0.0
 16
0.0
 26
0.0
 36
1.0
 17
0.0
 27
0.0
 37
0.0
 40
17.0
 41
1.2941176471
 42
50.0
 43
0.0
 44
0.0
 50
0.0
 51
0.0
 71
0
 72
100
 73
1
 74
1
 75
0
 76
0
 77
0
 78
0
  0
ENDTAB
  0
TABLE
  2
LTYPE
  5
5
100
AcDbSymbolTable
 70
6
  0
LTYPE
  5
14
100
AcDbSymbolTableRecord
100
AcDbLinetypeTableRecord
  2
BYBLOCK
 70
0
  3

 72
65
 73
0
 40
0.0
  0
LTYPE
  5
15
100
AcDbSymbolTableRecord
100
AcDbLinetypeTableRecord
  2
BYLAYER
 70
0
  3

 72
65
 73
0
 40
0.0
  0
LTYPE
  5
16
100
AcDbSymbolTableRecord
100
AcDbLinetypeTableRecord
  2
CONTINUOUS
 70
64
  3
Solid line
 72
65
 73
0
 40
0.0
  0
LTYPE
  5
1F5
100
AcDbSymbolTableRecord
100
AcDbLinetypeTableRecord
  2
CENTER
 70
64
  3
____ _ ____ _ ____ _ ____ _ ____ _ ____ _ ____
 72
65
 73
4
 40
0.6
 49
0.375
 74
0
 49
-0.075
 74
0
 49
0.075
 74
0
 49
-0.075
 74
0
  0
LTYPE
  5
1F6
100
AcDbSymbolTableRecord
100
AcDbLinetypeTableRecord
  2
HIDDEN
 70
64
  3
- - - - - - - - - - - - - - - - - - - -
 72
65
 73
2
 40
0.2
 49
0.1
 74
0
 49
-0.1
 74
0
  0
LTYPE
  5
1F7
100
AcDbSymbolTableRecord
100
AcDbLinetypeTableRecord
  2
PHANTOM
 70
64
  3
_____ _ _ _____ _ _ _____ _ _ _____
 72
65
 73
6
 40
0.8
 49
0.45
 74
0
 49
-0.05
 74
0
 49
0.1
 74
0
 49
-0.05
 74
0
 49
0.1
 74
0
 49
-0.05
 74
0
  0
LTYPE
  5
1F8
100
AcDbSymbolTableRecord
100
AcDbLinetypeTableRecord
  2
DOT
 70
64
  3
. . . . . . . . . . . . . . . . . . . .
 72
65
 73
2
 40
0.2
 49
0.1
 74
0
 49
-0.1
 74
0
  0
LTYPE
  5
1F9
100
AcDbSymbolTableRecord
100
AcDbLinetypeTableRecord
  2
DASHED
 70
64
  3
- - - - - - - - - - - - - - - - - - - -
 72
65
 73
2
 40
0.2
 49
0.1
 74
0
 49
-0.1
 74
0
  0
ENDTAB
  0
TABLE
  2
LAYER
  5
2
100
AcDbSymbolTable
 70
36
  0
LAYER
  5
10
100
AcDbSymbolTableRecord
100
AcDbLayerTableRecord
  2
0
 70
0
 62
7
  6
CONTINUOUS
370
-3
390
F
  0
LAYER
  5
1FA
100
AcDbSymbolTableRecord
100
AcDbLayerTableRecord
  2
DEFAULT_1
 70
0
 62
7
  6
CENTER
370
-3
390
F
  0
LAYER
  5
1FB
100
AcDbSymbolTableRecord
100
AcDbLayerTableRecord
  2
DEFAULT_2
 70
0
 62
8
  6
HIDDEN
370
-3
390
F
  0
LAYER
  5
1FC
100
AcDbSymbolTableRecord
100
AcDbLayerTableRecord
  2
DEFAULT_3
 70
0
 62
7
  6
PHANTOM
370
-3
390
F
  0
LAYER
  5
1FD
100
AcDbSymbolTableRecord
100
AcDbLayerTableRecord
  2
01_ALL_DTM_PLN
 70
0
 62
7
  6
CONTINUOUS
370
-3
390
F
  0
LAYER
  5
1FE
100
AcDbSymbolTableRecord
100
AcDbLayerTableRecord
  2
01__ASM_ALL_DTM_PLN
 70
0
 62
7
  6
CONTINUOUS
370
-3
390
F
  0
LAYER
  5
1FF
100
AcDbSymbolTableRecord
100
AcDbLayerTableRecord
  2
01__ASM_DEF_DTM_PLN
 70
0
 62
7
  6
CONTINUOUS
370
-3
390
F
  0
LAYER
  5
200
100
AcDbSymbolTableRecord
100
AcDbLayerTableRecord
  2
01___PRT_ALL_DTM_PLN
 70
0
 62
7
  6
CONTINUOUS
370
-3
390
F
  0
LAYER
  5
201
100
AcDbSymbolTableRecord
100
AcDbLayerTableRecord
  2
01___PRT_DEF_DTM_PLN
 70
0
 62
7
  6
CONTINUOUS
370
-3
390
F
  0
LAYER
  5
202
100
AcDbSymbolTableRecord
100
AcDbLayerTableRecord
  2
02_ALL_AXES
 70
0
 62
7
  6
CONTINUOUS
370
-3
390
F
  0
LAYER
  5
203
100
AcDbSymbolTableRecord
100
AcDbLayerTableRecord
  2
02__ASM_ALL_AXES
 70
0
 62
7
  6
CONTINUOUS
370
-3
390
F
  0
LAYER
  5
204
100
AcDbSymbolTableRecord
100
AcDbLayerTableRecord
  2
02___PRT_ALL_AXES
 70
0
 62
7
  6
CONTINUOUS
370
-3
390
F
  0
LAYER
  5
205
100
AcDbSymbolTableRecord
100
AcDbLayerTableRecord
  2
03_ALL_CURVES
 70
0
 62
7
  6
CONTINUOUS
370
-3
390
F
  0
LAYER
  5
206
100
AcDbSymbolTableRecord
100
AcDbLayerTableRecord
  2
03__ASM_ALL_CURVES
 70
0
 62
7
  6
CONTINUOUS
370
-3
390
F
  0
LAYER
  5
207
100
AcDbSymbolTableRecord
100
AcDbLayerTableRecord
  2
03___PRT_ALL_CURVES
 70
0
 62
7
  6
CONTINUOUS
370
-3
390
F
  0
LAYER
  5
208
100
AcDbSymbolTableRecord
100
AcDbLayerTableRecord
  2
04_ALL_DTM_PNT
 70
0
 62
7
  6
CONTINUOUS
370
-3
390
F
  0
LAYER
  5
209
100
AcDbSymbolTableRecord
100
AcDbLayerTableRecord
  2
04__ASM_ALL_DTM_PNT
 70
0
 62
7
  6
CONTINUOUS
370
-3
390
F
  0
LAYER
  5
20A
100
AcDbSymbolTableRecord
100
AcDbLayerTableRecord
  2
04___PRT_ALL_DTM_PNT
 70
0
 62
7
  6
CONTINUOUS
370
-3
390
F
  0
LAYER
  5
20B
100
AcDbSymbolTableRecord
100
AcDbLayerTableRecord
  2
05_ALL_DTM_CSYS
 70
0
 62
7
  6
CONTINUOUS
370
-3
390
F
  0
LAYER
  5
20C
100
AcDbSymbolTableRecord
100
AcDbLayerTableRecord
  2
05__ASM_ALL_DTM_CSYS
 70
0
 62
7
  6
CONTINUOUS
370
-3
390
F
  0
LAYER
  5
20D
100
AcDbSymbolTableRecord
100
AcDbLayerTableRecord
  2
05__ASM_DEF_DTM_CSYS
 70
0
 62
7
  6
CONTINUOUS
370
-3
390
F
  0
LAYER
  5
20E
100
AcDbSymbolTableRecord
100
AcDbLayerTableRecord
  2
05___PRT_ALL_DTM_CSYS
 70
0
 62
7
  6
CONTINUOUS
370
-3
390
F
  0
LAYER
  5
20F
100
AcDbSymbolTableRecord
100
AcDbLayerTableRecord
  2
05___PRT_DEF_DTM_CSYS
 70
0
 62
7
  6
CONTINUOUS
370
-3
390
F
  0
LAYER
  5
210
100
AcDbSymbolTableRecord
100
AcDbLayerTableRecord
  2
06_ALL_SURFS
 70
0
 62
7
  6
CONTINUOUS
370
-3
390
F
  0
LAYER
  5
211
100
AcDbSymbolTableRecord
100
AcDbLayerTableRecord
  2
06__ASM_ALL_SURFS
 70
0
 62
7
  6
CONTINUOUS
370
-3
390
F
  0
LAYER
  5
212
100
AcDbSymbolTableRecord
100
AcDbLayerTableRecord
  2
06___PRT_ALL_SURFS
 70
0
 62
7
  6
CONTINUOUS
370
-3
390
F
  0
LAYER
  5
213
100
AcDbSymbolTableRecord
100
AcDbLayerTableRecord
  2
07__ASM_ALL_SKELETONS
 70
0
 62
7
  6
CONTINUOUS
370
-3
390
F
  0
LAYER
  5
214
100
AcDbSymbolTableRecord
100
AcDbLayerTableRecord
  2
LAYER_AXIS
 70
0
 62
7
  6
CONTINUOUS
370
-3
390
F
  0
LAYER
  5
215
100
AcDbSymbolTableRecord
100
AcDbLayerTableRecord
  2
LAYER_CHAMFER_FEAT
 70
0
 62
7
  6
CONTINUOUS
370
-3
390
F
  0
LAYER
  5
216
100
AcDbSymbolTableRecord
100
AcDbLayerTableRecord
  2
LAYER_CUT_FEAT
 70
0
 62
7
  6
CONTINUOUS
370
-3
390
F
  0
LAYER
  5
217
100
AcDbSymbolTableRecord
100
AcDbLayerTableRecord
  2
LAYER_DATUM
 70
0
 62
7
  6
CONTINUOUS
370
-3
390
F
  0
LAYER
  5
218
100
AcDbSymbolTableRecord
100
AcDbLayerTableRecord
  2
LAYER_DIM
 70
0
 62
7
  6
CONTINUOUS
370
-3
390
F
  0
LAYER
  5
219
100
AcDbSymbolTableRecord
100
AcDbLayerTableRecord
  2
LAYER_FEATURE
 70
0
 62
7
  6
CONTINUOUS
370
-3
390
F
  0
LAYER
  5
21A
100
AcDbSymbolTableRecord
100
AcDbLayerTableRecord
  2
LAYER_GEOM_FEAT
 70
0
 62
7
  6
CONTINUOUS
370
-3
390
F
  0
LAYER
  5
21B
100
AcDbSymbolTableRecord
100
AcDbLayerTableRecord
  2
LAYER_NOGEOM_FEAT
 70
0
 62
7
  6
CONTINUOUS
370
-3
390
F
  0
LAYER
  5
21C
100
AcDbSymbolTableRecord
100
AcDbLayerTableRecord
  2
LAYER_PARAMETER_DIM
 70
0
 62
7
  6
CONTINUOUS
370
-3
390
F
  0
LAYER
  5
21D
100
AcDbSymbolTableRecord
100
AcDbLayerTableRecord
  2
LAYER_PROTRUSION_FEAT
 70
0
 62
7
  6
CONTINUOUS
370
-3
390
F
  0
LAYER
  5
21E
100
AcDbSymbolTableRecord
100
AcDbLayerTableRecord
  2
LAYER_QUILT
 70
0
 62
7
  6
CONTINUOUS
370
-3
390
F
  0
LAYER
  5
21F
100
AcDbSymbolTableRecord
100
AcDbLayerTableRecord
  2
LAYER_ROUND_FEAT
 70
0
 62
7
  6
CONTINUOUS
370
-3
390
F
  0
ENDTAB
  0
TABLE
  2
STYLE
  5
3
100
AcDbSymbolTable
 70
1
  0
STYLE
  5
11
100
AcDbSymbolTableRecord
100
AcDbTextStyleTableRecord
  2
STANDARD
 70
0
 40
0.0
 41
0.8
 50
0.0
 71
0
 42
0.2
  3
txt
  4

  0
STYLE
  5
220
100
AcDbSymbolTableRecord
100
AcDbTextStyleTableRecord
  2
TEXTSTYLE_1
 70
0
 40
0.0
 41
0.8
 50
0.0
 71
0
 42
0.2
  3
gdt
  4

  0
ENDTAB
  0
TABLE
  2
VIEW
  5
6
100
AcDbSymbolTable
 70
0
  0
ENDTAB
  0
TABLE
  2
UCS
  5
7
100
AcDbSymbolTable
 70
0
  0
ENDTAB
  0
TABLE
  2
APPID
  5
9
100
AcDbSymbolTable
 70
1
  0
APPID
  5
221
100
AcDbSymbolTableRecord
100
AcDbRegAppTableRecord
  2
ACAD
 70
0
  0
ENDTAB
  0
TABLE
  2
BLOCK_RECORD
  5
1
100
AcDbSymbolTable
 70
0
  0
BLOCK_RECORD
  5
222
100
AcDbSymbolTableRecord
100
AcDbBlockTableRecord
  2
*Model_Space
  0
BLOCK_RECORD
  5
223
100
AcDbSymbolTableRecord
100
AcDbBlockTableRecord
  2
*Paper_Space
  0
ENDTAB
  0
TABLE
  2
DIMSTYLE
  5
A
100
AcDbSymbolTable
 70
1
100
AcDbDimStyleTable
 71
0
  0
DIMSTYLE
105
224
100
AcDbSymbolTableRecord
100
AcDbDimStyleTableRecord
  2
STANDARD
 70
0
  3

  4

 40
1.0
 41
0.1875
 42
0.0625
 43
0.38
 44
0.125
 45
0.0
 46
0.0
 47
0.0001
 48
0.0001
140
0.15625
141
0.09
142
0.0
143
25.4
144
1.0
145
0.0
146
1.0
147
0.09
 71
0.0
 72
0.0
 73
1
 74
1
 75
0
 76
0
 77
0
 78
4
170
0
171
2
172
0
173
0
174
0
175
0
176
0
177
0
178
0
270
2
271
4
272
4
273
2
274
2
275
0
280
0
281
0
282
0
283
1
284
4
285
0
286
0
287
3
288
0
340
11
278
46
  0
ENDTAB
  0
ENDSEC
  0
SECTION
  2
BLOCKS
  0
BLOCK
  5
20
100
AcDbEntity
  8
0
100
AcDbBlockBegin
  2
*Model_Space
 70
0
 10
0.0
 20
0.0
 30
0.0
  3
*Model_Space
  1

  0
ENDBLK
  5
21
100
AcDbEntity
  8
0
100
AcDbBlockEnd
  0
BLOCK
  5
1C
100
AcDbEntity
  8
0
100
AcDbBlockBegin
  2
*Paper_Space
 70
0
 10
0.0
 20
0.0
 30
0.0
  3
*Paper_Space
  1

  0
ENDBLK
  5
1D
100
AcDbEntity
  8
0
100
AcDbBlockEnd
  0
ENDSEC
  0
SECTION
  2
ENTITIES
  0
MTEXT
  5
225
100
AcDbEntity
  8
0
100
AcDbMText
 62
7
  6
CONTINUOUS
  7
STANDARD
 71
1
 72
1
 10
15.9560215477
 20
0.9479130325
 30
0.0
 11
1.0
 21
0.0
 31
0.0
 44
0.9
  1
SCALE: 1:1.000
 40
0.3
 41
3.36
  0
LINE
  5
226
100
AcDbEntity
  8
0
100
AcDbLine
 62
7
  6
CONTINUOUS
 10
0.0
 20
0.0
 11
0.0
 21
17.0
  0
LINE
  5
227
100
AcDbEntity
  8
0
100
AcDbLine
 62
7
  6
CONTINUOUS
 10
0.0
 20
0.0
 11
22.0
 21
0.0
  0
LINE
  5
228
100
AcDbEntity
  8
0
100
AcDbLine
 62
7
  6
CONTINUOUS
 10
0.0
 20
17.0
 11
22.0
 21
17.0
  0
LINE
  5
229
100
AcDbEntity
  8
0
100
AcDbLine
 62
7
  6
CONTINUOUS
 10
22.0
 20
0.0
 11
22.0
 21
17.0
  0
LINE
  5
22A
100
AcDbEntity
  8
LAYER_FEATURE
100
AcDbLine
 62
7
  6
CONTINUOUS
 10
5.1803720839
 20
12.4750477814
 11
5.1803720839
 21
12.5150477814
  0
LINE
  5
22B
100
AcDbEntity
  8
LAYER_FEATURE
100
AcDbLine
 62
7
  6
CONTINUOUS
 10
5.1803720839
 20
13.1850477814
 11
5.1803720839
 21
13.2250477814
  0
LINE
  5
22C
100
AcDbEntity
  8
LAYER_CUT_FEAT
100
AcDbLine
 62
7
  6
CONTINUOUS
 10
5.309994971
 20
13.1350477814
 11
5.309994971
 21
12.5650477814
  0
LINE
  5
22D
100
AcDbEntity
  8
LAYER_CUT_FEAT
100
AcDbLine
 62
7
  6
CONTINUOUS
 10
5.3347529774
 20
13.1350477814
 11
5.3347529774
 21
12.5650477814
  0
LINE
  5
22E
100
AcDbEntity
  8
02___PRT_ALL_AXES
100
AcDbLine
 62
7
  6
CONTINUOUS
 10
5.5083720953
 20
11.9750477814
 11
6.6333720724
 21
11.9750477814
  0
LINE
  5
22F
100
AcDbEntity
  8
LAYER_CUT_FEAT
100
AcDbLine
 62
7
  6
CONTINUOUS
 10
5.5052661625
 20
13.1350477814
 11
5.5052661625
 21
12.5650477814
  0
LINE
  5
230
100
AcDbEntity
  8
02___PRT_ALL_AXES
100
AcDbLine
 62
7
  6
CONTINUOUS
 10
5.5083720839
 20
11.9750477814
 11
5.5083720839
 21
12.4750477814
  0
LINE
  5
231
100
AcDbEntity
  8
LAYER_FEATURE
100
AcDbLine
 62
7
  6
CONTINUOUS
 10
5.1803720839
 20
12.5150477814
 11
5.2237506876
 21
12.5454931798
  0
LINE
  5
232
100
AcDbEntity
  8
LAYER_CUT_FEAT
100
AcDbLine
 62
7
  6
CONTINUOUS
 10
5.8007710889
 20
13.1350477814
 11
5.8007710889
 21
12.5650477814
  0
LINE
  5
233
100
AcDbEntity
  8
LAYER_FEATURE
100
AcDbLine
 62
7
  6
CONTINUOUS
 10
5.1803720839
 20
12.4750477814
 11
6.9613720839
 21
12.4750477814
  0
LINE
  5
234
100
AcDbEntity
  8
LAYER_FEATURE
100
AcDbLine
 62
7
  6
CONTINUOUS
 10
5.1803720839
 20
12.5150477814
 11
6.9613720839
 21
12.5150477814
  0
LINE
  5
235
100
AcDbEntity
  8
LAYER_FEATURE
100
AcDbLine
 62
7
  6
CONTINUOUS
 10
6.8560932847
 20
12.5650477814
 11
5.285650883
 21
12.5650477814
  0
LINE
  5
236
100
AcDbEntity
  8
LAYER_FEATURE
100
AcDbLine
 62
7
  6
CONTINUOUS
 10
5.2237506876
 20
13.1546023829
 11
5.1803720839
 21
13.1850477814
  0
LINE
  5
237
100
AcDbEntity
  8
LAYER_FEATURE
100
AcDbLine
 62
7
  6
CONTINUOUS
 10
6.9179934802
 20
13.1546023829
 11
6.9613720839
 21
13.1850477814
  0
LINE
  5
238
100
AcDbEntity
  8
LAYER_CUT_FEAT
100
AcDbLine
 62
7
  6
CONTINUOUS
 10
6.3409730788
 20
13.1350477814
 11
6.3409730788
 21
12.5650477814
  0
LINE
  5
239
100
AcDbEntity
  8
LAYER_FEATURE
100
AcDbLine
 62
7
  6
CONTINUOUS
 10
6.9613720839
 20
12.5150477814
 11
6.9179934802
 21
12.5454931798
  0
LINE
  5
23A
100
AcDbEntity
  8
02___PRT_ALL_AXES
100
AcDbLine
 62
7
  6
CONTINUOUS
 10
6.6333720839
 20
11.9750477814
 11
6.6333720839
 21
12.4750477814
  0
LINE
  5
23B
100
AcDbEntity
  8
LAYER_CUT_FEAT
100
AcDbLine
 62
7
  6
CONTINUOUS
 10
6.6364780052
 20
13.1350477814
 11
6.6364780052
 21
12.5650477814
  0
LINE
  5
23C
100
AcDbEntity
  8
LAYER_FEATURE
100
AcDbLine
 62
7
  6
CONTINUOUS
 10
6.8560932847
 20
13.1350477814
 11
5.285650883
 21
13.1350477814
  0
LINE
  5
23D
100
AcDbEntity
  8
LAYER_FEATURE
100
AcDbLine
 62
7
  6
CONTINUOUS
 10
5.1803720839
 20
13.1850477814
 11
6.9613720839
 21
13.1850477814
  0
LINE
  5
23E
100
AcDbEntity
  8
LAYER_FEATURE
100
AcDbLine
 62
7
  6
CONTINUOUS
 10
5.1803720839
 20
13.2250477814
 11
6.9613720839
 21
13.2250477814
  0
LINE
  5
23F
100
AcDbEntity
  8
LAYER_CUT_FEAT
100
AcDbLine
 62
7
  6
CONTINUOUS
 10
6.8069911903
 20
13.1350477814
 11
6.8069911903
 21
12.5650477814
  0
LINE
  5
240
100
AcDbEntity
  8
LAYER_CUT_FEAT
100
AcDbLine
 62
7
  6
CONTINUOUS
 10
6.8317491967
 20
13.1350477814
 11
6.8317491967
 21
12.5650477814
  0
LINE
  5
241
100
AcDbEntity
  8
LAYER_FEATURE
100
AcDbLine
 62
7
  6
CONTINUOUS
 10
6.9613720839
 20
12.4750477814
 11
6.9613720839
 21
12.5150477814
  0
LINE
  5
242
100
AcDbEntity
  8
LAYER_FEATURE
100
AcDbLine
 62
7
  6
CONTINUOUS
 10
6.9613720839
 20
13.1850477814
 11
6.9613720839
 21
13.2250477814
  0
LINE
  5
243
100
AcDbEntity
  8
LAYER_FEATURE
100
AcDbLine
 62
7
  6
CONTINUOUS
 10
16.1853552569
 20
4.5701247044
 11
16.1453552569
 21
4.5701247044
  0
LINE
  5
244
100
AcDbEntity
  8
LAYER_FEATURE
100
AcDbLine
 62
7
  6
CONTINUOUS
 10
15.4753552569
 20
4.5701247044
 11
15.4353552569
 21
4.5701247044
  0
LINE
  5
245
100
AcDbEntity
  8
02___PRT_ALL_AXES
100
AcDbLine
 62
7
  6
CONTINUOUS
 10
15.5253552569
 20
4.6996247044
 11
16.0953552569
 21
4.6996247044
  0
LINE
  5
246
100
AcDbEntity
  8
LAYER_CUT_FEAT
100
AcDbLine
 62
7
  6
CONTINUOUS
 10
16.0953552569
 20
4.7526778135
 11
15.5253552569
 21
4.7526778135
  0
LINE
  5
247
100
AcDbEntity
  8
02___PRT_ALL_AXES
100
AcDbLine
 62
7
  6
CONTINUOUS
 10
14.9353552569
 20
6.0231247044
 11
14.9353552569
 21
4.8981247044
  0
LINE
  5
248
100
AcDbEntity
  8
02___PRT_ALL_AXES
100
AcDbLine
 62
7
  6
CONTINUOUS
 10
15.4353552569
 20
4.8981247044
 11
14.9353552569
 21
4.8981247044
  0
LINE
  5
249
100
AcDbEntity
  8
LAYER_CUT_FEAT
100
AcDbLine
 62
7
  6
CONTINUOUS
 10
16.0953552569
 20
4.9594331409
 11
15.5253552569
 21
4.9594331409
  0
LINE
  5
24A
100
AcDbEntity
  8
LAYER_CUT_FEAT
100
AcDbLine
 62
7
  6
CONTINUOUS
 10
16.0953552569
 20
5.2764236565
 11
15.5253552569
 21
5.2764236565
  0
LINE
  5
24B
100
AcDbEntity
  8
LAYER_FEATURE
100
AcDbLine
 62
7
  6
CONTINUOUS
 10
15.4353552569
 20
6.3511247044
 11
15.4353552569
 21
4.5701247044
  0
LINE
  5
24C
100
AcDbEntity
  8
LAYER_FEATURE
100
AcDbLine
 62
7
  6
CONTINUOUS
 10
15.4753552569
 20
6.3511247044
 11
15.4753552569
 21
4.5701247044
  0
LINE
  5
24D
100
AcDbEntity
  8
LAYER_FEATURE
100
AcDbLine
 62
7
  6
CONTINUOUS
 10
15.5253552569
 20
4.6754035036
 11
15.5253552569
 21
6.2458459053
  0
LINE
  5
24E
100
AcDbEntity
  8
LAYER_FEATURE
100
AcDbLine
 62
7
  6
CONTINUOUS
 10
16.1453552569
 20
6.3511247044
 11
16.1149098585
 21
6.3077461007
  0
LINE
  5
24F
100
AcDbEntity
  8
LAYER_FEATURE
100
AcDbLine
 62
7
  6
CONTINUOUS
 10
16.1453552569
 20
4.5701247044
 11
16.1149098585
 21
4.6135033081
  0
LINE
  5
250
100
AcDbEntity
  8
LAYER_CUT_FEAT
100
AcDbLine
 62
7
  6
CONTINUOUS
 10
16.0953552569
 20
5.8129786107
 11
15.5253552569
 21
5.8129786107
  0
LINE
  5
251
100
AcDbEntity
  8
LAYER_FEATURE
100
AcDbLine
 62
7
  6
CONTINUOUS
 10
15.5058006554
 20
4.6135033081
 11
15.4753552569
 21
4.5701247044
  0
LINE
  5
252
100
AcDbEntity
  8
LAYER_FEATURE
100
AcDbLine
 62
7
  6
CONTINUOUS
 10
15.5058006554
 20
6.3077461007
 11
15.4753552569
 21
6.3511247044
  0
LINE
  5
253
100
AcDbEntity
  8
LAYER_FEATURE
100
AcDbLine
 62
7
  6
CONTINUOUS
 10
16.0953552569
 20
4.6754035036
 11
16.0953552569
 21
6.2458459053
  0
LINE
  5
254
100
AcDbEntity
  8
LAYER_FEATURE
100
AcDbLine
 62
7
  6
CONTINUOUS
 10
16.1453552569
 20
6.3511247044
 11
16.1453552569
 21
4.5701247044
  0
LINE
  5
255
100
AcDbEntity
  8
02___PRT_ALL_AXES
100
AcDbLine
 62
7
  6
CONTINUOUS
 10
15.4353552569
 20
6.0231247044
 11
14.9353552569
 21
6.0231247044
  0
LINE
  5
256
100
AcDbEntity
  8
LAYER_FEATURE
100
AcDbLine
 62
7
  6
CONTINUOUS
 10
16.1853552569
 20
6.3511247044
 11
16.1853552569
 21
4.5701247044
  0
LINE
  5
257
100
AcDbEntity
  8
LAYER_CUT_FEAT
100
AcDbLine
 62
7
  6
CONTINUOUS
 10
16.0953552569
 20
6.0826888207
 11
15.5253552569
 21
6.0826888207
  0
LINE
  5
258
100
AcDbEntity
  8
LAYER_CUT_FEAT
100
AcDbLine
 62
7
  6
CONTINUOUS
 10
16.0953552569
 20
6.2144733973
 11
15.5253552569
 21
6.2144733973
  0
LINE
  5
259
100
AcDbEntity
  8
LAYER_FEATURE
100
AcDbLine
 62
7
  6
CONTINUOUS
 10
16.1853552569
 20
6.3511247044
 11
16.1453552569
 21
6.3511247044
  0
LINE
  5
25A
100
AcDbEntity
  8
LAYER_FEATURE
100
AcDbLine
 62
7
  6
CONTINUOUS
 10
15.4753552569
 20
6.3511247044
 11
15.4353552569
 21
6.3511247044
  0
LINE
  5
25B
100
AcDbEntity
  8
LAYER_FEATURE
100
AcDbLine
 62
7
  6
CONTINUOUS
 10
14.5295353354
 20
12.5738628787
 11
14.5392179883
 21
12.6051959551
  0
LINE
  5
25C
100
AcDbEntity
  8
LAYER_FEATURE
100
AcDbLine
 62
7
  6
CONTINUOUS
 10
14.701402425
 20
13.1300249845
 11
14.7110850779
 21
13.1613580609
  0
LINE
  5
25D
100
AcDbEntity
  8
LAYER_FEATURE
100
AcDbLine
 62
7
  6
CONTINUOUS
 10
15.0274904899
 20
13.1910783143
 11
15.0583578907
 21
13.2043120363
  0
LINE
  5
25E
100
AcDbEntity
  8
LAYER_CUT_FEAT
100
AcDbLine
 62
7
  6
CONTINUOUS
 10
14.8096058977
 20
13.0404403033
 11
14.7414770079
 21
12.819975135
  0
LINE
  5
25F
100
AcDbEntity
  8
LAYER_CUT_FEAT
100
AcDbLine
 62
7
  6
CONTINUOUS
 10
14.8655106924
 20
13.1455168366
 11
14.7687956777
 21
12.8325469342
  0
LINE
  5
260
100
AcDbEntity
  8
LAYER_CUT_FEAT
100
AcDbLine
 62
7
  6
CONTINUOUS
 10
14.7354285273
 20
12.5102370702
 11
14.7475318435
 21
12.5494034156
  0
LINE
  5
261
100
AcDbEntity
  8
LAYER_CUT_FEAT
100
AcDbLine
 62
7
  6
CONTINUOUS
 10
15.0778626798
 20
13.2674295573
 11
14.9595482686
 21
12.8845639821
  0
LINE
  5
262
100
AcDbEntity
  8
02___PRT_ALL_AXES
100
AcDbLine
 62
7
  6
CONTINUOUS
 10
14.7218802106
 20
12.085358286
 11
14.8429133723
 21
12.4770217409
  0
LINE
  5
263
100
AcDbEntity
  8
LAYER_FEATURE
100
AcDbLine
 62
7
  6
CONTINUOUS
 10
15.7163783898
 20
13.1928923623
 11
15.7374078008
 21
13.2113840288
  0
LINE
  5
264
100
AcDbEntity
  8
LAYER_CUT_FEAT
100
AcDbLine
 62
7
  6
CONTINUOUS
 10
15.3917304727
 20
13.2900134649
 11
15.2672056361
 21
12.8870509459
  0
LINE
  5
265
100
AcDbEntity
  8
LAYER_CUT_FEAT
100
AcDbLine
 62
7
  6
CONTINUOUS
 10
15.9088001907
 20
13.1337069418
 11
15.7841908897
 21
12.7304710959
  0
LINE
  5
266
100
AcDbEntity
  8
LAYER_FEATURE
100
AcDbLine
 62
7
  6
CONTINUOUS
 10
15.5767597055
 20
13.2598605209
 11
15.5846710087
 21
13.2326358266
  0
LINE
  5
267
100
AcDbEntity
  8
LAYER_FEATURE
100
AcDbLine
 62
7
  6
CONTINUOUS
 10
16.0021859058
 20
13.0396333027
 11
16.0381730803
 21
13.0465652673
  0
LINE
  5
268
100
AcDbEntity
  8
LAYER_FEATURE
100
AcDbLine
 62
7
  6
CONTINUOUS
 10
16.1821354236
 20
12.8378780544
 11
16.2248361335
 21
12.8316622876
  0
LINE
  5
269
100
AcDbEntity
  8
LAYER_FEATURE
100
AcDbLine
 62
7
  6
CONTINUOUS
 10
14.827459103
 20
13.0465652673
 11
14.8345760628
 21
13.0454123386
  0
LINE
  5
26A
100
AcDbEntity
  8
LAYER_FEATURE
100
AcDbLine
 62
7
  6
CONTINUOUS
 10
16.2441465049
 20
12.6206542835
 11
16.2546347045
 21
12.6159067725
  0
LINE
  5
26B
100
AcDbEntity
  8
LAYER_FEATURE
100
AcDbLine
 62
7
  6
CONTINUOUS
 10
14.9664617814
 20
13.2113840288
 11
15.0056399761
 21
13.1928923623
  0
LINE
  5
26C
100
AcDbEntity
  8
LAYER_FEATURE
100
AcDbLine
 62
7
  6
CONTINUOUS
 10
15.2368783766
 20
13.2883605801
 11
15.2634689111
 21
13.2625454298
  0
LINE
  5
26D
100
AcDbEntity
  8
LAYER_CUT_FEAT
100
AcDbLine
 62
7
  6
CONTINUOUS
 10
16.1607173775
 20
12.9403941432
 11
16.0418522798
 21
12.5557465463
  0
LINE
  5
26E
100
AcDbEntity
  8
02___PRT_ALL_AXES
100
AcDbLine
 62
7
  6
CONTINUOUS
 10
15.7967286604
 20
11.7532049931
 11
15.9177618221
 21
12.144868448
  0
LINE
  5
26F
100
AcDbEntity
  8
LAYER_CUT_FEAT
100
AcDbLine
 62
7
  6
CONTINUOUS
 10
16.0252466671
 20
12.1116531187
 11
16.0373499832
 21
12.1508194641
  0
LINE
  5
270
100
AcDbEntity
  8
LAYER_CUT_FEAT
100
AcDbLine
 62
7
  6
CONTINUOUS
 10
16.2748364243
 20
12.7199668991
 11
16.1764006297
 21
12.4014285509
  0
LINE
  5
271
100
AcDbEntity
  8
LAYER_FEATURE
100
AcDbLine
 62
7
  6
CONTINUOUS
 10
15.600584331
 20
13.2199635718
 11
15.6963082869
 21
13.1910783143
  0
LINE
  5
272
100
AcDbEntity
  8
LAYER_FEATURE
100
AcDbLine
 62
7
  6
CONTINUOUS
 10
15.9025193212
 20
13.0957541706
 11
15.9799395751
 21
13.04460092
  0
LINE
  5
273
100
AcDbEntity
  8
LAYER_CUT_FEAT
100
AcDbLine
 62
7
  6
CONTINUOUS
 10
16.266334251
 20
12.6005863505
 11
16.195220135
 21
12.3704609867
  0
LINE
  5
274
100
AcDbEntity
  8
LAYER_FEATURE
100
AcDbLine
 62
7
  6
CONTINUOUS
 10
15.2847934235
 20
13.254365293
 11
15.3768918767
 21
13.254365293
  0
LINE
  5
275
100
AcDbEntity
  8
LAYER_FEATURE
100
AcDbLine
 62
7
  6
CONTINUOUS
 10
16.1419351323
 20
12.8796147754
 11
16.1628092313
 21
12.8484893157
  0
LINE
  5
276
100
AcDbEntity
  8
LAYER_FEATURE
100
AcDbLine
 62
7
  6
CONTINUOUS
 10
16.231139859
 20
12.0480273101
 11
16.2408225119
 21
12.0793603865
  0
LINE
  5
277
100
AcDbEntity
  8
LAYER_FEATURE
100
AcDbLine
 62
7
  6
CONTINUOUS
 10
16.4030069486
 20
12.6041894159
 11
16.4126896016
 21
12.6355224923
  0
CIRCLE
  5
278
100
AcDbEntity
  8
LAYER_FEATURE
100
AcDbCircle
 62
7
  6
CONTINUOUS
 10
6.1303672762
 20
5.5201198968
 40
0.8905
  0
CIRCLE
  5
279
100
AcDbEntity
  8
LAYER_FEATURE
100
AcDbCircle
 62
7
  6
CONTINUOUS
 10
6.1303672762
 20
5.5201198968
 40
0.81926
  0
CIRCLE
  5
27A
100
AcDbEntity
  8
LAYER_CUT_FEAT
100
AcDbCircle
 62
7
  6
CONTINUOUS
 10
6.1303672762
 20
5.5201198968
 40
0.675
  0
CIRCLE
  5
27B
100
AcDbEntity
  8
02___PRT_ALL_AXES
100
AcDbCircle
 62
7
  6
CONTINUOUS
 10
6.1303672762
 20
5.5201198968
 40
0.5625
  0
CIRCLE
  5
27C
100
AcDbEntity
  8
LAYER_CHAMFER_FEAT
100
AcDbCircle
 62
7
  6
CONTINUOUS
 10
6.1303672762
 20
5.5201198968
 40
0.215625
  0
CIRCLE
  5
27D
100
AcDbEntity
  8
LAYER_CHAMFER_FEAT
100
AcDbCircle
 62
7
  6
CONTINUOUS
 10
6.1303672762
 20
5.5201198968
 40
0.1875
  0
ARC
  5
27E
100
AcDbEntity
  8
LAYER_FEATURE
100
AcDbCircle
 62
7
  6
CONTINUOUS
 10
6.8560932847
 20
12.4572977814
 40
0.10775
100
AcDbArc
 50
54.9367915578
 51
90.0
  0
ARC
  5
27F
100
AcDbEntity
  8
LAYER_FEATURE
100
AcDbCircle
 62
7
  6
CONTINUOUS
 10
5.285650883
 20
12.4572977814
 40
0.10775
100
AcDbArc
 50
90.0
 51
125.0632084422
  0
ARC
  5
280
100
AcDbEntity
  8
LAYER_FEATURE
100
AcDbCircle
 62
7
  6
CONTINUOUS
 10
6.8560932847
 20
13.2427977814
 40
0.10775
100
AcDbArc
 50
270.0
 51
305.0632084422
  0
ARC
  5
281
100
AcDbEntity
  8
LAYER_FEATURE
100
AcDbCircle
 62
7
  6
CONTINUOUS
 10
5.285650883
 20
13.2427977814
 40
0.10775
100
AcDbArc
 50
234.9367915578
 51
270.0
  0
ARC
  5
282
100
AcDbEntity
  8
LAYER_FEATURE
100
AcDbCircle
 62
7
  6
CONTINUOUS
 10
15.4176052569
 20
4.6754035036
 40
0.10775
100
AcDbArc
 50
324.9367915578
 51
360.0
  0
ARC
  5
283
100
AcDbEntity
  8
LAYER_FEATURE
100
AcDbCircle
 62
7
  6
CONTINUOUS
 10
15.4176052569
 20
6.2458459053
 40
0.10775
100
AcDbArc
 50
0.0
 51
35.0632084422
  0
ARC
  5
284
100
AcDbEntity
  8
LAYER_FEATURE
100
AcDbCircle
 62
7
  6
CONTINUOUS
 10
16.2031052569
 20
4.6754035036
 40
0.10775
100
AcDbArc
 50
180.0
 51
215.0632084422
  0
ARC
  5
285
100
AcDbEntity
  8
LAYER_FEATURE
100
AcDbCircle
 62
7
  6
CONTINUOUS
 10
16.2031052569
 20
6.2458459053
 40
0.10775
100
AcDbArc
 50
144.9367915578
 51
180.0
  0
ARC
  5
286
100
AcDbEntity
  8
LAYER_FEATURE
100
AcDbCircle
 62
7
  6
CONTINUOUS
 10
15.0724315233
 20
11.3145606677
 40
1.552722721
100
AcDbArc
 50
69.5356143051
 51
76.1196429578
  0
ARC
  5
287
100
AcDbEntity
  8
LAYER_FEATURE
100
AcDbCircle
 62
7
  6
CONTINUOUS
 10
15.0821141762
 20
11.3458937441
 40
1.552722721
100
AcDbArc
 50
69.5356143051
 51
76.1196429578
  0
ARC
  5
288
100
AcDbEntity
  8
LAYER_FEATURE
100
AcDbCircle
 62
7
  6
CONTINUOUS
 10
15.1045364817
 20
11.4184523575
 40
1.4769042906
100
AcDbArc
 50
69.5352099192
 51
76.1200472077
  0
SPLINE
  5
289
100
AcDbEntity
  8
LAYER_CUT_FEAT
100
AcDbSpline
 62
7
  6
CONTINUOUS
 70
0
 71
3
 72
22
 73
18
 74
0
 42
0.0000001
 43
0.0000001
 44
0.0000000001
 40
0.0
 40
0.0
 40
0.0
 40
0.0
 40
0.1381197804
 40
0.2053664349
 40
0.2714549095
 40
0.3364371394
 40
0.400372579
 40
0.4633278449
 40
0.5253764087
 40
0.5865986111
 40
0.6470813103
 40
0.7069174443
 40
0.7662055009
 40
0.8250488566
 40
0.8835549595
 40
0.9418344164
 40
1.0
 40
1.0
 40
1.0
 40
1.0
 10
14.7586214262
 20
12.3109450944
 30
0.0
 10
14.7544519485
 20
12.3194415967
 30
0.0
 10
14.7487067361
 20
12.3323078738
 30
0.0
 10
14.7421541412
 20
12.3497204437
 30
0.0
 10
14.7378933235
 20
12.3626289858
 30
0.0
 10
14.7342473932
 20
12.3754886845
 30
0.0
 10
14.7312197936
 20
12.3882876139
 30
0.0
 10
14.728813591
 20
12.4010134377
 30
0.0
 10
14.7270312398
 20
12.4136539984
 30
0.0
 10
14.725874592
 20
12.4261971502
 30
0.0
 10
14.7253448906
 20
12.4386308248
 30
0.0
 10
14.7254427866
 20
12.4509430236
 30
0.0
 10
14.726168331
 20
12.4631218436
 30
0.0
 10
14.7275209088
 20
12.4751554425
 30
0.0
 10
14.7294993313
 20
12.4870322464
 30
0.0
 10
14.7321016144
 20
12.4987402568
 30
0.0
 10
14.7342517694
 20
12.5064290536
 30
0.0
 10
14.7354285317
 20
12.5102370688
 30
0.0
  0
SPLINE
  5
28A
100
AcDbEntity
  8
LAYER_CHAMFER_FEAT
100
AcDbSpline
 62
7
  6
CONTINUOUS
 70
0
 71
3
 72
23
 73
19
 74
0
 42
0.0000001
 43
0.0000001
 44
0.0000000001
 40
0.0
 40
0.0
 40
0.0
 40
0.0
 40
0.073932803
 40
0.1460710876
 40
0.2164194611
 40
0.2849969973
 40
0.3518383211
 40
0.4169947223
 40
0.4805348743
 40
0.5425455569
 40
0.6031323148
 40
0.6624195518
 40
0.7205501769
 40
0.7776848686
 40
0.8340006707
 40
0.8896887675
 40
0.9449516991
 40
1.0
 40
1.0
 40
1.0
 40
1.0
 10
15.1494114648
 20
12.0496960379
 30
0.0
 10
15.1474028621
 20
12.0490791088
 30
0.0
 10
15.1434586804
 20
12.0477791953
 30
0.0
 10
15.137703998
 20
12.0456022145
 30
0.0
 10
15.1321937889
 20
12.0432259395
 30
0.0
 10
15.1269386829
 20
12.0406548337
 30
0.0
 10
15.1219486796
 20
12.0378936651
 30
0.0
 10
15.117233319
 20
12.0349475918
 30
0.0
 10
15.1128016413
 20
12.031822094
 30
0.0
 10
15.1086621998
 20
12.0285229716
 30
0.0
 10
15.1048230125
 20
12.0250563853
 30
0.0
 10
15.1012915637
 20
12.0214288316
 30
0.0
 10
15.0980748155
 20
12.0176471297
 30
0.0
 10
15.0951791665
 20
12.0137184362
 30
0.0
 10
15.0926104075
 20
12.0096503057
 30
0.0
 10
15.0903736901
 20
12.0054504981
 30
0.0
 10
15.0884736713
 20
12.0011275329
 30
0.0
 10
15.0874330637
 20
11.9981663479
 30
0.0
 10
15.0869711492
 20
11.996671589
 30
0.0
  0
SPLINE
  5
28B
100
AcDbEntity
  8
LAYER_CHAMFER_FEAT
100
AcDbSpline
 62
7
  6
CONTINUOUS
 70
0
 71
3
 72
23
 73
19
 74
0
 42
0.0000001
 43
0.0000001
 44
0.0000000001
 40
0.0
 40
0.0
 40
0.0
 40
0.0
 40
0.0739047344
 40
0.1460179201
 40
0.2163445908
 40
0.2849042068
 40
0.3517316659
 40
0.4168784558
 40
0.4804134093
 40
0.5424233562
 40
0.603013741
 40
0.6623088037
 40
0.720451175
 40
0.7776011008
 40
0.833935091
 40
0.8896437047
 40
0.94492876
 40
1.0
 40
1.0
 40
1.0
 40
1.0
 10
15.4237495472
 20
11.9647913266
 30
0.0
 10
15.4250537841
 20
11.9631517229
 30
0.0
 10
15.4275650411
 20
11.959859328
 30
0.0
 10
15.4310711821
 20
11.9548250159
 30
0.0
 10
15.4342641755
 20
11.9497644784
 30
0.0
 10
15.4371378255
 20
11.9446873403
 30
0.0
 10
15.4396866122
 20
11.9396031171
 30
0.0
 10
15.4419056105
 20
11.9345213874
 30
0.0
 10
15.4437904964
 20
11.9294517183
 30
0.0
 10
15.4453375217
 20
11.9244036637
 30
0.0
 10
15.4465435605
 20
11.9193867687
 30
0.0
 10
15.4474061314
 20
11.914410561
 30
0.0
 10
15.4479233633
 20
11.9094845376
 30
0.0
 10
15.4480940174
 20
11.9046181544
 30
0.0
 10
15.4479175844
 20
11.8998208551
 30
0.0
 10
15.4473942005
 20
11.8951018923
 30
0.0
 10
15.4465248296
 20
11.890470862
 30
0.0
 10
15.4457148848
 20
11.8874454094
 30
0.0
 10
15.4452539525
 20
11.8859538288
 30
0.0
  0
SPLINE
  5
28C
100
AcDbEntity
  8
LAYER_FEATURE
100
AcDbSpline
 62
7
  6
CONTINUOUS
 70
0
 71
3
 72
38
 73
34
 74
0
 42
0.0000001
 43
0.0000001
 44
0.0000000001
 40
0.0
 40
0.0
 40
0.0
 40
0.0
 40
0.0260949187
 40
0.0522308712
 40
0.0784485727
 40
0.1047881119
 40
0.1312886518
 40
0.1579881545
 40
0.1849231425
 40
0.2121284772
 40
0.2396371671
 40
0.2674802321
 40
0.2956865863
 40
0.3242829367
 40
0.3532937434
 40
0.3827411981
 40
0.4126451998
 40
0.4430233764
 40
0.5052526732
 40
0.5371370842
 40
0.5695443694
 40
0.60248155
 40
0.6359537079
 40
0.6699640879
 40
0.7045141798
 40
0.7396037699
 40
0.775231034
 40
0.8113926276
 40
0.8480837398
 40
0.8852981627
 40
0.9230283854
 40
0.9612656502
 40
1.0
 40
1.0
 40
1.0
 40
1.0
 10
14.5295353356
 20
12.5738628786
 30
0.0
 10
14.5281443482
 20
12.569361635
 30
0.0
 10
14.5255779994
 20
12.5602830953
 30
0.0
 10
14.5223875444
 20
12.5464783687
 30
0.0
 10
14.5198571083
 20
12.5324923728
 30
0.0
 10
14.517988763
 20
12.5183364146
 30
0.0
 10
14.5167838605
 20
12.5040214006
 30
0.0
 10
14.5162432487
 20
12.4895584878
 30
0.0
 10
14.5163672651
 20
12.4749588882
 30
0.0
 10
14.5171557275
 20
12.4602339124
 30
0.0
 10
14.5186078991
 20
12.4453949422
 30
0.0
 10
14.5207225533
 20
12.4304534264
 30
0.0
 10
14.523497973
 20
12.4154208756
 30
0.0
 10
14.5269318956
 20
12.4003088527
 30
0.0
 10
14.5310215806
 20
12.3851289428
 30
0.0
 10
14.5357637795
 20
12.3698928632
 30
0.0
 10
14.5411548656
 20
12.354612026
 30
0.0
 10
14.5492667335
 20
12.334030495
 30
0.0
 10
14.5586154737
 20
12.3135678852
 30
0.0
 10
14.5691151065
 20
12.293278417
 30
0.0
 10
14.577677289
 20
12.277950538
 30
0.0
 10
14.5868556132
 20
12.2626487725
 30
0.0
 10
14.5966431814
 20
12.2473844219
 30
0.0
 10
14.6070324039
 20
12.2321692703
 30
0.0
 10
14.6180153174
 20
12.217014939
 30
0.0
 10
14.629583467
 20
12.2019330293
 30
0.0
 10
14.6417279574
 20
12.186935078
 30
0.0
 10
14.65443947
 20
12.1720325765
 30
0.0
 10
14.6677082471
 20
12.1572369379
 30
0.0
 10
14.681524084
 20
12.1425594922
 30
0.0
 10
14.6958764048
 20
12.1280114654
 30
0.0
 10
14.7107541094
 20
12.1136041014
 30
0.0
 10
14.7209505772
 20
12.1041601853
 30
0.0
 10
14.7261321462
 20
12.0994637325
 30
0.0
  0
SPLINE
  5
28D
100
AcDbEntity
  8
LAYER_FEATURE
100
AcDbSpline
 62
7
  6
CONTINUOUS
 70
0
 71
3
 72
23
 73
19
 74
0
 42
0.0000001
 43
0.0000001
 44
0.0000000001
 40
0.0
 40
0.0
 40
0.0
 40
0.0
 40
0.0573957053
 40
0.1149283751
 40
0.1727333648
 40
0.2309428707
 40
0.2896844948
 40
0.3490799659
 40
0.40924405
 40
0.470283667
 40
0.5322972148
 40
0.5953740995
 40
0.6595944553
 40
0.7250290269
 40
0.7917391927
 40
0.8597771003
 40
0.9291858933
 40
1.0
 40
1.0
 40
1.0
 40
1.0
 10
14.7014024252
 20
13.1300249845
 30
0.0
 10
14.6996879342
 20
13.1244768811
 30
0.0
 10
14.6965858725
 20
13.1132620309
 30
0.0
 10
14.6929361538
 20
13.0961612036
 30
0.0
 10
14.6902912986
 20
13.078792639
 30
0.0
 10
14.6886545313
 20
13.0611778001
 30
0.0
 10
14.6880275102
 20
13.0433374039
 30
0.0
 10
14.6884107363
 20
13.0252926386
 30
0.0
 10
14.6898034653
 20
13.0070647887
 30
0.0
 10
14.6922037583
 20
12.9886752996
 30
0.0
 10
14.6956084896
 20
12.9701457292
 30
0.0
 10
14.7000133697
 20
12.9514977347
 30
0.0
 10
14.7054129634
 20
12.9327530581
 30
0.0
 10
14.71180071
 20
12.9139335011
 30
0.0
 10
14.7191689131
 20
12.8950609484
 30
0.0
 10
14.7275088351
 20
12.876157209
 30
0.0
 10
14.7368103873
 20
12.8572445513
 30
0.0
 10
14.743577052
 20
12.8447704528
 30
0.0
 10
14.7471122733
 20
12.8385388174
 30
0.0
  0
SPLINE
  5
28E
100
AcDbEntity
  8
LAYER_FEATURE
100
AcDbSpline
 62
7
  6
CONTINUOUS
 70
0
 71
3
 72
38
 73
34
 74
0
 42
0.0000001
 43
0.0000001
 44
0.0000000001
 40
0.0
 40
0.0
 40
0.0
 40
0.0
 40
0.0260947209
 40
0.0522304776
 40
0.0784479881
 40
0.1047873432
 40
0.1312877061
 40
0.1579870425
 40
0.1849218779
 40
0.2121270717
 40
0.2396356351
 40
0.2674785918
 40
0.2956848538
 40
0.3242811276
 40
0.3532918779
 40
0.3827392961
 40
0.4126432765
 40
0.4430214511
 40
0.5052508014
 40
0.5371352634
 40
0.5695426201
 40
0.602479886
 40
0.635952142
 40
0.6699626371
 40
0.7045128578
 40
0.7396025847
 40
0.7752299976
 40
0.8113917522
 40
0.8480830289
 40
0.8852976227
 40
0.9230280248
 40
0.961265468
 40
1.0
 40
1.0
 40
1.0
 40
1.0
 10
16.2311398588
 20
12.0480273102
 30
0.0
 10
16.2297488286
 20
12.0435259283
 30
0.0
 10
16.2267457986
 20
12.0345820299
 30
0.0
 10
16.2215916156
 20
12.0213836871
 30
0.0
 10
16.2157901693
 20
12.0084080575
 30
0.0
 10
16.2093461305
 20
11.995665648
 30
0.0
 10
16.2022645502
 20
11.9831662199
 30
0.0
 10
16.194551014
 20
11.9709194684
 30
0.0
 10
16.1862115625
 20
11.9589348474
 30
0.0
 10
16.1772527424
 20
11.947221584
 30
0.0
 10
16.167681579
 20
11.9357886633
 30
0.0
 10
16.157505537
 20
11.924644854
 30
0.0
 10
16.1467325375
 20
11.9137986849
 30
0.0
 10
16.1353709746
 20
11.903258425
 30
0.0
 10
16.1234296408
 20
11.893032101
 30
0.0
 10
16.1109178305
 20
11.8831275558
 30
0.0
 10
16.0978449858
 20
11.8735521563
 30
0.0
 10
16.0795349389
 20
11.8611351629
 30
0.0
 10
16.060270703
 20
11.8495142267
 30
0.0
 10
16.0401538734
 20
11.8386855893
 30
0.0
 10
16.0244361101
 20
11.8308605217
 30
0.0
 10
16.0082243365
 20
11.8234046466
 30
0.0
 10
15.9915306242
 20
11.8163234045
 30
0.0
 10
15.9743678858
 20
11.8096222509
 30
0.0
 10
15.9567492557
 20
11.8033062863
 30
0.0
 10
15.9386882641
 20
11.7973803118
 30
0.0
 10
15.9201987626
 20
11.7918488423
 30
0.0
 10
15.9012949292
 20
11.7867161127
 30
0.0
 10
15.8819912644
 20
11.7819860288
 30
0.0
 10
15.8623025854
 20
11.7776621948
 30
0.0
 10
15.8422439584
 20
11.7737479196
 30
0.0
 10
15.8218308948
 20
11.7702462137
 30
0.0
 10
15.8080834827
 20
11.7682015211
 30
0.0
 10
15.8011553583
 20
11.7672472558
 30
0.0
  0
SPLINE
  5
28F
100
AcDbEntity
  8
LAYER_FEATURE
100
AcDbSpline
 62
7
  6
CONTINUOUS
 70
0
 71
3
 72
46
 73
42
 74
0
 42
0.0000001
 43
0.0000001
 44
0.0000000001
 40
0.0
 40
0.0
 40
0.0
 40
0.0
 40
0.039486567
 40
0.0787951377
 40
0.1178710033
 40
0.1566604551
 40
0.1951110319
 40
0.2331717734
 40
0.2707934805
 40
0.307928986
 40
0.3445334349
 40
0.3805645757
 40
0.4159830671
 40
0.4507528011
 40
0.4848412454
 40
0.5182198074
 40
0.5508642228
 40
0.5827549671
 40
0.6138776924
 40
0.6442236924
 40
0.6737903897
 40
0.702581842
 40
0.7306092586
 40
0.7578915079
 40
0.7844555952
 40
0.8103370805
 40
0.8355803946
 40
0.8479808503
 40
0.8602425834
 40
0.8723736748
 40
0.8843827605
 40
0.8962789949
 40
0.9080720413
 40
0.9197720392
 40
0.9313895664
 40
0.9429356095
 40
0.954421506
 40
0.9658589049
 40
0.9772597044
 40
0.9886359955
 40
1.0
 40
1.0
 40
1.0
 40
1.0
 10
15.6249848843
 20
12.800623352
 30
0.0
 10
15.6376977581
 20
12.7958777987
 30
0.0
 10
15.6629423495
 20
12.7860722963
 30
0.0
 10
15.7003005649
 20
12.7704024459
 30
0.0
 10
15.7370048931
 20
12.7538298651
 30
0.0
 10
15.7729776136
 20
12.7363896189
 30
0.0
 10
15.8081429949
 20
12.7181184303
 30
0.0
 10
15.8424268965
 20
12.699054811
 30
0.0
 10
15.8757570744
 20
12.679238922
 30
0.0
 10
15.9080632954
 20
12.6587125024
 30
0.0
 10
15.9392774974
 20
12.6375187768
 30
0.0
 10
15.9693339272
 20
12.6157023572
 30
0.0
 10
15.9981692784
 20
12.5933091457
 30
0.0
 10
16.0257228228
 20
12.5703862333
 30
0.0
 10
16.0519365349
 20
12.5469817955
 30
0.0
 10
16.0767552104
 20
12.5231449843
 30
0.0
 10
16.1001265798
 20
12.4989258228
 30
0.0
 10
16.1220014063
 20
12.4743750904
 30
0.0
 10
16.1423335765
 20
12.4495442103
 30
0.0
 10
16.1610801816
 20
12.4244851391
 30
0.0
 10
16.1782015882
 20
12.3992502548
 30
0.0
 10
16.1936614957
 20
12.3738922587
 30
0.0
 10
16.2074269952
 20
12.3484640481
 30
0.0
 10
16.2194685888
 20
12.323018735
 30
0.0
 10
16.2297602942
 20
12.2976091812
 30
0.0
 10
16.2382794081
 20
12.2722893255
 30
0.0
 10
16.2439192265
 20
12.2511821138
 30
0.0
 10
16.2475090454
 20
12.2344089676
 30
0.0
 10
16.249732905
 20
12.2219592654
 30
0.0
 10
16.2515026672
 20
12.2095728279
 30
0.0
 10
16.2528174461
 20
12.1972560678
 30
0.0
 10
16.2536764562
 20
12.1850155383
 30
0.0
 10
16.254079217
 20
12.1728577184
 30
0.0
 10
16.2540254858
 20
12.1607890597
 30
0.0
 10
16.2535152174
 20
12.1488159714
 30
0.0
 10
16.2525486991
 20
12.1369448179
 30
0.0
 10
16.2511263577
 20
12.125181915
 30
0.0
 10
16.2492489743
 20
12.1135335401
 30
0.0
 10
16.2469174821
 20
12.1020058394
 30
0.0
 10
16.2441331824
 20
12.0906051965
 30
0.0
 10
16.2419755362
 20
12.0830915806
 30
0.0
 10
16.2408225117
 20
12.0793603866
 30
0.0
  0
SPLINE
  5
290
100
AcDbEntity
  8
LAYER_FEATURE
100
AcDbSpline
 62
7
  6
CONTINUOUS
 70
0
 71
3
 72
23
 73
19
 74
0
 42
0.0000001
 43
0.0000001
 44
0.0000000001
 40
0.0
 40
0.0
 40
0.0
 40
0.0
 40
0.057407101
 40
0.1149508162
 40
0.1727661591
 40
0.2309850013
 40
0.2897346437
 40
0.3491365438
 40
0.4093052307
 40
0.4703474229
 40
0.532361355
 40
0.595436312
 40
0.6596523458
 40
0.725080157
 40
0.7917811149
 40
0.8598073921
 40
0.9292021845
 40
1.0
 40
1.0
 40
1.0
 40
1.0
 10
16.4030069484
 20
12.604189416
 30
0.0
 10
16.4012948278
 20
12.5986489835
 30
0.0
 10
16.3975346483
 20
12.5876543867
 30
0.0
 10
16.3909115156
 20
12.5714976014
 30
0.0
 10
16.3833103472
 20
12.5556856614
 30
0.0
 10
16.3747405504
 20
12.5402380252
 30
0.0
 10
16.3652123923
 20
12.5251726616
 30
0.0
 10
16.354737357
 20
12.5105072768
 30
0.0
 10
16.3433280046
 20
12.4962589588
 30
0.0
 10
16.3309979693
 20
12.4824442557
 30
0.0
 10
16.3177619237
 20
12.4690791416
 30
0.0
 10
16.3036355491
 20
12.456179022
 30
0.0
 10
16.2886355156
 20
12.4437587284
 30
0.0
 10
16.2727794517
 20
12.4318325104
 30
0.0
 10
16.2560859654
 20
12.420414049
 30
0.0
 10
16.2385744771
 20
12.4095163785
 30
0.0
 10
16.2202657777
 20
12.3991521532
 30
0.0
 10
16.2076694276
 20
12.3926714305
 30
0.0
 10
16.2012491591
 20
12.3895209516
 30
0.0
  0
SPLINE
  5
291
100
AcDbEntity
  8
LAYER_CUT_FEAT
100
AcDbSpline
 62
7
  6
CONTINUOUS
 70
0
 71
3
 72
23
 73
19
 74
0
 42
0.0000001
 43
0.0000001
 44
0.0000000001
 40
0.0
 40
0.0
 40
0.0
 40
0.0
 40
0.0568059121
 40
0.1137672387
 40
0.1710373031
 40
0.2287653347
 40
0.2870946333
 40
0.3461609617
 40
0.4060912092
 40
0.4670023508
 40
0.5290006955
 40
0.5921814071
 40
0.6566282689
 40
0.7224136567
 40
0.7895986788
 40
0.8582334462
 40
0.9283574492
 40
1.0
 40
1.0
 40
1.0
 40
1.0
 10
16.0252466626
 20
12.11165312
 30
0.0
 10
16.0238548078
 20
12.1071490635
 30
0.0
 10
16.0207777861
 20
12.0982151936
 30
0.0
 10
16.0153057668
 20
12.0851084676
 30
0.0
 10
16.008981917
 20
12.0723049371
 30
0.0
 10
16.0018152805
 20
12.0598227528
 30
0.0
 10
15.9938157804
 20
12.04767862
 30
0.0
 10
15.9849945488
 20
12.0358889439
 30
0.0
 10
15.9753637889
 20
12.024469494
 30
0.0
 10
15.9649367602
 20
12.0134354839
 30
0.0
 10
15.9537277397
 20
12.0028015437
 30
0.0
 10
15.941751996
 20
11.9925817241
 30
0.0
 10
15.929025768
 20
11.9827894936
 30
0.0
 10
15.9155662361
 20
11.9734377324
 30
0.0
 10
15.9013915388
 20
11.9645387423
 30
0.0
 10
15.8865206266
 20
11.956104177
 30
0.0
 10
15.8709737452
 20
11.9481452612
 30
0.0
 10
15.8602870195
 20
11.9432162828
 30
0.0
 10
15.8548407624
 20
11.94083155
 30
0.0
  0
SPLINE
  5
292
100
AcDbEntity
  8
LAYER_CUT_FEAT
100
AcDbSpline
 62
7
  6
CONTINUOUS
 70
0
 71
3
 72
9
 73
5
 74
0
 42
0.0000001
 43
0.0000001
 44
0.0000000001
 40
0.0
 40
0.0
 40
0.0
 40
0.0
 40
0.255034821
 40
1.0
 40
1.0
 40
1.0
 40
1.0
 10
14.7797994895
 20
12.2729843675
 30
0.0
 10
14.777839725
 20
12.2761183006
 30
0.0
 10
14.7703042935
 20
12.2884986847
 30
0.0
 10
14.7633778992
 20
12.3012524215
 30
0.0
 10
14.7586214262
 20
12.3109450944
 30
0.0
  0
SPLINE
  5
293
100
AcDbEntity
  8
02___PRT_ALL_AXES
100
AcDbSpline
 62
7
  6
CONTINUOUS
 70
0
 71
3
 72
56
 73
52
 74
0
 42
0.0000001
 43
0.0000001
 44
0.0000000001
 40
0.0
 40
0.0
 40
0.0
 40
0.0
 40
0.0106256372
 40
0.0212739184
 40
0.03196725
 40
0.0427275708
 40
0.0535761375
 40
0.0645333303
 40
0.0756184857
 40
0.0868497561
 40
0.0982439994
 40
0.109816698
 40
0.121581904
 40
0.1335522101
 40
0.1457387411
 40
0.1581511641
 40
0.1707977129
 40
0.1836852245
 40
0.1968191839
 40
0.2102037753
 40
0.223841937
 40
0.2377354194
 40
0.2518848434
 40
0.2662897588
 40
0.2809487027
 40
0.2958592554
 40
0.3110180956
 40
0.326421053
 40
0.3420631592
 40
0.357938696
 40
0.3740412426
 40
0.3903637194
 40
0.4068984313
 40
0.4236371079
 40
0.440570943
 40
0.4576906321
 40
0.4924461504
 40
0.5278226277
 40
0.5637311966
 40
0.6000782074
 40
0.6367661815
 40
0.673694728
 40
0.7107614341
 40
0.7478627378
 40
0.7848947905
 40
0.8217543179
 40
0.8583394844
 40
0.8945507716
 40
0.9302918759
 40
0.9654706393
 40
1.0
 40
1.0
 40
1.0
 40
1.0
 10
14.7218802114
 20
12.0853582858
 30
0.0
 10
14.7208569572
 20
12.0820470297
 30
0.0
 10
14.7189949082
 20
12.0753581254
 30
0.0
 10
14.7167672916
 20
12.0651667953
 30
0.0
 10
14.715105978
 20
12.0548232137
 30
0.0
 10
14.7140127834
 20
12.0443387716
 30
0.0
 10
14.7134887306
 20
12.0337244617
 30
0.0
 10
14.7135342631
 20
12.0229915286
 30
0.0
 10
14.7141491967
 20
12.0121512721
 30
0.0
 10
14.7153327433
 20
12.0012150812
 30
0.0
 10
14.7170835159
 20
11.9901944098
 30
0.0
 10
14.7193995381
 20
11.97910077
 30
0.0
 10
14.7222782517
 20
11.9679457224
 30
0.0
 10
14.7257165242
 20
11.956740869
 30
0.0
 10
14.729710654
 20
11.9454978453
 30
0.0
 10
14.7342563764
 20
11.9342283129
 30
0.0
 10
14.7393488681
 20
11.9229439515
 30
0.0
 10
14.7449827519
 20
11.9116564501
 30
0.0
 10
14.7511521013
 20
11.9003774982
 30
0.0
 10
14.7578504454
 20
11.8891187759
 30
0.0
 10
14.7650707738
 20
11.8778919436
 30
0.0
 10
14.7728055428
 20
11.866708631
 30
0.0
 10
14.7810466811
 20
11.855580426
 30
0.0
 10
14.7897855972
 20
11.8445188635
 30
0.0
 10
14.7990131871
 20
11.8335354132
 30
0.0
 10
14.808719842
 20
11.8226414678
 30
0.0
 10
14.8188954581
 20
11.8118483315
 30
0.0
 10
14.8295294458
 20
11.8011672074
 30
0.0
 10
14.8406107401
 20
11.7906091861
 30
0.0
 10
14.8521278118
 20
11.7801852337
 30
0.0
 10
14.8640686787
 20
11.7699061798
 30
0.0
 10
14.8764209167
 20
11.7597827074
 30
0.0
 10
14.8891716791
 20
11.7498253352
 30
0.0
 10
14.9023076827
 20
11.7400444306
 30
0.0
 10
14.9158153249
 20
11.7304501065
 30
0.0
 10
14.9343946614
 20
11.7178572154
 30
0.0
 10
14.958464138
 20
11.7026555276
 30
0.0
 10
14.9884527483
 20
11.6854046292
 30
0.0
 10
15.019566647
 20
11.6691252258
 30
0.0
 10
15.0516762721
 20
11.6538851059
 30
0.0
 10
15.0846484008
 20
11.639747481
 30
0.0
 10
15.1183460621
 20
11.6267710829
 30
0.0
 10
15.1526292891
 20
11.6150098094
 30
0.0
 10
15.1873556598
 20
11.6045125208
 30
0.0
 10
15.2223809127
 20
11.5953228252
 30
0.0
 10
15.2575595437
 20
11.5874788973
 30
0.0
 10
15.2927454503
 20
11.5810133183
 30
0.0
 10
15.3277924425
 20
11.5759529434
 30
0.0
 10
15.3625552515
 20
11.5723187925
 30
0.0
 10
15.3968887168
 20
11.5701259775
 30
0.0
 10
15.4196280695
 20
11.5696260324
 30
0.0
 10
15.4308904855
 20
11.5696260324
 30
0.0
  0
SPLINE
  5
294
100
AcDbEntity
  8
02___PRT_ALL_AXES
100
AcDbSpline
 62
7
  6
CONTINUOUS
 70
0
 71
3
 72
39
 73
35
 74
0
 42
0.0000001
 43
0.0000001
 44
0.0000000001
 40
0.0
 40
0.0
 40
0.0
 40
0.0
 40
0.0248034971
 40
0.049664333
 40
0.0746391942
 40
0.0997834851
 40
0.1251507435
 40
0.1507921181
 40
0.1767559207
 40
0.2030872605
 40
0.2298277628
 40
0.2570153685
 40
0.2846842107
 40
0.3128645567
 40
0.3415828093
 40
0.3708615534
 40
0.4007196422
 40
0.4311723105
 40
0.462231309
 40
0.4939050532
 40
0.5261987792
 40
0.5591147049
 40
0.5926521906
 40
0.6268078993
 40
0.6615759515
 40
0.6969480768
 40
0.7329137591
 40
0.7694603767
 40
0.8065733349
 40
0.8442361974
 40
0.8824307936
 40
0.9211373868
 40
0.9603346256
 40
1.0
 40
1.0
 40
1.0
 40
1.0
 10
15.7967286596
 20
11.7532049934
 30
0.0
 10
15.7956627856
 20
11.7497558191
 30
0.0
 10
15.7933249801
 20
11.742910537
 30
0.0
 10
15.7892151673
 20
11.7328479563
 30
0.0
 10
15.784505151
 20
11.7229966035
 30
0.0
 10
15.7792005876
 20
11.7133682511
 30
0.0
 10
15.7733076445
 20
11.7039737769
 30
0.0
 10
15.7668332164
 20
11.6948239064
 30
0.0
 10
15.7597848408
 20
11.6859289975
 30
0.0
 10
15.7521706967
 20
11.6772990888
 30
0.0
 10
15.7439995821
 20
11.6689438797
 30
0.0
 10
15.7352808997
 20
11.6608727313
 30
0.0
 10
15.7260246431
 20
11.6530946629
 30
0.0
 10
15.7162413851
 20
11.6456183498
 30
0.0
 10
15.7059422663
 20
11.6384521204
 30
0.0
 10
15.6951389856
 20
11.6316039513
 30
0.0
 10
15.6838437893
 20
11.6250814635
 30
0.0
 10
15.672069461
 20
11.6188919162
 30
0.0
 10
15.6598293098
 20
11.613042201
 30
0.0
 10
15.6471371592
 20
11.6075388353
 30
0.0
 10
15.634007334
 20
11.6023879548
 30
0.0
 10
15.6204546465
 20
11.5975953071
 30
0.0
 10
15.6064943819
 20
11.5931662446
 30
0.0
 10
15.5921422829
 20
11.5891057176
 30
0.0
 10
15.5774145333
 20
11.5854182683
 30
0.0
 10
15.5623277408
 20
11.5821080242
 30
0.0
 10
15.5468989188
 20
11.5791786932
 30
0.0
 10
15.5311454681
 20
11.5766335583
 30
0.0
 10
15.5150851576
 20
11.5744754731
 30
0.0
 10
15.4987361031
 20
11.5727068592
 30
0.0
 10
15.4821167535
 20
11.571329699
 30
0.0
 10
15.4652458401
 20
11.5703455412
 30
0.0
 10
15.4481425029
 20
11.5697554839
 30
0.0
 10
15.4366637175
 20
11.5696260324
 30
0.0
 10
15.4308904855
 20
11.5696260324
 30
0.0
  0
SPLINE
  5
295
100
AcDbEntity
  8
LAYER_CHAMFER_FEAT
100
AcDbSpline
 62
7
  6
CONTINUOUS
 70
0
 71
3
 72
11
 73
7
 74
0
 42
0.0000001
 43
0.0000001
 44
0.0000000001
 40
0.0
 40
0.0
 40
0.0
 40
0.0
 40
0.2617773894
 40
0.5161276515
 40
0.7623842886
 40
1.0
 40
1.0
 40
1.0
 40
1.0
 10
15.193529783
 20
12.053316289
 30
0.0
 10
15.188584109
 20
12.053316289
 30
0.0
 10
15.1788309659
 20
12.0530707747
 30
0.0
 10
15.1644651995
 20
12.0519338886
 30
0.0
 10
15.1506396531
 20
12.0500398355
 30
0.0
 10
15.1416682845
 20
12.0482458141
 30
0.0
 10
15.1372983128
 20
12.0472180874
 30
0.0
  0
SPLINE
  5
296
100
AcDbEntity
  8
LAYER_CHAMFER_FEAT
100
AcDbSpline
 62
7
  6
CONTINUOUS
 70
0
 71
3
 72
26
 73
22
 74
0
 42
0.0000001
 43
0.0000001
 44
0.0000000001
 40
0.0
 40
0.0
 40
0.0
 40
0.0
 40
0.0614577021
 40
0.1243099563
 40
0.1883101439
 40
0.2531941342
 40
0.3186862461
 40
0.3845027407
 40
0.4503556331
 40
0.5159564692
 40
0.5810200692
 40
0.6452683431
 40
0.7084341755
 40
0.7702654579
 40
0.8305294315
 40
0.8600104033
 40
0.8890235184
 40
0.9175472218
 40
0.9455621402
 40
0.9730512438
 40
1.0
 40
1.0
 40
1.0
 40
1.0
 10
15.193529783
 20
12.053316289
 30
0.0
 10
15.1989460067
 20
12.053316289
 30
0.0
 10
15.2099033245
 20
12.0530142143
 30
0.0
 10
15.2264534151
 20
12.0516980837
 30
0.0
 10
15.2432171999
 20
12.0495218962
 30
0.0
 10
15.2600852901
 20
12.0464997472
 30
0.0
 10
15.276948334
 20
12.0426512983
 30
0.0
 10
15.2936967669
 20
12.0380015229
 30
0.0
 10
15.3102218144
 20
12.0325806224
 30
0.0
 10
15.3264161376
 20
12.0264238282
 30
0.0
 10
15.3421745589
 20
12.0195710988
 30
0.0
 10
15.3573947403
 20
12.0120669524
 30
0.0
 10
15.3719780008
 20
12.0039600255
 30
0.0
 10
15.3858293979
 20
11.9953030471
 30
0.0
 10
15.3967672328
 20
11.9876213442
 30
0.0
 10
15.4050671762
 20
11.9812436151
 30
0.0
 10
15.4110093917
 20
11.9763939888
 30
0.0
 10
15.4167043665
 20
11.9714512363
 30
0.0
 10
15.4221429
 20
11.9664233252
 30
0.0
 10
15.427316054
 20
11.9613185366
 30
0.0
 10
15.4306156972
 20
11.9578342961
 30
0.0
 10
15.4322177947
 20
11.9560810737
 30
0.0
  0
SPLINE
  5
297
100
AcDbEntity
  8
LAYER_FEATURE
100
AcDbSpline
 62
7
  6
CONTINUOUS
 70
0
 71
3
 72
39
 73
35
 74
0
 42
0.0000001
 43
0.0000001
 44
0.0000000001
 40
0.0
 40
0.0
 40
0.0
 40
0.0
 40
0.0396651873
 40
0.0788627135
 40
0.1175691664
 40
0.1557638124
 40
0.1934266623
 40
0.2305396249
 40
0.2670862421
 40
0.3030519225
 40
0.3384240463
 40
0.3731920979
 40
0.4073478077
 40
0.4408852955
 40
0.4738012226
 40
0.506094948
 40
0.5377686906
 40
0.5688276881
 40
0.5992803563
 40
0.6291384461
 40
0.6584171915
 40
0.687135444
 40
0.715315789
 40
0.7429846304
 40
0.7701722362
 40
0.7969127392
 40
0.8232440802
 40
0.8492078832
 40
0.8748492573
 40
0.9002165149
 40
0.9253608053
 40
0.9503356665
 40
0.9751965027
 40
1.0
 40
1.0
 40
1.0
 40
1.0
 10
15.1183804679
 20
12.8958218475
 30
0.0
 10
15.1092408432
 20
12.8958218475
 30
0.0
 10
15.0910686276
 20
12.8956169041
 30
0.0
 10
15.0639921533
 20
12.8946827928
 30
0.0
 10
15.0372835784
 20
12.8931247442
 30
0.0
 10
15.0109733246
 20
12.8909445577
 30
0.0
 10
14.9850909454
 20
12.8881446421
 30
0.0
 10
14.959665691
 20
12.8847281572
 30
0.0
 10
14.9347262279
 20
12.880698925
 30
0.0
 10
14.9103006898
 20
12.8760614662
 30
0.0
 10
14.8864166223
 20
12.8708209802
 30
0.0
 10
14.8631009588
 20
12.8649833378
 30
0.0
 10
14.8403799905
 20
12.8585550738
 30
0.0
 10
14.8182793387
 20
12.851543378
 30
0.0
 10
14.7968239273
 20
12.8439560859
 30
0.0
 10
14.7760379558
 20
12.8358016684
 30
0.0
 10
14.755944873
 20
12.8270892272
 30
0.0
 10
14.7365673549
 20
12.8178284771
 30
0.0
 10
14.7179272848
 20
12.8080297361
 30
0.0
 10
14.700045733
 20
12.7977039143
 30
0.0
 10
14.6829429377
 20
12.7868625034
 30
0.0
 10
14.6666382886
 20
12.7755175656
 30
0.0
 10
14.6511503059
 20
12.7636817299
 30
0.0
 10
14.6364966247
 20
12.7513681825
 30
0.0
 10
14.6226939816
 20
12.7385906579
 30
0.0
 10
14.6097581975
 20
12.7253634346
 30
0.0
 10
14.5977041589
 20
12.7117013319
 30
0.0
 10
14.5865457961
 20
12.6976197035
 30
0.0
 10
14.5762960595
 20
12.6831344403
 30
0.0
 10
14.566966879
 20
12.6682619422
 30
0.0
 10
14.5585691676
 20
12.6530191901
 30
0.0
 10
14.5511126876
 20
12.6374234046
 30
0.0
 10
14.5446063946
 20
12.6214932223
 30
0.0
 10
14.5409053854
 20
12.6106563812
 30
0.0
 10
14.5392179886
 20
12.605195955
 30
0.0
  0
SPLINE
  5
298
100
AcDbEntity
  8
LAYER_FEATURE
100
AcDbSpline
 62
7
  6
CONTINUOUS
 70
0
 71
3
 72
39
 73
35
 74
0
 42
0.0000001
 43
0.0000001
 44
0.0000000001
 40
0.0
 40
0.0
 40
0.0
 40
0.0
 40
0.0396651873
 40
0.0788627135
 40
0.1175691664
 40
0.1557638124
 40
0.1934266623
 40
0.2305396249
 40
0.2670862421
 40
0.3030519225
 40
0.3384240463
 40
0.3731920979
 40
0.4073478077
 40
0.4408852955
 40
0.4738012226
 40
0.506094948
 40
0.5377686906
 40
0.5688276881
 40
0.5992803563
 40
0.6291384461
 40
0.6584171915
 40
0.687135444
 40
0.715315789
 40
0.7429846304
 40
0.7701722362
 40
0.7969127392
 40
0.8232440802
 40
0.8492078832
 40
0.8748492573
 40
0.9002165149
 40
0.9253608053
 40
0.9503356665
 40
0.9751965027
 40
1.0
 40
1.0
 40
1.0
 40
1.0
 10
15.2902475575
 20
13.4519839534
 30
0.0
 10
15.2811079328
 20
13.4519839534
 30
0.0
 10
15.2629357172
 20
13.4517790099
 30
0.0
 10
15.2358592429
 20
13.4508448986
 30
0.0
 10
15.209150668
 20
13.4492868501
 30
0.0
 10
15.1828404142
 20
13.4471066636
 30
0.0
 10
15.156958035
 20
13.444306748
 30
0.0
 10
15.1315327806
 20
13.440890263
 30
0.0
 10
15.1065933175
 20
13.4368610308
 30
0.0
 10
15.0821677794
 20
13.432223572
 30
0.0
 10
15.058283712
 20
13.426983086
 30
0.0
 10
15.0349680484
 20
13.4211454436
 30
0.0
 10
15.0122470801
 20
13.4147171796
 30
0.0
 10
14.9901464284
 20
13.4077054838
 30
0.0
 10
14.9686910169
 20
13.4001181917
 30
0.0
 10
14.9479050455
 20
13.3919637743
 30
0.0
 10
14.9278119626
 20
13.383251333
 30
0.0
 10
14.9084344445
 20
13.3739905829
 30
0.0
 10
14.8897943744
 20
13.364191842
 30
0.0
 10
14.8719128226
 20
13.3538660202
 30
0.0
 10
14.8548100273
 20
13.3430246092
 30
0.0
 10
14.8385053782
 20
13.3316796714
 30
0.0
 10
14.8230173955
 20
13.3198438357
 30
0.0
 10
14.8083637143
 20
13.3075302883
 30
0.0
 10
14.7945610712
 20
13.2947527637
 30
0.0
 10
14.7816252871
 20
13.2815255405
 30
0.0
 10
14.7695712486
 20
13.2678634377
 30
0.0
 10
14.7584128857
 20
13.2537818093
 30
0.0
 10
14.7481631491
 20
13.2392965461
 30
0.0
 10
14.7388339686
 20
13.2244240481
 30
0.0
 10
14.7304362572
 20
13.2091812959
 30
0.0
 10
14.7229797772
 20
13.1935855104
 30
0.0
 10
14.7164734843
 20
13.1776553282
 30
0.0
 10
14.712772475
 20
13.1668184871
 30
0.0
 10
14.7110850782
 20
13.1613580609
 30
0.0
  0
SPLINE
  5
299
100
AcDbEntity
  8
LAYER_FEATURE
100
AcDbSpline
 62
7
  6
CONTINUOUS
 70
0
 71
3
 72
15
 73
11
 74
0
 42
0.0000001
 43
0.0000001
 44
0.0000000001
 40
0.0
 40
0.0
 40
0.0
 40
0.0
 40
0.120042403
 40
0.2418662094
 40
0.3652993691
 40
0.4901596538
 40
0.6162579594
 40
0.7433986986
 40
0.8713810446
 40
1.0
 40
1.0
 40
1.0
 40
1.0
 10
15.1183804679
 20
12.8958218475
 30
0.0
 10
15.1319737632
 20
12.8958218475
 30
0.0
 10
15.1593640438
 20
12.8953625637
 30
0.0
 10
15.2006865161
 20
12.893335584
 30
0.0
 10
15.2424691302
 20
12.8899701438
 30
0.0
 10
15.2846099281
 20
12.8852743921
 30
0.0
 10
15.3270066919
 20
12.8792597536
 30
0.0
 10
15.3695565606
 20
12.8719408081
 30
0.0
 10
15.4121557704
 20
12.8633354485
 30
0.0
 10
15.4404653554
 20
12.8567673264
 30
0.0
 10
15.4546048778
 20
12.853274756
 30
0.0
  0
SPLINE
  5
29A
100
AcDbEntity
  8
LAYER_FEATURE
100
AcDbSpline
 62
7
  6
CONTINUOUS
 70
0
 71
3
 72
65
 73
61
 74
0
 42
0.0000001
 43
0.0000001
 44
0.0000000001
 40
0.0
 40
0.0
 40
0.0
 40
0.0
 40
0.0171789291
 40
0.0345308212
 40
0.0520449304
 40
0.0697108277
 40
0.0875173419
 40
0.1054531223
 40
0.1235064948
 40
0.1416655296
 40
0.1599180701
 40
0.1782517576
 40
0.2151106903
 40
0.2521421454
 40
0.2892428502
 40
0.326308958
 40
0.3632369085
 40
0.3999242907
 40
0.4181471291
 40
0.4362723994
 40
0.4542880172
 40
0.4721821368
 40
0.4899431807
 40
0.5075598703
 40
0.5250212573
 40
0.5423167544
 40
0.5594361677
 40
0.5763697299
 40
0.5931081358
 40
0.6096425801
 40
0.6259647934
 40
0.6420670807
 40
0.6579423621
 40
0.6735842156
 40
0.6889869237
 40
0.704145519
 40
0.7190558316
 40
0.7337145398
 40
0.7481192228
 40
0.7622684175
 40
0.7761616751
 40
0.7897996169
 40
0.803183993
 40
0.8163177408
 40
0.8292050436
 40
0.8418513875
 40
0.8542636101
 40
0.8664499451
 40
0.8784200586
 40
0.8901850745
 40
0.9017575857
 40
0.913151645
 40
0.9243827344
 40
0.9354677115
 40
0.9464247275
 40
0.9572731187
 40
0.9680332657
 40
0.9787264248
 40
0.9893745343
 40
1.0
 40
1.0
 40
1.0
 40
1.0
 10
15.2902475575
 20
13.4519839534
 30
0.0
 10
15.2991182499
 20
13.4519839534
 30
0.0
 10
15.316949517
 20
13.4517887644
 30
0.0
 10
15.3438118809
 20
13.4509214928
 30
0.0
 10
15.3709014003
 20
13.4494790628
 30
0.0
 10
15.3981895926
 20
13.4474630345
 30
0.0
 10
15.4256482089
 20
13.4448754688
 30
0.0
 10
15.453248615
 20
13.4417190739
 30
0.0
 10
15.4809621092
 20
13.4379971309
 30
0.0
 10
15.5087598101
 20
13.4337135217
 30
0.0
 10
15.5366129095
 20
13.4288726933
 30
0.0
 10
15.5738494056
 20
13.4216696121
 30
0.0
 10
15.6203416414
 20
13.4113030075
 30
0.0
 10
15.675790179
 20
13.3967547784
 30
0.0
 10
15.7307659503
 20
13.3801363964
 30
0.0
 10
15.7850401695
 20
13.3615169588
 30
0.0
 10
15.8383869919
 20
13.3409740084
 30
0.0
 10
15.8819833279
 20
13.3222810293
 30
0.0
 10
15.9162068344
 20
13.306431919
 30
0.0
 10
15.9414495367
 20
13.29414631
 30
0.0
 10
15.9662970438
 20
13.2814488233
 30
0.0
 10
15.9907236025
 20
13.26835261
 30
0.0
 10
16.0147037587
 20
13.2548713133
 30
0.0
 10
16.0382125624
 20
13.2410189573
 30
0.0
 10
16.0612255481
 20
13.22680996
 30
0.0
 10
16.0837187689
 20
13.212259105
 30
0.0
 10
16.1056688178
 20
13.1973815294
 30
0.0
 10
16.1270528525
 20
13.1821927066
 30
0.0
 10
16.1478486208
 20
13.1667084311
 30
0.0
 10
16.1680344881
 20
13.1509448073
 30
0.0
 10
16.1875894544
 20
13.1349182247
 30
0.0
 10
16.206493175
 20
13.1186453417
 30
0.0
 10
16.2247259814
 20
13.1021430684
 30
0.0
 10
16.2422689007
 20
13.0854285468
 30
0.0
 10
16.2591036826
 20
13.0685191393
 30
0.0
 10
16.2752128129
 20
13.051432405
 30
0.0
 10
16.2905795278
 20
13.0341860798
 30
0.0
 10
16.3051878307
 20
13.016798059
 30
0.0
 10
16.319022506
 20
12.9992863764
 30
0.0
 10
16.3320691406
 20
12.9816691903
 30
0.0
 10
16.3443141374
 20
12.9639647634
 30
0.0
 10
16.3557447203
 20
12.9461914407
 30
0.0
 10
16.366348946
 20
12.9283676333
 30
0.0
 10
16.3761157129
 20
12.9105117998
 30
0.0
 10
16.3850347736
 20
12.8926424299
 30
0.0
 10
16.3930967508
 20
12.8747780316
 30
0.0
 10
16.4002931343
 20
12.8569371099
 30
0.0
 10
16.4066162884
 20
12.8391381546
 30
0.0
 10
16.4120594591
 20
12.8213996272
 30
0.0
 10
16.4166167807
 20
12.8037399469
 30
0.0
 10
16.4202832979
 20
12.7861774823
 30
0.0
 10
16.4230549649
 20
12.7687305352
 30
0.0
 10
16.4249286533
 20
12.7514173299
 30
0.0
 10
16.4259021658
 20
12.734255999
 30
0.0
 10
16.4259742484
 20
12.7172645733
 30
0.0
 10
16.4251446106
 20
12.7004609417
 30
0.0
 10
16.4234139603
 20
12.6838629056
 30
0.0
 10
16.4207839174
 20
12.6674878665
 30
0.0
 10
16.417257357
 20
12.6513538576
 30
0.0
 10
16.4143095261
 20
12.6407645788
 30
0.0
 10
16.4126896013
 20
12.6355224924
 30
0.0
  0
SPLINE
  5
29B
100
AcDbEntity
  8
LAYER_FEATURE
100
AcDbSpline
 62
7
  6
CONTINUOUS
 70
0
 71
3
 72
46
 73
42
 74
0
 42
0.0000001
 43
0.0000001
 44
0.0000000001
 40
0.0
 40
0.0
 40
0.0
 40
0.0
 40
0.039486567
 40
0.0787951377
 40
0.1178710033
 40
0.1566604551
 40
0.1951110319
 40
0.2331717734
 40
0.2707934805
 40
0.307928986
 40
0.3445334349
 40
0.3805645757
 40
0.4159830671
 40
0.4507528011
 40
0.4848412454
 40
0.5182198074
 40
0.5508642228
 40
0.5827549671
 40
0.6138776924
 40
0.6442236924
 40
0.6737903897
 40
0.702581842
 40
0.7306092586
 40
0.7578915079
 40
0.7844555952
 40
0.8103370805
 40
0.8355803946
 40
0.8479808503
 40
0.8602425834
 40
0.8723736748
 40
0.8843827605
 40
0.8962789949
 40
0.9080720413
 40
0.9197720392
 40
0.9313895664
 40
0.9429356095
 40
0.954421506
 40
0.9658589049
 40
0.9772597044
 40
0.9886359955
 40
1.0
 40
1.0
 40
1.0
 40
1.0
 10
15.6153022313
 20
12.7692902756
 30
0.0
 10
15.6280151051
 20
12.7645447224
 30
0.0
 10
15.6532596966
 20
12.7547392199
 30
0.0
 10
15.6906179119
 20
12.7390693695
 30
0.0
 10
15.7273222402
 20
12.7224967887
 30
0.0
 10
15.7632949607
 20
12.7050565425
 30
0.0
 10
15.7984603419
 20
12.6867853539
 30
0.0
 10
15.8327442436
 20
12.6677217347
 30
0.0
 10
15.8660744214
 20
12.6479058456
 30
0.0
 10
15.8983806424
 20
12.627379426
 30
0.0
 10
15.9295948445
 20
12.6061857004
 30
0.0
 10
15.9596512743
 20
12.5843692808
 30
0.0
 10
15.9884866255
 20
12.5619760693
 30
0.0
 10
16.0160401698
 20
12.5390531569
 30
0.0
 10
16.042253882
 20
12.5156487191
 30
0.0
 10
16.0670725575
 20
12.4918119079
 30
0.0
 10
16.0904439268
 20
12.4675927465
 30
0.0
 10
16.1123187533
 20
12.443042014
 30
0.0
 10
16.1326509236
 20
12.4182111339
 30
0.0
 10
16.1513975287
 20
12.3931520627
 30
0.0
 10
16.1685189353
 20
12.3679171784
 30
0.0
 10
16.1839788428
 20
12.3425591823
 30
0.0
 10
16.1977443422
 20
12.3171309717
 30
0.0
 10
16.2097859359
 20
12.2916856586
 30
0.0
 10
16.2200776413
 20
12.2662761048
 30
0.0
 10
16.2285967552
 20
12.2409562491
 30
0.0
 10
16.2342365736
 20
12.2198490374
 30
0.0
 10
16.2378263925
 20
12.2030758912
 30
0.0
 10
16.240050252
 20
12.190626189
 30
0.0
 10
16.2418200142
 20
12.1782397515
 30
0.0
 10
16.2431347932
 20
12.1659229914
 30
0.0
 10
16.2439938033
 20
12.1536824619
 30
0.0
 10
16.244396564
 20
12.141524642
 30
0.0
 10
16.2443428328
 20
12.1294559834
 30
0.0
 10
16.2438325644
 20
12.117482895
 30
0.0
 10
16.2428660462
 20
12.1056117415
 30
0.0
 10
16.2414437047
 20
12.0938488386
 30
0.0
 10
16.2395663213
 20
12.0822004637
 30
0.0
 10
16.2372348291
 20
12.070672763
 30
0.0
 10
16.2344505295
 20
12.0592721202
 30
0.0
 10
16.2322928832
 20
12.0517585042
 30
0.0
 10
16.2311398588
 20
12.0480273102
 30
0.0
  0
SPLINE
  5
29C
100
AcDbEntity
  8
LAYER_FEATURE
100
AcDbSpline
 62
7
  6
CONTINUOUS
 70
0
 71
3
 72
78
 73
74
 74
0
 42
0.0000001
 43
0.0000001
 44
0.0000000001
 40
0.0
 40
0.0
 40
0.0
 40
0.0
 40
0.0053541098
 40
0.0107129091
 40
0.0160810664
 40
0.0214632111
 40
0.0268639112
 40
0.0322876585
 40
0.0377388457
 40
0.0432217569
 40
0.0487405439
 40
0.0542992227
 40
0.0599016502
 40
0.0655515264
 40
0.0770061088
 40
0.0886904833
 40
0.1006276343
 40
0.1128374476
 40
0.119050525
 40
0.1253378045
 40
0.1381402471
 40
0.1512566577
 40
0.1646949955
 40
0.1784605391
 40
0.1925560405
 40
0.2069818852
 40
0.2217362497
 40
0.2368152568
 40
0.2522131245
 40
0.2679223083
 40
0.2839336364
 40
0.3002364373
 40
0.3168186609
 40
0.333666992
 40
0.3507669589
 40
0.3681030357
 40
0.3856587396
 40
0.4034167245
 40
0.4213588699
 40
0.4394663669
 40
0.4577198016
 40
0.4760992358
 40
0.4945842851
 40
0.5131541964
 40
0.5317879233
 40
0.5504642006
 40
0.5691616178
 40
0.5878586929
 40
0.6065339449
 40
0.6251659668
 40
0.6437334994
 40
0.6622155043
 40
0.680591239
 40
0.6988403323
 40
0.7169428613
 40
0.73487943
 40
0.7526312504
 40
0.7701802253
 40
0.7875090345
 40
0.8046012243
 40
0.8214413009
 40
0.8380148277
 40
0.8543085282
 40
0.8703103943
 40
0.8860098005
 40
0.9013976246
 40
0.9164663761
 40
0.9312103318
 40
0.9456256761
 40
0.9597106576
 40
0.9734657236
 40
0.9868937291
 40
1.0
 40
1.0
 40
1.0
 40
1.0
 10
14.7475318479
 20
12.5494034143
 30
0.0
 10
14.7483183536
 20
12.5519485549
 30
0.0
 10
14.749984208
 20
12.5570131122
 30
0.0
 10
14.7527574178
 20
12.5645198937
 30
0.0
 10
14.7558043396
 20
12.5719349974
 30
0.0
 10
14.7591236552
 20
12.5792550823
 30
0.0
 10
14.7627138932
 20
12.5864770563
 30
0.0
 10
14.7665735424
 20
12.5935977809
 30
0.0
 10
14.7707008826
 20
12.6006142291
 30
0.0
 10
14.7750941749
 20
12.6075233581
 30
0.0
 10
14.7797514719
 20
12.6143222455
 30
0.0
 10
14.78467079
 20
12.6210079264
 30
0.0
 10
14.7898500257
 20
12.6275776466
 30
0.0
 10
14.7971318767
 20
12.636217601
 30
0.0
 10
14.8068894256
 20
12.6467179254
 30
0.0
 10
14.8195451936
 20
12.6587496539
 30
0.0
 10
14.8331795789
 20
12.6702509885
 30
0.0
 10
14.8452668041
 20
12.6793242454
 30
0.0
 10
14.8553906406
 20
12.6863019654
 30
0.0
 10
14.8659429917
 20
12.6931699173
 30
0.0
 10
14.8797101996
 20
12.7013838677
 30
0.0
 10
14.8970067993
 20
12.7105797169
 30
0.0
 10
14.9151488528
 20
12.7191584751
 30
0.0
 10
14.9341050759
 20
12.7271055935
 30
0.0
 10
14.9538432177
 20
12.7344078107
 30
0.0
 10
14.9743296076
 20
12.7410528575
 30
0.0
 10
14.995529341
 20
12.7470295696
 30
0.0
 10
15.0174062936
 20
12.7523278858
 30
0.0
 10
15.0399231881
 20
12.756938876
 30
0.0
 10
15.0630416512
 20
12.7608547593
 30
0.0
 10
15.0867222772
 20
12.764068921
 30
0.0
 10
15.1109246941
 20
12.7665759282
 30
0.0
 10
15.1356076311
 20
12.7683715418
 30
0.0
 10
15.1607289888
 20
12.7694527265
 30
0.0
 10
15.1862459115
 20
12.7698176583
 30
0.0
 10
15.2121148606
 20
12.76946573
 30
0.0
 10
15.2382916889
 20
12.7683975532
 30
0.0
 10
15.2647317173
 20
12.7666149591
 30
0.0
 10
15.2913898111
 20
12.7641209962
 30
0.0
 10
15.3182204582
 20
12.760919926
 30
0.0
 10
15.3451778471
 20
12.7570172164
 30
0.0
 10
15.372215946
 20
12.752419533
 30
0.0
 10
15.3992885822
 20
12.747134728
 30
0.0
 10
15.426349521
 20
12.741171827
 30
0.0
 10
15.4533525459
 20
12.7345410139
 30
0.0
 10
15.4802515377
 20
12.7272536136
 30
0.0
 10
15.507000554
 20
12.7193220726
 30
0.0
 10
15.5335539079
 20
12.7107599378
 30
0.0
 10
15.5598662469
 20
12.7015818333
 30
0.0
 10
15.5858926307
 20
12.6918034349
 30
0.0
 10
15.611588608
 20
12.6814414434
 30
0.0
 10
15.6369102936
 20
12.6705135558
 30
0.0
 10
15.661814443
 20
12.6590384343
 30
0.0
 10
15.6862585274
 20
12.6470356743
 30
0.0
 10
15.7102008058
 20
12.6345257702
 30
0.0
 10
15.7336003974
 20
12.6215300798
 30
0.0
 10
15.756417351
 20
12.608070787
 30
0.0
 10
15.778612714
 20
12.5941708627
 30
0.0
 10
15.8001485984
 20
12.5798540249
 30
0.0
 10
15.8209882457
 20
12.5651446968
 30
0.0
 10
15.8410960893
 20
12.5500679636
 30
0.0
 10
15.8604378148
 20
12.534649528
 30
0.0
 10
15.8789804177
 20
12.5189156649
 30
0.0
 10
15.8966922581
 20
12.5028931741
 30
0.0
 10
15.9135431135
 20
12.4866093326
 30
0.0
 10
15.9295042273
 20
12.4700918462
 30
0.0
 10
15.9445483558
 20
12.4533687989
 30
0.0
 10
15.9586498058
 20
12.4364686082
 30
0.0
 10
15.971784488
 20
12.4194199551
 30
0.0
 10
15.9839299031
 20
12.4022518099
 30
0.0
 10
15.9950653273
 20
12.3849931097
 30
0.0
 10
16.0051713266
 20
12.3676736923
 30
0.0
 10
16.0112843408
 20
12.3559654757
 30
0.0
 10
16.0141570843
 20
12.3501114399
 30
0.0
  0
SPLINE
  5
29D
100
AcDbEntity
  8
LAYER_CUT_FEAT
100
AcDbSpline
 62
7
  6
CONTINUOUS
 70
0
 71
3
 72
78
 73
74
 74
0
 42
0.0000001
 43
0.0000001
 44
0.0000000001
 40
0.0
 40
0.0
 40
0.0
 40
0.0
 40
0.0053541098
 40
0.0107129091
 40
0.0160810664
 40
0.0214632111
 40
0.0268639112
 40
0.0322876585
 40
0.0377388457
 40
0.0432217569
 40
0.0487405439
 40
0.0542992227
 40
0.0599016502
 40
0.0655515264
 40
0.0770061088
 40
0.0886904833
 40
0.1006276343
 40
0.1128374476
 40
0.119050525
 40
0.1253378045
 40
0.1381402471
 40
0.1512566577
 40
0.1646949955
 40
0.1784605391
 40
0.1925560405
 40
0.2069818852
 40
0.2217362497
 40
0.2368152568
 40
0.2522131245
 40
0.2679223083
 40
0.2839336364
 40
0.3002364373
 40
0.3168186609
 40
0.333666992
 40
0.3507669589
 40
0.3681030357
 40
0.3856587396
 40
0.4034167245
 40
0.4213588699
 40
0.4394663669
 40
0.4577198016
 40
0.4760992358
 40
0.4945842851
 40
0.5131541964
 40
0.5317879233
 40
0.5504642006
 40
0.5691616178
 40
0.5878586929
 40
0.6065339449
 40
0.6251659668
 40
0.6437334994
 40
0.6622155043
 40
0.680591239
 40
0.6988403323
 40
0.7169428613
 40
0.73487943
 40
0.7526312504
 40
0.7701802253
 40
0.7875090345
 40
0.8046012243
 40
0.8214413009
 40
0.8380148277
 40
0.8543085282
 40
0.8703103943
 40
0.8860098005
 40
0.9013976246
 40
0.9164663761
 40
0.9312103318
 40
0.9456256761
 40
0.9597106576
 40
0.9734657236
 40
0.9868937291
 40
1.0
 40
1.0
 40
1.0
 40
1.0
 10
14.7354285317
 20
12.5102370688
 30
0.0
 10
14.7362150375
 20
12.5127822094
 30
0.0
 10
14.7378808918
 20
12.5178467667
 30
0.0
 10
14.7406541016
 20
12.5253535483
 30
0.0
 10
14.7437010234
 20
12.5327686519
 30
0.0
 10
14.7470203391
 20
12.5400887369
 30
0.0
 10
14.750610577
 20
12.5473107108
 30
0.0
 10
14.7544702262
 20
12.5544314354
 30
0.0
 10
14.7585975665
 20
12.5614478836
 30
0.0
 10
14.7629908588
 20
12.5683570126
 30
0.0
 10
14.7676481557
 20
12.5751559
 30
0.0
 10
14.7725674738
 20
12.5818415809
 30
0.0
 10
14.7777467096
 20
12.5884113011
 30
0.0
 10
14.7850285605
 20
12.5970512555
 30
0.0
 10
14.7947861094
 20
12.6075515799
 30
0.0
 10
14.8074418774
 20
12.6195833084
 30
0.0
 10
14.8210762627
 20
12.6310846431
 30
0.0
 10
14.8331634879
 20
12.6401578999
 30
0.0
 10
14.8432873244
 20
12.6471356199
 30
0.0
 10
14.8538396755
 20
12.6540035718
 30
0.0
 10
14.8676068835
 20
12.6622175222
 30
0.0
 10
14.8849034831
 20
12.6714133714
 30
0.0
 10
14.9030455367
 20
12.6799921296
 30
0.0
 10
14.9220017598
 20
12.6879392481
 30
0.0
 10
14.9417399016
 20
12.6952414652
 30
0.0
 10
14.9622262914
 20
12.701886512
 30
0.0
 10
14.9834260249
 20
12.7078632242
 30
0.0
 10
15.0053029775
 20
12.7131615403
 30
0.0
 10
15.0278198719
 20
12.7177725306
 30
0.0
 10
15.050938335
 20
12.7216884138
 30
0.0
 10
15.0746189611
 20
12.7249025755
 30
0.0
 10
15.098821378
 20
12.7274095828
 30
0.0
 10
15.1235043149
 20
12.7292051963
 30
0.0
 10
15.1486256726
 20
12.730286381
 30
0.0
 10
15.1741425954
 20
12.7306513128
 30
0.0
 10
15.2000115444
 20
12.7302993845
 30
0.0
 10
15.2261883727
 20
12.7292312077
 30
0.0
 10
15.2526284011
 20
12.7274486136
 30
0.0
 10
15.2792864949
 20
12.7249546507
 30
0.0
 10
15.306117142
 20
12.7217535805
 30
0.0
 10
15.3330745309
 20
12.7178508709
 30
0.0
 10
15.3601126299
 20
12.7132531875
 30
0.0
 10
15.387185266
 20
12.7079683825
 30
0.0
 10
15.4142462048
 20
12.7020054815
 30
0.0
 10
15.4412492297
 20
12.6953746684
 30
0.0
 10
15.4681482215
 20
12.6880872681
 30
0.0
 10
15.4948972378
 20
12.6801557271
 30
0.0
 10
15.5214505917
 20
12.6715935924
 30
0.0
 10
15.5477629308
 20
12.6624154878
 30
0.0
 10
15.5737893145
 20
12.6526370894
 30
0.0
 10
15.5994852918
 20
12.6422750979
 30
0.0
 10
15.6248069774
 20
12.6313472103
 30
0.0
 10
15.6497111269
 20
12.6198720888
 30
0.0
 10
15.6741552112
 20
12.6078693288
 30
0.0
 10
15.6980974896
 20
12.5953594247
 30
0.0
 10
15.7214970812
 20
12.5823637344
 30
0.0
 10
15.7443140349
 20
12.5689044415
 30
0.0
 10
15.7665093979
 20
12.5550045172
 30
0.0
 10
15.7880452822
 20
12.5406876794
 30
0.0
 10
15.8088849295
 20
12.5259783513
 30
0.0
 10
15.8289927731
 20
12.5109016181
 30
0.0
 10
15.8483344987
 20
12.4954831826
 30
0.0
 10
15.8668771015
 20
12.4797493195
 30
0.0
 10
15.8845889419
 20
12.4637268286
 30
0.0
 10
15.9014397974
 20
12.4474429871
 30
0.0
 10
15.9174009112
 20
12.4309255007
 30
0.0
 10
15.9324450396
 20
12.4142024534
 30
0.0
 10
15.9465464897
 20
12.3973022628
 30
0.0
 10
15.9596811718
 20
12.3802536096
 30
0.0
 10
15.9718265869
 20
12.3630854644
 30
0.0
 10
15.9829620111
 20
12.3458267643
 30
0.0
 10
15.9930680104
 20
12.3285073469
 30
0.0
 10
15.9991810246
 20
12.3167991302
 30
0.0
 10
16.0020537681
 20
12.3109450944
 30
0.0
  0
SPLINE
  5
29E
100
AcDbEntity
  8
LAYER_CHAMFER_FEAT
100
AcDbSpline
 62
7
  6
CONTINUOUS
 70
0
 71
3
 72
65
 73
61
 74
0
 42
0.0000001
 43
0.0000001
 44
0.0000000001
 40
0.0
 40
0.0
 40
0.0
 40
0.0
 40
0.0157585323
 40
0.0311485609
 40
0.0461664119
 40
0.0608111599
 40
0.0750848483
 40
0.0889927286
 40
0.1025434767
 40
0.1157493838
 40
0.1286265392
 40
0.1411949883
 40
0.1534788079
 40
0.1655060899
 40
0.1773088317
 40
0.1889227066
 40
0.2003866701
 40
0.2117424149
 40
0.2230336911
 40
0.2343055118
 40
0.2456032747
 40
0.2569718641
 40
0.2684547866
 40
0.2800933806
 40
0.2919261549
 40
0.3039882775
 40
0.3163112093
 40
0.3289224684
 40
0.3418455412
 40
0.3550999027
 40
0.3687011037
 40
0.3826609004
 40
0.3969874523
 40
0.4116855418
 40
0.42675679
 40
0.4421998582
 40
0.4580106802
 40
0.4741826816
 40
0.4907069751
 40
0.5075725311
 40
0.5247663714
 40
0.5422737455
 40
0.5600782817
 40
0.578162122
 40
0.5965060773
 40
0.6150897662
 40
0.6338917365
 40
0.6528895771
 40
0.6913757996
 40
0.730358105
 40
0.7696345506
 40
0.8089985506
 40
0.8482421445
 40
0.8871592589
 40
0.9064339941
 40
0.9255524195
 40
0.9444908055
 40
0.9632259086
 40
0.9817364833
 40
1.0
 40
1.0
 40
1.0
 40
1.0
 10
15.1372983128
 20
12.0472180874
 30
0.0
 10
15.1348143944
 20
12.0466339213
 30
0.0
 10
15.129926124
 20
12.045385166
 30
0.0
 10
15.1227622514
 20
12.0432422513
 30
0.0
 10
15.1158661639
 20
12.0408554955
 30
0.0
 10
15.1092515171
 20
12.038229527
 30
0.0
 10
15.1029312512
 20
12.0353693773
 30
0.0
 10
15.0969177826
 20
12.0322805414
 30
0.0
 10
15.0912229294
 20
12.0289689476
 30
0.0
 10
15.0858579223
 20
12.0254409365
 30
0.0
 10
15.0808333916
 20
12.0217032521
 30
0.0
 10
15.0761593366
 20
12.0177630624
 30
0.0
 10
15.0718451153
 20
12.0136279495
 30
0.0
 10
15.0678994429
 20
12.0093058986
 30
0.0
 10
15.0643303765
 20
12.0048053044
 30
0.0
 10
15.0611452579
 20
12.0001349976
 30
0.0
 10
15.0583506855
 20
11.9953042331
 30
0.0
 10
15.0559524891
 20
11.9903226715
 30
0.0
 10
15.0539556893
 20
11.9852003602
 30
0.0
 10
15.0523644188
 20
11.9799477124
 30
0.0
 10
15.0511819059
 20
11.9745754446
 30
0.0
 10
15.0504104762
 20
11.969094515
 30
0.0
 10
15.0500515559
 20
11.96351607
 30
0.0
 10
15.0501056481
 20
11.9578513954
 30
0.0
 10
15.0505723805
 20
11.9521118672
 30
0.0
 10
15.0514505525
 20
11.9463089228
 30
0.0
 10
15.0527381647
 20
11.9404540475
 30
0.0
 10
15.0544324063
 20
11.9345587567
 30
0.0
 10
15.0565296995
 20
11.9286345893
 30
0.0
 10
15.0590257255
 20
11.9226931044
 30
0.0
 10
15.0619154328
 20
11.9167458779
 30
0.0
 10
15.0651930127
 20
11.9108044779
 30
0.0
 10
15.0688519298
 20
11.904880459
 30
0.0
 10
15.0728849377
 20
11.8989853488
 30
0.0
 10
15.0772840857
 20
11.8931306335
 30
0.0
 10
15.0820407028
 20
11.8873277193
 30
0.0
 10
15.0871454305
 20
11.8815879229
 30
0.0
 10
15.092588244
 20
11.8759224521
 30
0.0
 10
15.0983584667
 20
11.8703423867
 30
0.0
 10
15.1044447671
 20
11.8648586352
 30
0.0
 10
15.1108351971
 20
11.8594819275
 30
0.0
 10
15.1175172186
 20
11.8542227953
 30
0.0
 10
15.1244777255
 20
11.8490915525
 30
0.0
 10
15.13170305
 20
11.8440982545
 30
0.0
 10
15.1391790103
 20
11.8392526881
 30
0.0
 10
15.1468909153
 20
11.8345643744
 30
0.0
 10
15.1548236916
 20
11.830042477
 30
0.0
 10
15.1657206477
 20
11.8242223854
 30
0.0
 10
15.1797936249
 20
11.8174257078
 30
0.0
 10
15.197229952
 20
11.8101018938
 30
0.0
 10
15.2151521574
 20
11.8036320794
 30
0.0
 10
15.2334197859
 20
11.7980670536
 30
0.0
 10
15.2518896436
 20
11.7934503549
 30
0.0
 10
15.2673796978
 20
11.7904135916
 30
0.0
 10
15.2797510149
 20
11.7884923262
 30
0.0
 10
15.2889603206
 20
11.7873128526
 30
0.0
 10
15.2981112843
 20
11.7863926556
 30
0.0
 10
15.3071861415
 20
11.7857334929
 30
0.0
 10
15.3161668242
 20
11.7853367291
 30
0.0
 10
15.3221217848
 20
11.7852469902
 30
0.0
 10
15.325079088
 20
11.7852469902
 30
0.0
  0
SPLINE
  5
29F
100
AcDbEntity
  8
LAYER_CHAMFER_FEAT
100
AcDbSpline
 62
7
  6
CONTINUOUS
 70
0
 71
3
 72
48
 73
44
 74
0
 42
0.0000001
 43
0.0000001
 44
0.0000000001
 40
0.0
 40
0.0
 40
0.0
 40
0.0
 40
0.035733588
 40
0.0703709686
 40
0.1039027007
 40
0.1363338806
 40
0.1676855884
 40
0.197996311
 40
0.2273232373
 40
0.2557432705
 40
0.2833535491
 40
0.2968943601
 40
0.3102782913
 40
0.3235229259
 40
0.3366468398
 40
0.3496695683
 40
0.3626114161
 40
0.3754933668
 40
0.3883368803
 40
0.4011637499
 40
0.4139959037
 40
0.4268552247
 40
0.439763374
 40
0.4527415941
 40
0.4658105717
 40
0.4789902452
 40
0.4922997161
 40
0.5057570798
 40
0.5193793858
 40
0.5471747096
 40
0.5758050344
 40
0.605362613
 40
0.635919531
 40
0.6675283668
 40
0.70022329
 40
0.7340213992
 40
0.7689241574
 40
0.8049188378
 40
0.8419798984
 40
0.8800703363
 40
0.9191427809
 40
0.9591409277
 40
1.0
 40
1.0
 40
1.0
 40
1.0
 10
15.4322177947
 20
11.9560810737
 30
0.0
 10
15.4344519742
 20
11.9536361455
 30
0.0
 10
15.4387332063
 20
11.948710986
 30
0.0
 10
15.444655924
 20
11.9411113828
 30
0.0
 10
15.4499618873
 20
11.9334374787
 30
0.0
 10
15.4546330798
 20
11.9257146879
 30
0.0
 10
15.4586537506
 20
11.9179682392
 30
0.0
 10
15.4620100991
 20
11.9102235512
 30
0.0
 10
15.4646903808
 20
11.9025058878
 30
0.0
 10
15.4666848789
 20
11.8948411353
 30
0.0
 10
15.4677762219
 20
11.8884767916
 30
0.0
 10
15.4682925032
 20
11.8834471418
 30
0.0
 10
15.4685026759
 20
11.8797285781
 30
0.0
 10
15.4685380729
 20
11.8760429087
 30
0.0
 10
15.4683985818
 20
11.8723931576
 30
0.0
 10
15.4680843653
 20
11.8687824227
 30
0.0
 10
15.4675955873
 20
11.8652137564
 30
0.0
 10
15.4669327226
 20
11.8616901708
 30
0.0
 10
15.4660962386
 20
11.8582146662
 30
0.0
 10
15.465086916
 20
11.8547901704
 30
0.0
 10
15.463905531
 20
11.8514196092
 30
0.0
 10
15.4625531641
 20
11.8481058111
 30
0.0
 10
15.4610308994
 20
11.8448516085
 30
0.0
 10
15.459340107
 20
11.8416597164
 30
0.0
 10
15.4574821732
 20
11.8385328577
 30
0.0
 10
15.4554587414
 20
11.8354736203
 30
0.0
 10
15.4532715044
 20
11.8324846151
 30
0.0
 10
15.4509223131
 20
11.8295682545
 30
0.0
 10
15.4475546589
 20
11.8257548292
 30
0.0
 10
15.4429359644
 20
11.8211794606
 30
0.0
 10
15.4368195148
 20
11.8160574689
 30
0.0
 10
15.4301122133
 20
11.8112825461
 30
0.0
 10
15.4228371005
 20
11.8068702848
 30
0.0
 10
15.4150185317
 20
11.8028346415
 30
0.0
 10
15.4066826184
 20
11.7991885264
 30
0.0
 10
15.3978570627
 20
11.7959436108
 30
0.0
 10
15.3885711444
 20
11.7931103342
 30
0.0
 10
15.3788556461
 20
11.7906978498
 30
0.0
 10
15.3687427675
 20
11.7887139787
 30
0.0
 10
15.3582660607
 20
11.7871651799
 30
0.0
 10
15.3474602185
 20
11.7860564966
 30
0.0
 10
15.3363613422
 20
11.7853915584
 30
0.0
 10
15.3288661288
 20
11.7852469902
 30
0.0
 10
15.325079088
 20
11.7852469902
 30
0.0
  0
SPLINE
  5
2A0
100
AcDbEntity
  8
02___PRT_ALL_AXES
100
AcDbSpline
 62
7
  6
CONTINUOUS
 70
0
 71
3
 72
56
 73
52
 74
0
 42
0.0000001
 43
0.0000001
 44
0.0000000001
 40
0.0
 40
0.0
 40
0.0
 40
0.0
 40
0.0345294175
 40
0.0697081288
 40
0.1054492284
 40
0.1416605161
 40
0.1782456823
 40
0.21510521
 40
0.2521372626
 40
0.2892385664
 40
0.3263052722
 40
0.363233819
 40
0.3999217928
 40
0.4362688038
 40
0.4721773729
 40
0.5075538495
 40
0.5423093687
 40
0.5594290575
 40
0.5763628919
 40
0.5931015681
 40
0.6096362805
 40
0.6259587581
 40
0.6420613044
 40
0.6579368405
 40
0.6735789463
 40
0.6889819045
 40
0.7041407457
 40
0.7190512982
 40
0.7337102412
 40
0.7481151563
 40
0.7622645808
 40
0.7761580641
 40
0.7897962256
 40
0.8031808159
 40
0.8163147748
 40
0.8292022869
 40
0.8418488365
 40
0.8542612593
 40
0.8664477894
 40
0.8784180952
 40
0.8901833017
 40
0.901756001
 40
0.9131502444
 40
0.9243815142
 40
0.9354666694
 40
0.9464238625
 40
0.9572724295
 40
0.9680327504
 40
0.9787260818
 40
0.9893743629
 40
1.0
 40
1.0
 40
1.0
 40
1.0
 10
15.2087515472
 20
12.6606007016
 30
0.0
 10
15.2200139817
 20
12.6606007016
 30
0.0
 10
15.242753336
 20
12.6601007563
 30
0.0
 10
15.2770868009
 20
12.6579079388
 30
0.0
 10
15.3118495917
 20
12.6542737907
 30
0.0
 10
15.3468965819
 20
12.649213413
 30
0.0
 10
15.3820824896
 20
12.6427478391
 30
0.0
 10
15.4172611194
 20
12.6349039062
 30
0.0
 10
15.4522863728
 20
12.6257142127
 30
0.0
 10
15.4870127436
 20
12.6152169246
 30
0.0
 10
15.5212959693
 20
12.6034556477
 30
0.0
 10
15.5549936324
 20
12.5904792548
 30
0.0
 10
15.5879657595
 20
12.5763416258
 30
0.0
 10
15.6200753854
 20
12.561101508
 30
0.0
 10
15.6511892846
 20
12.5448221058
 30
0.0
 10
15.6811778929
 20
12.5275712038
 30
0.0
 10
15.7052473717
 20
12.5123695197
 30
0.0
 10
15.7238267074
 20
12.4997766275
 30
0.0
 10
15.7373343482
 20
12.4901823022
 30
0.0
 10
15.7504703512
 20
12.4804013973
 30
0.0
 10
15.7632211145
 20
12.4704440259
 30
0.0
 10
15.775573354
 20
12.4603205547
 30
0.0
 10
15.7875142203
 20
12.4500415003
 30
0.0
 10
15.7990312905
 20
12.4396175469
 30
0.0
 10
15.8101125845
 20
12.4290595255
 30
0.0
 10
15.8207465735
 20
12.4183784021
 30
0.0
 10
15.8309221915
 20
12.4075852669
 30
0.0
 10
15.8406288459
 20
12.3966913211
 30
0.0
 10
15.8498564338
 20
12.3857078699
 30
0.0
 10
15.8585953494
 20
12.3746463072
 30
0.0
 10
15.8668364889
 20
12.3635181028
 30
0.0
 10
15.8745712599
 20
12.3523347911
 30
0.0
 10
15.8817915876
 20
12.3411079584
 30
0.0
 10
15.8884899292
 20
12.3298492354
 30
0.0
 10
15.8946592777
 20
12.3185702835
 30
0.0
 10
15.9002931626
 20
12.3072827824
 30
0.0
 10
15.9053856565
 20
12.2959984216
 30
0.0
 10
15.9099313782
 20
12.284728889
 30
0.0
 10
15.9139255055
 20
12.2734858649
 30
0.0
 10
15.9173637771
 20
12.2622810116
 30
0.0
 10
15.9202424923
 20
12.2511259641
 30
0.0
 10
15.9225585175
 20
12.2400323245
 30
0.0
 10
15.9243092898
 20
12.2290116529
 30
0.0
 10
15.9254928338
 20
12.2180754621
 30
0.0
 10
15.9261077666
 20
12.2072352057
 30
0.0
 10
15.9261533006
 20
12.1965022726
 30
0.0
 10
15.9256292508
 20
12.1858879622
 30
0.0
 10
15.9245360556
 20
12.1754035202
 30
0.0
 10
15.9228747397
 20
12.1650599389
 30
0.0
 10
15.9206471192
 20
12.1548686101
 30
0.0
 10
15.9187850777
 20
12.1481797036
 30
0.0
 10
15.9177618196
 20
12.1448684487
 30
0.0
  0
SPLINE
  5
2A1
100
AcDbEntity
  8
02___PRT_ALL_AXES
100
AcDbSpline
 62
7
  6
CONTINUOUS
 70
0
 71
3
 72
39
 73
35
 74
0
 42
0.0000001
 43
0.0000001
 44
0.0000000001
 40
0.0
 40
0.0
 40
0.0
 40
0.0
 40
0.0396653744
 40
0.0788626132
 40
0.1175692064
 40
0.1557638026
 40
0.1934266651
 40
0.2305396233
 40
0.2670862409
 40
0.3030519232
 40
0.3384240485
 40
0.3731921007
 40
0.4073478094
 40
0.4408852951
 40
0.4738012208
 40
0.5060949468
 40
0.537768691
 40
0.5688276895
 40
0.5992803578
 40
0.6291384466
 40
0.6584171907
 40
0.6871354433
 40
0.7153157893
 40
0.7429846315
 40
0.7701722372
 40
0.7969127395
 40
0.8232440793
 40
0.8492078819
 40
0.8748492565
 40
0.9002165149
 40
0.9253608058
 40
0.950335667
 40
0.9751965029
 40
1.0
 40
1.0
 40
1.0
 40
1.0
 10
15.0877183855
 20
12.2689372467
 30
0.0
 10
15.0819451534
 20
12.2689372467
 30
0.0
 10
15.070466368
 20
12.2688077953
 30
0.0
 10
15.0533630309
 20
12.268217738
 30
0.0
 10
15.0364921175
 20
12.2672335802
 30
0.0
 10
15.0198727679
 20
12.26585642
 30
0.0
 10
15.0035237134
 20
12.264087806
 30
0.0
 10
14.9874634029
 20
12.2619297209
 30
0.0
 10
14.9717099522
 20
12.259384586
 30
0.0
 10
14.9562811302
 20
12.256455255
 30
0.0
 10
14.9411943377
 20
12.2531450109
 30
0.0
 10
14.9264665881
 20
12.2494575616
 30
0.0
 10
14.9121144891
 20
12.2453970346
 30
0.0
 10
14.8981542245
 20
12.2409679721
 30
0.0
 10
14.8846015369
 20
12.2361753244
 30
0.0
 10
14.8714717117
 20
12.2310244439
 30
0.0
 10
14.8587795612
 20
12.2255210782
 30
0.0
 10
14.84653941
 20
12.219671363
 30
0.0
 10
14.8347650816
 20
12.2134818157
 30
0.0
 10
14.8234698854
 20
12.2069593278
 30
0.0
 10
14.8126666047
 20
12.2001111588
 30
0.0
 10
14.8023674859
 20
12.1929449293
 30
0.0
 10
14.7925842279
 20
12.1854686163
 30
0.0
 10
14.7833279713
 20
12.1776905479
 30
0.0
 10
14.7746092889
 20
12.1696193995
 30
0.0
 10
14.7664381743
 20
12.1612641904
 30
0.0
 10
14.7588240302
 20
12.1526342817
 30
0.0
 10
14.7517756546
 20
12.1437393728
 30
0.0
 10
14.7453012265
 20
12.1345895023
 30
0.0
 10
14.7394082834
 20
12.1251950281
 30
0.0
 10
14.73410372
 20
12.1155666757
 30
0.0
 10
14.7293937037
 20
12.1057153229
 30
0.0
 10
14.7252838909
 20
12.0956527422
 30
0.0
 10
14.7229460854
 20
12.0888074601
 30
0.0
 10
14.7218802114
 20
12.0853582858
 30
0.0
  0
SPLINE
  5
2A2
100
AcDbEntity
  8
LAYER_CUT_FEAT
100
AcDbSpline
 62
7
  6
CONTINUOUS
 70
0
 71
3
 72
22
 73
18
 74
0
 42
0.0000001
 43
0.0000001
 44
0.0000000001
 40
0.0
 40
0.0
 40
0.0
 40
0.0
 40
0.1381197804
 40
0.2053664349
 40
0.2714549095
 40
0.3364371394
 40
0.400372579
 40
0.4633278449
 40
0.5253764087
 40
0.5865986111
 40
0.6470813103
 40
0.7069174443
 40
0.7662055009
 40
0.8250488566
 40
0.8835549595
 40
0.9418344164
 40
1.0
 40
1.0
 40
1.0
 40
1.0
 10
16.0020537681
 20
12.3109450944
 30
0.0
 10
16.0062232459
 20
12.3024485921
 30
0.0
 10
16.0119684583
 20
12.289582315
 30
0.0
 10
16.0185210532
 20
12.2721697451
 30
0.0
 10
16.0227818709
 20
12.259261203
 30
0.0
 10
16.0264278012
 20
12.2464015043
 30
0.0
 10
16.0294554008
 20
12.2336025749
 30
0.0
 10
16.0318616034
 20
12.2208767511
 30
0.0
 10
16.0336439546
 20
12.2082361904
 30
0.0
 10
16.0348006024
 20
12.1956930386
 30
0.0
 10
16.0353303038
 20
12.183259364
 30
0.0
 10
16.0352324078
 20
12.1709471652
 30
0.0
 10
16.0345068634
 20
12.1587683452
 30
0.0
 10
16.0331542856
 20
12.1467347463
 30
0.0
 10
16.0311758631
 20
12.1348579424
 30
0.0
 10
16.02857358
 20
12.1231499321
 30
0.0
 10
16.026423425
 20
12.1154611352
 30
0.0
 10
16.0252466626
 20
12.11165312
 30
0.0
  0
SPLINE
  5
2A3
100
AcDbEntity
  8
02___PRT_ALL_AXES
100
AcDbSpline
 62
7
  6
CONTINUOUS
 70
0
 71
3
 72
56
 73
52
 74
0
 42
0.0000001
 43
0.0000001
 44
0.0000000001
 40
0.0
 40
0.0
 40
0.0
 40
0.0
 40
0.0345293607
 40
0.0697081241
 40
0.1054492284
 40
0.1416605156
 40
0.1782456821
 40
0.2151052095
 40
0.2521372622
 40
0.2892385659
 40
0.326305272
 40
0.3632338185
 40
0.3999217926
 40
0.4362688034
 40
0.4721773723
 40
0.5075538496
 40
0.5423093679
 40
0.559429057
 40
0.5763628921
 40
0.5931015687
 40
0.6096362806
 40
0.6259587574
 40
0.642061304
 40
0.6579368408
 40
0.673578947
 40
0.6889819044
 40
0.7041407446
 40
0.7190512973
 40
0.7337102412
 40
0.7481151566
 40
0.7622645806
 40
0.776158063
 40
0.7897962247
 40
0.8031808161
 40
0.8163147755
 40
0.8292022871
 40
0.8418488359
 40
0.8542612589
 40
0.8664477899
 40
0.878418096
 40
0.890183302
 40
0.9017560006
 40
0.9131502439
 40
0.9243815143
 40
0.9354666697
 40
0.9464238625
 40
0.9572724292
 40
0.96803275
 40
0.9787260816
 40
0.9893743628
 40
1.0
 40
1.0
 40
1.0
 40
1.0
 10
15.0877183855
 20
12.2689372467
 30
0.0
 10
15.0989808014
 20
12.2689372467
 30
0.0
 10
15.1217201542
 20
12.2684373017
 30
0.0
 10
15.1560536195
 20
12.2662444866
 30
0.0
 10
15.1908164285
 20
12.2626103357
 30
0.0
 10
15.2258634207
 20
12.2575499609
 30
0.0
 10
15.2610493273
 20
12.2510843819
 30
0.0
 10
15.2962279583
 20
12.243240454
 30
0.0
 10
15.3312532112
 20
12.2340507584
 30
0.0
 10
15.3659795819
 20
12.2235534698
 30
0.0
 10
15.4002628089
 20
12.2117921963
 30
0.0
 10
15.4339604702
 20
12.1988157982
 30
0.0
 10
15.4669325989
 20
12.1846781733
 30
0.0
 10
15.499042224
 20
12.1694380534
 30
0.0
 10
15.5301561227
 20
12.15315865
 30
0.0
 10
15.560144733
 20
12.1359077515
 30
0.0
 10
15.5842142096
 20
12.1207060638
 30
0.0
 10
15.6027935461
 20
12.1081131727
 30
0.0
 10
15.6163011883
 20
12.0985188486
 30
0.0
 10
15.6294371919
 20
12.088737944
 30
0.0
 10
15.6421879543
 20
12.0787805718
 30
0.0
 10
15.6545401923
 20
12.0686570994
 30
0.0
 10
15.6664810592
 20
12.0583780455
 30
0.0
 10
15.6779981308
 20
12.0479540931
 30
0.0
 10
15.6890794252
 20
12.0373960718
 30
0.0
 10
15.6997134129
 20
12.0267149477
 30
0.0
 10
15.709889029
 20
12.0159218114
 30
0.0
 10
15.7195956839
 20
12.005027866
 30
0.0
 10
15.7288232737
 20
11.9940444157
 30
0.0
 10
15.7375621899
 20
11.9829828532
 30
0.0
 10
15.7458033282
 20
11.9718546482
 30
0.0
 10
15.7535380972
 20
11.9606713356
 30
0.0
 10
15.7607584256
 20
11.9494445033
 30
0.0
 10
15.7674567697
 20
11.938185781
 30
0.0
 10
15.7736261191
 20
11.9269068291
 30
0.0
 10
15.7792600029
 20
11.9156193277
 30
0.0
 10
15.7843524946
 20
11.9043349663
 30
0.0
 10
15.788898217
 20
11.8930654339
 30
0.0
 10
15.7928923468
 20
11.8818224102
 30
0.0
 10
15.7963306192
 20
11.8706175568
 30
0.0
 10
15.7992093329
 20
11.8594625092
 30
0.0
 10
15.8015253551
 20
11.8483688694
 30
0.0
 10
15.8032761277
 20
11.837348198
 30
0.0
 10
15.8044596743
 20
11.8264120071
 30
0.0
 10
15.8050746079
 20
11.8155717505
 30
0.0
 10
15.8051201404
 20
11.8048388175
 30
0.0
 10
15.8045960876
 20
11.7942245075
 30
0.0
 10
15.803502893
 20
11.7837400655
 30
0.0
 10
15.8018415794
 20
11.7733964839
 30
0.0
 10
15.7996139628
 20
11.7632051538
 30
0.0
 10
15.7977519138
 20
11.7565162494
 30
0.0
 10
15.7967286596
 20
11.7532049934
 30
0.0
  0
SPLINE
  5
2A4
100
AcDbEntity
  8
LAYER_FEATURE
100
AcDbSpline
 62
7
  6
CONTINUOUS
 70
0
 71
3
 72
24
 73
20
 74
0
 42
0.0000001
 43
0.0000001
 44
0.0000000001
 40
0.0
 40
0.0
 40
0.0
 40
0.0
 40
0.0465687793
 40
0.0938100276
 40
0.1423488087
 40
0.1927294405
 40
0.2187620561
 40
0.2454090522
 40
0.300666004
 40
0.3587316402
 40
0.4197121237
 40
0.4836215326
 40
0.5503938014
 40
0.6198941756
 40
0.6919292222
 40
0.7662572995
 40
0.8425928437
 40
0.9206240593
 40
1.0
 40
1.0
 40
1.0
 40
1.0
 10
16.2663342504
 20
12.6005863507
 30
0.0
 10
16.2664297733
 20
12.6008954791
 30
0.0
 10
16.2665760683
 20
12.6015334986
 30
0.0
 10
16.2666541641
 20
12.6025226871
 30
0.0
 10
16.2665916149
 20
12.6035393869
 30
0.0
 10
16.2664249026
 20
12.6043938601
 30
0.0
 10
16.2662254645
 20
12.605081904
 30
0.0
 10
16.2659754478
 20
12.6057893193
 30
0.0
 10
16.2655754355
 20
12.6066778717
 30
0.0
 10
16.2649703214
 20
12.6077288786
 30
0.0
 10
16.2642388169
 20
12.6087703622
 30
0.0
 10
16.2633862472
 20
12.6097950279
 30
0.0
 10
16.2624186937
 20
12.61079579
 30
0.0
 10
16.261343037
 20
12.6117656425
 30
0.0
 10
16.2601669092
 20
12.6126977793
 30
0.0
 10
16.2588986641
 20
12.6135856037
 30
0.0
 10
16.2575472869
 20
12.6144228666
 30
0.0
 10
16.2561224417
 20
12.6152035625
 30
0.0
 10
16.2551371185
 20
12.6156793535
 30
0.0
 10
16.2546347045
 20
12.6159067725
 30
0.0
  0
SPLINE
  5
2A5
100
AcDbEntity
  8
LAYER_FEATURE
100
AcDbSpline
 62
7
  6
CONTINUOUS
 70
0
 71
3
 72
11
 73
7
 74
0
 42
0.0000001
 43
0.0000001
 44
0.0000000001
 40
0.0
 40
0.0
 40
0.0
 40
0.0
 40
0.2444417205
 40
0.4911602445
 40
0.7423721373
 40
1.0
 40
1.0
 40
1.0
 40
1.0
 10
16.2748364215
 20
12.7199669
 30
0.0
 10
16.2749129793
 20
12.7202146564
 30
0.0
 10
16.2750373014
 20
12.7207221346
 30
0.0
 10
16.2751335975
 20
12.7215054935
 30
0.0
 10
16.2751397939
 20
12.7223086405
 30
0.0
 10
16.2750847685
 20
12.7228468288
 30
0.0
 10
16.2750431663
 20
12.7231169476
 30
0.0
  0
SPLINE
  5
2A6
100
AcDbEntity
  8
LAYER_FEATURE
100
AcDbSpline
 62
7
  6
CONTINUOUS
 70
0
 71
3
 72
17
 73
13
 74
0
 42
0.0000001
 43
0.0000001
 44
0.0000000001
 40
0.0
 40
0.0
 40
0.0
 40
0.0
 40
0.0542125233
 40
0.1086711169
 40
0.1636165149
 40
0.2192786387
 40
0.3335169724
 40
0.452959162
 40
0.5787363989
 40
0.7116100926
 40
0.8519968335
 40
1.0
 40
1.0
 40
1.0
 40
1.0
 10
16.1607173752
 20
12.9403941439
 30
0.0
 10
16.1607705622
 20
12.940566265
 30
0.0
 10
16.1608629817
 20
12.9409158598
 30
0.0
 10
16.1609584223
 20
12.9414517045
 30
0.0
 10
16.1610106116
 20
12.9419983586
 30
0.0
 10
16.1610225547
 20
12.9427460986
 30
0.0
 10
16.1609255746
 20
12.9437066318
 30
0.0
 10
16.1606371511
 20
12.9448694338
 30
0.0
 10
16.1601793814
 20
12.9460428741
 30
0.0
 10
16.1595569966
 20
12.9472167549
 30
0.0
 10
16.1587759963
 20
12.9483811146
 30
0.0
 10
16.1581698701
 20
12.9491252867
 30
0.0
 10
16.1578439833
 20
12.9494936449
 30
0.0
  0
SPLINE
  5
2A7
100
AcDbEntity
  8
LAYER_FEATURE
100
AcDbSpline
 62
7
  6
CONTINUOUS
 70
0
 71
3
 72
11
 73
7
 74
0
 42
0.0000001
 43
0.0000001
 44
0.0000000001
 40
0.0
 40
0.0
 40
0.0
 40
0.0
 40
0.2368974946
 40
0.4829770597
 40
0.7376252477
 40
1.0
 40
1.0
 40
1.0
 40
1.0
 10
15.8981844185
 20
13.0993936256
 30
0.0
 10
15.8984868567
 20
13.0990631169
 30
0.0
 10
15.899127982
 20
13.0984114011
 30
0.0
 10
15.9001696992
 20
13.0974823693
 30
0.0
 10
15.9013037285
 20
13.0965885504
 30
0.0
 10
15.9021053409
 20
13.0960276964
 30
0.0
 10
15.9025193212
 20
13.0957541706
 30
0.0
  0
SPLINE
  5
2A8
100
AcDbEntity
  8
LAYER_FEATURE
100
AcDbSpline
 62
7
  6
CONTINUOUS
 70
0
 71
3
 72
22
 73
18
 74
0
 42
0.0000001
 43
0.0000001
 44
0.0000000001
 40
0.0
 40
0.0
 40
0.0
 40
0.0
 40
0.0477474311
 40
0.0960740413
 40
0.1455233042
 40
0.1965777521
 40
0.2496403716
 40
0.3050249991
 40
0.3629560005
 40
0.4235724766
 40
0.4869357992
 40
0.5530382786
 40
0.621811496
 40
0.6931344038
 40
0.766841227
 40
0.8427235749
 40
1.0
 40
1.0
 40
1.0
 40
1.0
 10
15.9088001918
 20
13.1337069414
 30
0.0
 10
15.9088875067
 20
13.1339894968
 30
0.0
 10
15.9090247165
 20
13.1345707283
 30
0.0
 10
15.9091127884
 20
13.1354702647
 30
0.0
 10
15.9090834686
 20
13.1363941013
 30
0.0
 10
15.9089372659
 20
13.1373361841
 30
0.0
 10
15.9086755099
 20
13.1382908344
 30
0.0
 10
15.9083001201
 20
13.1392523893
 30
0.0
 10
15.9078136028
 20
13.1402152561
 30
0.0
 10
15.9072190311
 20
13.1411738642
 30
0.0
 10
15.9065200441
 20
13.1421226654
 30
0.0
 10
15.9057208464
 20
13.1430561433
 30
0.0
 10
15.9048262023
 20
13.1439688468
 30
0.0
 10
15.9038414413
 20
13.1448554083
 30
0.0
 10
15.9027723721
 20
13.1457106332
 30
0.0
 10
15.9012248847
 20
13.1468153371
 30
0.0
 10
15.8999846208
 20
13.1475613053
 30
0.0
 10
15.8991274122
 20
13.1480240629
 30
0.0
  0
SPLINE
  5
2A9
100
AcDbEntity
  8
02___PRT_ALL_AXES
100
AcDbSpline
 62
7
  6
CONTINUOUS
 70
0
 71
3
 72
39
 73
35
 74
0
 42
0.0000001
 43
0.0000001
 44
0.0000000001
 40
0.0
 40
0.0
 40
0.0
 40
0.0
 40
0.0248034971
 40
0.0496643331
 40
0.0746391948
 40
0.099783486
 40
0.1251507443
 40
0.1507921182
 40
0.1767559197
 40
0.2030872593
 40
0.2298277628
 40
0.2570153701
 40
0.2846842128
 40
0.3128645581
 40
0.3415828091
 40
0.3708615524
 40
0.4007196423
 40
0.4311723119
 40
0.4622313107
 40
0.4939050539
 40
0.5261987784
 40
0.5591147036
 40
0.5926521912
 40
0.6268079018
 40
0.6615759544
 40
0.6969480785
 40
0.7329137585
 40
0.7694603751
 40
0.806573337
 40
0.8442361872
 40
0.8824308367
 40
0.9211372771
 40
0.9603348313
 40
1.0
 40
1.0
 40
1.0
 40
1.0
 10
14.8429133748
 20
12.4770217401
 30
0.0
 10
14.843979253
 20
12.4804709131
 30
0.0
 10
14.8463170505
 20
12.4873161976
 30
0.0
 10
14.8504268657
 20
12.4973787778
 30
0.0
 10
14.8551368832
 20
12.50723013
 30
0.0
 10
14.8604414482
 20
12.5168584816
 30
0.0
 10
14.8663343912
 20
12.5262529557
 30
0.0
 10
14.8728088179
 20
12.5354028269
 30
0.0
 10
14.8798571914
 20
12.5442977369
 30
0.0
 10
14.8874713347
 20
12.5529276462
 30
0.0
 10
14.8956424511
 20
12.5612828541
 30
0.0
 10
14.9043611353
 20
12.5693540013
 30
0.0
 10
14.9136173925
 20
12.5771320692
 30
0.0
 10
14.9234006498
 20
12.5846083826
 30
0.0
 10
14.933699767
 20
12.5917746134
 30
0.0
 10
14.9445030469
 20
12.5986227834
 30
0.0
 10
14.955798244
 20
12.6051452702
 30
0.0
 10
14.9675725733
 20
12.6113348165
 30
0.0
 10
14.9798127247
 20
12.6171845313
 30
0.0
 10
14.9925048745
 20
12.6226878977
 30
0.0
 10
15.0056346987
 20
12.6278387794
 30
0.0
 10
15.019187386
 20
12.6326314278
 30
0.0
 10
15.0331476516
 20
12.6370604888
 30
0.0
 10
15.0474997515
 20
12.6411210143
 30
0.0
 10
15.0622275013
 20
12.6448084632
 30
0.0
 10
15.0773142931
 20
12.6481187081
 30
0.0
 10
15.0927431141
 20
12.6510480408
 30
0.0
 10
15.1084965646
 20
12.6535931771
 30
0.0
 10
15.1245568739
 20
12.65575126
 30
0.0
 10
15.1409059348
 20
12.6575198758
 30
0.0
 10
15.1575252685
 20
12.6588970282
 30
0.0
 10
15.1743962127
 20
12.6598811979
 30
0.0
 10
15.1914995439
 20
12.6604712449
 30
0.0
 10
15.2029783451
 20
12.6606007016
 30
0.0
 10
15.2087515472
 20
12.6606007016
 30
0.0
  0
SPLINE
  5
2AA
100
AcDbEntity
  8
LAYER_CHAMFER_FEAT
100
AcDbSpline
 62
7
  6
CONTINUOUS
 70
0
 71
3
 72
44
 73
40
 74
0
 42
0.0000001
 43
0.0000001
 44
0.0000000001
 40
0.0
 40
0.0
 40
0.0
 40
0.0
 40
0.0106260961
 40
0.0212748387
 40
0.0319686305
 40
0.0427294192
 40
0.0535784514
 40
0.0645361216
 40
0.0756217524
 40
0.086853512
 40
0.0982482446
 40
0.1098214461
 40
0.1335519277
 40
0.1581465042
 40
0.1836768039
 40
0.2101921588
 40
0.2377211132
 40
0.26627321
 40
0.2958408547
 40
0.3264011391
 40
0.3579175607
 40
0.3903416129
 40
0.4236142435
 40
0.4576671909
 40
0.4924242119
 40
0.5278022183
 40
0.5637123391
 40
0.6000609206
 40
0.6367504799
 40
0.6736806219
 40
0.7107489295
 40
0.7478518363
 40
0.7848854899
 40
0.8217466092
 40
0.8583333621
 40
0.8945462007
 40
0.9302888907
 40
0.9654690812
 40
1.0
 40
1.0
 40
1.0
 40
1.0
 10
15.0869711492
 20
11.996671589
 30
0.0
 10
15.0866300647
 20
11.995567837
 30
0.0
 10
15.0860093679
 20
11.9933382057
 30
0.0
 10
15.0852668494
 20
11.9899410915
 30
0.0
 10
15.0847130581
 20
11.986493234
 30
0.0
 10
15.0843486793
 20
11.9829984183
 30
0.0
 10
15.0841739771
 20
11.9794603155
 30
0.0
 10
15.0841891707
 20
11.9758826724
 30
0.0
 10
15.0843941357
 20
11.9722692492
 30
0.0
 10
15.0847886587
 20
11.9686238665
 30
0.0
 10
15.085372257
 20
11.9649502593
 30
0.0
 10
15.086410124
 20
11.9599788144
 30
0.0
 10
15.0881905412
 20
11.9537046817
 30
0.0
 10
15.0910504447
 20
11.9461920569
 30
0.0
 10
15.0946387128
 20
11.9386626429
 30
0.0
 10
15.0989396198
 20
11.9311476128
 30
0.0
 10
15.1039348673
 20
11.9236773916
 30
0.0
 10
15.1096034488
 20
11.9162824634
 30
0.0
 10
15.1159217144
 20
11.9089930313
 30
0.0
 10
15.1228634057
 20
11.901838969
 30
0.0
 10
15.1303997287
 20
11.8948496717
 30
0.0
 10
15.1384994458
 20
11.8880539288
 30
0.0
 10
15.1471289873
 20
11.8814797892
 30
0.0
 10
15.1562525801
 20
11.8751544323
 30
0.0
 10
15.1658323899
 20
11.8691040439
 30
0.0
 10
15.1758286755
 20
11.8633536978
 30
0.0
 10
15.1861999525
 20
11.8579272433
 30
0.0
 10
15.1969031668
 20
11.8528472001
 30
0.0
 10
15.2078938744
 20
11.8481346597
 30
0.0
 10
15.2191264282
 20
11.8438091935
 30
0.0
 10
15.23055417
 20
11.8398887689
 30
0.0
 10
15.2421296265
 20
11.8363896723
 30
0.0
 10
15.2538047103
 20
11.8333264401
 30
0.0
 10
15.2655309207
 20
11.8307117964
 30
0.0
 10
15.277259555
 20
11.828556604
 30
0.0
 10
15.2889418886
 20
11.8268698093
 30
0.0
 10
15.3005294846
 20
11.8256584296
 30
0.0
 10
15.3119739739
 20
11.8249274864
 30
0.0
 10
15.3195537551
 20
11.8247608399
 30
0.0
 10
15.3233079008
 20
11.8247608399
 30
0.0
  0
SPLINE
  5
2AB
100
AcDbEntity
  8
LAYER_CHAMFER_FEAT
100
AcDbSpline
 62
7
  6
CONTINUOUS
 70
0
 71
3
 72
27
 73
23
 74
0
 42
0.0000001
 43
0.0000001
 44
0.0000000001
 40
0.0
 40
0.0
 40
0.0
 40
0.0
 40
0.024806396
 40
0.0496701418
 40
0.0746479196
 40
0.0997951536
 40
0.1251653763
 40
0.1508097478
 40
0.1767765903
 40
0.2031110006
 40
0.2570287797
 40
0.3128695266
 40
0.3708599389
 40
0.4311658638
 40
0.4938953822
 40
0.5591032576
 40
0.6267959576
 40
0.6969367887
 40
0.7694506783
 40
0.844229142
 40
0.9211332277
 40
1.0
 40
1.0
 40
1.0
 40
1.0
 10
15.4452539525
 20
11.8859538288
 30
0.0
 10
15.4448986614
 20
11.8848041041
 30
0.0
 10
15.4441194036
 20
11.8825223395
 30
0.0
 10
15.4427494517
 20
11.8791681519
 30
0.0
 10
15.4411794563
 20
11.8758843627
 30
0.0
 10
15.4394112636
 20
11.8726749157
 30
0.0
 10
15.4374469472
 20
11.8695434211
 30
0.0
 10
15.4352888207
 20
11.8664934723
 30
0.0
 10
15.4329393065
 20
11.8635284678
 30
0.0
 10
15.4295289899
 20
11.8596630951
 30
0.0
 10
15.4247819708
 20
11.8550576318
 30
0.0
 10
15.4184159372
 20
11.8499706963
 30
0.0
 10
15.411364385
 20
11.845300333
 30
0.0
 10
15.403660085
 20
11.8410668675
 30
0.0
 10
15.3953378404
 20
11.8372881369
 30
0.0
 10
15.3864351276
 20
11.8339803108
 30
0.0
 10
15.3769918544
 20
11.8311575883
 30
0.0
 10
15.3670503093
 20
11.8288321865
 30
0.0
 10
15.3566550267
 20
11.8270142145
 30
0.0
 10
15.3458525393
 20
11.8257116403
 30
0.0
 10
15.3346915712
 20
11.8249301459
 30
0.0
 10
15.3271337645
 20
11.8247608399
 30
0.0
 10
15.3233079008
 20
11.8247608399
 30
0.0
  0
SPLINE
  5
2AC
100
AcDbEntity
  8
LAYER_FEATURE
100
AcDbSpline
 62
7
  6
CONTINUOUS
 70
0
 71
3
 72
39
 73
35
 74
0
 42
0.0000001
 43
0.0000001
 44
0.0000000001
 40
0.0
 40
0.0
 40
0.0
 40
0.0
 40
0.0396651873
 40
0.0788627135
 40
0.1175691664
 40
0.1557638124
 40
0.1934266623
 40
0.2305396249
 40
0.2670862421
 40
0.3030519225
 40
0.3384240463
 40
0.3731920979
 40
0.4073478077
 40
0.4408852955
 40
0.4738012226
 40
0.506094948
 40
0.5377686906
 40
0.5688276881
 40
0.5992803563
 40
0.6291384461
 40
0.6584171915
 40
0.687135444
 40
0.715315789
 40
0.7429846304
 40
0.7701722362
 40
0.7969127392
 40
0.8232440802
 40
0.8492078832
 40
0.8748492573
 40
0.9002165149
 40
0.9253608053
 40
0.9503356665
 40
0.9751965027
 40
1.0
 40
1.0
 40
1.0
 40
1.0
 10
15.108697815
 20
12.8644887712
 30
0.0
 10
15.0995581903
 20
12.8644887712
 30
0.0
 10
15.0813859747
 20
12.8642838277
 30
0.0
 10
15.0543095004
 20
12.8633497164
 30
0.0
 10
15.0276009255
 20
12.8617916678
 30
0.0
 10
15.0012906717
 20
12.8596114814
 30
0.0
 10
14.9754082925
 20
12.8568115658
 30
0.0
 10
14.9499830381
 20
12.8533950808
 30
0.0
 10
14.9250435749
 20
12.8493658486
 30
0.0
 10
14.9006180369
 20
12.8447283898
 30
0.0
 10
14.8767339694
 20
12.8394879038
 30
0.0
 10
14.8534183058
 20
12.8336502614
 30
0.0
 10
14.8306973376
 20
12.8272219974
 30
0.0
 10
14.8085966858
 20
12.8202103016
 30
0.0
 10
14.7871412743
 20
12.8126230095
 30
0.0
 10
14.7663553029
 20
12.8044685921
 30
0.0
 10
14.74626222
 20
12.7957561508
 30
0.0
 10
14.726884702
 20
12.7864954007
 30
0.0
 10
14.7082446319
 20
12.7766966598
 30
0.0
 10
14.69036308
 20
12.766370838
 30
0.0
 10
14.6732602848
 20
12.755529427
 30
0.0
 10
14.6569556357
 20
12.7441844892
 30
0.0
 10
14.641467653
 20
12.7323486535
 30
0.0
 10
14.6268139717
 20
12.7200351061
 30
0.0
 10
14.6130113286
 20
12.7072575815
 30
0.0
 10
14.6000755446
 20
12.6940303583
 30
0.0
 10
14.588021506
 20
12.6803682555
 30
0.0
 10
14.5768631431
 20
12.6662866271
 30
0.0
 10
14.5666134065
 20
12.6518013639
 30
0.0
 10
14.5572842261
 20
12.6369288659
 30
0.0
 10
14.5488865147
 20
12.6216861137
 30
0.0
 10
14.5414300346
 20
12.6060903282
 30
0.0
 10
14.5349237417
 20
12.590160146
 30
0.0
 10
14.5312227324
 20
12.5793233048
 30
0.0
 10
14.5295353356
 20
12.5738628786
 30
0.0
  0
SPLINE
  5
2AD
100
AcDbEntity
  8
LAYER_FEATURE
100
AcDbSpline
 62
7
  6
CONTINUOUS
 70
0
 71
3
 72
39
 73
35
 74
0
 42
0.0000001
 43
0.0000001
 44
0.0000000001
 40
0.0
 40
0.0
 40
0.0
 40
0.0
 40
0.0396651873
 40
0.0788627135
 40
0.1175691664
 40
0.1557638124
 40
0.1934266623
 40
0.2305396249
 40
0.2670862421
 40
0.3030519225
 40
0.3384240463
 40
0.3731920979
 40
0.4073478077
 40
0.4408852955
 40
0.4738012226
 40
0.506094948
 40
0.5377686906
 40
0.5688276881
 40
0.5992803563
 40
0.6291384461
 40
0.6584171915
 40
0.687135444
 40
0.715315789
 40
0.7429846304
 40
0.7701722362
 40
0.7969127392
 40
0.8232440802
 40
0.8492078832
 40
0.8748492573
 40
0.9002165149
 40
0.9253608053
 40
0.9503356665
 40
0.9751965027
 40
1.0
 40
1.0
 40
1.0
 40
1.0
 10
15.2805649046
 20
13.420650877
 30
0.0
 10
15.2714252799
 20
13.420650877
 30
0.0
 10
15.2532530643
 20
13.4204459335
 30
0.0
 10
15.22617659
 20
13.4195118223
 30
0.0
 10
15.1994680151
 20
13.4179537737
 30
0.0
 10
15.1731577613
 20
13.4157735872
 30
0.0
 10
15.1472753821
 20
13.4129736716
 30
0.0
 10
15.1218501277
 20
13.4095571866
 30
0.0
 10
15.0969106645
 20
13.4055279544
 30
0.0
 10
15.0724851265
 20
13.4008904956
 30
0.0
 10
15.048601059
 20
13.3956500096
 30
0.0
 10
15.0252853955
 20
13.3898123672
 30
0.0
 10
15.0025644272
 20
13.3833841032
 30
0.0
 10
14.9804637754
 20
13.3763724074
 30
0.0
 10
14.9590083639
 20
13.3687851153
 30
0.0
 10
14.9382223925
 20
13.3606306979
 30
0.0
 10
14.9181293096
 20
13.3519182566
 30
0.0
 10
14.8987517916
 20
13.3426575065
 30
0.0
 10
14.8801117215
 20
13.3328587656
 30
0.0
 10
14.8622301696
 20
13.3225329438
 30
0.0
 10
14.8451273744
 20
13.3116915328
 30
0.0
 10
14.8288227253
 20
13.3003465951
 30
0.0
 10
14.8133347426
 20
13.2885107593
 30
0.0
 10
14.7986810613
 20
13.2761972119
 30
0.0
 10
14.7848784183
 20
13.2634196873
 30
0.0
 10
14.7719426342
 20
13.2501924641
 30
0.0
 10
14.7598885956
 20
13.2365303613
 30
0.0
 10
14.7487302327
 20
13.222448733
 30
0.0
 10
14.7384804961
 20
13.2079634697
 30
0.0
 10
14.7291513157
 20
13.1930909717
 30
0.0
 10
14.7207536043
 20
13.1778482195
 30
0.0
 10
14.7132971243
 20
13.1622524341
 30
0.0
 10
14.7067908313
 20
13.1463222518
 30
0.0
 10
14.7030898221
 20
13.1354854107
 30
0.0
 10
14.7014024252
 20
13.1300249845
 30
0.0
  0
SPLINE
  5
2AE
100
AcDbEntity
  8
LAYER_FEATURE
100
AcDbSpline
 62
7
  6
CONTINUOUS
 70
0
 71
3
 72
15
 73
11
 74
0
 42
0.0000001
 43
0.0000001
 44
0.0000000001
 40
0.0
 40
0.0
 40
0.0
 40
0.0
 40
0.1201055227
 40
0.2419577994
 40
0.3653925578
 40
0.4902357992
 40
0.6163071568
 40
0.7434200401
 40
0.8713828642
 40
1.0
 40
1.0
 40
1.0
 40
1.0
 10
15.1425323137
 20
12.8593716225
 30
0.0
 10
15.154758512
 20
12.8593716225
 30
0.0
 10
15.1793904169
 20
12.858967818
 30
0.0
 10
15.2165486514
 20
12.8571848989
 30
0.0
 10
15.2541156199
 20
12.8542243236
 30
0.0
 10
15.2920036692
 20
12.8500929438
 30
0.0
 10
15.3301249204
 20
12.8448003804
 30
0.0
 10
15.3683909417
 20
12.8383588908
 30
0.0
 10
15.4067125023
 20
12.8307835288
 30
0.0
 10
15.4321870623
 20
12.8250006317
 30
0.0
 10
15.4449133882
 20
12.8219252615
 30
0.0
  0
SPLINE
  5
2AF
100
AcDbEntity
  8
LAYER_FEATURE
100
AcDbSpline
 62
7
  6
CONTINUOUS
 70
0
 71
3
 72
69
 73
65
 74
0
 42
0.0000001
 43
0.0000001
 44
0.0000000001
 40
0.0
 40
0.0
 40
0.0
 40
0.0
 40
0.0204534718
 40
0.040696869
 40
0.0607202572
 40
0.080515506
 40
0.1000743766
 40
0.1193892857
 40
0.1384532598
 40
0.1572598991
 40
0.1758034718
 40
0.1940789357
 40
0.2120819729
 40
0.229809038
 40
0.2472574095
 40
0.2644252257
 40
0.2813115298
 40
0.2979163265
 40
0.3142406315
 40
0.3302865122
 40
0.3460571386
 40
0.3615568418
 40
0.391761696
 40
0.4064868112
 40
0.4209707254
 40
0.4352241433
 40
0.4492591162
 40
0.4630890498
 40
0.4767286859
 40
0.4901940643
 40
0.5035024731
 40
0.5166723787
 40
0.5297233239
 40
0.5426758078
 40
0.5555511477
 40
0.5683713178
 40
0.5811587687
 40
0.5939362378
 40
0.6067265508
 40
0.6195524198
 40
0.6324362464
 40
0.6453999316
 40
0.6584646976
 40
0.6716509315
 40
0.6849780483
 40
0.6984643697
 40
0.7121270303
 40
0.7259819113
 40
0.7400435889
 40
0.7543252961
 40
0.7688389164
 40
0.7985973355
 40
0.8138646018
 40
0.8293980225
 40
0.8452029771
 40
0.8612836443
 40
0.8776430538
 40
0.8942831409
 40
0.9112047915
 40
0.9284078833
 40
0.9458913456
 40
0.9636532087
 40
0.981690642
 40
1.0
 40
1.0
 40
1.0
 40
1.0
 10
15.1425323137
 20
12.8593716225
 30
0.0
 10
15.1351426188
 20
12.8593716225
 30
0.0
 10
15.1204386794
 20
12.8592258691
 30
0.0
 10
15.0985094361
 20
12.8585626065
 30
0.0
 10
15.0768360512
 20
12.8574563149
 30
0.0
 10
15.0554376745
 20
12.8559080056
 30
0.0
 10
15.0343327773
 20
12.853918987
 30
0.0
 10
15.0135397786
 20
12.8514909982
 30
0.0
 10
14.993076775
 20
12.8486261485
 30
0.0
 10
14.972961576
 20
12.8453269042
 30
0.0
 10
14.9532116904
 20
12.8415961321
 30
0.0
 10
14.9338443036
 20
12.8374370705
 30
0.0
 10
14.9148762714
 20
12.8328533146
 30
0.0
 10
14.8963241032
 20
12.8278488222
 30
0.0
 10
14.8782039388
 20
12.8224279343
 30
0.0
 10
14.8605315455
 20
12.81659534
 30
0.0
 10
14.8433223048
 20
12.810356067
 30
0.0
 10
14.8265912043
 20
12.8037155093
 30
0.0
 10
14.8103527706
 20
12.7966793891
 30
0.0
 10
14.7946212642
 20
12.7892538459
 30
0.0
 10
14.7794099621
 20
12.7814450073
 30
0.0
 10
14.7600091884
 20
12.7706258718
 30
0.0
 10
14.7415108925
 20
12.7589843178
 30
0.0
 10
14.7240298446
 20
12.7465191153
 30
0.0
 10
14.7116109734
 20
12.7369022375
 30
0.0
 10
14.699785388
 20
12.7269475353
 30
0.0
 10
14.6885632265
 20
12.7166634084
 30
0.0
 10
14.6779544421
 20
12.7060587939
 30
0.0
 10
14.6679683786
 20
12.6951428644
 30
0.0
 10
14.6586138897
 20
12.6839250859
 30
0.0
 10
14.6498992965
 20
12.6724152004
 30
0.0
 10
14.6418323485
 20
12.660623252
 30
0.0
 10
14.6344202441
 20
12.6485595511
 30
0.0
 10
14.6276696256
 20
12.6362346691
 30
0.0
 10
14.6215865415
 20
12.6236594442
 30
0.0
 10
14.6161764236
 20
12.6108449715
 30
0.0
 10
14.6114441094
 20
12.5978025728
 30
0.0
 10
14.6073938322
 20
12.5845437868
 30
0.0
 10
14.6040291676
 20
12.5710803657
 30
0.0
 10
14.6013530589
 20
12.557424243
 30
0.0
 10
14.5993678304
 20
12.543587514
 30
0.0
 10
14.5980751727
 20
12.5295824233
 30
0.0
 10
14.597476112
 20
12.5154213483
 30
0.0
 10
14.5975710613
 20
12.5011167759
 30
0.0
 10
14.5983598277
 20
12.4866812936
 30
0.0
 10
14.5998415831
 20
12.4721275744
 30
0.0
 10
14.6020148767
 20
12.4574683718
 30
0.0
 10
14.6048776838
 20
12.4427164776
 30
0.0
 10
14.6084273547
 20
12.4278848485
 30
0.0
 10
14.6126607709
 20
12.4129860876
 30
0.0
 10
14.6192660246
 20
12.3928838655
 30
0.0
 10
14.6271925385
 20
12.3728595899
 30
0.0
 10
14.6363456551
 20
12.3529830718
 30
0.0
 10
14.6439287186
 20
12.3379447516
 30
0.0
 10
14.6521638295
 20
12.32291804
 30
0.0
 10
14.6610439592
 20
12.3079154781
 30
0.0
 10
14.6705612733
 20
12.2929502119
 30
0.0
 10
14.6807074738
 20
12.2780351906
 30
0.0
 10
14.6914737056
 20
12.2631833751
 30
0.0
 10
14.7028505663
 20
12.248407645
 30
0.0
 10
14.7148281263
 20
12.2337208369
 30
0.0
 10
14.7273959829
 20
12.2191356827
 30
0.0
 10
14.7405430788
 20
12.204664967
 30
0.0
 10
14.7496194289
 20
12.1951724559
 30
0.0
 10
14.7542493649
 20
12.1904477899
 30
0.0
  0
SPLINE
  5
2B0
100
AcDbEntity
  8
LAYER_FEATURE
100
AcDbSpline
 62
7
  6
CONTINUOUS
 70
0
 71
3
 72
15
 73
11
 74
0
 42
0.0000001
 43
0.0000001
 44
0.0000000001
 40
0.0
 40
0.0
 40
0.0
 40
0.0
 40
0.120042403
 40
0.2418662094
 40
0.3652993691
 40
0.4901596538
 40
0.6162579594
 40
0.7433986986
 40
0.8713810446
 40
1.0
 40
1.0
 40
1.0
 40
1.0
 10
15.108697815
 20
12.8644887712
 30
0.0
 10
15.1222911102
 20
12.8644887712
 30
0.0
 10
15.1496813909
 20
12.8640294873
 30
0.0
 10
15.1910038632
 20
12.8620025076
 30
0.0
 10
15.2327864773
 20
12.8586370675
 30
0.0
 10
15.2749272752
 20
12.8539413157
 30
0.0
 10
15.317324039
 20
12.8479266772
 30
0.0
 10
15.3598739076
 20
12.8406077317
 30
0.0
 10
15.4024731175
 20
12.8320023721
 30
0.0
 10
15.4307827025
 20
12.82543425
 30
0.0
 10
15.4449222249
 20
12.8219416796
 30
0.0
  0
SPLINE
  5
2B1
100
AcDbEntity
  8
LAYER_FEATURE
100
AcDbSpline
 62
7
  6
CONTINUOUS
 70
0
 71
3
 72
23
 73
19
 74
0
 42
0.0000001
 43
0.0000001
 44
0.0000000001
 40
0.0
 40
0.0
 40
0.0
 40
0.0
 40
0.079436954
 40
0.1574569107
 40
0.2337237894
 40
0.3079427068
 40
0.3798440187
 40
0.4492019661
 40
0.515838253
 40
0.5796321848
 40
0.6405302737
 40
0.6985569949
 40
0.7538260347
 40
0.8065507053
 40
0.8570520538
 40
0.9057598192
 40
0.9532041047
 40
1.0
 40
1.0
 40
1.0
 40
1.0
 10
14.827459103
 20
13.0465652673
 30
0.0
 10
14.8269262258
 20
13.046651592
 30
0.0
 10
14.825865573
 20
13.0467968081
 30
0.0
 10
14.8242823397
 20
13.0469318636
 30
0.0
 10
14.822729522
 20
13.0469815741
 30
0.0
 10
14.8212178621
 20
13.0469456138
 30
0.0
 10
14.8197576797
 20
13.0468241921
 30
0.0
 10
14.8183589821
 20
13.0466181215
 30
0.0
 10
14.8170313195
 20
13.0463287528
 30
0.0
 10
14.8157837494
 20
13.0459579775
 30
0.0
 10
14.8146247781
 20
13.0455081924
 30
0.0
 10
14.8135623279
 20
13.0449822673
 30
0.0
 10
14.812603728
 20
13.044383517
 30
0.0
 10
14.8117557145
 20
13.0437156909
 30
0.0
 10
14.8110244699
 20
13.0429830296
 30
0.0
 10
14.8104155702
 20
13.0421902524
 30
0.0
 10
14.8099339807
 20
13.0413430618
 30
0.0
 10
14.809699803
 20
13.0407441299
 30
0.0
 10
14.8096059045
 20
13.0404403012
 30
0.0
  0
SPLINE
  5
2B2
100
AcDbEntity
  8
LAYER_FEATURE
100
AcDbSpline
 62
7
  6
CONTINUOUS
 70
0
 71
3
 72
11
 73
7
 74
0
 42
0.0000001
 43
0.0000001
 44
0.0000000001
 40
0.0
 40
0.0
 40
0.0
 40
0.0
 40
0.2564519202
 40
0.5074731012
 40
0.7546952745
 40
1.0
 40
1.0
 40
1.0
 40
1.0
 10
14.8669272804
 20
13.1480240629
 30
0.0
 10
14.8667644886
 20
13.1478371467
 30
0.0
 10
14.8664597608
 20
13.147451607
 30
0.0
 10
14.8660670533
 20
13.1468354015
 30
0.0
 10
14.865746127
 20
13.1461909066
 30
0.0
 10
14.8655807015
 20
13.1457433593
 30
0.0
 10
14.8655106987
 20
13.1455168347
 30
0.0
  0
SPLINE
  5
2B3
100
AcDbEntity
  8
LAYER_FEATURE
100
AcDbSpline
 62
7
  6
CONTINUOUS
 70
0
 71
3
 72
13
 73
9
 74
0
 42
0.0000001
 43
0.0000001
 44
0.0000000001
 40
0.0
 40
0.0
 40
0.0
 40
0.0
 40
0.1193741732
 40
0.2401801025
 40
0.3625142067
 40
0.4864702899
 40
0.7395360097
 40
1.0
 40
1.0
 40
1.0
 40
1.0
 10
14.8669272804
 20
13.1480240629
 30
0.0
 10
14.8695360884
 20
13.1510194741
 30
0.0
 10
14.8749064292
 20
13.1569415945
 30
0.0
 10
14.883353557
 20
13.165556877
 30
0.0
 10
14.8922330396
 20
13.1739496751
 30
0.0
 10
14.9047256706
 20
13.1849104678
 30
0.0
 10
14.9214234219
 20
13.1980230211
 30
0.0
 10
14.9355622645
 20
13.2076443653
 30
0.0
 10
14.9428783146
 20
13.2122911
 30
0.0
  0
SPLINE
  5
2B4
100
AcDbEntity
  8
LAYER_FEATURE
100
AcDbSpline
 62
7
  6
CONTINUOUS
 70
0
 71
3
 72
21
 73
17
 74
0
 42
0.0000001
 43
0.0000001
 44
0.0000000001
 40
0.0
 40
0.0
 40
0.0
 40
0.0
 40
0.1377219336
 40
0.207205556
 40
0.2766441661
 40
0.3456993945
 40
0.4140408637
 40
0.4813478648
 40
0.5473155331
 40
0.6116599361
 40
0.6741239113
 40
0.7344833328
 40
0.7925538029
 40
0.848199042
 40
0.9013373432
 40
1.0
 40
1.0
 40
1.0
 40
1.0
 10
14.9664617814
 20
13.2113840288
 30
0.0
 10
14.9654461264
 20
13.2118634065
 30
0.0
 10
14.9638799448
 20
13.2125073214
 30
0.0
 10
14.9617360696
 20
13.2132114694
 30
0.0
 10
14.9601002119
 20
13.2136619945
 30
0.0
 10
14.9584534475
 20
13.2140299661
 30
0.0
 10
14.9568075308
 20
13.2143127713
 30
0.0
 10
14.9551743168
 20
13.214508365
 30
0.0
 10
14.9535655342
 20
13.2146153423
 30
0.0
 10
14.9519927294
 20
13.2146329258
 30
0.0
 10
14.9504671854
 20
13.2145609823
 30
0.0
 10
14.9489997893
 20
13.2143999882
 30
0.0
 10
14.9476011331
 20
13.2141511042
 30
0.0
 10
14.9462808022
 20
13.2138158599
 30
0.0
 10
14.9446784807
 20
13.2132709099
 30
0.0
 10
14.9435574826
 20
13.2127224686
 30
0.0
 10
14.9428783146
 20
13.2122911
 30
0.0
  0
SPLINE
  5
2B5
100
AcDbEntity
  8
LAYER_FEATURE
100
AcDbSpline
 62
7
  6
CONTINUOUS
 70
0
 71
3
 72
19
 73
15
 74
0
 42
0.0000001
 43
0.0000001
 44
0.0000000001
 40
0.0
 40
0.0
 40
0.0
 40
0.0
 40
0.1342982554
 40
0.2698504066
 40
0.4045446718
 40
0.5363031958
 40
0.6004873903
 40
0.6632301138
 40
0.7243296426
 40
0.7836076522
 40
0.8409131711
 40
0.8961255535
 40
0.9491707598
 40
1.0
 40
1.0
 40
1.0
 40
1.0
 10
15.0056399761
 20
13.1928923623
 30
0.0
 10
15.0065512051
 20
13.1924622725
 30
0.0
 10
15.0084226893
 20
13.1916814841
 30
0.0
 10
15.0113187048
 20
13.1907605532
 30
0.0
 10
15.0142654088
 20
13.190099111
 30
0.0
 10
15.0167286642
 20
13.1897739165
 30
0.0
 10
15.0186668227
 20
13.1896590772
 30
0.0
 10
15.0200781396
 20
13.1896458627
 30
0.0
 10
15.0214514645
 20
13.1897048645
 30
0.0
 10
15.0227788944
 20
13.1898357672
 30
0.0
 10
15.0240527314
 20
13.1900378461
 30
0.0
 10
15.0252657059
 20
13.1903099539
 30
0.0
 10
15.0264106721
 20
13.1906505799
 30
0.0
 10
15.0271399777
 20
13.1909280399
 30
0.0
 10
15.0274904899
 20
13.1910783143
 30
0.0
  0
SPLINE
  5
2B6
100
AcDbEntity
  8
LAYER_FEATURE
100
AcDbSpline
 62
7
  6
CONTINUOUS
 70
0
 71
3
 72
17
 73
13
 74
0
 42
0.0000001
 43
0.0000001
 44
0.0000000001
 40
0.0
 40
0.0
 40
0.0
 40
0.0
 40
0.1472162285
 40
0.2870012879
 40
0.4195049183
 40
0.5451763122
 40
0.6647820411
 40
0.7794297795
 40
0.8353703305
 40
0.8906315887
 40
0.9454322071
 40
1.0
 40
1.0
 40
1.0
 40
1.0
 10
15.0850107655
 20
13.2732272753
 30
0.0
 10
15.0845565223
 20
13.273102543
 30
0.0
 10
15.0836802438
 20
13.2728232801
 30
0.0
 10
15.0824422664
 20
13.2722991977
 30
0.0
 10
15.0813242535
 20
13.2716844971
 30
0.0
 10
15.0803356909
 20
13.2709837452
 30
0.0
 10
15.0794852364
 20
13.2702023084
 30
0.0
 10
15.0788930498
 20
13.2694824437
 30
0.0
 10
15.0784997049
 20
13.2688754882
 30
0.0
 10
15.0782457062
 20
13.2684083457
 30
0.0
 10
15.078030984
 20
13.267926749
 30
0.0
 10
15.077914236
 20
13.2675963762
 30
0.0
 10
15.0778626843
 20
13.2674295559
 30
0.0
  0
SPLINE
  5
2B7
100
AcDbEntity
  8
LAYER_FEATURE
100
AcDbSpline
 62
7
  6
CONTINUOUS
 70
0
 71
3
 72
22
 73
18
 74
0
 42
0.0000001
 43
0.0000001
 44
0.0000000001
 40
0.0
 40
0.0
 40
0.0
 40
0.0
 40
0.1381197804
 40
0.2053664349
 40
0.2714549095
 40
0.3364371394
 40
0.400372579
 40
0.4633278449
 40
0.5253764087
 40
0.5865986111
 40
0.6470813103
 40
0.7069174443
 40
0.7662055009
 40
0.8250488566
 40
0.8835549595
 40
0.9418344164
 40
1.0
 40
1.0
 40
1.0
 40
1.0
 10
16.0141570843
 20
12.3501114399
 30
0.0
 10
16.018326562
 20
12.3416149376
 30
0.0
 10
16.0240717745
 20
12.3287486605
 30
0.0
 10
16.0306243693
 20
12.3113360906
 30
0.0
 10
16.0348851871
 20
12.2984275485
 30
0.0
 10
16.0385311173
 20
12.2855678498
 30
0.0
 10
16.041558717
 20
12.2727689204
 30
0.0
 10
16.0439649195
 20
12.2600430966
 30
0.0
 10
16.0457472707
 20
12.2474025359
 30
0.0
 10
16.0469039186
 20
12.2348593841
 30
0.0
 10
16.04743362
 20
12.2224257095
 30
0.0
 10
16.047335724
 20
12.2101135107
 30
0.0
 10
16.0466101795
 20
12.1979346907
 30
0.0
 10
16.0452576018
 20
12.1859010917
 30
0.0
 10
16.0432791792
 20
12.1740242878
 30
0.0
 10
16.0406768962
 20
12.1623162775
 30
0.0
 10
16.0385267412
 20
12.1546274807
 30
0.0
 10
16.0373499788
 20
12.1508194655
 30
0.0
  0
SPLINE
  5
2B8
100
AcDbEntity
  8
LAYER_FEATURE
100
AcDbSpline
 62
7
  6
CONTINUOUS
 70
0
 71
3
 72
11
 73
7
 74
0
 42
0.0000001
 43
0.0000001
 44
0.0000000001
 40
0.0
 40
0.0
 40
0.0
 40
0.0
 40
0.2406782044
 40
0.4877040967
 40
0.7408902091
 40
1.0
 40
1.0
 40
1.0
 40
1.0
 10
15.0850107655
 20
13.2732272753
 30
0.0
 10
15.0950893492
 20
13.2759947907
 30
0.0
 10
15.1156478718
 20
13.2811196032
 30
0.0
 10
15.1471897257
 20
13.2875129944
 30
0.0
 10
15.1797627995
 20
13.2926983896
 30
0.0
 10
15.2018623724
 20
13.2953117849
 30
0.0
 10
15.2130596497
 20
13.2964207351
 30
0.0
  0
SPLINE
  5
2B9
100
AcDbEntity
  8
LAYER_FEATURE
100
AcDbSpline
 62
7
  6
CONTINUOUS
 70
0
 71
3
 72
23
 73
19
 74
0
 42
0.0000001
 43
0.0000001
 44
0.0000000001
 40
0.0
 40
0.0
 40
0.0
 40
0.0
 40
0.0562558856
 40
0.114582208
 40
0.1747765787
 40
0.2366110121
 40
0.2998250321
 40
0.3641380925
 40
0.4292521588
 40
0.4948574848
 40
0.5606371191
 40
0.6262715972
 40
0.6914436035
 40
0.7558423534
 40
0.8191692075
 40
0.8811398296
 40
0.9414964837
 40
1.0
 40
1.0
 40
1.0
 40
1.0
 10
15.2368783766
 20
13.2883605801
 30
0.0
 10
15.236530573
 20
13.2886982417
 30
0.0
 10
15.235797744
 20
13.2893612067
 30
0.0
 10
15.2346179251
 20
13.2902986772
 30
0.0
 10
15.2333448544
 20
13.2911915785
 30
0.0
 10
15.2319877717
 20
13.2920334696
 30
0.0
 10
15.2305563684
 20
13.2928183313
 30
0.0
 10
15.229060946
 20
13.2935405295
 30
0.0
 10
15.2275122463
 20
13.294194873
 30
0.0
 10
15.2259214086
 20
13.2947766567
 30
0.0
 10
15.2242998759
 20
13.2952816942
 30
0.0
 10
15.2226593145
 20
13.2957063535
 30
0.0
 10
15.2210115273
 20
13.2960475784
 30
0.0
 10
15.2193683598
 20
13.2963029205
 30
0.0
 10
15.217741638
 20
13.2964705317
 30
0.0
 10
15.2161430013
 20
13.2965492243
 30
0.0
 10
15.2145840305
 20
13.2965384024
 30
0.0
 10
15.2135613132
 20
13.2964704185
 30
0.0
 10
15.2130596497
 20
13.2964207351
 30
0.0
  0
SPLINE
  5
2BA
100
AcDbEntity
  8
LAYER_FEATURE
100
AcDbSpline
 62
7
  6
CONTINUOUS
 70
0
 71
3
 72
73
 73
69
 74
0
 42
0.0000001
 43
0.0000001
 44
0.0000000001
 40
0.0
 40
0.0
 40
0.0
 40
0.0
 40
0.0208534905
 40
0.0416350263
 40
0.0623272621
 40
0.0829130818
 40
0.1033756446
 40
0.1236984322
 40
0.1438652973
 40
0.163860513
 40
0.1836688235
 40
0.2032754956
 40
0.2226663723
 40
0.241827928
 40
0.2607473264
 40
0.2794124798
 40
0.2978121119
 40
0.315935824
 40
0.3337741627
 40
0.3513186917
 40
0.3685620669
 40
0.3854981157
 40
0.4021219199
 40
0.4184299028
 40
0.4344199196
 40
0.4500913522
 40
0.4654452043
 40
0.480484199
 40
0.4952128759
 40
0.5096376861
 40
0.5237670813
 40
0.5307246693
 40
0.5376125372
 40
0.5511848482
 40
0.5644998328
 40
0.577574582
 40
0.5904283918
 40
0.6030827129
 40
0.6155610557
 40
0.627888844
 40
0.6400932162
 40
0.6522027725
 40
0.6642472726
 40
0.6762572902
 40
0.6882638372
 40
0.7002979696
 40
0.7123903924
 40
0.7245710781
 40
0.7368689138
 40
0.7493113877
 40
0.7619243256
 40
0.7747316794
 40
0.7877553693
 40
0.801015178
 40
0.814528691
 40
0.8213859623
 40
0.828312233
 40
0.8423770598
 40
0.856735134
 40
0.8713953652
 40
0.8863646435
 40
0.9016479268
 40
0.9172483353
 40
0.9331672478
 40
0.9494044
 40
0.9659579798
 40
0.9828247219
 40
1.0
 40
1.0
 40
1.0
 40
1.0
 10
15.6152978106
 20
12.7692726667
 30
0.0
 10
15.6243277326
 20
12.7658498581
 30
0.0
 10
15.6422869692
 20
12.7588311489
 30
0.0
 10
15.6689488301
 20
12.7477718141
 30
0.0
 10
15.6952615841
 20
12.7362101924
 30
0.0
 10
15.7211918535
 20
12.7241609441
 30
0.0
 10
15.7467069315
 20
12.7116392688
 30
0.0
 10
15.7717745866
 20
12.6986609817
 30
0.0
 10
15.7963631667
 20
12.6852424673
 30
0.0
 10
15.8204416241
 20
12.6714006677
 30
0.0
 10
15.843979558
 20
12.6571530575
 30
0.0
 10
15.8669472515
 20
12.6425176205
 30
0.0
 10
15.8893157095
 20
12.6275128276
 30
0.0
 10
15.9110566946
 20
12.612157612
 30
0.0
 10
15.932142763
 20
12.5964713453
 30
0.0
 10
15.9525472986
 20
12.5804738123
 30
0.0
 10
15.9722445466
 20
12.5641851851
 30
0.0
 10
15.9912096478
 20
12.5476259987
 30
0.0
 10
16.0094186674
 20
12.5308171223
 30
0.0
 10
16.026848624
 20
12.5137797319
 30
0.0
 10
16.0434775171
 20
12.496535283
 30
0.0
 10
16.0592843537
 20
12.4791054827
 30
0.0
 10
16.0742491726
 20
12.4615122615
 30
0.0
 10
16.0883530672
 20
12.4437777447
 30
0.0
 10
16.101578208
 20
12.4259242243
 30
0.0
 10
16.113907863
 20
12.4079741344
 30
0.0
 10
16.1253264157
 20
12.3899500127
 30
0.0
 10
16.1358193677
 20
12.3718745071
 30
0.0
 10
16.1453734004
 20
12.3537702309
 30
0.0
 10
16.1539762124
 20
12.3356601688
 30
0.0
 10
16.1603760252
 20
12.3205051615
 30
0.0
 10
16.1650016094
 20
12.3084033617
 30
0.0
 10
16.1692570198
 20
12.2964400254
 30
0.0
 10
16.17397372
 20
12.2815205569
 30
0.0
 10
16.178673536
 20
12.2636136444
 30
0.0
 10
16.1823790119
 20
12.245813944
 30
0.0
 10
16.1850850442
 20
12.2281441969
 30
0.0
 10
16.1867878707
 20
12.2106267607
 30
0.0
 10
16.1874849707
 20
12.1932839571
 30
0.0
 10
16.1871751216
 20
12.1761379526
 30
0.0
 10
16.1858584151
 20
12.1592107536
 30
0.0
 10
16.1835362878
 20
12.1425241619
 30
0.0
 10
16.1802115385
 20
12.1260997305
 30
0.0
 10
16.1758883379
 20
12.1099587115
 30
0.0
 10
16.1705722306
 20
12.0941219994
 30
0.0
 10
16.1642701251
 20
12.0786100744
 30
0.0
 10
16.1569902723
 20
12.0634429476
 30
0.0
 10
16.1487422337
 20
12.0486401139
 30
0.0
 10
16.1395368433
 20
12.0342205135
 30
0.0
 10
16.1293861709
 20
12.0202025017
 30
0.0
 10
16.1183034721
 20
12.0066038268
 30
0.0
 10
16.1063031695
 20
11.9934416352
 30
0.0
 10
16.093400738
 20
11.9807324025
 30
0.0
 10
16.079612984
 20
11.9684921691
 30
0.0
 10
16.0674595145
 20
11.958743164
 30
0.0
 10
16.0573210702
 20
11.9511916237
 30
0.0
 10
16.0467992714
 20
11.943733242
 30
0.0
 10
16.033118189
 20
11.9347337702
 30
0.0
 10
16.0159755777
 20
11.9245153384
 30
0.0
 10
15.9980458685
 20
11.9148355881
 30
0.0
 10
15.9793519753
 20
11.9057067117
 30
0.0
 10
15.9599174456
 20
11.8971400175
 30
0.0
 10
15.939766828
 20
11.8891461814
 30
0.0
 10
15.9189255319
 20
11.8817351593
 30
0.0
 10
15.897419858
 20
11.8749161992
 30
0.0
 10
15.8752768526
 20
11.8686978008
 30
0.0
 10
15.8525246987
 20
11.8630877834
 30
0.0
 10
15.8371069007
 20
11.8597874369
 30
0.0
 10
15.8293058056
 20
11.8582376089
 30
0.0
  0
SPLINE
  5
2BB
100
AcDbEntity
  8
LAYER_FEATURE
100
AcDbSpline
 62
7
  6
CONTINUOUS
 70
0
 71
3
 72
65
 73
61
 74
0
 42
0.0000001
 43
0.0000001
 44
0.0000000001
 40
0.0
 40
0.0
 40
0.0
 40
0.0
 40
0.0171789291
 40
0.0345308212
 40
0.0520449304
 40
0.0697108277
 40
0.0875173419
 40
0.1054531223
 40
0.1235064948
 40
0.1416655296
 40
0.1599180701
 40
0.1782517576
 40
0.2151106903
 40
0.2521421454
 40
0.2892428502
 40
0.326308958
 40
0.3632369085
 40
0.3999242907
 40
0.4181471291
 40
0.4362723994
 40
0.4542880172
 40
0.4721821368
 40
0.4899431807
 40
0.5075598703
 40
0.5250212573
 40
0.5423167544
 40
0.5594361677
 40
0.5763697299
 40
0.5931081358
 40
0.6096425801
 40
0.6259647934
 40
0.6420670807
 40
0.6579423621
 40
0.6735842156
 40
0.6889869237
 40
0.704145519
 40
0.7190558316
 40
0.7337145398
 40
0.7481192228
 40
0.7622684175
 40
0.7761616751
 40
0.7897996169
 40
0.803183993
 40
0.8163177408
 40
0.8292050436
 40
0.8418513875
 40
0.8542636101
 40
0.8664499451
 40
0.8784200586
 40
0.8901850745
 40
0.9017575857
 40
0.913151645
 40
0.9243827344
 40
0.9354677115
 40
0.9464247275
 40
0.9572731187
 40
0.9680332657
 40
0.9787264248
 40
0.9893745343
 40
1.0
 40
1.0
 40
1.0
 40
1.0
 10
15.2805649046
 20
13.420650877
 30
0.0
 10
15.2894355969
 20
13.420650877
 30
0.0
 10
15.307266864
 20
13.420455688
 30
0.0
 10
15.334129228
 20
13.4195884164
 30
0.0
 10
15.3612187474
 20
13.4181459864
 30
0.0
 10
15.3885069396
 20
13.4161299581
 30
0.0
 10
15.415965556
 20
13.4135423924
 30
0.0
 10
15.4435659621
 20
13.4103859975
 30
0.0
 10
15.4712794563
 20
13.4066640545
 30
0.0
 10
15.4990771572
 20
13.4023804453
 30
0.0
 10
15.5269302566
 20
13.3975396169
 30
0.0
 10
15.5641667527
 20
13.3903365357
 30
0.0
 10
15.6106589884
 20
13.3799699311
 30
0.0
 10
15.6661075261
 20
13.365421702
 30
0.0
 10
15.7210832974
 20
13.3488033201
 30
0.0
 10
15.7753575166
 20
13.3301838824
 30
0.0
 10
15.828704339
 20
13.309640932
 30
0.0
 10
15.8723006749
 20
13.290947953
 30
0.0
 10
15.9065241815
 20
13.2750988426
 30
0.0
 10
15.9317668837
 20
13.2628132336
 30
0.0
 10
15.9566143909
 20
13.2501157469
 30
0.0
 10
15.9810409495
 20
13.2370195336
 30
0.0
 10
16.0050211058
 20
13.2235382369
 30
0.0
 10
16.0285299095
 20
13.2096858809
 30
0.0
 10
16.0515428952
 20
13.1954768836
 30
0.0
 10
16.0740361159
 20
13.1809260286
 30
0.0
 10
16.0959861648
 20
13.166048453
 30
0.0
 10
16.1173701996
 20
13.1508596302
 30
0.0
 10
16.1381659679
 20
13.1353753547
 30
0.0
 10
16.1583518352
 20
13.1196117309
 30
0.0
 10
16.1779068015
 20
13.1035851483
 30
0.0
 10
16.1968105221
 20
13.0873122653
 30
0.0
 10
16.2150433285
 20
13.0708099921
 30
0.0
 10
16.2325862478
 20
13.0540954704
 30
0.0
 10
16.2494210297
 20
13.0371860629
 30
0.0
 10
16.2655301599
 20
13.0200993286
 30
0.0
 10
16.2808968749
 20
13.0028530034
 30
0.0
 10
16.2955051777
 20
12.9854649826
 30
0.0
 10
16.309339853
 20
12.9679533
 30
0.0
 10
16.3223864877
 20
12.9503361139
 30
0.0
 10
16.3346314845
 20
12.932631687
 30
0.0
 10
16.3460620674
 20
12.9148583643
 30
0.0
 10
16.356666293
 20
12.8970345569
 30
0.0
 10
16.36643306
 20
12.8791787234
 30
0.0
 10
16.3753521207
 20
12.8613093536
 30
0.0
 10
16.3834140979
 20
12.8434449552
 30
0.0
 10
16.3906104814
 20
12.8256040335
 30
0.0
 10
16.3969336355
 20
12.8078050782
 30
0.0
 10
16.4023768062
 20
12.7900665508
 30
0.0
 10
16.4069341277
 20
12.7724068705
 30
0.0
 10
16.410600645
 20
12.7548444059
 30
0.0
 10
16.413372312
 20
12.7373974588
 30
0.0
 10
16.4152460004
 20
12.7200842535
 30
0.0
 10
16.4162195129
 20
12.7029229226
 30
0.0
 10
16.4162915955
 20
12.6859314969
 30
0.0
 10
16.4154619576
 20
12.6691278653
 30
0.0
 10
16.4137313073
 20
12.6525298292
 30
0.0
 10
16.4111012644
 20
12.6361547901
 30
0.0
 10
16.4075747041
 20
12.6200207812
 30
0.0
 10
16.4046268732
 20
12.6094315024
 30
0.0
 10
16.4030069484
 20
12.604189416
 30
0.0
  0
SPLINE
  5
2BC
100
AcDbEntity
  8
LAYER_FEATURE
100
AcDbSpline
 62
7
  6
CONTINUOUS
 70
0
 71
3
 72
17
 73
13
 74
0
 42
0.0000001
 43
0.0000001
 44
0.0000000001
 40
0.0
 40
0.0
 40
0.0
 40
0.0
 40
0.0558117858
 40
0.1134922179
 40
0.1728751659
 40
0.2337893456
 40
0.3593510588
 40
0.4884230919
 40
0.6190405479
 40
0.7491656606
 40
0.8767822761
 40
1.0
 40
1.0
 40
1.0
 40
1.0
 10
15.2634689111
 20
13.2625454298
 30
0.0
 10
15.2637805734
 20
13.2622428555
 30
0.0
 10
15.2644339123
 20
13.261647468
 30
0.0
 10
15.2654796434
 20
13.2607998195
 30
0.0
 10
15.266602113
 20
13.2599869985
 30
0.0
 10
15.2682082662
 20
13.2589456505
 30
0.0
 10
15.2703659333
 20
13.2577642293
 30
0.0
 10
15.2731194931
 20
13.2565679286
 30
0.0
 10
15.2760009154
 20
13.2556060032
 30
0.0
 10
15.2789440522
 20
13.2549005516
 30
0.0
 10
15.2818811432
 20
13.2544677391
 30
0.0
 10
15.2838344305
 20
13.254365293
 30
0.0
 10
15.2847934235
 20
13.254365293
 30
0.0
  0
LINE
  5
2BD
100
AcDbEntity
  8
LAYER_FEATURE
100
AcDbLine
 62
7
  6
CONTINUOUS
 10
15.3768918767
 20
13.254365293
 11
15.3808209655
 21
13.2546741619
  0
SPLINE
  5
2BE
100
AcDbEntity
  8
LAYER_FEATURE
100
AcDbSpline
 62
7
  6
CONTINUOUS
 70
0
 71
3
 72
22
 73
18
 74
0
 42
0.0000001
 43
0.0000001
 44
0.0000000001
 40
0.0
 40
0.0
 40
0.0
 40
0.0
 40
0.1571588346
 40
0.2329167205
 40
0.3064759278
 40
0.3776427721
 40
0.4462656054
 40
0.5122368201
 40
0.5754999824
 40
0.6360576962
 40
0.6939793939
 40
0.7494095227
 40
0.8025740807
 40
0.853784235
 40
0.9034353394
 40
0.9519983795
 40
1.0
 40
1.0
 40
1.0
 40
1.0
 10
15.4073500237
 20
13.2964207351
 30
0.0
 10
15.4064038211
 20
13.2965061429
 30
0.0
 10
15.4049941123
 20
13.2965681411
 30
0.0
 10
15.4031418497
 20
13.2965048835
 30
0.0
 10
15.4018134842
 20
13.2963868214
 30
0.0
 10
15.4005368492
 20
13.2961982274
 30
0.0
 10
15.3993191771
 20
13.295940144
 30
0.0
 10
15.3981674168
 20
13.2956139975
 30
0.0
 10
15.3970881225
 20
13.2952215666
 30
0.0
 10
15.3960874509
 20
13.2947649722
 30
0.0
 10
15.3951711404
 20
13.294246652
 30
0.0
 10
15.3943444994
 20
13.2936693678
 30
0.0
 10
15.393612414
 20
13.2930361888
 30
0.0
 10
15.3929793572
 20
13.2923505474
 30
0.0
 10
15.3924493435
 20
13.2916161984
 30
0.0
 10
15.3920259676
 20
13.2908376099
 30
0.0
 10
15.3918161473
 20
13.2902907061
 30
0.0
 10
15.3917304727
 20
13.2900134649
 30
0.0
  0
SPLINE
  5
2BF
100
AcDbEntity
  8
LAYER_FEATURE
100
AcDbSpline
 62
7
  6
CONTINUOUS
 70
0
 71
3
 72
11
 73
7
 74
0
 42
0.0000001
 43
0.0000001
 44
0.0000000001
 40
0.0
 40
0.0
 40
0.0
 40
0.0
 40
0.2465164637
 40
0.4956347653
 40
0.7469386613
 40
1.0
 40
1.0
 40
1.0
 40
1.0
 10
15.4073500237
 20
13.2964207351
 30
0.0
 10
15.4198448784
 20
13.2952929027
 30
0.0
 10
15.4449317005
 20
13.2926212301
 30
0.0
 10
15.4825925345
 20
13.2874161587
 30
0.0
 10
15.5204044901
 20
13.2810039082
 30
0.0
 10
15.5455746647
 20
13.2759499852
 30
0.0
 10
15.5581623018
 20
13.2732272753
 30
0.0
  0
SPLINE
  5
2C0
100
AcDbEntity
  8
LAYER_FEATURE
100
AcDbSpline
 62
7
  6
CONTINUOUS
 70
0
 71
3
 72
22
 73
18
 74
0
 42
0.0000001
 43
0.0000001
 44
0.0000000001
 40
0.0
 40
0.0
 40
0.0
 40
0.0
 40
0.0468082087
 40
0.0959701104
 40
0.1476419826
 40
0.2018972596
 40
0.2587264071
 40
0.3180530436
 40
0.3797417657
 40
0.4436077556
 40
0.5094245674
 40
0.5769312807
 40
0.6458390565
 40
0.7158367699
 40
0.7865976494
 40
0.8577811414
 40
1.0
 40
1.0
 40
1.0
 40
1.0
 10
15.5767597055
 20
13.2598605209
 30
0.0
 10
15.5766558329
 20
13.2602179715
 30
0.0
 10
15.5763982932
 20
13.260938458
 30
0.0
 10
15.5758859622
 20
13.2619970036
 30
0.0
 10
15.5752425821
 20
13.2630513189
 30
0.0
 10
15.5744730397
 20
13.264093868
 30
0.0
 10
15.5735828831
 20
13.265117438
 30
0.0
 10
15.5725785406
 20
13.2661148232
 30
0.0
 10
15.5714672059
 20
13.2670789767
 30
0.0
 10
15.5702568437
 20
13.2680030475
 30
0.0
 10
15.5689561277
 20
13.268880443
 30
0.0
 10
15.567574391
 20
13.2697048863
 30
0.0
 10
15.5661215483
 20
13.2704704671
 30
0.0
 10
15.5646080607
 20
13.2711716842
 30
0.0
 10
15.5630447241
 20
13.2718035221
 30
0.0
 10
15.5609101162
 20
13.2725469447
 30
0.0
 10
15.5592677181
 20
13.2729881734
 30
0.0
 10
15.5581623018
 20
13.2732272753
 30
0.0
  0
SPLINE
  5
2C1
100
AcDbEntity
  8
LAYER_FEATURE
100
AcDbSpline
 62
7
  6
CONTINUOUS
 70
0
 71
3
 72
19
 73
15
 74
0
 42
0.0000001
 43
0.0000001
 44
0.0000000001
 40
0.0
 40
0.0
 40
0.0
 40
0.0
 40
0.0969055541
 40
0.1487462824
 40
0.2029336491
 40
0.2594810226
 40
0.3183500616
 40
0.3794559226
 40
0.4426732543
 40
0.507842145
 40
0.5747729086
 40
0.7130013415
 40
0.8554595656
 40
1.0
 40
1.0
 40
1.0
 40
1.0
 10
15.5846710087
 20
13.2326358266
 30
0.0
 10
15.5848610317
 20
13.231981912
 30
0.0
 10
15.5852647004
 20
13.231008365
 30
0.0
 10
15.5859781531
 20
13.2297727741
 30
0.0
 10
15.5866286432
 20
13.2288319559
 30
0.0
 10
15.5873783059
 20
13.227904202
 30
0.0
 10
15.5882228898
 20
13.2269944549
 30
0.0
 10
15.589157459
 20
13.2261079953
 30
0.0
 10
15.5901766151
 20
13.2252498876
 30
0.0
 10
15.5912744843
 20
13.2244250526
 30
0.0
 10
15.5928515323
 20
13.2233647737
 30
0.0
 10
15.5949792292
 20
13.2221563382
 30
0.0
 10
15.5977053946
 20
13.2209239616
 30
0.0
 10
15.5996119383
 20
13.220256997
 30
0.0
 10
15.600584331
 20
13.2199635718
 30
0.0
  0
SPLINE
  5
2C2
100
AcDbEntity
  8
LAYER_FEATURE
100
AcDbSpline
 62
7
  6
CONTINUOUS
 70
0
 71
3
 72
20
 73
16
 74
0
 42
0.0000001
 43
0.0000001
 44
0.0000000001
 40
0.0
 40
0.0
 40
0.0
 40
0.0
 40
0.1455142635
 40
0.2885908081
 40
0.4270896647
 40
0.4940335015
 40
0.5591405017
 40
0.6222280159
 40
0.6831449269
 40
0.7417766327
 40
0.7980512144
 40
0.8519456665
 40
0.9034912959
 40
0.9527908489
 40
1.0
 40
1.0
 40
1.0
 40
1.0
 10
15.6963082869
 20
13.1910783143
 30
0.0
 10
15.6972795213
 20
13.1907852387
 30
0.0
 10
15.6992321078
 20
13.1902873608
 30
0.0
 10
15.7021747196
 20
13.1898088318
 30
0.0
 10
15.7046030801
 20
13.1896425253
 30
0.0
 10
15.7064899563
 20
13.1896578507
 30
0.0
 10
15.7078485493
 20
13.1897414114
 30
0.0
 10
15.7091585634
 20
13.1898966646
 30
0.0
 10
15.7104124726
 20
13.1901227456
 30
0.0
 10
15.7116030432
 20
13.1904183842
 30
0.0
 10
15.7127234256
 20
13.1907819502
 30
0.0
 10
15.7137671353
 20
13.1912114527
 30
0.0
 10
15.7147282259
 20
13.1917045649
 30
0.0
 10
15.715600909
 20
13.1922585556
 30
0.0
 10
15.7161312241
 20
13.1926750236
 30
0.0
 10
15.7163783898
 20
13.1928923623
 30
0.0
  0
SPLINE
  5
2C3
100
AcDbEntity
  8
LAYER_FEATURE
100
AcDbSpline
 62
7
  6
CONTINUOUS
 70
0
 71
3
 72
22
 73
18
 74
0
 42
0.0000001
 43
0.0000001
 44
0.0000000001
 40
0.0
 40
0.0
 40
0.0
 40
0.0
 40
0.1433327625
 40
0.2149310662
 40
0.2860098675
 40
0.3562288057
 40
0.4252628311
 40
0.4928041407
 40
0.5585689602
 40
0.6223033452
 40
0.6837899553
 40
0.7428554711
 40
0.7993786953
 40
0.8533004908
 40
0.9046319314
 40
0.9534705354
 40
1.0
 40
1.0
 40
1.0
 40
1.0
 10
15.7601010157
 20
13.2122911
 30
0.0
 10
15.7590468918
 20
13.2127035266
 30
0.0
 10
15.7574343478
 20
13.2132446889
 30
0.0
 10
15.7552458545
 20
13.2138057969
 30
0.0
 10
15.753597965
 20
13.2141430217
 30
0.0
 10
15.7519553259
 20
13.2143942393
 30
0.0
 10
15.7503296611
 20
13.2145576688
 30
0.0
 10
15.7487326667
 20
13.2146321236
 30
0.0
 10
15.7471757954
 20
13.2146170635
 30
0.0
 10
15.7456702032
 20
13.2145125781
 30
0.0
 10
15.7442266575
 20
13.2143193871
 30
0.0
 10
15.742855466
 20
13.2140388183
 30
0.0
 10
15.7415663918
 20
13.2136727886
 30
0.0
 10
15.7403686417
 20
13.2132237696
 30
0.0
 10
15.7392706904
 20
13.2126947209
 30
0.0
 10
15.7382806486
 20
13.2120892496
 30
0.0
 10
15.7376837462
 20
13.2116266742
 30
0.0
 10
15.7374078008
 20
13.2113840288
 30
0.0
  0
SPLINE
  5
2C4
100
AcDbEntity
  8
LAYER_FEATURE
100
AcDbSpline
 62
7
  6
CONTINUOUS
 70
0
 71
3
 72
11
 73
7
 74
0
 42
0.0000001
 43
0.0000001
 44
0.0000000001
 40
0.0
 40
0.0
 40
0.0
 40
0.0
 40
0.2527597882
 40
0.5039653294
 40
0.753185522
 40
1.0
 40
1.0
 40
1.0
 40
1.0
 10
15.7601010157
 20
13.2122911
 30
0.0
 10
15.7721253361
 20
13.2075865784
 30
0.0
 10
15.7959627001
 20
13.1978508569
 30
0.0
 10
15.8311347647
 20
13.1822392905
 30
0.0
 10
15.8655421688
 20
13.1656968945
 30
0.0
 10
15.8880326775
 20
13.1540134717
 30
0.0
 10
15.8991274122
 20
13.1480240629
 30
0.0
  0
SPLINE
  5
2C5
100
AcDbEntity
  8
LAYER_FEATURE
100
AcDbSpline
 62
7
  6
CONTINUOUS
 70
0
 71
3
 72
17
 73
13
 74
0
 42
0.0000001
 43
0.0000001
 44
0.0000000001
 40
0.0
 40
0.0
 40
0.0
 40
0.0
 40
0.1242255986
 40
0.2525811022
 40
0.3831480375
 40
0.5138969424
 40
0.642791216
 40
0.7678820611
 40
0.8284607217
 40
0.8874484355
 40
0.9446807711
 40
1.0
 40
1.0
 40
1.0
 40
1.0
 10
15.9799395751
 20
13.04460092
 30
0.0
 10
15.9807447842
 20
13.0440689007
 30
0.0
 10
15.9824387169
 20
13.0430711373
 30
0.0
 10
15.9851360833
 20
13.041803401
 30
0.0
 10
15.9879826064
 20
13.0407614631
 30
0.0
 10
15.9909127931
 20
13.0399693736
 30
0.0
 10
15.9938593627
 20
13.0394453056
 30
0.0
 10
15.9962986427
 20
13.0392396218
 30
0.0
 10
15.9981999938
 20
13.0392228481
 30
0.0
 10
15.9995729161
 20
13.0392826447
 30
0.0
 10
16.0008997389
 20
13.0394143437
 30
0.0
 10
16.0017638951
 20
13.0395520136
 30
0.0
 10
16.0021859058
 20
13.0396333027
 30
0.0
  0
SPLINE
  5
2C6
100
AcDbEntity
  8
LAYER_FEATURE
100
AcDbSpline
 62
7
  6
CONTINUOUS
 70
0
 71
3
 72
23
 73
19
 74
0
 42
0.0000001
 43
0.0000001
 44
0.0000000001
 40
0.0
 40
0.0
 40
0.0
 40
0.0
 40
0.059077413
 40
0.1199485248
 40
0.1823659335
 40
0.2460653077
 40
0.3107570948
 40
0.3761388137
 40
0.4418971285
 40
0.5077134413
 40
0.5732682604
 40
0.6382458706
 40
0.7023390504
 40
0.7652536273
 40
0.8267143155
 40
0.8864674284
 40
0.9442933588
 40
1.0
 40
1.0
 40
1.0
 40
1.0
 10
16.0624527403
 20
13.0401114558
 30
0.0
 10
16.0620575152
 20
13.040431656
 30
0.0
 10
16.0612342609
 20
13.041056465
 30
0.0
 10
16.0599295394
 20
13.0419314656
 30
0.0
 10
16.0585441834
 20
13.0427532589
 30
0.0
 10
16.0570882431
 20
13.0435159119
 30
0.0
 10
16.0555721322
 20
13.0442139557
 30
0.0
 10
16.0540067694
 20
13.0448423739
 30
0.0
 10
16.0524034062
 20
13.0453966447
 30
0.0
 10
16.050773579
 20
13.0458727811
 30
0.0
 10
16.0491290127
 20
13.0462673561
 30
0.0
 10
16.0474815371
 20
13.0465775333
 30
0.0
 10
16.0458429996
 20
13.0468010802
 30
0.0
 10
16.0442251697
 20
13.0469363941
 30
0.0
 10
16.0426396799
 20
13.0469824883
 30
0.0
 10
16.0410978511
 20
13.0469390377
 30
0.0
 10
16.0396108514
 20
13.0468063222
 30
0.0
 10
16.0386440562
 20
13.0466559882
 30
0.0
 10
16.0381730803
 20
13.0465652673
 30
0.0
  0
SPLINE
  5
2C7
100
AcDbEntity
  8
LAYER_FEATURE
100
AcDbSpline
 62
7
  6
CONTINUOUS
 70
0
 71
3
 72
11
 73
7
 74
0
 42
0.0000001
 43
0.0000001
 44
0.0000000001
 40
0.0
 40
0.0
 40
0.0
 40
0.0
 40
0.2588501932
 40
0.5119621171
 40
0.7590813923
 40
1.0
 40
1.0
 40
1.0
 40
1.0
 10
16.0624527403
 20
13.0401114558
 30
0.0
 10
16.0712829787
 20
13.0329574445
 30
0.0
 10
16.0884859088
 20
13.0184807668
 30
0.0
 10
16.1131279577
 20
12.9960303441
 30
0.0
 10
16.1362650321
 20
12.9731373709
 30
0.0
 10
16.150835372
 20
12.957415656
 30
0.0
 10
16.1578439833
 20
12.9494936449
 30
0.0
  0
SPLINE
  5
2C8
100
AcDbEntity
  8
LAYER_FEATURE
100
AcDbSpline
 62
7
  6
CONTINUOUS
 70
0
 71
3
 72
19
 73
15
 74
0
 42
0.0000001
 43
0.0000001
 44
0.0000000001
 40
0.0
 40
0.0
 40
0.0
 40
0.0
 40
0.0512481655
 40
0.1046950122
 40
0.1602780351
 40
0.217911685
 40
0.2774655698
 40
0.3387806582
 40
0.4016720579
 40
0.4659328182
 40
0.5976139528
 40
0.7319086972
 40
0.8667369856
 40
1.0
 40
1.0
 40
1.0
 40
1.0
 10
16.1628092313
 20
12.8484893157
 30
0.0
 10
16.1630244603
 20
12.8481683867
 30
0.0
 10
16.1634907951
 20
12.8475303155
 30
0.0
 10
16.1642732693
 20
12.8466081165
 30
0.0
 10
16.1651491113
 20
12.845705714
 30
0.0
 10
16.1661131157
 20
12.8448283505
 30
0.0
 10
16.1671597767
 20
12.8439810354
 30
0.0
 10
16.1682830049
 20
12.843168658
 30
0.0
 10
16.1694763219
 20
12.8423958772
 30
0.0
 10
16.171165168
 20
12.8414164795
 30
0.0
 10
16.1734060936
 20
12.8403221374
 30
0.0
 10
16.1762323658
 20
12.8392412247
 30
0.0
 10
16.1791531477
 20
12.8384065746
 30
0.0
 10
16.1811410818
 20
12.8380227966
 30
0.0
 10
16.1821354236
 20
12.8378780544
 30
0.0
  0
SPLINE
  5
2C9
100
AcDbEntity
  8
LAYER_FEATURE
100
AcDbSpline
 62
7
  6
CONTINUOUS
 70
0
 71
3
 72
22
 73
18
 74
0
 42
0.0000001
 43
0.0000001
 44
0.0000000001
 40
0.0
 40
0.0
 40
0.0
 40
0.0
 40
0.0485384633
 40
0.0995490364
 40
0.153066992
 40
0.2090617347
 40
0.2674358387
 40
0.328040086
 40
0.3906795857
 40
0.4551218936
 40
0.52110347
 40
0.5883357629
 40
0.6565108996
 40
0.7253066661
 40
0.7943925901
 40
0.8634315917
 40
1.0
 40
1.0
 40
1.0
 40
1.0
 10
16.2451400612
 20
12.8193260837
 30
0.0
 10
16.2449725751
 20
12.8196872476
 30
0.0
 10
16.24458953
 20
12.8204101121
 30
0.0
 10
16.2438996399
 20
12.8214608649
 30
0.0
 10
16.2430854174
 20
12.8224973717
 30
0.0
 10
16.2421528739
 20
12.823512216
 30
0.0
 10
16.2411086578
 20
12.8244982986
 30
0.0
 10
16.2399602742
 20
12.8254486249
 30
0.0
 10
16.2387159429
 20
12.8263564336
 30
0.0
 10
16.2373845874
 20
12.8272152409
 30
0.0
 10
16.2359757592
 20
12.828018896
 30
0.0
 10
16.2344995789
 20
12.8287616339
 30
0.0
 10
16.232966649
 20
12.8294381198
 30
0.0
 10
16.2313880173
 20
12.8300434868
 30
0.0
 10
16.2297749431
 20
12.830573403
 30
0.0
 10
16.2276022996
 20
12.8311719026
 30
0.0
 10
16.2259445763
 20
12.8315009362
 30
0.0
 10
16.2248361335
 20
12.8316622876
 30
0.0
  0
SPLINE
  5
2CA
100
AcDbEntity
  8
LAYER_FEATURE
100
AcDbSpline
 62
7
  6
CONTINUOUS
 70
0
 71
3
 72
13
 73
9
 74
0
 42
0.0000001
 43
0.0000001
 44
0.0000000001
 40
0.0
 40
0.0
 40
0.0
 40
0.0
 40
0.2607198872
 40
0.5139133726
 40
0.6378649325
 40
0.7601389487
 40
0.880821177
 40
1.0
 40
1.0
 40
1.0
 40
1.0
 10
16.2451400612
 20
12.8193260837
 30
0.0
 10
16.2488353705
 20
12.8113575886
 30
0.0
 10
16.2556374689
 20
12.7954212568
 30
0.0
 10
16.2627492074
 20
12.775123655
 30
0.0
 10
16.2674626204
 20
12.7589686924
 30
0.0
 10
16.2704941973
 20
12.7469821259
 30
0.0
 10
16.2730448602
 20
12.7350486625
 30
0.0
 10
16.2744319854
 20
12.7270852839
 30
0.0
 10
16.2750431663
 20
12.7231169476
 30
0.0
  0
ENDSEC
  0
SECTION
  2
OBJECTS
  0
DICTIONARY
  5
C
100
AcDbDictionary
280
0
281
1
  3
ACAD_GROUP
350
D
  3
ACAD_MLINESTYLE
350
17
  3
ACAD_LAYOUT
350
1A
  3
ACAD_PLOTSETTINGS
350
19
  3
ACAD_PLOTSTYLENAME
350
E
  0
DICTIONARY
  5
D
102
{ACAD_REACTORS
330
C
102
}
100
AcDbDictionary
280
0
281
1
  0
ACDBDICTIONARYWDFLT
  5
E
102
{ACAD_REACTORS
330
C
102
}
100
AcDbDictionary
281
1
  3
Normal
350
F
100
AcDbDictionaryWithDefault
340
F
  0
DICTIONARY
  5
17
102
{ACAD_REACTORS
330
C
102
}
100
AcDbDictionary
280
0
281
1
  3
Standard
350
18
  0
DICTIONARY
  5
19
102
{ACAD_REACTORS
330
C
102
}
100
AcDbDictionary
281
1
  0
DICTIONARY
  5
1A
102
{ACAD_REACTORS
330
C
102
}
100
AcDbDictionary
281
1
  3
Model
350
2CB
  3
Layout1
350
2CC
  0
ACDBPLACEHOLDER
  5
F
102
{ACAD_REACTORS
330
E
102
}
  0
MLINESTYLE
  5
18
102
{ACAD_REACTORS
330
17
102
}
100
AcDbMlineStyle
  2
STANDARD
 70
0
  3

 62
256
 51
90.0
 52
90.0
 71
2
 49
0.5
 62
256
  6
BYLAYER
 49
-0.5
 62
256
  6
BYLAYER
  0
LAYOUT
  5
2CB
102
{ACAD_REACTORS
330
1A
102
}
100
AcDbPlotSettings
  1

  2
none_device
  4
ANSI_C_(22.00_x_17.00_Inches)
  6

 40
0.0
 41
0.0
 42
0.0
 43
0.0
 44
558.8
 45
431.8
 46
0.0
 47
0.0
 48
0.0
 49
0.0
140
0.0
141
0.0
142
1.0
143
1.0
 70
1024
 72
0
 73
0
 74
0
  7

 75
0
147
1.0
148
0.0
149
0.0
100
AcDbLayout
  1
Model
 70
0
 71
0
 10
0.0
 20
0.0
 11
22.0
 21
17.0
 12
0.0
 22
0.0
 32
0.0
 14
0.0
 24
0.0
 34
0.0
 15
0.0
 25
0.0
 35
0.0
146
0.0
 13
0.0
 23
0.0
 33
0.0
 16
1.0
 26
0.0
 36
0.0
 17
0.0
 27
1.0
 37
0.0
 76
0
330
222
345
0
346
0
  0
LAYOUT
  5
2CC
102
{ACAD_REACTORS
330
1A
102
}
100
AcDbPlotSettings
  1

  2
none_device
  4
ANSI_C_(22.00_x_17.00_Inches)
  6

 40
0.0
 41
0.0
 42
0.0
 43
0.0
 44
558.8
 45
431.8
 46
0.0
 47
0.0
 48
0.0
 49
0.0
140
0.0
141
0.0
142
1.0
143
1.0
 70
0
 72
0
 73
0
 74
0
  7

 75
0
147
1.0
148
0.0
149
0.0
100
AcDbLayout
  1
Layout1
 70
0
 71
1
 10
0.0
 20
0.0
 11
22.0
 21
17.0
 12
0.0
 22
0.0
 32
0.0
 14
0.0
 24
0.0
 34
0.0
 15
0.0
 25
0.0
 35
0.0
146
0.0
 13
0.0
 23
0.0
 33
0.0
 16
1.0
 26
0.0
 36
0.0
 17
0.0
 27
1.0
 37
0.0
 76
0
330
223
345
0
346
0
  0
ENDSEC
  0
EOF