999
DXF file: _cgs_temp_output.dxf
999
Pro/ENGINEER 2016360 by Parametric Technology Corporation
  0
SECTION
  2
HEADER
  9
$ACADVER
  1
AC1021
  9
$DWGCODEPAGE
  3
ANSI_1252
  9
$EXTMAX
 10
22.0
 20
17.0
 30
0.0
  9
$EXTMIN
 10
0.0
 20
0.0
 30
0.0
  9
$LIMMIN
 10
0.0
 20
0.0
  9
$LIMMAX
 10
22.0
 20
17.0
  9
$VIEWCTR
 10
11.0
 20
8.5
  9
$VIEWSIZE
 40
17.0
  9
$CLAYER
  8
0
  9
$LTSCALE
 40
1.21
  9
$CELTYPE
  6
BYLAYER
  9
$DIMSCALE
 40
1.0
  9
$DIMASZ
 40
0.1875
  9
$DIMEXO
 40
0.0625
  9
$DIMDLI
 40
0.836
  9
$DIMEXE
 40
0.125
  9
$DIMCEN
 40
0.198
  9
$DIMLFAC
 40
1.0
  9
$DIMBLK
  1
_CLOSED
  9
$DIMALT
 70
0
  9
$DIMALTF
 40
25.4
  9
$DIMTXT
 40
0.15625
  9
$DIMTOL
 70
0
  9
$DIMLIM
 70
0
  9
$DIMTFAC
 40
1.0
  9
$DIMGAP
 40
0.09
  9
$DIMDSEP
 70
46
  9
$AUNITS
 70
0
  9
$PDMODE
 70
3
  9
$PDSIZE
 40
0.3125
  9
$HANDSEED
  5
344
  9
$TILEMODE
 70
1
  9
$MEASUREMENT
 70
0
  9
$INSUNITS
 70
1
  0
ENDSEC
  0
SECTION
  2
CLASSES
  0
CLASS
  1
ACDBDICTIONARYWDFLT
  2
AcDbDictionaryWithDefault
  3
AutoCAD 2000
 90
0
 91
1
280
0
281
0
  0
CLASS
  1
ACDBPLACEHOLDER
  2
AcDbPlaceHolder
  3
AutoCAD 2000
 90
0
 91
1
280
0
281
0
  0
CLASS
  1
LAYOUT
  2
AcDbLayout
  3
AutoCAD 2000
 90
0
 91
0
280
0
281
0
  0
ENDSEC
  0
SECTION
  2
TABLES
  0
TABLE
  2
VPORT
  5
8
100
AcDbSymbolTable
 70
2
  0
VPORT
  5
1F4
100
AcDbSymbolTableRecord
100
AcDbViewportTableRecord
  2
*ACTIVE
 70
0
 10
0.0
 20
0.0
 11
1.0
 21
1.0
 12
11.0
 22
8.5
 13
0.0
 23
0.0
 14
1.0
 24
1.0
 15
0.0
 25
0.0
 16
0.0
 26
0.0
 36
1.0
 17
0.0
 27
0.0
 37
0.0
 40
17.0
 41
1.2941176471
 42
50.0
 43
0.0
 44
0.0
 50
0.0
 51
0.0
 71
0
 72
100
 73
1
 74
1
 75
0
 76
0
 77
0
 78
0
  0
ENDTAB
  0
TABLE
  2
LTYPE
  5
5
100
AcDbSymbolTable
 70
6
  0
LTYPE
  5
14
100
AcDbSymbolTableRecord
100
AcDbLinetypeTableRecord
  2
BYBLOCK
 70
0
  3

 72
65
 73
0
 40
0.0
  0
LTYPE
  5
15
100
AcDbSymbolTableRecord
100
AcDbLinetypeTableRecord
  2
BYLAYER
 70
0
  3

 72
65
 73
0
 40
0.0
  0
LTYPE
  5
16
100
AcDbSymbolTableRecord
100
AcDbLinetypeTableRecord
  2
CONTINUOUS
 70
64
  3
Solid line
 72
65
 73
0
 40
0.0
  0
LTYPE
  5
1F5
100
AcDbSymbolTableRecord
100
AcDbLinetypeTableRecord
  2
CENTER
 70
64
  3
____ _ ____ _ ____ _ ____ _ ____ _ ____ _ ____
 72
65
 73
4
 40
0.6
 49
0.375
 74
0
 49
-0.075
 74
0
 49
0.075
 74
0
 49
-0.075
 74
0
  0
LTYPE
  5
1F6
100
AcDbSymbolTableRecord
100
AcDbLinetypeTableRecord
  2
HIDDEN
 70
64
  3
- - - - - - - - - - - - - - - - - - - -
 72
65
 73
2
 40
0.2
 49
0.1
 74
0
 49
-0.1
 74
0
  0
LTYPE
  5
1F7
100
AcDbSymbolTableRecord
100
AcDbLinetypeTableRecord
  2
PHANTOM
 70
64
  3
_____ _ _ _____ _ _ _____ _ _ _____
 72
65
 73
6
 40
0.8
 49
0.45
 74
0
 49
-0.05
 74
0
 49
0.1
 74
0
 49
-0.05
 74
0
 49
0.1
 74
0
 49
-0.05
 74
0
  0
LTYPE
  5
1F8
100
AcDbSymbolTableRecord
100
AcDbLinetypeTableRecord
  2
DOT
 70
64
  3
. . . . . . . . . . . . . . . . . . . .
 72
65
 73
2
 40
0.2
 49
0.1
 74
0
 49
-0.1
 74
0
  0
LTYPE
  5
1F9
100
AcDbSymbolTableRecord
100
AcDbLinetypeTableRecord
  2
DASHED
 70
64
  3
- - - - - - - - - - - - - - - - - - - -
 72
65
 73
2
 40
0.2
 49
0.1
 74
0
 49
-0.1
 74
0
  0
ENDTAB
  0
TABLE
  2
LAYER
  5
2
100
AcDbSymbolTable
 70
36
  0
LAYER
  5
10
100
AcDbSymbolTableRecord
100
AcDbLayerTableRecord
  2
0
 70
0
 62
7
  6
CONTINUOUS
370
-3
390
F
  0
LAYER
  5
1FA
100
AcDbSymbolTableRecord
100
AcDbLayerTableRecord
  2
DEFAULT_1
 70
0
 62
7
  6
CENTER
370
-3
390
F
  0
LAYER
  5
1FB
100
AcDbSymbolTableRecord
100
AcDbLayerTableRecord
  2
DEFAULT_2
 70
0
 62
8
  6
HIDDEN
370
-3
390
F
  0
LAYER
  5
1FC
100
AcDbSymbolTableRecord
100
AcDbLayerTableRecord
  2
DEFAULT_3
 70
0
 62
7
  6
PHANTOM
370
-3
390
F
  0
LAYER
  5
1FD
100
AcDbSymbolTableRecord
100
AcDbLayerTableRecord
  2
01_ALL_DTM_PLN
 70
0
 62
7
  6
CONTINUOUS
370
-3
390
F
  0
LAYER
  5
1FE
100
AcDbSymbolTableRecord
100
AcDbLayerTableRecord
  2
01__ASM_ALL_DTM_PLN
 70
0
 62
7
  6
CONTINUOUS
370
-3
390
F
  0
LAYER
  5
1FF
100
AcDbSymbolTableRecord
100
AcDbLayerTableRecord
  2
01__ASM_DEF_DTM_PLN
 70
0
 62
7
  6
CONTINUOUS
370
-3
390
F
  0
LAYER
  5
200
100
AcDbSymbolTableRecord
100
AcDbLayerTableRecord
  2
01___PRT_ALL_DTM_PLN
 70
0
 62
7
  6
CONTINUOUS
370
-3
390
F
  0
LAYER
  5
201
100
AcDbSymbolTableRecord
100
AcDbLayerTableRecord
  2
01___PRT_DEF_DTM_PLN
 70
0
 62
7
  6
CONTINUOUS
370
-3
390
F
  0
LAYER
  5
202
100
AcDbSymbolTableRecord
100
AcDbLayerTableRecord
  2
02_ALL_AXES
 70
0
 62
7
  6
CONTINUOUS
370
-3
390
F
  0
LAYER
  5
203
100
AcDbSymbolTableRecord
100
AcDbLayerTableRecord
  2
02__ASM_ALL_AXES
 70
0
 62
7
  6
CONTINUOUS
370
-3
390
F
  0
LAYER
  5
204
100
AcDbSymbolTableRecord
100
AcDbLayerTableRecord
  2
02___PRT_ALL_AXES
 70
0
 62
7
  6
CONTINUOUS
370
-3
390
F
  0
LAYER
  5
205
100
AcDbSymbolTableRecord
100
AcDbLayerTableRecord
  2
03_ALL_CURVES
 70
0
 62
7
  6
CONTINUOUS
370
-3
390
F
  0
LAYER
  5
206
100
AcDbSymbolTableRecord
100
AcDbLayerTableRecord
  2
03__ASM_ALL_CURVES
 70
0
 62
7
  6
CONTINUOUS
370
-3
390
F
  0
LAYER
  5
207
100
AcDbSymbolTableRecord
100
AcDbLayerTableRecord
  2
03___PRT_ALL_CURVES
 70
0
 62
7
  6
CONTINUOUS
370
-3
390
F
  0
LAYER
  5
208
100
AcDbSymbolTableRecord
100
AcDbLayerTableRecord
  2
04_ALL_DTM_PNT
 70
0
 62
7
  6
CONTINUOUS
370
-3
390
F
  0
LAYER
  5
209
100
AcDbSymbolTableRecord
100
AcDbLayerTableRecord
  2
04__ASM_ALL_DTM_PNT
 70
0
 62
7
  6
CONTINUOUS
370
-3
390
F
  0
LAYER
  5
20A
100
AcDbSymbolTableRecord
100
AcDbLayerTableRecord
  2
04___PRT_ALL_DTM_PNT
 70
0
 62
7
  6
CONTINUOUS
370
-3
390
F
  0
LAYER
  5
20B
100
AcDbSymbolTableRecord
100
AcDbLayerTableRecord
  2
05_ALL_DTM_CSYS
 70
0
 62
7
  6
CONTINUOUS
370
-3
390
F
  0
LAYER
  5
20C
100
AcDbSymbolTableRecord
100
AcDbLayerTableRecord
  2
05__ASM_ALL_DTM_CSYS
 70
0
 62
7
  6
CONTINUOUS
370
-3
390
F
  0
LAYER
  5
20D
100
AcDbSymbolTableRecord
100
AcDbLayerTableRecord
  2
05__ASM_DEF_DTM_CSYS
 70
0
 62
7
  6
CONTINUOUS
370
-3
390
F
  0
LAYER
  5
20E
100
AcDbSymbolTableRecord
100
AcDbLayerTableRecord
  2
05___PRT_ALL_DTM_CSYS
 70
0
 62
7
  6
CONTINUOUS
370
-3
390
F
  0
LAYER
  5
20F
100
AcDbSymbolTableRecord
100
AcDbLayerTableRecord
  2
05___PRT_DEF_DTM_CSYS
 70
0
 62
7
  6
CONTINUOUS
370
-3
390
F
  0
LAYER
  5
210
100
AcDbSymbolTableRecord
100
AcDbLayerTableRecord
  2
06_ALL_SURFS
 70
0
 62
7
  6
CONTINUOUS
370
-3
390
F
  0
LAYER
  5
211
100
AcDbSymbolTableRecord
100
AcDbLayerTableRecord
  2
06__ASM_ALL_SURFS
 70
0
 62
7
  6
CONTINUOUS
370
-3
390
F
  0
LAYER
  5
212
100
AcDbSymbolTableRecord
100
AcDbLayerTableRecord
  2
06___PRT_ALL_SURFS
 70
0
 62
7
  6
CONTINUOUS
370
-3
390
F
  0
LAYER
  5
213
100
AcDbSymbolTableRecord
100
AcDbLayerTableRecord
  2
07__ASM_ALL_SKELETONS
 70
0
 62
7
  6
CONTINUOUS
370
-3
390
F
  0
LAYER
  5
214
100
AcDbSymbolTableRecord
100
AcDbLayerTableRecord
  2
ANNOTATIONS
 70
0
 62
7
  6
CONTINUOUS
370
-3
390
F
  0
LAYER
  5
215
100
AcDbSymbolTableRecord
100
AcDbLayerTableRecord
  2
ASM_DATUMS
 70
0
 62
7
  6
CONTINUOUS
370
-3
390
F
  0
LAYER
  5
216
100
AcDbSymbolTableRecord
100
AcDbLayerTableRecord
  2
ASM_DEF_DATUMS
 70
0
 62
7
  6
CONTINUOUS
370
-3
390
F
  0
LAYER
  5
217
100
AcDbSymbolTableRecord
100
AcDbLayerTableRecord
  2
AXIS
 70
0
 62
7
  6
CONTINUOUS
370
-3
390
F
  0
LAYER
  5
218
100
AcDbSymbolTableRecord
100
AcDbLayerTableRecord
  2
CSYS
 70
0
 62
7
  6
CONTINUOUS
370
-3
390
F
  0
LAYER
  5
219
100
AcDbSymbolTableRecord
100
AcDbLayerTableRecord
  2
CURVES
 70
0
 62
7
  6
CONTINUOUS
370
-3
390
F
  0
LAYER
  5
21A
100
AcDbSymbolTableRecord
100
AcDbLayerTableRecord
  2
DATUMS
 70
0
 62
7
  6
CONTINUOUS
370
-3
390
F
  0
LAYER
  5
21B
100
AcDbSymbolTableRecord
100
AcDbLayerTableRecord
  2
DEF_CSYS
 70
0
 62
7
  6
CONTINUOUS
370
-3
390
F
  0
LAYER
  5
21C
100
AcDbSymbolTableRecord
100
AcDbLayerTableRecord
  2
DEF_DATUMS
 70
0
 62
7
  6
CONTINUOUS
370
-3
390
F
  0
LAYER
  5
21D
100
AcDbSymbolTableRecord
100
AcDbLayerTableRecord
  2
GTOL
 70
0
 62
7
  6
CONTINUOUS
370
-3
390
F
  0
LAYER
  5
21E
100
AcDbSymbolTableRecord
100
AcDbLayerTableRecord
  2
POINTS
 70
0
 62
7
  6
CONTINUOUS
370
-3
390
F
  0
LAYER
  5
21F
100
AcDbSymbolTableRecord
100
AcDbLayerTableRecord
  2
SKELETONS
 70
0
 62
7
  6
CONTINUOUS
370
-3
390
F
  0
LAYER
  5
220
100
AcDbSymbolTableRecord
100
AcDbLayerTableRecord
  2
SURFACES
 70
0
 62
7
  6
CONTINUOUS
370
-3
390
F
  0
LAYER
  5
221
100
AcDbSymbolTableRecord
100
AcDbLayerTableRecord
  2
XSEC_DATUMS
 70
0
 62
7
  6
CONTINUOUS
370
-3
390
F
  0
ENDTAB
  0
TABLE
  2
STYLE
  5
3
100
AcDbSymbolTable
 70
1
  0
STYLE
  5
11
100
AcDbSymbolTableRecord
100
AcDbTextStyleTableRecord
  2
STANDARD
 70
0
 40
0.0
 41
0.8
 50
0.0
 71
0
 42
0.2
  3
txt
  4

  0
STYLE
  5
222
100
AcDbSymbolTableRecord
100
AcDbTextStyleTableRecord
  2
TEXTSTYLE_1
 70
0
 40
0.0
 41
0.8
 50
0.0
 71
0
 42
0.2
  3
gdt
  4

  0
ENDTAB
  0
TABLE
  2
VIEW
  5
6
100
AcDbSymbolTable
 70
0
  0
ENDTAB
  0
TABLE
  2
UCS
  5
7
100
AcDbSymbolTable
 70
0
  0
ENDTAB
  0
TABLE
  2
APPID
  5
9
100
AcDbSymbolTable
 70
1
  0
APPID
  5
223
100
AcDbSymbolTableRecord
100
AcDbRegAppTableRecord
  2
ACAD
 70
0
  0
ENDTAB
  0
TABLE
  2
BLOCK_RECORD
  5
1
100
AcDbSymbolTable
 70
0
  0
BLOCK_RECORD
  5
224
100
AcDbSymbolTableRecord
100
AcDbBlockTableRecord
  2
*Model_Space
  0
BLOCK_RECORD
  5
225
100
AcDbSymbolTableRecord
100
AcDbBlockTableRecord
  2
*Paper_Space
  0
ENDTAB
  0
TABLE
  2
DIMSTYLE
  5
A
100
AcDbSymbolTable
 70
1
100
AcDbDimStyleTable
 71
0
  0
DIMSTYLE
105
226
100
AcDbSymbolTableRecord
100
AcDbDimStyleTableRecord
  2
STANDARD
 70
0
  3

  4

 40
1.0
 41
0.1875
 42
0.0625
 43
0.38
 44
0.125
 45
0.0
 46
0.0
 47
0.0001
 48
0.0001
140
0.15625
141
0.09
142
0.0
143
25.4
144
1.0
145
0.0
146
1.0
147
0.09
 71
0.0
 72
0.0
 73
1
 74
1
 75
0
 76
0
 77
0
 78
4
 79
1
170
0
171
3
172
0
173
0
174
0
175
0
176
0
177
0
178
0
270
2
179
4
271
4
272
4
273
2
274
2
275
0
280
0
281
0
282
0
283
1
284
4
285
0
286
0
287
3
288
0
340
11
278
46
  0
ENDTAB
  0
ENDSEC
  0
SECTION
  2
BLOCKS
  0
BLOCK
  5
20
100
AcDbEntity
  8
0
100
AcDbBlockBegin
  2
*Model_Space
 70
0
 10
0.0
 20
0.0
 30
0.0
  3
*Model_Space
  1

  0
ENDBLK
  5
21
100
AcDbEntity
  8
0
100
AcDbBlockEnd
  0
BLOCK
  5
1C
100
AcDbEntity
  8
0
100
AcDbBlockBegin
  2
*Paper_Space
 70
0
 10
0.0
 20
0.0
 30
0.0
  3
*Paper_Space
  1

  0
ENDBLK
  5
1D
100
AcDbEntity
  8
0
100
AcDbBlockEnd
  0
ENDSEC
  0
SECTION
  2
ENTITIES
  0
MTEXT
  5
227
100
AcDbEntity
  8
0
100
AcDbMText
 62
7
  6
CONTINUOUS
  7
STANDARD
 71
1
 72
1
 10
15.9560215477
 20
0.9479130325
 30
0.0
 11
1.0
 21
0.0
 31
0.0
 44
0.9
  1
SCALE: 1:0.500
 40
0.3
 41
3.36
  0
LINE
  5
228
100
AcDbEntity
  8
0
100
AcDbLine
 62
7
  6
CONTINUOUS
 10
0.0
 20
0.0
 11
0.0
 21
17.0
  0
LINE
  5
229
100
AcDbEntity
  8
0
100
AcDbLine
 62
7
  6
CONTINUOUS
 10
0.0
 20
0.0
 11
22.0
 21
0.0
  0
LINE
  5
22A
100
AcDbEntity
  8
0
100
AcDbLine
 62
7
  6
CONTINUOUS
 10
0.0
 20
17.0
 11
22.0
 21
17.0
  0
LINE
  5
22B
100
AcDbEntity
  8
0
100
AcDbLine
 62
7
  6
CONTINUOUS
 10
22.0
 20
0.0
 11
22.0
 21
17.0
  0
LINE
  5
22C
100
AcDbEntity
  8
02___PRT_ALL_AXES
100
AcDbLine
 62
7
  6
CONTINUOUS
 10
4.9355351219
 20
3.9891198968
 11
4.8768462658
 21
4.0015945982
  0
LINE
  5
22D
100
AcDbEntity
  8
02___PRT_ALL_AXES
100
AcDbLine
 62
7
  6
CONTINUOUS
 10
6.9337995451
 20
3.9891198968
 11
6.9924884011
 21
4.0015945982
  0
LINE
  5
22E
100
AcDbEntity
  8
AXIS
100
AcDbLine
 62
7
  6
CONTINUOUS
 10
6.9066985835
 20
4.1872448968
 11
4.9626360835
 21
4.1872448968
  0
LINE
  5
22F
100
AcDbEntity
  8
0
100
AcDbLine
 62
7
  6
CONTINUOUS
 10
6.9066985835
 20
4.1872455366
 11
4.9626360835
 21
4.1872455366
  0
LINE
  5
230
100
AcDbEntity
  8
0
100
AcDbLine
 62
7
  6
CONTINUOUS
 10
4.9626360835
 20
4.2131172009
 11
6.9066985835
 21
4.2131172009
  0
LINE
  5
231
100
AcDbEntity
  8
02___PRT_ALL_AXES
100
AcDbLine
 62
7
  6
CONTINUOUS
 10
4.8768462658
 20
7.0386451953
 11
4.8768462658
 21
4.0015945982
  0
LINE
  5
232
100
AcDbEntity
  8
02___PRT_ALL_AXES
100
AcDbLine
 62
7
  6
CONTINUOUS
 10
4.9355351219
 20
7.0511198968
 11
4.9355351219
 21
3.9891198968
  0
LINE
  5
233
100
AcDbEntity
  8
0
100
AcDbLine
 62
7
  6
CONTINUOUS
 10
4.9626360835
 20
4.290994361
 11
6.9066985835
 21
4.290994361
  0
LINE
  5
234
100
AcDbEntity
  8
02___PRT_ALL_AXES
100
AcDbLine
 62
7
  6
CONTINUOUS
 10
4.9626360835
 20
6.9236198968
 11
4.9626360835
 21
4.1166198968
  0
LINE
  5
235
100
AcDbEntity
  8
0
100
AcDbLine
 62
7
  6
CONTINUOUS
 10
7.3688860835
 20
4.3755886468
 11
6.9924884011
 21
4.3755886468
  0
LINE
  5
236
100
AcDbEntity
  8
0
100
AcDbLine
 62
7
  6
CONTINUOUS
 10
4.9626360835
 20
4.417693884
 11
6.9066985835
 21
4.417693884
  0
LINE
  5
237
100
AcDbEntity
  8
0
100
AcDbLine
 62
7
  6
CONTINUOUS
 10
4.9626360835
 20
4.5880312609
 11
6.9066985835
 21
4.5880312609
  0
LINE
  5
238
100
AcDbEntity
  8
02___PRT_ALL_AXES
100
AcDbLine
 62
7
  6
CONTINUOUS
 10
4.9626360835
 20
4.1166198968
 11
4.9355351219
 21
3.9891198968
  0
LINE
  5
239
100
AcDbEntity
  8
02___PRT_ALL_AXES
100
AcDbLine
 62
7
  6
CONTINUOUS
 10
4.9626360835
 20
6.9236198968
 11
4.9355351219
 21
7.0511198968
  0
LINE
  5
23A
100
AcDbEntity
  8
0
100
AcDbLine
 62
7
  6
CONTINUOUS
 10
4.9626360835
 20
4.795036334
 11
6.9066985835
 21
4.795036334
  0
LINE
  5
23B
100
AcDbEntity
  8
0
100
AcDbLine
 62
7
  6
CONTINUOUS
 10
4.9626360835
 20
5.0302385135
 11
6.9066985835
 21
5.0302385135
  0
LINE
  5
23C
100
AcDbEntity
  8
0
100
AcDbLine
 62
7
  6
CONTINUOUS
 10
6.9066985835
 20
5.2815271867
 11
4.9626360835
 21
5.2815271867
  0
LINE
  5
23D
100
AcDbEntity
  8
0
100
AcDbLine
 62
7
  6
CONTINUOUS
 10
6.9066985835
 20
5.8818418958
 11
4.9626360835
 21
5.8818418958
  0
LINE
  5
23E
100
AcDbEntity
  8
02___PRT_ALL_AXES
100
AcDbLine
 62
7
  6
CONTINUOUS
 10
6.9066985835
 20
6.9236198968
 11
6.9337995451
 21
7.0511198968
  0
LINE
  5
23F
100
AcDbEntity
  8
02___PRT_ALL_AXES
100
AcDbLine
 62
7
  6
CONTINUOUS
 10
6.9066985835
 20
4.1166198968
 11
6.9337995451
 21
3.9891198968
  0
LINE
  5
240
100
AcDbEntity
  8
0
100
AcDbLine
 62
7
  6
CONTINUOUS
 10
6.9066985835
 20
6.1278069173
 11
4.9626360835
 21
6.1278069173
  0
LINE
  5
241
100
AcDbEntity
  8
02___PRT_ALL_AXES
100
AcDbLine
 62
7
  6
CONTINUOUS
 10
6.9066985835
 20
4.1166198968
 11
6.9066985835
 21
6.9236198968
  0
LINE
  5
242
100
AcDbEntity
  8
02___PRT_ALL_AXES
100
AcDbLine
 62
7
  6
CONTINUOUS
 10
6.9337995451
 20
3.9891198968
 11
6.9337995451
 21
7.0511198968
  0
LINE
  5
243
100
AcDbEntity
  8
02___PRT_ALL_AXES
100
AcDbLine
 62
7
  6
CONTINUOUS
 10
6.9924884011
 20
4.0015945982
 11
6.9924884011
 21
7.0386451953
  0
LINE
  5
244
100
AcDbEntity
  8
0
100
AcDbLine
 62
7
  6
CONTINUOUS
 10
6.9066985835
 20
6.3503780504
 11
4.9626360835
 21
6.3503780504
  0
LINE
  5
245
100
AcDbEntity
  8
0
100
AcDbLine
 62
7
  6
CONTINUOUS
 10
6.9066985835
 20
6.5404483621
 11
4.9626360835
 21
6.5404483621
  0
LINE
  5
246
100
AcDbEntity
  8
0
100
AcDbLine
 62
7
  6
CONTINUOUS
 10
7.3688860835
 20
6.6646511468
 11
6.9924884011
 21
6.6646511468
  0
LINE
  5
247
100
AcDbEntity
  8
0
100
AcDbLine
 62
7
  6
CONTINUOUS
 10
6.9066985835
 20
6.6902402286
 11
4.9626360835
 21
6.6902402286
  0
LINE
  5
248
100
AcDbEntity
  8
0
100
AcDbLine
 62
7
  6
CONTINUOUS
 10
7.3688860835
 20
4.3755886468
 11
7.3688860835
 21
6.6646511468
  0
LINE
  5
249
100
AcDbEntity
  8
0
100
AcDbLine
 62
7
  6
CONTINUOUS
 10
7.3838860835
 20
4.3905886468
 11
7.3838860835
 21
6.6496511468
  0
LINE
  5
24A
100
AcDbEntity
  8
0
100
AcDbLine
 62
7
  6
CONTINUOUS
 10
6.9066985835
 20
6.7936242085
 11
4.9626360835
 21
6.7936242085
  0
LINE
  5
24B
100
AcDbEntity
  8
0
100
AcDbLine
 62
7
  6
CONTINUOUS
 10
6.9066985835
 20
6.8465739138
 11
4.9626360835
 21
6.8465739138
  0
LINE
  5
24C
100
AcDbEntity
  8
0
100
AcDbLine
 62
7
  6
CONTINUOUS
 10
7.3688861712
 20
4.3755885591
 11
7.38388617
 21
4.3905885603
  0
LINE
  5
24D
100
AcDbEntity
  8
02___PRT_ALL_AXES
100
AcDbLine
 62
7
  6
CONTINUOUS
 10
6.9337995451
 20
7.0511198968
 11
6.9924884011
 21
7.0386451953
  0
LINE
  5
24E
100
AcDbEntity
  8
0
100
AcDbLine
 62
7
  6
CONTINUOUS
 10
7.3688861712
 20
6.6646512344
 11
7.38388617
 21
6.6496512333
  0
LINE
  5
24F
100
AcDbEntity
  8
02___PRT_ALL_AXES
100
AcDbLine
 62
7
  6
CONTINUOUS
 10
4.9355351219
 20
7.0511198968
 11
4.8768462658
 21
7.0386451953
  0
LINE
  5
250
100
AcDbEntity
  8
02___PRT_ALL_AXES
100
AcDbLine
 62
7
  6
CONTINUOUS
 10
4.8173510735
 20
11.0815224828
 11
4.8760399296
 21
11.0690477814
  0
LINE
  5
251
100
AcDbEntity
  8
02___PRT_ALL_AXES
100
AcDbLine
 62
7
  6
CONTINUOUS
 10
6.9329932088
 20
11.0815224828
 11
6.8743043528
 21
11.0690477814
  0
LINE
  5
252
100
AcDbEntity
  8
0
100
AcDbLine
 62
7
  6
CONTINUOUS
 10
4.9031408912
 20
11.2686488014
 11
6.8472033912
 21
11.2686488014
  0
LINE
  5
253
100
AcDbEntity
  8
02___PRT_ALL_AXES
100
AcDbLine
 62
7
  6
CONTINUOUS
 10
4.8173510735
 20
11.0815224828
 11
4.8173510735
 21
14.1185730799
  0
LINE
  5
254
100
AcDbEntity
  8
02___PRT_ALL_AXES
100
AcDbLine
 62
7
  6
CONTINUOUS
 10
4.8760399296
 20
11.0690477814
 11
4.8760399296
 21
14.1310477814
  0
LINE
  5
255
100
AcDbEntity
  8
0
100
AcDbLine
 62
7
  6
CONTINUOUS
 10
4.9031408912
 20
11.3076010705
 11
6.8472033912
 21
11.3076010705
  0
LINE
  5
256
100
AcDbEntity
  8
0
100
AcDbLine
 62
7
  6
CONTINUOUS
 10
4.9031408912
 20
11.3979667872
 11
6.8472033912
 21
11.3979667872
  0
LINE
  5
257
100
AcDbEntity
  8
02___PRT_ALL_AXES
100
AcDbLine
 62
7
  6
CONTINUOUS
 10
4.9031408912
 20
11.1965477814
 11
4.9031408912
 21
14.0035477814
  0
LINE
  5
258
100
AcDbEntity
  8
AXIS
100
AcDbLine
 62
7
  6
CONTINUOUS
 10
7.3093910665
 20
11.4555165314
 11
6.9329932088
 21
11.4555165314
  0
LINE
  5
259
100
AcDbEntity
  8
0
100
AcDbLine
 62
7
  6
CONTINUOUS
 10
4.9031408912
 20
11.5360482118
 11
6.8472033912
 21
11.5360482118
  0
LINE
  5
25A
100
AcDbEntity
  8
02___PRT_ALL_AXES
100
AcDbLine
 62
7
  6
CONTINUOUS
 10
4.8760399296
 20
11.0690477814
 11
4.9031408912
 21
11.1965477814
  0
LINE
  5
25B
100
AcDbEntity
  8
0
100
AcDbLine
 62
7
  6
CONTINUOUS
 10
4.9031408912
 20
11.7161950911
 11
6.8472033912
 21
11.7161950911
  0
LINE
  5
25C
100
AcDbEntity
  8
02___PRT_ALL_AXES
100
AcDbLine
 62
7
  6
CONTINUOUS
 10
4.8760399296
 20
14.1310477814
 11
4.9031408912
 21
14.0035477814
  0
LINE
  5
25D
100
AcDbEntity
  8
0
100
AcDbLine
 62
7
  6
CONTINUOUS
 10
4.9031408912
 20
11.9310358651
 11
6.8472033912
 21
11.9310358651
  0
LINE
  5
25E
100
AcDbEntity
  8
0
100
AcDbLine
 62
7
  6
CONTINUOUS
 10
4.9031408912
 20
12.1717793095
 11
6.8472033912
 21
12.1717793095
  0
LINE
  5
25F
100
AcDbEntity
  8
02___PRT_ALL_AXES
100
AcDbLine
 62
7
  6
CONTINUOUS
 10
6.8743043528
 20
14.1310477814
 11
6.8472033912
 21
14.0035477814
  0
LINE
  5
260
100
AcDbEntity
  8
0
100
AcDbLine
 62
7
  6
CONTINUOUS
 10
6.8472033912
 20
13.0263740662
 11
4.9031408912
 21
13.0263740662
  0
LINE
  5
261
100
AcDbEntity
  8
02___PRT_ALL_AXES
100
AcDbLine
 62
7
  6
CONTINUOUS
 10
6.8743043528
 20
11.0690477814
 11
6.8472033912
 21
11.1965477814
  0
LINE
  5
262
100
AcDbEntity
  8
0
100
AcDbLine
 62
7
  6
CONTINUOUS
 10
6.8472033912
 20
13.2672809449
 11
4.9031408912
 21
13.2672809449
  0
LINE
  5
263
100
AcDbEntity
  8
02___PRT_ALL_AXES
100
AcDbLine
 62
7
  6
CONTINUOUS
 10
6.8472033912
 20
11.1965477814
 11
6.8472033912
 21
14.0035477814
  0
LINE
  5
264
100
AcDbEntity
  8
02___PRT_ALL_AXES
100
AcDbLine
 62
7
  6
CONTINUOUS
 10
6.8743043528
 20
11.0690477814
 11
6.8743043528
 21
14.1310477814
  0
LINE
  5
265
100
AcDbEntity
  8
02___PRT_ALL_AXES
100
AcDbLine
 62
7
  6
CONTINUOUS
 10
6.9329932088
 20
11.0815224828
 11
6.9329932088
 21
14.1185730799
  0
LINE
  5
266
100
AcDbEntity
  8
0
100
AcDbLine
 62
7
  6
CONTINUOUS
 10
6.8472033912
 20
13.4823579391
 11
4.9031408912
 21
13.4823579391
  0
LINE
  5
267
100
AcDbEntity
  8
0
100
AcDbLine
 62
7
  6
CONTINUOUS
 10
6.8472033912
 20
13.6628041587
 11
4.9031408912
 21
13.6628041587
  0
LINE
  5
268
100
AcDbEntity
  8
AXIS
100
AcDbLine
 62
7
  6
CONTINUOUS
 10
7.3093910665
 20
13.7445790314
 11
6.9329932088
 21
13.7445790314
  0
LINE
  5
269
100
AcDbEntity
  8
0
100
AcDbLine
 62
7
  6
CONTINUOUS
 10
6.8472033912
 20
13.8012357946
 11
4.9031408912
 21
13.8012357946
  0
LINE
  5
26A
100
AcDbEntity
  8
0
100
AcDbLine
 62
7
  6
CONTINUOUS
 10
7.3093908911
 20
11.4555165314
 11
7.3093908911
 21
13.7445790314
  0
LINE
  5
26B
100
AcDbEntity
  8
0
100
AcDbLine
 62
7
  6
CONTINUOUS
 10
7.3243908912
 20
11.4705165314
 11
7.3243908912
 21
13.7295790313
  0
LINE
  5
26C
100
AcDbEntity
  8
0
100
AcDbLine
 62
7
  6
CONTINUOUS
 10
6.8472033912
 20
13.8919882633
 11
4.9031408912
 21
13.8919882633
  0
LINE
  5
26D
100
AcDbEntity
  8
0
100
AcDbLine
 62
7
  6
CONTINUOUS
 10
6.8472033912
 20
13.931347999
 11
4.9031408912
 21
13.931347999
  0
LINE
  5
26E
100
AcDbEntity
  8
0
100
AcDbLine
 62
7
  6
CONTINUOUS
 10
7.3243908912
 20
11.4705163583
 11
7.3093910665
 21
11.4555165314
  0
LINE
  5
26F
100
AcDbEntity
  8
02___PRT_ALL_AXES
100
AcDbLine
 62
7
  6
CONTINUOUS
 10
6.9329932088
 20
14.1185730799
 11
6.8743043528
 21
14.1310477814
  0
LINE
  5
270
100
AcDbEntity
  8
0
100
AcDbLine
 62
7
  6
CONTINUOUS
 10
7.3243908912
 20
13.7295792044
 11
7.3093910665
 21
13.7445790314
  0
LINE
  5
271
100
AcDbEntity
  8
02___PRT_ALL_AXES
100
AcDbLine
 62
7
  6
CONTINUOUS
 10
4.8173510735
 20
14.1185730799
 11
4.8760399296
 21
14.1310477814
  0
LINE
  5
272
100
AcDbEntity
  8
02___PRT_ALL_AXES
100
AcDbLine
 62
7
  6
CONTINUOUS
 10
16.3939767865
 20
10.9984240539
 11
16.3403573356
 21
10.9859998284
  0
LINE
  5
273
100
AcDbEntity
  8
02___PRT_ALL_AXES
100
AcDbLine
 62
7
  6
CONTINUOUS
 10
14.3390565872
 20
10.9984240539
 11
14.3926760381
 21
10.9859998284
  0
LINE
  5
274
100
AcDbEntity
  8
0
100
AcDbLine
 62
7
  6
CONTINUOUS
 10
14.4139204086
 20
11.1860756974
 11
14.4120994596
 21
11.1866034097
  0
LINE
  5
275
100
AcDbEntity
  8
0
100
AcDbLine
 62
7
  6
CONTINUOUS
 10
14.3155935815
 20
11.2410380713
 11
14.311273636
 21
11.2427897843
  0
LINE
  5
276
100
AcDbEntity
  8
0
100
AcDbLine
 62
7
  6
CONTINUOUS
 10
14.4154679412
 20
11.1858683034
 11
14.4139204086
 21
11.1860756974
  0
LINE
  5
277
100
AcDbEntity
  8
0
100
AcDbLine
 62
7
  6
CONTINUOUS
 10
15.9908734812
 20
11.1830041688
 11
14.5158477591
 21
11.1830041688
  0
LINE
  5
278
100
AcDbEntity
  8
0
100
AcDbLine
 62
7
  6
CONTINUOUS
 10
14.4154679382
 20
11.1858556877
 11
15.9890205629
 21
11.1858556877
  0
LINE
  5
279
100
AcDbEntity
  8
0
100
AcDbLine
 62
7
  6
CONTINUOUS
 10
14.3155935815
 20
11.2410379678
 11
15.9540505166
 21
11.2410379678
  0
LINE
  5
27A
100
AcDbEntity
  8
0
100
AcDbLine
 62
7
  6
CONTINUOUS
 10
14.2220872758
 20
11.3467056491
 11
15.9003809077
 21
11.3467056491
  0
LINE
  5
27B
100
AcDbEntity
  8
AXIS
100
AcDbLine
 62
7
  6
CONTINUOUS
 10
16.6875197958
 20
11.3662737429
 11
16.3343503094
 21
11.3662737429
  0
LINE
  5
27C
100
AcDbEntity
  8
AXIS
100
AcDbLine
 62
7
  6
CONTINUOUS
 10
16.3313501402
 20
11.3628308448
 11
16.3170635536
 21
11.3630770568
  0
LINE
  5
27D
100
AcDbEntity
  8
0
100
AcDbLine
 62
7
  6
CONTINUOUS
 10
14.1387752731
 20
11.4985348398
 11
15.8395938112
 21
11.4985348398
  0
LINE
  5
27E
100
AcDbEntity
  8
0
100
AcDbLine
 62
7
  6
CONTINUOUS
 10
14.0690666771
 20
11.6903127319
 11
15.7838084665
 21
11.6903127319
  0
LINE
  5
27F
100
AcDbEntity
  8
0
100
AcDbLine
 62
7
  6
CONTINUOUS
 10
14.015813944
 20
11.9141918278
 11
15.7382046885
 21
11.9141918278
  0
LINE
  5
280
100
AcDbEntity
  8
0
100
AcDbLine
 62
7
  6
CONTINUOUS
 10
13.9839079906
 20
12.1609576463
 11
15.7068695386
 21
12.1609576463
  0
LINE
  5
281
100
AcDbEntity
  8
0
100
AcDbLine
 62
7
  6
CONTINUOUS
 10
13.980981126
 20
12.1610152926
 11
13.9839079906
 21
12.1609577383
  0
LINE
  5
282
100
AcDbEntity
  8
02___PRT_ALL_AXES
100
AcDbLine
 62
7
  6
CONTINUOUS
 10
15.9409846084
 20
11.5011502572
 11
15.9404056822
 21
11.5025744113
  0
LINE
  5
283
100
AcDbEntity
  8
02___PRT_ALL_AXES
100
AcDbLine
 62
7
  6
CONTINUOUS
 10
15.9409846084
 20
11.5011502572
 11
15.9404309314
 21
11.5026419946
  0
LINE
  5
284
100
AcDbEntity
  8
02___PRT_ALL_AXES
100
AcDbLine
 62
7
  6
CONTINUOUS
 10
15.790335732
 20
12.1608014329
 11
15.7901489971
 21
12.1626598917
  0
LINE
  5
285
100
AcDbEntity
  8
02___PRT_ALL_AXES
100
AcDbLine
 62
7
  6
CONTINUOUS
 10
15.790335732
 20
12.1608014329
 11
15.7901819629
 21
12.1626816722
  0
LINE
  5
286
100
AcDbEntity
  8
0
100
AcDbLine
 62
7
  6
CONTINUOUS
 10
13.9898260806
 20
12.7611244562
 11
15.6989646288
 21
12.761118467
  0
LINE
  5
287
100
AcDbEntity
  8
02___PRT_ALL_AXES
100
AcDbLine
 62
7
  6
CONTINUOUS
 10
15.8230287358
 20
11.9255079767
 11
15.8229286687
 21
11.9260653027
  0
LINE
  5
288
100
AcDbEntity
  8
02___PRT_ALL_AXES
100
AcDbLine
 62
7
  6
CONTINUOUS
 10
15.7976392274
 20
11.9106341507
 11
15.7972753123
 21
11.9128107709
  0
LINE
  5
289
100
AcDbEntity
  8
02___PRT_ALL_AXES
100
AcDbLine
 62
7
  6
CONTINUOUS
 10
15.8231520222
 20
11.9256540313
 11
15.8230607123
 21
11.9262215511
  0
LINE
  5
28A
100
AcDbEntity
  8
02___PRT_ALL_AXES
100
AcDbLine
 62
7
  6
CONTINUOUS
 10
15.7976392274
 20
11.9106341507
 11
15.7973127271
 21
11.9128519326
  0
LINE
  5
28B
100
AcDbEntity
  8
0
100
AcDbLine
 62
7
  6
CONTINUOUS
 10
16.6373413803
 20
12.8632377207
 11
16.6377241269
 21
12.8634960245
  0
LINE
  5
28C
100
AcDbEntity
  8
0
100
AcDbLine
 62
7
  6
CONTINUOUS
 10
16.6373413803
 20
12.8632377207
 11
16.6377117306
 21
12.8635839814
  0
LINE
  5
28D
100
AcDbEntity
  8
0
100
AcDbLine
 62
7
  6
CONTINUOUS
 10
15.7237436115
 20
13.0121960528
 11
13.999828018
 21
13.0121960528
  0
LINE
  5
28E
100
AcDbEntity
  8
0
100
AcDbLine
 62
7
  6
CONTINUOUS
 10
15.7644179304
 20
13.2479993559
 11
14.0463736578
 21
13.2479993559
  0
LINE
  5
28F
100
AcDbEntity
  8
0
100
AcDbLine
 62
7
  6
CONTINUOUS
 10
15.8171398822
 20
13.4532091172
 11
14.1100184929
 21
13.4532091172
  0
LINE
  5
290
100
AcDbEntity
  8
0
100
AcDbLine
 62
7
  6
CONTINUOUS
 10
15.8771461093
 20
13.6213290755
 11
14.1884434541
 21
13.6213290755
  0
LINE
  5
291
100
AcDbEntity
  8
AXIS
100
AcDbLine
 62
7
  6
CONTINUOUS
 10
16.6875197958
 20
13.6553362429
 11
16.3343503094
 21
13.6553362429
  0
LINE
  5
292
100
AcDbEntity
  8
0
100
AcDbLine
 62
7
  6
CONTINUOUS
 10
15.9344845918
 20
13.7454798092
 11
14.2784394141
 21
13.7454798092
  0
LINE
  5
293
100
AcDbEntity
  8
0
100
AcDbLine
 62
7
  6
CONTINUOUS
 10
15.9783975806
 20
13.8205811048
 11
14.3763237632
 21
13.8205811048
  0
LINE
  5
294
100
AcDbEntity
  8
0
100
AcDbLine
 62
7
  6
CONTINUOUS
 10
14.4764495509
 20
13.8436122523
 11
15.9945336383
 21
13.8436122523
  0
LINE
  5
295
100
AcDbEntity
  8
0
100
AcDbLine
 62
7
  6
CONTINUOUS
 10
14.373689629
 20
13.819939902
 11
14.3763237703
 21
13.8205734291
  0
LINE
  5
296
100
AcDbEntity
  8
02___PRT_ALL_AXES
100
AcDbLine
 62
7
  6
CONTINUOUS
 10
14.3390565872
 20
14.0231859319
 11
14.3926760381
 21
14.0356101574
  0
LINE
  5
297
100
AcDbEntity
  8
02___PRT_ALL_AXES
100
AcDbLine
 62
7
  6
CONTINUOUS
 10
16.3939767865
 20
14.0231859319
 11
16.3403573356
 21
14.0356101574
  0
CIRCLE
  5
298
100
AcDbEntity
  8
02___PRT_ALL_AXES
100
AcDbCircle
 62
7
  6
CONTINUOUS
 10
15.5603552569
 20
5.4606247044
 40
1.531
  0
CIRCLE
  5
299
100
AcDbEntity
  8
02___PRT_ALL_AXES
100
AcDbCircle
 62
7
  6
CONTINUOUS
 10
15.5603552569
 20
5.4606247044
 40
1.5185252986
  0
CIRCLE
  5
29A
100
AcDbEntity
  8
02___PRT_ALL_AXES
100
AcDbCircle
 62
7
  6
CONTINUOUS
 10
15.5603552569
 20
5.4606247044
 40
1.3971937459
  0
CIRCLE
  5
29B
100
AcDbEntity
  8
AXIS
100
AcDbCircle
 62
7
  6
CONTINUOUS
 10
15.5603552569
 20
5.4606247044
 40
1.148
  0
CIRCLE
  5
29C
100
AcDbEntity
  8
0
100
AcDbCircle
 62
7
  6
CONTINUOUS
 10
15.5603552569
 20
5.4606247044
 40
1.14453125
  0
CIRCLE
  5
29D
100
AcDbEntity
  8
0
100
AcDbCircle
 62
7
  6
CONTINUOUS
 10
15.5603552569
 20
5.4606247044
 40
1.1295312696
  0
CIRCLE
  5
29E
100
AcDbEntity
  8
0
100
AcDbCircle
 62
7
  6
CONTINUOUS
 10
15.5603552569
 20
5.4606247044
 40
0.3902478813
  0
CIRCLE
  5
29F
100
AcDbEntity
  8
0
100
AcDbCircle
 62
7
  6
CONTINUOUS
 10
15.5603552569
 20
5.4606247044
 40
0.37525
  0
ARC
  5
2A0
100
AcDbEntity
  8
0
100
AcDbCircle
 62
7
  6
CONTINUOUS
 10
15.9432344757
 20
12.2622601142
 40
1.9660949973
100
AcDbArc
 50
196.3654275744
 51
196.4794241524
  0
ARC
  5
2A1
100
AcDbEntity
  8
0
100
AcDbCircle
 62
7
  6
CONTINUOUS
 10
15.3044663457
 20
12.0306657253
 40
1.2861595199
100
AcDbArc
 50
203.8537484297
 51
204.0050226879
  0
ARC
  5
2A2
100
AcDbEntity
  8
0
100
AcDbCircle
 62
7
  6
CONTINUOUS
 10
15.6342830058
 20
11.2875824965
 40
1.2364654297
100
AcDbArc
 50
182.1573611295
 51
183.2656490612
  0
ARC
  5
2A3
100
AcDbEntity
  8
0
100
AcDbCircle
 62
7
  6
CONTINUOUS
 10
15.5359806957
 20
11.253174941
 40
1.2363808381
100
AcDbArc
 50
176.4683871693
 51
178.7331835393
  0
ARC
  5
2A4
100
AcDbEntity
  8
0
100
AcDbCircle
 62
7
  6
CONTINUOUS
 10
15.3054176074
 20
11.2810318591
 40
1.1042446417
100
AcDbArc
 50
171.6712430868
 51
174.1169416106
  0
ARC
  5
2A5
100
AcDbEntity
  8
0
100
AcDbCircle
 62
7
  6
CONTINUOUS
 10
14.9917612259
 20
11.3861266333
 40
0.8829047867
100
AcDbArc
 50
166.22122601
 51
169.0648555925
  0
ARC
  5
2A6
100
AcDbEntity
  8
0
100
AcDbCircle
 62
7
  6
CONTINUOUS
 10
14.8230408464
 20
11.7688000677
 40
0.737384227
100
AcDbArc
 50
214.2572689829
 51
214.4764649007
  0
ARC
  5
2A7
100
AcDbEntity
  8
0
100
AcDbCircle
 62
7
  6
CONTINUOUS
 10
16.5298487664
 20
11.7854788448
 40
0.4655625532
100
AcDbArc
 50
317.8923419395
 51
320.1562899212
  0
ARC
  5
2A8
100
AcDbEntity
  8
0
100
AcDbCircle
 62
7
  6
CONTINUOUS
 10
14.5575750395
 20
11.5389004376
 40
0.3851569815
100
AcDbArc
 50
229.9087457526
 51
230.2467091855
  0
ARC
  5
2A9
100
AcDbEntity
  8
0
100
AcDbCircle
 62
7
  6
CONTINUOUS
 10
14.0803324518
 20
11.3190904933
 40
0.2223679663
100
AcDbArc
 50
5.0937434992
 51
7.1932476762
  0
ARC
  5
2AA
100
AcDbEntity
  8
AXIS
100
AcDbCircle
 62
7
  6
CONTINUOUS
 10
16.3346108202
 20
11.5402039154
 40
0.1774100398
100
AcDbArc
 50
261.7870615288
 51
264.3257923416
  0
ARC
  5
2AB
100
AcDbEntity
  8
AXIS
100
AcDbCircle
 62
7
  6
CONTINUOUS
 10
16.3346068632
 20
11.5431131607
 40
0.1768502897
100
AcDbArc
 50
261.7869911125
 51
264.391098749
  0
ARC
  5
2AC
100
AcDbEntity
  8
AXIS
100
AcDbCircle
 62
7
  6
CONTINUOUS
 10
16.3342483761
 20
11.539358795
 40
0.1765530066
100
AcDbArc
 50
270.1289190061
 51
280.921263686
  0
ARC
  5
2AD
100
AcDbEntity
  8
AXIS
100
AcDbCircle
 62
7
  6
CONTINUOUS
 10
16.3343791298
 20
11.5379095113
 40
0.1751039703
100
AcDbArc
 50
264.3270040755
 51
269.0088353552
  0
ARC
  5
2AE
100
AcDbEntity
  8
AXIS
100
AcDbCircle
 62
7
  6
CONTINUOUS
 10
16.3343769692
 20
11.5408165656
 40
0.1745422209
100
AcDbArc
 50
264.3925200569
 51
269.0921426286
  0
ARC
  5
2AF
100
AcDbEntity
  8
AXIS
100
AcDbCircle
 62
7
  6
CONTINUOUS
 10
16.3343462485
 20
11.5370357428
 40
0.1742297647
100
AcDbArc
 50
269.0146763553
 51
270.0984524906
  0
ARC
  5
2B0
100
AcDbEntity
  8
AXIS
100
AcDbCircle
 62
7
  6
CONTINUOUS
 10
16.3343462504
 20
11.5399752616
 40
0.1737005366
100
AcDbArc
 50
269.0978771453
 51
270.001338808
  0
ARC
  5
2B1
100
AcDbEntity
  8
0
100
AcDbCircle
 62
7
  6
CONTINUOUS
 10
14.2387540161
 20
11.3332498168
 40
0.0633149141
100
AcDbArc
 50
356.4551558805
 51
5.0594808325
  0
ARC
  5
2B2
100
AcDbEntity
  8
0
100
AcDbCircle
 62
7
  6
CONTINUOUS
 10
16.2082947443
 20
12.6874097209
 40
2.2407652296
100
AcDbArc
 50
165.9482393235
 51
166.0992034338
  0
ARC
  5
2B3
100
AcDbEntity
  8
0
100
AcDbCircle
 62
7
  6
CONTINUOUS
 10
15.5390041572
 20
12.8947595918
 40
1.5396860805
100
AcDbArc
 50
159.1658742188
 51
159.3000497804
  0
ARC
  5
2B4
100
AcDbEntity
  8
0
100
AcDbCircle
 62
7
  6
CONTINUOUS
 10
15.6162805293
 20
13.7532470722
 40
1.2561253316
100
AcDbArc
 50
178.4999654285
 51
180.3543916264
  0
ARC
  5
2B5
100
AcDbEntity
  8
0
100
AcDbCircle
 62
7
  6
CONTINUOUS
 10
15.4693754935
 20
13.7668103669
 40
1.2081670475
100
AcDbArc
 50
183.0340383292
 51
185.3291763177
  0
ARC
  5
2B6
100
AcDbEntity
  8
0
100
AcDbCircle
 62
7
  6
CONTINUOUS
 10
15.2081828821
 20
13.7122629571
 40
1.0440659197
100
AcDbArc
 50
187.7860930283
 51
190.3120962836
  0
ARC
  5
2B7
100
AcDbEntity
  8
0
100
AcDbCircle
 62
7
  6
CONTINUOUS
 10
14.9849237836
 20
13.151664857
 40
0.9283163787
100
AcDbArc
 50
150.0474688319
 51
150.2354716322
  0
ARC
  5
2B8
100
AcDbEntity
  8
0
100
AcDbCircle
 62
7
  6
CONTINUOUS
 10
14.8814321918
 20
13.5785874138
 40
0.805776644
100
AcDbArc
 50
193.1408499184
 51
196.1383662283
  0
ARC
  5
2B9
100
AcDbEntity
  8
0
100
AcDbCircle
 62
7
  6
CONTINUOUS
 10
14.6347949005
 20
13.4016936812
 40
0.4971457093
100
AcDbArc
 50
136.6828102123
 51
136.9678940112
  0
ARC
  5
2BA
100
AcDbEntity
  8
0
100
AcDbCircle
 62
7
  6
CONTINUOUS
 10
16.5350838084
 20
13.2407065323
 40
0.4586115084
100
AcDbArc
 50
39.8238384309
 51
42.0629548818
  0
ARC
  5
2BB
100
AcDbEntity
  8
0
100
AcDbCircle
 62
7
  6
CONTINUOUS
 10
16.5626122677
 20
13.2656326697
 40
0.4214749481
100
AcDbArc
 50
42.0544190193
 51
43.9121290752
  0
ARC
  5
2BC
100
AcDbEntity
  8
0
100
AcDbCircle
 62
7
  6
CONTINUOUS
 10
14.4910170427
 20
13.5811117377
 40
0.2660913641
100
AcDbArc
 50
116.1631735206
 51
116.5956282613
  0
ARC
  5
2BD
100
AcDbEntity
  8
AXIS
100
AcDbCircle
 62
7
  6
CONTINUOUS
 10
16.3342859103
 20
13.482803069
 40
0.176001029
100
AcDbArc
 50
80.0738954751
 51
89.9125970481
  0
ARC
  5
2BE
100
AcDbEntity
  8
AXIS
100
AcDbCircle
 62
7
  6
CONTINUOUS
 10
16.3343545697
 20
13.4845605867
 40
0.174243421
100
AcDbArc
 50
89.9342924479
 51
90.9879827911
  0
ARC
  5
2BF
100
AcDbEntity
  8
AXIS
100
AcDbCircle
 62
7
  6
CONTINUOUS
 10
16.3343545342
 20
13.481623461
 40
0.1737117998
100
AcDbArc
 50
90.0013933727
 51
90.864609275
  0
ARC
  5
2C0
100
AcDbEntity
  8
0
100
AcDbCircle
 62
7
  6
CONTINUOUS
 10
14.2030459418
 20
13.6487514468
 40
0.0636538999
100
AcDbArc
 50
356.7152028635
 51
5.2706128108
  0
ARC
  5
2C1
100
AcDbEntity
  8
0
100
AcDbCircle
 62
7
  6
CONTINUOUS
 10
14.2784401055
 20
13.739988065
 40
0.0054918394
100
AcDbArc
 50
90.0072507455
 51
99.3866342613
  0
ARC
  5
2C2
100
AcDbEntity
  8
02___PRT_ALL_AXES
100
AcDbCircle
 62
7
  6
CONTINUOUS
 10
19.1673995565
 20
12.4718190437
 40
3.4161714931
100
AcDbArc
 50
185.2387234185
 51
189.4179998832
  0
ARC
  5
2C3
100
AcDbEntity
  8
02___PRT_ALL_AXES
100
AcDbCircle
 62
7
  6
CONTINUOUS
 10
18.8550020214
 20
12.4666972444
 40
3.0798947567
100
AcDbArc
 50
185.7000268287
 51
190.1098427222
  0
ARC
  5
2C4
100
AcDbEntity
  8
02___PRT_ALL_AXES
100
AcDbCircle
 62
7
  6
CONTINUOUS
 10
18.585209873
 20
12.4217359998
 40
2.8064010558
100
AcDbArc
 50
190.1845921996
 51
190.335945858
  0
ARC
  5
2C5
100
AcDbEntity
  8
02___PRT_ALL_AXES
100
AcDbCircle
 62
7
  6
CONTINUOUS
 10
17.9663294062
 20
12.2806090564
 40
2.1714190173
100
AcDbArc
 50
195.2153890385
 51
195.6237450895
  0
ARC
  5
2C6
100
AcDbEntity
  8
02___PRT_ALL_AXES
100
AcDbCircle
 62
7
  6
CONTINUOUS
 10
16.8401254556
 20
11.830083774
 40
0.9552633989
100
AcDbArc
 50
210.0436334215
 51
210.3184435818
  0
ARC
  5
2C7
100
AcDbEntity
  8
0
100
AcDbCircle
 62
7
  6
CONTINUOUS
 10
16.7232666201
 20
12.2499226668
 40
0.1255570064
100
AcDbArc
 50
224.0016601748
 51
227.3404542557
  0
ARC
  5
2C8
100
AcDbEntity
  8
02___PRT_ALL_AXES
100
AcDbCircle
 62
7
  6
CONTINUOUS
 10
19.0338267627
 20
12.5328688415
 40
3.2600363235
100
AcDbArc
 50
171.671665609
 51
175.9821982088
  0
ARC
  5
2C9
100
AcDbEntity
  8
02___PRT_ALL_AXES
100
AcDbCircle
 62
7
  6
CONTINUOUS
 10
18.8421135191
 20
12.5991854689
 40
3.0872059753
100
AcDbArc
 50
167.805970512
 51
172.2847532079
  0
ARC
  5
2CA
100
AcDbEntity
  8
02___PRT_ALL_AXES
100
AcDbCircle
 62
7
  6
CONTINUOUS
 10
18.0038175966
 20
12.729356464
 40
2.2106469608
100
AcDbArc
 50
162.9016612352
 51
166.8733646272
  0
ARC
  5
2CB
100
AcDbEntity
  8
02___PRT_ALL_AXES
100
AcDbCircle
 62
7
  6
CONTINUOUS
 10
17.6515367547
 20
12.8363446854
 40
1.8424809728
100
AcDbArc
 50
160.6338811267
 51
162.8607528991
  0
ARC
  5
2CC
100
AcDbEntity
  8
02___PRT_ALL_AXES
100
AcDbCircle
 62
7
  6
CONTINUOUS
 10
17.0105206814
 20
13.0992697762
 40
1.1490594353
100
AcDbArc
 50
153.1102425679
 51
153.3015816377
  0
ARC
  5
2CD
100
AcDbEntity
  8
0
100
AcDbCircle
 62
7
  6
CONTINUOUS
 10
16.7271307731
 20
12.7677887641
 40
0.1310444138
100
AcDbArc
 50
133.2499937161
 51
136.5550370876
  0
SPLINE
  5
2CE
100
AcDbEntity
  8
02___PRT_ALL_AXES
100
AcDbSpline
 62
7
  6
CONTINUOUS
 70
0
 71
3
 72
37
 73
33
 74
0
 42
0.0000001
 43
0.0000001
 44
0.0000000001
 40
0.0
 40
0.0
 40
0.0
 40
0.0
 40
0.0323426815
 40
0.0658969376
 40
0.1005461792
 40
0.1361742162
 40
0.1726529535
 40
0.2098491554
 40
0.2476246302
 40
0.285837074
 40
0.3629834698
 40
0.4401159515
 40
0.4783110944
 40
0.5160624936
 40
0.5532280742
 40
0.5896697448
 40
0.6252544653
 40
0.6598555039
 40
0.6933535736
 40
0.7256380966
 40
0.7566087334
 40
0.7861772825
 40
0.814269594
 40
0.8408279991
 40
0.8658144826
 40
0.8892148044
 40
0.9110433316
 40
0.931349303
 40
0.950224607
 40
0.9678125509
 40
0.9843156996
 40
1.0
 40
1.0
 40
1.0
 40
1.0
 10
13.9289851712
 20
13.4547354556
 30
0.0
 10
13.9205815249
 20
13.4275412464
 30
0.0
 10
13.9045563849
 20
13.371790161
 30
0.0
 10
13.8831768603
 20
13.2859094024
 30
0.0
 10
13.8640864079
 20
13.1965324592
 30
0.0
 10
13.847371041
 20
13.1040661606
 30
0.0
 10
13.8331070019
 20
13.0089238784
 30
0.0
 10
13.8213588168
 20
12.9115354606
 30
0.0
 10
13.8121792294
 20
12.8123390512
 30
0.0
 10
13.8033951
 20
12.6778465878
 30
0.0
 10
13.7990922444
 20
12.5084171293
 30
0.0
 10
13.8036023463
 20
12.3390082167
 30
0.0
 10
13.8125524232
 20
12.2045754344
 30
0.0
 10
13.82185374
 20
12.1054539839
 30
0.0
 10
13.8337214489
 20
12.0081613726
 30
0.0
 10
13.8481022183
 20
11.9131354502
 30
0.0
 10
13.8649309296
 20
11.8208045872
 30
0.0
 10
13.8841310788
 20
11.7315843643
 30
0.0
 10
13.9056156236
 20
11.6458760348
 30
0.0
 10
13.9292874647
 20
11.5640646663
 30
0.0
 10
13.9550399961
 20
11.4865172292
 30
0.0
 10
13.9827571052
 20
11.413580516
 30
0.0
 10
14.0123146778
 20
11.345579657
 30
0.0
 10
14.0435815772
 20
11.2828166765
 30
0.0
 10
14.0764209727
 20
11.2255690111
 30
0.0
 10
14.1106913483
 20
11.1740879649
 30
0.0
 10
14.146249204
 20
11.1285988553
 30
0.0
 10
14.1829521011
 20
11.0893021051
 30
0.0
 10
14.2206582467
 20
11.0563769176
 30
0.0
 10
14.2592330048
 20
11.0299850643
 30
0.0
 10
14.2985161623
 20
11.0102840174
 30
0.0
 10
14.3256099401
 20
11.0015398518
 30
0.0
 10
14.3390565873
 20
10.9984240572
 30
0.0
  0
SPLINE
  5
2CF
100
AcDbEntity
  8
02___PRT_ALL_AXES
100
AcDbSpline
 62
7
  6
CONTINUOUS
 70
0
 71
3
 72
19
 73
15
 74
0
 42
0.0000001
 43
0.0000001
 44
0.0000000001
 40
0.0
 40
0.0
 40
0.0
 40
0.0
 40
0.0541441909
 40
0.1077056932
 40
0.1611034672
 40
0.2147611656
 40
0.2690951675
 40
0.3245023429
 40
0.3813518777
 40
0.4399772504
 40
0.5636145318
 40
0.6973933942
 40
0.8425969976
 40
1.0
 40
1.0
 40
1.0
 40
1.0
 10
14.3926760434
 20
14.0356100061
 30
0.0
 10
14.4000794375
 20
14.0373253613
 30
0.0
 10
14.4149738538
 20
14.040061457
 30
0.0
 10
14.4375358091
 20
14.0420061823
 30
0.0
 10
14.4601140102
 20
14.0417558944
 30
0.0
 10
14.4826690127
 20
14.0393123441
 30
0.0
 10
14.5051646593
 20
14.0346788935
 30
0.0
 10
14.5275657155
 20
14.0278677391
 30
0.0
 10
14.5498388348
 20
14.0188901096
 30
0.0
 10
14.5798485591
 20
14.0037914369
 30
0.0
 10
14.6169827105
 20
13.9792121945
 30
0.0
 10
14.6596390239
 20
13.9419406744
 30
0.0
 10
14.7009975767
 20
13.896616223
 30
0.0
 10
14.726528134
 20
13.8625929389
 30
0.0
 10
14.7390828148
 20
13.8444142728
 30
0.0
  0
SPLINE
  5
2D0
100
AcDbEntity
  8
02___PRT_ALL_AXES
100
AcDbSpline
 62
7
  6
CONTINUOUS
 70
0
 71
3
 72
23
 73
19
 74
0
 42
0.0000001
 43
0.0000001
 44
0.0000000001
 40
0.0
 40
0.0
 40
0.0
 40
0.0
 40
0.0851522239
 40
0.1674896832
 40
0.2468623958
 40
0.3231705653
 40
0.39633169
 40
0.4662790781
 40
0.5329746114
 40
0.5964101441
 40
0.6566132174
 40
0.7136501456
 40
0.7676357692
 40
0.8187385015
 40
0.8671892319
 40
0.9132882609
 40
0.9574091928
 40
1.0
 40
1.0
 40
1.0
 40
1.0
 10
13.9289851712
 20
13.4547354556
 30
0.0
 10
13.9350892456
 20
13.4744882478
 30
0.0
 10
13.9476568191
 20
13.5131706411
 30
0.0
 10
13.9679497411
 20
13.5695781125
 30
0.0
 10
13.9893279758
 20
13.6232804782
 30
0.0
 10
14.0117347191
 20
13.6741377472
 30
0.0
 10
14.0351135758
 20
13.722023309
 30
0.0
 10
14.0594064956
 20
13.7668159269
 30
0.0
 10
14.0845515668
 20
13.8084023762
 30
0.0
 10
14.1104875766
 20
13.8466773097
 30
0.0
 10
14.1371495577
 20
13.8815453376
 30
0.0
 10
14.1644747471
 20
13.9129175166
 30
0.0
 10
14.1923972803
 20
13.9407147717
 30
0.0
 10
14.2208532074
 20
13.9648642845
 30
0.0
 10
14.2497766873
 20
13.9853001211
 30
0.0
 10
14.2791026482
 20
14.0019632074
 30
0.0
 10
14.3087553153
 20
14.0147956358
 30
0.0
 10
14.3289826891
 20
14.0208517303
 30
0.0
 10
14.3390565872
 20
14.0231859296
 30
0.0
  0
SPLINE
  5
2D1
100
AcDbEntity
  8
02___PRT_ALL_AXES
100
AcDbSpline
 62
7
  6
CONTINUOUS
 70
0
 71
3
 72
19
 73
15
 74
0
 42
0.0000001
 43
0.0000001
 44
0.0000000001
 40
0.0
 40
0.0
 40
0.0
 40
0.0
 40
0.0539700734
 40
0.1073575431
 40
0.1605888423
 40
0.2140949594
 40
0.268298595
 40
0.3236028324
 40
0.3803808899
 40
0.438969652
 40
0.5626446702
 40
0.6966115572
 40
0.8421441751
 40
1.0
 40
1.0
 40
1.0
 40
1.0
 10
14.3926760447
 20
10.9860000166
 30
0.0
 10
14.4001541989
 20
10.9842671693
 30
0.0
 10
14.4152006822
 20
10.9815102208
 30
0.0
 10
14.4379946758
 20
10.9795799992
 30
0.0
 10
14.4608045458
 20
10.9798882473
 30
0.0
 10
14.4835893456
 20
10.9824371288
 30
0.0
 10
14.5063122496
 20
10.987218537
 30
0.0
 10
14.5289362037
 20
10.994223548
 30
0.0
 10
14.5514275821
 20
11.0034375066
 30
0.0
 10
14.5817350269
 20
11.0189203441
 30
0.0
 10
14.6192211902
 20
11.0440950642
 30
0.0
 10
14.662243509
 20
11.0822162918
 30
0.0
 10
14.7039279807
 20
11.1285380872
 30
0.0
 10
14.729631118
 20
11.163280095
 30
0.0
 10
14.7422668116
 20
11.181839237
 30
0.0
  0
SPLINE
  5
2D2
100
AcDbEntity
  8
02___PRT_ALL_AXES
100
AcDbSpline
 62
7
  6
CONTINUOUS
 70
0
 71
3
 72
28
 73
24
 74
0
 42
0.0000001
 43
0.0000001
 44
0.0000000001
 40
0.0
 40
0.0
 40
0.0
 40
0.0
 40
0.0938005737
 40
0.1827768804
 40
0.266638754
 40
0.3451910907
 40
0.4183196119
 40
0.4860277261
 40
0.5484598723
 40
0.6059388415
 40
0.6590074404
 40
0.6841481194
 40
0.7085108286
 40
0.7322392968
 40
0.7554927663
 40
0.7784430027
 40
0.8012706132
 40
0.8241596866
 40
0.84729253
 40
0.8708443603
 40
0.8949791391
 40
0.9455364491
 40
1.0
 40
1.0
 40
1.0
 40
1.0
 10
14.0430903577
 20
13.3832345834
 30
0.0
 10
14.0514959612
 20
13.4104351265
 30
0.0
 10
14.0690136193
 20
13.4630960281
 30
0.0
 10
14.0982579975
 20
13.5385920448
 30
0.0
 10
14.1296463943
 20
13.6081833703
 30
0.0
 10
14.1629988817
 20
13.6714742778
 30
0.0
 10
14.1981339575
 20
13.7281120029
 30
0.0
 10
14.2348626546
 20
13.7777806805
 30
0.0
 10
14.2730027371
 20
13.8202050936
 30
0.0
 10
14.3123634373
 20
13.8551365795
 30
0.0
 10
14.3466585616
 20
13.8782273251
 30
0.0
 10
14.3743872775
 20
13.8924478839
 30
0.0
 10
14.3949655057
 20
13.9009217815
 30
0.0
 10
14.4156655299
 20
13.9073778547
 30
0.0
 10
14.4364563684
 20
13.9118045063
 30
0.0
 10
14.4573050192
 20
13.9141900399
 30
0.0
 10
14.4781768521
 20
13.9145314652
 30
0.0
 10
14.4990370853
 20
13.9128258144
 30
0.0
 10
14.519850797
 20
13.9090784268
 30
0.0
 10
14.5405853144
 20
13.9032969123
 30
0.0
 10
14.5685066007
 20
13.8927319329
 30
0.0
 10
14.6032306569
 20
13.8741549747
 30
0.0
 10
14.6288936706
 20
13.8550642335
 30
0.0
 10
14.6415373739
 20
13.84441572
 30
0.0
  0
SPLINE
  5
2D3
100
AcDbEntity
  8
02___PRT_ALL_AXES
100
AcDbSpline
 62
7
  6
CONTINUOUS
 70
0
 71
3
 72
22
 73
18
 74
0
 42
0.0000001
 43
0.0000001
 44
0.0000000001
 40
0.0
 40
0.0
 40
0.0
 40
0.0
 40
0.1620740222
 40
0.2393825944
 40
0.3140775827
 40
0.3860911999
 40
0.4553649219
 40
0.5218552987
 40
0.5855406188
 40
0.6464194831
 40
0.7045153677
 40
0.7598789883
 40
0.8125937241
 40
0.8627790385
 40
0.9105958253
 40
0.9562507664
 40
1.0
 40
1.0
 40
1.0
 40
1.0
 10
13.979235881
 20
13.4624898543
 30
0.0
 10
13.9900866455
 20
13.4976029409
 30
0.0
 10
14.007430644
 20
13.5490787625
 30
0.0
 10
14.0331733358
 20
13.6154919722
 30
0.0
 10
14.0530191804
 20
13.6622625807
 30
0.0
 10
14.0736670692
 20
13.706683718
 30
0.0
 10
14.095075005
 20
13.7486669953
 30
0.0
 10
14.1172008757
 20
13.7881263497
 30
0.0
 10
14.1399991585
 20
13.8249824927
 30
0.0
 10
14.1634254679
 20
13.8591607755
 30
0.0
 10
14.1874328602
 20
13.8905927861
 30
0.0
 10
14.2119752431
 20
13.9192145661
 30
0.0
 10
14.237004969
 20
13.9449684047
 30
0.0
 10
14.2624746362
 20
13.9678008301
 30
0.0
 10
14.288337366
 20
13.9876642056
 30
0.0
 10
14.3145410327
 20
14.0045127385
 30
0.0
 10
14.3325559162
 20
14.0138908257
 30
0.0
 10
14.3415754735
 20
14.0180215517
 30
0.0
  0
SPLINE
  5
2D4
100
AcDbEntity
  8
02___PRT_ALL_AXES
100
AcDbSpline
 62
7
  6
CONTINUOUS
 70
0
 71
3
 72
9
 73
5
 74
0
 42
0.0000001
 43
0.0000001
 44
0.0000000001
 40
0.0
 40
0.0
 40
0.0
 40
0.0
 40
0.5072320985
 40
1.0
 40
1.0
 40
1.0
 40
1.0
 10
14.3415754735
 20
14.0180215517
 30
0.0
 10
14.3498937126
 20
14.0218310919
 30
0.0
 10
14.366654268
 20
14.0285823927
 30
0.0
 10
14.3840172383
 20
14.0336037741
 30
0.0
 10
14.3926760434
 20
14.0356100061
 30
0.0
  0
SPLINE
  5
2D5
100
AcDbEntity
  8
02___PRT_ALL_AXES
100
AcDbSpline
 62
7
  6
CONTINUOUS
 70
0
 71
3
 72
35
 73
31
 74
0
 42
0.0000001
 43
0.0000001
 44
0.0000000001
 40
0.0
 40
0.0
 40
0.0
 40
0.0
 40
0.0316681463
 40
0.0644803267
 40
0.0983313657
 40
0.1331171877
 40
0.1687229306
 40
0.2050290898
 40
0.2792368639
 40
0.3547161992
 40
0.430404359
 40
0.5052334994
 40
0.542000573
 40
0.5781636055
 40
0.6135994816
 40
0.6481899031
 40
0.6818222606
 40
0.714390646
 40
0.7457971508
 40
0.7759531006
 40
0.8047804311
 40
0.8322134606
 40
0.8582012156
 40
0.8827099196
 40
0.9057261994
 40
0.9272613166
 40
0.9473565414
 40
0.9660892687
 40
0.9835801184
 40
1.0
 40
1.0
 40
1.0
 40
1.0
 10
13.979235881
 20
13.4624898543
 30
0.0
 10
13.971106856
 20
13.4361843197
 30
0.0
 10
13.95557277
 20
13.3823039849
 30
0.0
 10
13.9347409634
 20
13.2993742286
 30
0.0
 10
13.9160306487
 20
13.2131645643
 30
0.0
 10
13.8995197341
 20
13.1240371829
 30
0.0
 10
13.8852770612
 20
13.0323587921
 30
0.0
 10
13.8692766474
 20
12.906317421
 30
0.0
 10
13.8554174121
 20
12.7451247399
 30
0.0
 10
13.8485992678
 20
12.5492167308
 30
0.0
 10
13.8515924834
 20
12.3526731121
 30
0.0
 10
13.8622807446
 20
12.1901165405
 30
0.0
 10
13.8757736417
 20
12.0623492572
 30
0.0
 10
13.8882036263
 20
11.968944736
 30
0.0
 10
13.9029490434
 20
11.8777940175
 30
0.0
 10
13.9199485386
 20
11.7892749876
 30
0.0
 10
13.9391309916
 20
11.7037552774
 30
0.0
 10
13.9604166268
 20
11.6215896123
 30
0.0
 10
13.9837165557
 20
11.5431183052
 30
0.0
 10
14.0089337161
 20
11.4686657531
 30
0.0
 10
14.0359635767
 20
11.3985391898
 30
0.0
 10
14.0646948801
 20
11.3330272668
 30
0.0
 10
14.0950096897
 20
11.2723983572
 30
0.0
 10
14.1267851379
 20
11.2168996481
 30
0.0
 10
14.159894654
 20
11.1667565611
 30
0.0
 10
14.1942101464
 20
11.1221721725
 30
0.0
 10
14.2296013388
 20
11.0833278665
 30
0.0
 10
14.2659441982
 20
11.0503838319
 30
0.0
 10
14.3031006699
 20
11.0234913176
 30
0.0
 10
14.3290599917
 20
11.0092932324
 30
0.0
 10
14.3420497529
 20
11.0033717497
 30
0.0
  0
SPLINE
  5
2D6
100
AcDbEntity
  8
02___PRT_ALL_AXES
100
AcDbSpline
 62
7
  6
CONTINUOUS
 70
0
 71
3
 72
9
 73
5
 74
0
 42
0.0000001
 43
0.0000001
 44
0.0000000001
 40
0.0
 40
0.0
 40
0.0
 40
0.0
 40
0.5071476517
 40
1.0
 40
1.0
 40
1.0
 40
1.0
 10
14.3420497529
 20
11.0033717497
 30
0.0
 10
14.350293151
 20
10.9996139333
 30
0.0
 10
14.3669013453
 20
10.9929512237
 30
0.0
 10
14.3840991532
 20
10.9879874647
 30
0.0
 10
14.3926760447
 20
10.9860000166
 30
0.0
  0
SPLINE
  5
2D7
100
AcDbEntity
  8
02___PRT_ALL_AXES
100
AcDbSpline
 62
7
  6
CONTINUOUS
 70
0
 71
3
 72
48
 73
44
 74
0
 42
0.0000001
 43
0.0000001
 44
0.0000000001
 40
0.0
 40
0.0
 40
0.0
 40
0.0
 40
0.03523094
 40
0.072002506
 40
0.1101359342
 40
0.1494422458
 40
0.189717246
 40
0.2307481403
 40
0.2723143438
 40
0.3141902433
 40
0.3561472635
 40
0.3979560726
 40
0.4393887426
 40
0.4802209178
 40
0.5202340286
 40
0.5592175822
 40
0.5969715797
 40
0.633309128
 40
0.6680593639
 40
0.7010707835
 40
0.7322151975
 40
0.7613926433
 40
0.7885376892
 40
0.8013418442
 40
0.8136337405
 40
0.8254190074
 40
0.8367078268
 40
0.8475147855
 40
0.857860269
 40
0.8677702997
 40
0.8772777369
 40
0.8864224114
 40
0.8952515221
 40
0.9038197371
 40
0.9121884185
 40
0.9204248779
 40
0.9286004394
 40
0.9367884744
 40
0.9450619182
 40
0.9534909774
 40
0.9621410341
 40
0.980318301
 40
1.0
 40
1.0
 40
1.0
 40
1.0
 10
14.0430903577
 20
13.3832345834
 30
0.0
 10
14.0337799289
 20
13.3531060247
 30
0.0
 10
14.0162112437
 20
13.291073025
 30
0.0
 10
13.9933722191
 20
13.19514938
 30
0.0
 10
13.9735911309
 20
13.0948285518
 30
0.0
 10
13.9569957966
 20
12.9907578825
 30
0.0
 10
13.9436940963
 20
12.8836027065
 30
0.0
 10
13.9337719483
 20
12.7740518845
 30
0.0
 10
13.9272938595
 20
12.662808906
 30
0.0
 10
13.924301814
 20
12.5505888071
 30
0.0
 10
13.9248152511
 20
12.4381129535
 30
0.0
 10
13.9288307913
 20
12.3261044159
 30
0.0
 10
13.9363223724
 20
12.2152831705
 30
0.0
 10
13.947241403
 20
12.1063613717
 30
0.0
 10
13.9615170948
 20
12.0000386606
 30
0.0
 10
13.9790569492
 20
11.8969975358
 30
0.0
 10
13.9997474086
 20
11.797898773
 30
0.0
 10
14.0234547029
 20
11.703376983
 30
0.0
 10
14.0500258778
 20
11.6140359897
 30
0.0
 10
14.0792899807
 20
11.5304452176
 30
0.0
 10
14.1110605605
 20
11.4531332885
 30
0.0
 10
14.1451355064
 20
11.3825919904
 30
0.0
 10
14.1758497689
 20
11.3288057292
 30
0.0
 10
14.2014913799
 20
11.2896887526
 30
0.0
 10
14.220783715
 20
11.2628869888
 30
0.0
 10
14.2404822316
 20
11.2380911762
 30
0.0
 10
14.2605555835
 20
11.2153398511
 30
0.0
 10
14.2809744739
 20
11.1946708157
 30
0.0
 10
14.3017064299
 20
11.1761163591
 30
0.0
 10
14.3227213877
 20
11.1597082922
 30
0.0
 10
14.3439870836
 20
11.1454740551
 30
0.0
 10
14.3654714589
 20
11.1334391376
 30
0.0
 10
14.3871417033
 20
11.123627459
 30
0.0
 10
14.4089624482
 20
11.1160577267
 30
0.0
 10
14.4308978051
 20
11.1107493927
 30
0.0
 10
14.4529082624
 20
11.1077129448
 30
0.0
 10
14.4749534973
 20
11.1069587016
 30
0.0
 10
14.4969916303
 20
11.1084869628
 30
0.0
 10
14.5189810188
 20
11.1122943268
 30
0.0
 10
14.5408821641
 20
11.1183717887
 30
0.0
 10
14.5703943892
 20
11.1296626456
 30
0.0
 10
14.6070769449
 20
11.1497863036
 30
0.0
 10
14.6340241495
 20
11.170537755
 30
0.0
 10
14.6472896103
 20
11.1821296491
 30
0.0
  0
SPLINE
  5
2D8
100
AcDbEntity
  8
02___PRT_ALL_AXES
100
AcDbSpline
 62
7
  6
CONTINUOUS
 70
0
 71
3
 72
23
 73
19
 74
0
 42
0.0000001
 43
0.0000001
 44
0.0000000001
 40
0.0
 40
0.0
 40
0.0
 40
0.0
 40
0.0442137919
 40
0.0880040051
 40
0.1323022723
 40
0.1780016627
 40
0.2258967329
 40
0.2766483484
 40
0.3307731203
 40
0.388650376
 40
0.4505389356
 40
0.5165951894
 40
0.586889042
 40
0.6614200517
 40
0.740127618
 40
0.8228992665
 40
0.9095923826
 40
1.0
 40
1.0
 40
1.0
 40
1.0
 10
16.340357329
 20
14.0356099692
 30
0.0
 10
16.3282640427
 20
14.0384122407
 30
0.0
 10
16.3037241952
 20
14.042178265
 30
0.0
 10
16.2664268142
 20
14.0419040492
 30
0.0
 10
16.2292308544
 20
14.0356499263
 30
0.0
 10
16.1923349792
 20
14.0234719596
 30
0.0
 10
16.1558946703
 20
14.0054643415
 30
0.0
 10
16.120043461
 20
13.9817357298
 30
0.0
 10
16.0848992496
 20
13.9524024508
 30
0.0
 10
16.0505748672
 20
13.9175890759
 30
0.0
 10
16.0171835714
 20
13.8774311835
 30
0.0
 10
15.9848400959
 20
13.8320797597
 30
0.0
 10
15.9536583675
 20
13.7817042181
 30
0.0
 10
15.9237516959
 20
13.7264924055
 30
0.0
 10
15.895231187
 20
13.6666514682
 30
0.0
 10
15.8682022169
 20
13.6024043404
 30
0.0
 10
15.8427694389
 20
13.533996815
 30
0.0
 10
15.8272536654
 20
13.4867416394
 30
0.0
 10
15.819759297
 20
13.4624898543
 30
0.0
  0
SPLINE
  5
2D9
100
AcDbEntity
  8
02___PRT_ALL_AXES
100
AcDbSpline
 62
7
  6
CONTINUOUS
 70
0
 71
3
 72
17
 73
13
 74
0
 42
0.0000001
 43
0.0000001
 44
0.0000000001
 40
0.0
 40
0.0
 40
0.0
 40
0.0
 40
0.1616134883
 40
0.3122188213
 40
0.4516580575
 40
0.5800530383
 40
0.6978753619
 40
0.7531188787
 40
0.8061062605
 40
0.9060684834
 40
0.9536450764
 40
1.0
 40
1.0
 40
1.0
 40
1.0
 10
16.7332754156
 20
11.3748758931
 30
0.0
 10
16.7219388914
 20
11.3490492092
 30
0.0
 10
16.6986160798
 20
11.2997577543
 30
0.0
 10
16.6601824063
 20
11.2308637113
 30
0.0
 10
16.6197244672
 20
11.1699631352
 30
0.0
 10
16.577479227
 20
11.1174339626
 30
0.0
 10
16.5401926596
 20
11.0801235059
 30
0.0
 10
16.5096736458
 20
11.0550743986
 30
0.0
 10
16.4800269585
 20
11.0340356919
 30
0.0
 10
16.4492327841
 20
11.0170112471
 30
0.0
 10
16.4176551779
 20
11.004743737
 30
0.0
 10
16.4018579734
 20
11.0002501876
 30
0.0
 10
16.3939767864
 20
10.9984240562
 30
0.0
  0
SPLINE
  5
2DA
100
AcDbEntity
  8
02___PRT_ALL_AXES
100
AcDbSpline
 62
7
  6
CONTINUOUS
 70
0
 71
3
 72
17
 73
13
 74
0
 42
0.0000001
 43
0.0000001
 44
0.0000000001
 40
0.0
 40
0.0
 40
0.0
 40
0.0
 40
0.1614811139
 40
0.3119794983
 40
0.4513478513
 40
0.5797144541
 40
0.6975559237
 40
0.752827048
 40
0.8058538992
 40
0.9059270686
 40
0.9535715574
 40
1.0
 40
1.0
 40
1.0
 40
1.0
 10
16.7318999279
 20
13.6498578719
 30
0.0
 10
16.7205874543
 20
13.6754692875
 30
0.0
 10
16.6973211933
 20
13.7243483861
 30
0.0
 10
16.6590061327
 20
13.7926581681
 30
0.0
 10
16.618693516
 20
13.8530401031
 30
0.0
 10
16.5766167984
 20
13.9051229208
 30
0.0
 10
16.5394949921
 20
13.942115816
 30
0.0
 10
16.5091179793
 20
13.9669556732
 30
0.0
 10
16.4796054607
 20
13.9878273687
 30
0.0
 10
16.4489584546
 20
14.0047198202
 30
0.0
 10
16.4175377756
 20
14.0169017457
 30
0.0
 10
16.4018190328
 20
14.0213687597
 30
0.0
 10
16.3939767864
 20
14.0231859286
 30
0.0
  0
SPLINE
  5
2DB
100
AcDbEntity
  8
02___PRT_ALL_AXES
100
AcDbSpline
 62
7
  6
CONTINUOUS
 70
0
 71
3
 72
43
 73
39
 74
0
 42
0.0000001
 43
0.0000001
 44
0.0000000001
 40
0.0
 40
0.0
 40
0.0
 40
0.0
 40
0.0079529206
 40
0.0158211903
 40
0.0236621487
 40
0.031533873
 40
0.0394936357
 40
0.0475963302
 40
0.0558933321
 40
0.064431514
 40
0.0823817816
 40
0.1017318666
 40
0.1226720338
 40
0.1453226254
 40
0.1697464057
 40
0.1959596547
 40
0.2239412369
 40
0.2536396194
 40
0.2849782721
 40
0.3178598629
 40
0.3521695728
 40
0.3877778075
 40
0.4245425439
 40
0.4623113327
 40
0.5009230837
 40
0.5402097063
 40
0.5799976465
 40
0.6201093726
 40
0.6603648375
 40
0.7005828895
 40
0.7405826616
 40
0.780184979
 40
0.8192137758
 40
0.8574975052
 40
0.8948710601
 40
0.931175785
 40
0.9662655761
 40
1.0
 40
1.0
 40
1.0
 40
1.0
 10
16.3403573302
 20
10.9859999797
 30
0.0
 10
16.3332037958
 20
10.9843425166
 30
0.0
 10
16.318817039
 20
10.9816765263
 30
0.0
 10
16.2970295141
 20
10.979690852
 30
0.0
 10
16.2752246686
 20
10.9797524536
 30
0.0
 10
16.2534377876
 20
10.9818597972
 30
0.0
 10
16.2317012235
 20
10.986010639
 30
0.0
 10
16.2100468697
 20
10.9921949103
 30
0.0
 10
16.1885046066
 20
11.0004027632
 30
0.0
 10
16.1594928134
 20
11.0142524975
 30
0.0
 10
16.1235424058
 20
11.0368913176
 30
0.0
 10
16.082125077
 20
11.0713874457
 30
0.0
 10
16.0418740523
 20
11.1134529487
 30
0.0
 10
16.0029739755
 20
11.1628572508
 30
0.0
 10
15.9656009553
 20
11.2193469094
 30
0.0
 10
15.9299370243
 20
11.2826325964
 30
0.0
 10
15.8961609975
 20
11.3523893014
 30
0.0
 10
15.8644465006
 20
11.4282561543
 30
0.0
 10
15.8349588376
 20
11.509838268
 30
0.0
 10
15.8078531522
 20
11.5967088964
 30
0.0
 10
15.7832728427
 20
11.6884119204
 30
0.0
 10
15.7613482714
 20
11.7844645131
 30
0.0
 10
15.7421960043
 20
11.8843600178
 30
0.0
 10
15.7259180105
 20
11.9875708414
 30
0.0
 10
15.7126010476
 20
12.0935513856
 30
0.0
 10
15.7023161594
 20
12.2017410282
 30
0.0
 10
15.6951182483
 20
12.3115671653
 30
0.0
 10
15.6910456357
 20
12.4224483322
 30
0.0
 10
15.6901200116
 20
12.533797388
 30
0.0
 10
15.6923463048
 20
12.6450246856
 30
0.0
 10
15.6977126522
 20
12.755541234
 30
0.0
 10
15.7061904649
 20
12.8647618651
 30
0.0
 10
15.7177346243
 20
12.9721083126
 30
0.0
 10
15.7322833846
 20
13.0770128239
 30
0.0
 10
15.7497594197
 20
13.1789197129
 30
0.0
 10
15.7700692354
 20
13.2772927493
 30
0.0
 10
15.7931050247
 20
13.3716082828
 30
0.0
 10
15.8105630929
 20
13.4327309272
 30
0.0
 10
15.819759297
 20
13.4624898543
 30
0.0
  0
SPLINE
  5
2DC
100
AcDbEntity
  8
02___PRT_ALL_AXES
100
AcDbSpline
 62
7
  6
CONTINUOUS
 70
0
 71
3
 72
23
 73
19
 74
0
 42
0.0000001
 43
0.0000001
 44
0.0000000001
 40
0.0
 40
0.0
 40
0.0
 40
0.0
 40
0.0442137739
 40
0.0880039819
 40
0.1323021985
 40
0.1780016117
 40
0.2258967761
 40
0.2766483132
 40
0.3307730283
 40
0.3886504033
 40
0.4505389717
 40
0.5165951007
 40
0.5868890189
 40
0.6614201877
 40
0.7401274795
 40
0.8228990881
 40
0.909593066
 40
1.0
 40
1.0
 40
1.0
 40
1.0
 10
16.3939767864
 20
14.0231859286
 30
0.0
 10
16.3819820271
 20
14.0259652984
 30
0.0
 10
16.3576421153
 20
14.0297005588
 30
0.0
 10
16.3206486896
 20
14.0294281884
 30
0.0
 10
16.2837557369
 20
14.0232255904
 30
0.0
 10
16.2471604757
 20
14.0111467169
 30
0.0
 10
16.2110172362
 20
13.9932855422
 30
0.0
 10
16.1754580362
 20
13.9697504871
 30
0.0
 10
16.1406001002
 20
13.940656304
 30
0.0
 10
16.106555549
 20
13.9061264134
 30
0.0
 10
16.0734363246
 20
13.8662957488
 30
0.0
 10
16.0413562413
 20
13.8213139721
 30
0.0
 10
16.0104286757
 20
13.7713488032
 30
0.0
 10
15.9807657591
 20
13.7165868464
 30
0.0
 10
15.9524775201
 20
13.6572336058
 30
0.0
 10
15.9256687697
 20
13.59350981
 30
0.0
 10
15.9004432868
 20
13.5256596146
 30
0.0
 10
15.8850538664
 20
13.4787894521
 30
0.0
 10
15.8776206193
 20
13.4547354556
 30
0.0
  0
SPLINE
  5
2DD
100
AcDbEntity
  8
02___PRT_ALL_AXES
100
AcDbSpline
 62
7
  6
CONTINUOUS
 70
0
 71
3
 72
27
 73
23
 74
0
 42
0.0000001
 43
0.0000001
 44
0.0000000001
 40
0.0
 40
0.0
 40
0.0
 40
0.0
 40
0.0830779396
 40
0.1607159743
 40
0.2329969844
 40
0.3001351634
 40
0.362504917
 40
0.4206711306
 40
0.4754149133
 40
0.5018309014
 40
0.5277851342
 40
0.5534322304
 40
0.5789336453
 40
0.6044544531
 40
0.6301591382
 40
0.6562080658
 40
0.6827534715
 40
0.7378503445
 40
0.7964725287
 40
0.8593752963
 40
0.9270999426
 40
1.0
 40
1.0
 40
1.0
 40
1.0
 10
16.6285416633
 20
13.6564277152
 30
0.0
 10
16.6187281486
 20
13.6740214737
 30
0.0
 10
16.5987229393
 20
13.7075050736
 30
0.0
 10
16.5663924809
 20
13.7539022661
 30
0.0
 10
16.5328831522
 20
13.7945770866
 30
0.0
 10
16.4983330111
 20
13.8293418037
 30
0.0
 10
16.462872763
 20
13.8580319384
 30
0.0
 10
16.4266441501
 20
13.8804929031
 30
0.0
 10
16.395543422
 20
13.8940574999
 30
0.0
 10
16.3706282086
 20
13.9014883414
 30
0.0
 10
16.3520896914
 20
13.9053752342
 30
0.0
 10
16.3335065058
 20
13.9076337853
 30
0.0
 10
16.3149015639
 20
13.9082589935
 30
0.0
 10
16.2962995581
 20
13.9072508381
 30
0.0
 10
16.2777247278
 20
13.9046113915
 30
0.0
 10
16.2592004682
 20
13.900343007
 30
0.0
 10
16.2342980181
 20
13.8923973619
 30
0.0
 10
16.203238477
 20
13.8781890702
 30
0.0
 10
16.167093419
 20
13.8549918621
 30
0.0
 10
16.131732221
 20
13.8255818382
 30
0.0
 10
16.0972988419
 20
13.7901179547
 30
0.0
 10
16.0758517486
 20
13.7635451115
 30
0.0
 10
16.0652821327
 20
13.749375441
 30
0.0
  0
SPLINE
  5
2DE
100
AcDbEntity
  8
02___PRT_ALL_AXES
100
AcDbSpline
 62
7
  6
CONTINUOUS
 70
0
 71
3
 72
9
 73
5
 74
0
 42
0.0000001
 43
0.0000001
 44
0.0000000001
 40
0.0
 40
0.0
 40
0.0
 40
0.0
 40
0.4789872427
 40
1.0
 40
1.0
 40
1.0
 40
1.0
 10
16.0652821327
 20
13.749375441
 30
0.0
 10
16.0506840069
 20
13.7298051335
 30
0.0
 10
16.0223477039
 20
13.6873315793
 30
0.0
 10
15.9977106999
 20
13.6426468457
 30
0.0
 10
15.9856993959
 20
13.6189609524
 30
0.0
  0
SPLINE
  5
2DF
100
AcDbEntity
  8
02___PRT_ALL_AXES
100
AcDbSpline
 62
7
  6
CONTINUOUS
 70
0
 71
3
 72
9
 73
5
 74
0
 42
0.0000001
 43
0.0000001
 44
0.0000000001
 40
0.0
 40
0.0
 40
0.0
 40
0.0
 40
0.4827459275
 40
1.0
 40
1.0
 40
1.0
 40
1.0
 10
15.9839696067
 20
13.6155356735
 30
0.0
 10
15.9707714789
 20
13.5892925057
 30
0.0
 10
15.9454862569
 20
13.5338844138
 30
0.0
 10
15.9237486141
 20
13.4770093399
 30
0.0
 10
15.9133053595
 20
13.4473174768
 30
0.0
  0
SPLINE
  5
2E0
100
AcDbEntity
  8
02___PRT_ALL_AXES
100
AcDbSpline
 62
7
  6
CONTINUOUS
 70
0
 71
3
 72
23
 73
19
 74
0
 42
0.0000001
 43
0.0000001
 44
0.0000000001
 40
0.0
 40
0.0
 40
0.0
 40
0.0
 40
0.0841821989
 40
0.1631891832
 40
0.2370855601
 40
0.306042189
 40
0.370359993
 40
0.430494848
 40
0.4870789179
 40
0.5409328325
 40
0.5930545203
 40
0.6445717221
 40
0.6966613874
 40
0.7504538291
 40
0.8069509471
 40
0.8669790452
 40
0.9311755286
 40
1.0
 40
1.0
 40
1.0
 40
1.0
 10
16.6288275019
 20
11.3656948507
 30
0.0
 10
16.6195802966
 20
11.3490940634
 30
0.0
 10
16.6007461728
 20
11.3174046062
 30
0.0
 10
16.5704341517
 20
11.2732483388
 30
0.0
 10
16.5390662795
 20
11.2341401089
 30
0.0
 10
16.5067584473
 20
11.2002396976
 30
0.0
 10
16.4736241389
 20
11.1716878183
 30
0.0
 10
16.4397771913
 20
11.1486123417
 30
0.0
 10
16.4053348199
 20
11.131134102
 30
0.0
 10
16.3704292094
 20
11.1193688956
 30
0.0
 10
16.3352220974
 20
11.1134152639
 30
0.0
 10
16.2999073681
 20
11.1133341219
 30
0.0
 10
16.2646945394
 20
11.1191274715
 30
0.0
 10
16.2297785388
 20
11.1307349253
 30
0.0
 10
16.1953214506
 20
11.1480571735
 30
0.0
 10
16.1614560385
 20
11.17098111
 30
0.0
 10
16.1283028654
 20
11.1993828556
 30
0.0
 10
16.1074986034
 20
11.2211028161
 30
0.0
 10
16.0972251709
 20
11.2327569429
 30
0.0
  0
SPLINE
  5
2E1
100
AcDbEntity
  8
02___PRT_ALL_AXES
100
AcDbSpline
 62
7
  6
CONTINUOUS
 70
0
 71
3
 72
9
 73
5
 74
0
 42
0.0000001
 43
0.0000001
 44
0.0000000001
 40
0.0
 40
0.0
 40
0.0
 40
0.0
 40
0.4779920011
 40
1.0
 40
1.0
 40
1.0
 40
1.0
 10
16.0972251709
 20
11.2327569429
 30
0.0
 10
16.0823351381
 20
11.2496481164
 30
0.0
 10
16.0532844356
 20
11.2868608504
 30
0.0
 10
16.0279240631
 20
11.3266340499
 30
0.0
 10
16.0155104725
 20
11.3478615317
 30
0.0
  0
SPLINE
  5
2E2
100
AcDbEntity
  8
02___PRT_ALL_AXES
100
AcDbSpline
 62
7
  6
CONTINUOUS
 70
0
 71
3
 72
9
 73
5
 74
0
 42
0.0000001
 43
0.0000001
 44
0.0000000001
 40
0.0
 40
0.0
 40
0.0
 40
0.0
 40
0.4817982219
 40
1.0
 40
1.0
 40
1.0
 40
1.0
 10
16.0132070636
 20
11.3518221988
 30
0.0
 10
15.9998616467
 20
11.3748960732
 30
0.0
 10
15.9741294771
 20
11.4239383243
 30
0.0
 10
15.951794571
 20
11.4745970498
 30
0.0
 10
15.9409846084
 20
11.5011502572
 30
0.0
  0
LINE
  5
2E3
100
AcDbEntity
  8
02___PRT_ALL_AXES
100
AcDbLine
 62
7
  6
CONTINUOUS
 10
15.9404056822
 20
11.5025744113
 11
15.9393067603
 21
11.5052893525
  0
SPLINE
  5
2E4
100
AcDbEntity
  8
02___PRT_ALL_AXES
100
AcDbSpline
 62
7
  6
CONTINUOUS
 70
0
 71
3
 72
9
 73
5
 74
0
 42
0.0000001
 43
0.0000001
 44
0.0000000001
 40
0.0
 40
0.0
 40
0.0
 40
0.0
 40
0.4851313846
 40
1.0
 40
1.0
 40
1.0
 40
1.0
 10
15.9393067603
 20
11.5052893525
 30
0.0
 10
15.9271343059
 20
11.5354465151
 30
0.0
 10
15.904041054
 20
11.5984264451
 30
0.0
 10
15.884437725
 20
11.6625655094
 30
0.0
 10
15.8751420728
 20
11.6958047428
 30
0.0
  0
SPLINE
  5
2E5
100
AcDbEntity
  8
02___PRT_ALL_AXES
100
AcDbSpline
 62
7
  6
CONTINUOUS
 70
0
 71
3
 72
9
 73
5
 74
0
 42
0.0000001
 43
0.0000001
 44
0.0000000001
 40
0.0
 40
0.0
 40
0.0
 40
0.0
 40
0.4899855883
 40
1.0
 40
1.0
 40
1.0
 40
1.0
 10
15.8710272277
 20
11.7107236913
 30
0.0
 10
15.8619081227
 20
11.7442493445
 30
0.0
 10
15.8449098169
 20
11.8131168267
 30
0.0
 10
15.8308377847
 20
11.8826360007
 30
0.0
 10
15.8243492174
 20
11.9182130845
 30
0.0
  0
SPLINE
  5
2E6
100
AcDbEntity
  8
02___PRT_ALL_AXES
100
AcDbSpline
 62
7
  6
CONTINUOUS
 70
0
 71
3
 72
11
 73
7
 74
0
 42
0.0000001
 43
0.0000001
 44
0.0000000001
 40
0.0
 40
0.0
 40
0.0
 40
0.0
 40
0.2475300229
 40
0.498357848
 40
0.7500102602
 40
1.0
 40
1.0
 40
1.0
 40
1.0
 10
15.7901489971
 20
12.1626598917
 30
0.0
 10
15.7852188452
 20
12.2118664487
 30
0.0
 10
15.7775072024
 20
12.311169236
 30
0.0
 10
15.7722812049
 20
12.460961942
 30
0.0
 10
15.7733428382
 20
12.6113332006
 30
0.0
 10
15.7782673362
 20
12.7114688276
 30
0.0
 10
15.7818025367
 20
12.7612878943
 30
0.0
  0
SPLINE
  5
2E7
100
AcDbEntity
  8
02___PRT_ALL_AXES
100
AcDbSpline
 62
7
  6
CONTINUOUS
 70
0
 71
3
 72
9
 73
5
 74
0
 42
0.0000001
 43
0.0000001
 44
0.0000000001
 40
0.0
 40
0.0
 40
0.0
 40
0.0
 40
0.5089650099
 40
1.0
 40
1.0
 40
1.0
 40
1.0
 10
15.80816987
 20
13.005070537
 30
0.0
 10
15.8138651154
 20
13.0437398496
 30
0.0
 10
15.8265220257
 20
13.1195088161
 30
0.0
 10
15.8423270657
 20
13.1946891673
 30
0.0
 10
15.850933741
 20
13.2314033639
 30
0.0
  0
SPLINE
  5
2E8
100
AcDbEntity
  8
02___PRT_ALL_AXES
100
AcDbSpline
 62
7
  6
CONTINUOUS
 70
0
 71
3
 72
28
 73
24
 74
0
 42
0.0000001
 43
0.0000001
 44
0.0000000001
 40
0.0
 40
0.0
 40
0.0
 40
0.0
 40
0.0197689178
 40
0.0393228796
 40
0.05882737
 40
0.0784495025
 40
0.0983527013
 40
0.1186919803
 40
0.1396099331
 40
0.1612346423
 40
0.2070034352
 40
0.2313525261
 40
0.2567586327
 40
0.3109123808
 40
0.3697491839
 40
0.4333703146
 40
0.5017507322
 40
0.5747647824
 40
0.6522056213
 40
0.7337999623
 40
0.8192195371
 40
0.9080902861
 40
1.0
 40
1.0
 40
1.0
 40
1.0
 10
16.3939767864
 20
10.9984240562
 30
0.0
 10
16.3863460266
 20
10.9966559507
 30
0.0
 10
16.3709876568
 20
10.9938638581
 30
0.0
 10
16.3477165654
 20
10.9919912058
 30
0.0
 10
16.3244308812
 20
10.9924729818
 30
0.0
 10
16.3011752167
 20
10.9953068108
 30
0.0
 10
16.2779896999
 20
11.0004864653
 30
0.0
 10
16.2549143469
 20
11.0079997718
 30
0.0
 10
16.2319846745
 20
11.0178302477
 30
0.0
 10
16.2010782729
 20
11.0343096164
 30
0.0
 10
16.1711640682
 20
11.0552344972
 30
0.0
 10
16.1424281925
 20
11.0798902894
 30
0.0
 10
16.112880358
 20
11.1085970498
 30
0.0
 10
16.0769316517
 20
11.1501518865
 30
0.0
 10
16.0363412859
 20
11.2072586614
 30
0.0
 10
15.9976319115
 20
11.2722977334
 30
0.0
 10
15.9610283128
 20
11.344878987
 30
0.0
 10
15.9267443839
 20
11.4245722907
 30
0.0
 10
15.8949862657
 20
11.5108988673
 30
0.0
 10
15.8659467556
 20
11.6033373867
 30
0.0
 10
15.8398034993
 20
11.7013273093
 30
0.0
 10
15.8167173792
 20
11.8042704363
 30
0.0
 10
15.8036570866
 20
11.8747179633
 30
0.0
 10
15.7976392274
 20
11.9106341507
 30
0.0
  0
SPLINE
  5
2E9
100
AcDbEntity
  8
02___PRT_ALL_AXES
100
AcDbSpline
 62
7
  6
CONTINUOUS
 70
0
 71
3
 72
15
 73
11
 74
0
 42
0.0000001
 43
0.0000001
 44
0.0000000001
 40
0.0
 40
0.0
 40
0.0
 40
0.0
 40
0.1244847164
 40
0.2502008694
 40
0.3766087366
 40
0.5031634694
 40
0.629319071
 40
0.7545324588
 40
0.8782677502
 40
1.0
 40
1.0
 40
1.0
 40
1.0
 10
15.7654976951
 20
12.1599033565
 30
0.0
 10
15.7622275789
 20
12.1952591398
 30
0.0
 10
15.7566941635
 20
12.2664205809
 30
0.0
 10
15.7514049545
 20
12.3737235488
 30
0.0
 10
15.749100927
 20
12.4817233739
 30
0.0
 10
15.7497939213
 20
12.5898706116
 30
0.0
 10
15.7534805086
 20
12.6976164415
 30
0.0
 10
15.760141859
 20
12.8044141739
 30
0.0
 10
15.7697437552
 20
12.9097204005
 30
0.0
 10
15.7781530158
 20
12.9792406864
 30
0.0
 10
15.782854445
 20
13.0136425252
 30
0.0
  0
SPLINE
  5
2EA
100
AcDbEntity
  8
02___PRT_ALL_AXES
100
AcDbSpline
 62
7
  6
CONTINUOUS
 70
0
 71
3
 72
9
 73
5
 74
0
 42
0.0000001
 43
0.0000001
 44
0.0000000001
 40
0.0
 40
0.0
 40
0.0
 40
0.0
 40
0.5107419738
 40
1.0
 40
1.0
 40
1.0
 40
1.0
 10
15.8245613626
 20
13.2512742024
 30
0.0
 10
15.8321711493
 20
13.2862615531
 30
0.0
 10
15.8483915009
 20
13.3544856219
 30
0.0
 10
15.8674938608
 20
13.4219652531
 30
0.0
 10
15.8776206193
 20
13.4547354556
 30
0.0
  0
SPLINE
  5
2EB
100
AcDbEntity
  8
0
100
AcDbSpline
 62
7
  6
CONTINUOUS
 70
0
 71
3
 72
9
 73
5
 74
0
 42
0.0000001
 43
0.0000001
 44
0.0000000001
 40
0.0
 40
0.0
 40
0.0
 40
0.0
 40
0.4968824097
 40
1.0
 40
1.0
 40
1.0
 40
1.0
 10
13.9898260806
 20
12.7611244546
 30
0.0
 10
13.9867902047
 20
12.7611244459
 30
0.0
 10
13.9806746623
 20
12.7607480619
 30
0.0
 10
13.9746509404
 20
12.7596331499
 30
0.0
 10
13.9716656242
 20
12.7589002172
 30
0.0
  0
SPLINE
  5
2EC
100
AcDbEntity
  8
0
100
AcDbSpline
 62
7
  6
CONTINUOUS
 70
0
 71
3
 72
15
 73
11
 74
0
 42
0.0000001
 43
0.0000001
 44
0.0000000001
 40
0.0
 40
0.0
 40
0.0
 40
0.0
 40
0.0782165252
 40
0.1642555953
 40
0.2635907951
 40
0.3790603744
 40
0.5114724255
 40
0.6603681766
 40
0.8241579375
 40
1.0
 40
1.0
 40
1.0
 40
1.0
 10
14.0158139371
 20
11.9141941539
 30
0.0
 10
14.0151483527
 20
11.9141939319
 30
0.0
 10
14.0137405597
 20
11.9144594592
 30
0.0
 10
14.0117719695
 20
11.9155968604
 30
0.0
 10
14.0099230277
 20
11.9173946054
 30
0.0
 10
14.0082070388
 20
11.919814492
 30
0.0
 10
14.006640543
 20
11.9228143274
 30
0.0
 10
14.0052515264
 20
11.9263442103
 30
0.0
 10
14.0040678432
 20
11.9303335291
 30
0.0
 10
14.0034469977
 20
11.9331588275
 30
0.0
 10
14.0031724048
 20
11.9346297467
 30
0.0
  0
SPLINE
  5
2ED
100
AcDbEntity
  8
0
100
AcDbSpline
 62
7
  6
CONTINUOUS
 70
0
 71
3
 72
14
 73
10
 74
0
 42
0.0000001
 43
0.0000001
 44
0.0000000001
 40
0.0
 40
0.0
 40
0.0
 40
0.0
 40
0.0850648684
 40
0.1759915508
 40
0.2774484847
 40
0.3923589879
 40
0.5221867772
 40
0.6674229844
 40
1.0
 40
1.0
 40
1.0
 40
1.0
 10
14.0690666804
 20
11.6903126282
 30
0.0
 10
14.0685238313
 20
11.6903128184
 30
0.0
 10
14.0673950631
 20
11.6904868594
 30
0.0
 10
14.0657715831
 20
11.6912380043
 30
0.0
 10
14.0642150046
 20
11.6924529259
 30
0.0
 10
14.0627353909
 20
11.6941052217
 30
0.0
 10
14.0613419387
 20
11.6961749052
 30
0.0
 10
14.0595436708
 20
11.6996166321
 30
0.0
 10
14.0585054394
 20
11.7025007964
 30
0.0
 10
14.0579033823
 20
11.7045359829
 30
0.0
  0
SPLINE
  5
2EE
100
AcDbEntity
  8
0
100
AcDbSpline
 62
7
  6
CONTINUOUS
 70
0
 71
3
 72
13
 73
9
 74
0
 42
0.0000001
 43
0.0000001
 44
0.0000000001
 40
0.0
 40
0.0
 40
0.0
 40
0.0
 40
0.0938460905
 40
0.1917794594
 40
0.2972818962
 40
0.4129821603
 40
0.6808604103
 40
1.0
 40
1.0
 40
1.0
 40
1.0
 10
14.1387752696
 20
11.4985350998
 30
0.0
 10
14.1383535691
 20
11.4985349233
 30
0.0
 10
14.1374887165
 20
11.4986366678
 30
0.0
 10
14.1362214251
 20
11.499088032
 30
0.0
 10
14.1349830017
 20
11.4998265126
 30
0.0
 10
14.1333000109
 20
11.5012524323
 30
0.0
 10
14.1313528114
 20
11.5037768626
 30
0.0
 10
14.1301304257
 20
11.5061244905
 30
0.0
 10
14.1295470218
 20
11.5074345214
 30
0.0
  0
SPLINE
  5
2EF
100
AcDbEntity
  8
0
100
AcDbSpline
 62
7
  6
CONTINUOUS
 70
0
 71
3
 72
11
 73
7
 74
0
 42
0.0000001
 43
0.0000001
 44
0.0000000001
 40
0.0
 40
0.0
 40
0.0
 40
0.0
 40
0.2108910684
 40
0.4402306911
 40
0.7011381613
 40
1.0
 40
1.0
 40
1.0
 40
1.0
 10
14.2220872792
 20
11.3467061805
 30
0.0
 10
14.2214781011
 20
11.346706174
 30
0.0
 10
14.2201984149
 20
11.3469269025
 30
0.0
 10
14.2183838985
 20
11.3478812472
 30
0.0
 10
14.216665158
 20
11.349402533
 30
0.0
 10
14.2156603682
 20
11.3506790399
 30
0.0
 10
14.2151716854
 20
11.3513906987
 30
0.0
  0
SPLINE
  5
2F0
100
AcDbEntity
  8
0
100
AcDbSpline
 62
7
  6
CONTINUOUS
 70
0
 71
3
 72
10
 73
6
 74
0
 42
0.0000001
 43
0.0000001
 44
0.0000000001
 40
0.0
 40
0.0
 40
0.0
 40
0.0
 40
0.2266570938
 40
0.4638670432
 40
1.0
 40
1.0
 40
1.0
 40
1.0
 10
14.5158477592
 20
11.1830055419
 30
0.0
 10
14.5154147018
 20
11.1830061704
 30
0.0
 10
14.5145253242
 20
11.183114869
 30
0.0
 10
14.5127177732
 20
11.1837724782
 30
0.0
 10
14.5115202867
 20
11.1847038276
 30
0.0
 10
14.5107934494
 20
11.1854256337
 30
0.0
  0
LINE
  5
2F1
100
AcDbEntity
  8
0
100
AcDbLine
 62
7
  6
CONTINUOUS
 10
14.0031724048
 20
11.9346297467
 11
14.0023831663
 21
11.9388766976
  0
LINE
  5
2F2
100
AcDbEntity
  8
0
100
AcDbLine
 62
7
  6
CONTINUOUS
 10
13.9675936654
 20
12.1883004402
 11
13.9671534083
 21
12.1928683725
  0
LINE
  5
2F3
100
AcDbEntity
  8
0
100
AcDbLine
 62
7
  6
CONTINUOUS
 10
13.9526230362
 20
12.4551679297
 11
13.9525497756
 21
12.4598699248
  0
LINE
  5
2F4
100
AcDbEntity
  8
0
100
AcDbLine
 62
7
  6
CONTINUOUS
 10
13.9588731113
 20
12.7243120723
 11
13.9591698449
 21
12.7289557259
  0
LINE
  5
2F5
100
AcDbEntity
  8
0
100
AcDbLine
 62
7
  6
CONTINUOUS
 10
13.9860881391
 20
12.984719565
 11
13.9867427248
 21
12.98911486
  0
SPLINE
  5
2F6
100
AcDbEntity
  8
0
100
AcDbSpline
 62
7
  6
CONTINUOUS
 70
0
 71
3
 72
15
 73
11
 74
0
 42
0.0000001
 43
0.0000001
 44
0.0000000001
 40
0.0
 40
0.0
 40
0.0
 40
0.0
 40
0.1760061785
 40
0.3407687825
 40
0.4909021489
 40
0.6244373553
 40
0.740447211
 40
0.8394434986
 40
0.9240509223
 40
1.0
 40
1.0
 40
1.0
 40
1.0
 10
13.9867427248
 20
12.98911486
 30
0.0
 10
13.9869877257
 20
12.9907512844
 30
0.0
 10
13.9875644554
 20
12.9939055226
 30
0.0
 10
13.9887200346
 20
12.9983782509
 30
0.0
 10
13.990123392
 20
13.0023601901
 30
0.0
 10
13.9917389329
 20
13.0057621302
 30
0.0
 10
13.9935367798
 20
13.0085169077
 30
0.0
 10
13.9954912402
 20
13.0105745437
 30
0.0
 10
13.9975939486
 20
13.0118817221
 30
0.0
 10
13.9991140044
 20
13.012193414
 30
0.0
 10
13.9998280136
 20
13.0121943184
 30
0.0
  0
SPLINE
  5
2F7
100
AcDbEntity
  8
0
100
AcDbSpline
 62
7
  6
CONTINUOUS
 70
0
 71
3
 72
15
 73
11
 74
0
 42
0.0000001
 43
0.0000001
 44
0.0000000001
 40
0.0
 40
0.0
 40
0.0
 40
0.0
 40
0.0977746623
 40
0.2083093133
 40
0.3294485977
 40
0.4587219718
 40
0.5934468827
 40
0.7307104569
 40
0.867417482
 40
1.0
 40
1.0
 40
1.0
 40
1.0
 10
13.9910086483
 20
12.9426877209
 30
0.0
 10
13.9903424615
 20
12.9439174021
 30
0.0
 10
13.9891234775
 20
12.9466465816
 30
0.0
 10
13.9876681259
 20
12.9511350967
 30
0.0
 10
13.9865159628
 20
12.9561739399
 30
0.0
 10
13.9856925903
 20
12.9616255171
 30
0.0
 10
13.9852235021
 20
12.9673499982
 30
0.0
 10
13.9851182489
 20
12.9731989323
 30
0.0
 10
13.9853853968
 20
12.9790117259
 30
0.0
 10
13.9858102333
 20
12.9828436135
 30
0.0
 10
13.9860881391
 20
12.984719565
 30
0.0
  0
SPLINE
  5
2F8
100
AcDbEntity
  8
0
100
AcDbSpline
 62
7
  6
CONTINUOUS
 70
0
 71
3
 72
9
 73
5
 74
0
 42
0.0000001
 43
0.0000001
 44
0.0000000001
 40
0.0
 40
0.0
 40
0.0
 40
0.0
 40
0.2590751605
 40
1.0
 40
1.0
 40
1.0
 40
1.0
 10
13.9910086483
 20
12.9426877209
 30
0.0
 10
13.9922882883
 20
12.9403256972
 30
0.0
 10
13.9973271766
 20
12.9312632914
 30
0.0
 10
14.0027762211
 20
12.9224258094
 30
0.0
 10
14.0070765293
 20
12.9160593554
 30
0.0
  0
SPLINE
  5
2F9
100
AcDbEntity
  8
0
100
AcDbSpline
 62
7
  6
CONTINUOUS
 70
0
 71
3
 72
9
 73
5
 74
0
 42
0.0000001
 43
0.0000001
 44
0.0000000001
 40
0.0
 40
0.0
 40
0.0
 40
0.0
 40
0.5388475498
 40
1.0
 40
1.0
 40
1.0
 40
1.0
 10
14.0098730341
 20
12.9098340105
 30
0.0
 10
14.0095138676
 20
12.9110093996
 30
0.0
 10
14.0087370372
 20
12.9131593334
 30
0.0
 10
14.0076652761
 20
12.9151877365
 30
0.0
 10
14.0070765293
 20
12.9160593554
 30
0.0
  0
LINE
  5
2FA
100
AcDbEntity
  8
0
100
AcDbLine
 62
7
  6
CONTINUOUS
 10
13.9932266739
 20
12.7618956347
 11
13.9944064879
 21
12.762878813
  0
SPLINE
  5
2FB
100
AcDbEntity
  8
0
100
AcDbSpline
 62
7
  6
CONTINUOUS
 70
0
 71
3
 72
15
 73
11
 74
0
 42
0.0000001
 43
0.0000001
 44
0.0000000001
 40
0.0
 40
0.0
 40
0.0
 40
0.0
 40
0.1690199756
 40
0.3308314517
 40
0.4812943927
 40
0.6175773623
 40
0.7376078925
 40
0.84046255
 40
0.926793791
 40
1.0
 40
1.0
 40
1.0
 40
1.0
 10
13.9591698449
 20
12.7289557259
 30
0.0
 10
13.9592930769
 20
12.7308631345
 30
0.0
 10
13.9596553321
 20
12.7345900354
 30
0.0
 10
13.9605508453
 20
12.7399633362
 30
0.0
 10
13.9617749778
 20
12.744892091
 30
0.0
 10
13.9632878276
 20
12.7492446541
 30
0.0
 10
13.9650544209
 20
12.7529140569
 30
0.0
 10
13.9670345449
 20
12.755818802
 30
0.0
 10
13.969201075
 20
12.7578865748
 30
0.0
 10
13.9708616381
 20
12.7587028285
 30
0.0
 10
13.9716656242
 20
12.7589002172
 30
0.0
  0
SPLINE
  5
2FC
100
AcDbEntity
  8
0
100
AcDbSpline
 62
7
  6
CONTINUOUS
 70
0
 71
3
 72
15
 73
11
 74
0
 42
0.0000001
 43
0.0000001
 44
0.0000000001
 40
0.0
 40
0.0
 40
0.0
 40
0.0
 40
0.0863837321
 40
0.1875348238
 40
0.3023732987
 40
0.4290118161
 40
0.5650973879
 40
0.7078325565
 40
0.8540890043
 40
1.0
 40
1.0
 40
1.0
 40
1.0
 10
13.9669869834
 20
12.6856830813
 30
0.0
 10
13.9662264188
 20
12.6865566897
 30
0.0
 10
13.9647960684
 20
12.6886455313
 30
0.0
 10
13.9630237753
 20
12.6923022798
 30
0.0
 10
13.9615067696
 20
12.6966479438
 30
0.0
 10
13.9602791965
 20
12.7015653005
 30
0.0
 10
13.9593767938
 20
12.7069315249
 30
0.0
 10
13.9588205898
 20
12.7126083598
 30
0.0
 10
13.95863192
 20
12.7184405321
 30
0.0
 10
13.9587497173
 20
12.7223594861
 30
0.0
 10
13.9588731113
 20
12.7243120723
 30
0.0
  0
SPLINE
  5
2FD
100
AcDbEntity
  8
0
100
AcDbSpline
 62
7
  6
CONTINUOUS
 70
0
 71
3
 72
9
 73
5
 74
0
 42
0.0000001
 43
0.0000001
 44
0.0000000001
 40
0.0
 40
0.0
 40
0.0
 40
0.0
 40
0.2603925693
 40
1.0
 40
1.0
 40
1.0
 40
1.0
 10
13.9669869834
 20
12.6856830813
 30
0.0
 10
13.9684226324
 20
12.6840340497
 30
0.0
 10
13.9740392183
 20
12.6777927548
 30
0.0
 10
13.9800857835
 20
12.6719307081
 30
0.0
 10
13.984812983
 20
12.6679033055
 30
0.0
  0
SPLINE
  5
2FE
100
AcDbEntity
  8
0
100
AcDbSpline
 62
7
  6
CONTINUOUS
 70
0
 71
3
 72
9
 73
5
 74
0
 42
0.0000001
 43
0.0000001
 44
0.0000000001
 40
0.0
 40
0.0
 40
0.0
 40
0.0
 40
0.5483872406
 40
1.0
 40
1.0
 40
1.0
 40
1.0
 10
13.9880401521
 20
12.663250546
 30
0.0
 10
13.9876054256
 20
12.6641962436
 30
0.0
 10
13.9867001241
 20
12.6658728903
 30
0.0
 10
13.9854654506
 20
12.6673474268
 30
0.0
 10
13.984812983
 20
12.6679033055
 30
0.0
  0
SPLINE
  5
2FF
100
AcDbEntity
  8
0
100
AcDbSpline
 62
7
  6
CONTINUOUS
 70
0
 71
3
 72
9
 73
5
 74
0
 42
0.0000001
 43
0.0000001
 44
0.0000000001
 40
0.0
 40
0.0
 40
0.0
 40
0.0
 40
0.4487930736
 40
1.0
 40
1.0
 40
1.0
 40
1.0
 10
13.9809823272
 20
12.5077051266
 30
0.0
 10
13.9816498913
 20
12.5080485008
 30
0.0
 10
13.9829668879
 20
12.5091394445
 30
0.0
 10
13.9839359726
 20
12.5105163691
 30
0.0
 10
13.9844069292
 20
12.51130902
 30
0.0
  0
SPLINE
  5
300
100
AcDbEntity
  8
0
100
AcDbSpline
 62
7
  6
CONTINUOUS
 70
0
 71
3
 72
9
 73
5
 74
0
 42
0.0000001
 43
0.0000001
 44
0.0000000001
 40
0.0
 40
0.0
 40
0.0
 40
0.0
 40
0.2410174971
 40
1.0
 40
1.0
 40
1.0
 40
1.0
 10
13.9809823272
 20
12.5077051266
 30
0.0
 10
13.9794014174
 20
12.506891956
 30
0.0
 10
13.9729327367
 20
12.5033426762
 30
0.0
 10
13.9668391048
 20
12.4991261081
 30
0.0
 10
13.962443143
 20
12.4956594941
 30
0.0
  0
SPLINE
  5
301
100
AcDbEntity
  8
0
100
AcDbSpline
 62
7
  6
CONTINUOUS
 70
0
 71
3
 72
15
 73
11
 74
0
 42
0.0000001
 43
0.0000001
 44
0.0000000001
 40
0.0
 40
0.0
 40
0.0
 40
0.0
 40
0.1544752808
 40
0.3067000804
 40
0.4526627984
 40
0.5892760016
 40
0.7139027503
 40
0.8245358818
 40
0.9198945929
 40
1.0
 40
1.0
 40
1.0
 40
1.0
 10
13.9525497756
 20
12.4598699248
 30
0.0
 10
13.9525205897
 20
12.4618297217
 30
0.0
 10
13.9525877385
 20
12.4657236803
 30
0.0
 10
13.9530495999
 20
12.4714525002
 30
0.0
 10
13.9538686698
 20
12.4769129187
 30
0.0
 10
13.9550161749
 20
12.4819563755
 30
0.0
 10
13.9564647833
 20
12.4864540865
 30
0.0
 10
13.9581745781
 20
12.4902972077
 30
0.0
 10
13.960108451
 20
12.4933841632
 30
0.0
 10
13.9616450503
 20
12.4950301258
 30
0.0
 10
13.962443143
 20
12.4956594941
 30
0.0
  0
SPLINE
  5
302
100
AcDbEntity
  8
0
100
AcDbSpline
 62
7
  6
CONTINUOUS
 70
0
 71
3
 72
15
 73
11
 74
0
 42
0.0000001
 43
0.0000001
 44
0.0000000001
 40
0.0
 40
0.0
 40
0.0
 40
0.0
 40
0.076636281
 40
0.1682681034
 40
0.2759587058
 40
0.3990071314
 40
0.5357337048
 40
0.68366652
 40
0.8397832705
 40
1.0
 40
1.0
 40
1.0
 40
1.0
 10
13.9635982541
 20
12.4215224792
 30
0.0
 10
13.9627879569
 20
12.4219833552
 30
0.0
 10
13.9611925534
 20
12.4233174467
 30
0.0
 10
13.9591638105
 20
12.4260124332
 30
0.0
 10
13.9573403535
 20
12.4294994729
 30
0.0
 10
13.9557589553
 20
12.4336887467
 30
0.0
 10
13.9544607852
 20
12.4384817674
 30
0.0
 10
13.9534768174
 20
12.4437573971
 30
0.0
 10
13.9528404274
 20
12.4493728789
 30
0.0
 10
13.9526547387
 20
12.4532193288
 30
0.0
 10
13.9526230362
 20
12.4551679297
 30
0.0
  0
SPLINE
  5
303
100
AcDbEntity
  8
0
100
AcDbSpline
 62
7
  6
CONTINUOUS
 70
0
 71
3
 72
9
 73
5
 74
0
 42
0.0000001
 43
0.0000001
 44
0.0000000001
 40
0.0
 40
0.0
 40
0.0
 40
0.0
 40
0.5099596286
 40
1.0
 40
1.0
 40
1.0
 40
1.0
 10
13.9635982541
 20
12.4215224792
 30
0.0
 10
13.9666411801
 20
12.4197917418
 30
0.0
 10
13.9727825413
 20
12.4166927542
 30
0.0
 10
13.9792341287
 20
12.4142963127
 30
0.0
 10
13.9824529374
 20
12.4133188367
 30
0.0
  0
SPLINE
  5
304
100
AcDbEntity
  8
0
100
AcDbSpline
 62
7
  6
CONTINUOUS
 70
0
 71
3
 72
9
 73
5
 74
0
 42
0.0000001
 43
0.0000001
 44
0.0000000001
 40
0.0
 40
0.0
 40
0.0
 40
0.0
 40
0.2909791942
 40
1.0
 40
1.0
 40
1.0
 40
1.0
 10
13.9859787158
 20
12.4104290522
 30
0.0
 10
13.9857198414
 20
12.4107923876
 30
0.0
 10
13.984775895
 20
12.4119894585
 30
0.0
 10
13.9834930967
 20
12.413002965
 30
0.0
 10
13.9824529374
 20
12.4133188367
 30
0.0
  0
SPLINE
  5
305
100
AcDbEntity
  8
0
100
AcDbSpline
 62
7
  6
CONTINUOUS
 70
0
 71
3
 72
9
 73
5
 74
0
 42
0.0000001
 43
0.0000001
 44
0.0000000001
 40
0.0
 40
0.0
 40
0.0
 40
0.0
 40
0.4550362966
 40
1.0
 40
1.0
 40
1.0
 40
1.0
 10
13.9912553887
 20
12.2544186319
 30
0.0
 10
13.9918871416
 20
12.2551051431
 30
0.0
 10
13.9930612685
 20
12.2568095525
 30
0.0
 10
13.9939202063
 20
12.2586781411
 30
0.0
 10
13.9943274867
 20
12.2597186024
 30
0.0
  0
SPLINE
  5
306
100
AcDbEntity
  8
0
100
AcDbSpline
 62
7
  6
CONTINUOUS
 70
0
 71
3
 72
9
 73
5
 74
0
 42
0.0000001
 43
0.0000001
 44
0.0000000001
 40
0.0
 40
0.0
 40
0.0
 40
0.0
 40
0.2401033107
 40
1.0
 40
1.0
 40
1.0
 40
1.0
 10
13.9912553887
 20
12.2544186319
 30
0.0
 10
13.989767173
 20
12.2528014224
 30
0.0
 10
13.9836879781
 20
12.2459566909
 30
0.0
 10
13.9780732255
 20
12.238705104
 30
0.0
 10
13.9740395299
 20
12.2330385206
 30
0.0
  0
SPLINE
  5
307
100
AcDbEntity
  8
0
100
AcDbSpline
 62
7
  6
CONTINUOUS
 70
0
 71
3
 72
15
 73
11
 74
0
 42
0.0000001
 43
0.0000001
 44
0.0000000001
 40
0.0
 40
0.0
 40
0.0
 40
0.0
 40
0.1405291192
 40
0.2829618635
 40
0.4235417587
 40
0.5591413395
 40
0.6869002339
 40
0.8043083313
 40
0.9092028108
 40
1.0
 40
1.0
 40
1.0
 40
1.0
 10
13.9671534083
 20
12.1928683725
 30
0.0
 10
13.9669686174
 20
12.1948003057
 30
0.0
 10
13.9667293485
 20
12.1987040087
 30
0.0
 10
13.9667380139
 20
12.2045569231
 30
0.0
 10
13.9671179667
 20
12.2103297144
 30
0.0
 10
13.9678528748
 20
12.2158641567
 30
0.0
 10
13.9689261152
 20
12.2210171736
 30
0.0
 10
13.9703056562
 20
12.2256583084
 30
0.0
 10
13.9719603541
 20
12.2296615452
 30
0.0
 10
13.9733123495
 20
12.232016969
 30
0.0
 10
13.9740395299
 20
12.2330385206
 30
0.0
  0
SPLINE
  5
308
100
AcDbEntity
  8
0
100
AcDbSpline
 62
7
  6
CONTINUOUS
 70
0
 71
3
 72
16
 73
12
 74
0
 42
0.0000001
 43
0.0000001
 44
0.0000000001
 40
0.0
 40
0.0
 40
0.0
 40
0.0
 40
0.0358462757
 40
0.0733192095
 40
0.1568105106
 40
0.2563126074
 40
0.3738093918
 40
0.5091242839
 40
0.6605899148
 40
0.8255882612
 40
1.0
 40
1.0
 40
1.0
 40
1.0
 10
13.980981126
 20
12.1610152926
 30
0.0
 10
13.9805962638
 20
12.1610304537
 30
0.0
 10
13.979810319
 20
12.1611474632
 30
0.0
 10
13.978218286
 20
12.1617274053
 30
0.0
 10
13.9762620995
 20
12.163137777
 30
0.0
 10
13.9741936693
 20
12.1656438139
 30
0.0
 10
13.9723166618
 20
12.1689475736
 30
0.0
 10
13.970676051
 20
12.1729795671
 30
0.0
 10
13.9693048628
 20
12.1776431982
 30
0.0
 10
13.9682476334
 20
12.1828156912
 30
0.0
 10
13.9677747988
 20
12.1864351967
 30
0.0
 10
13.9675936654
 20
12.1883004402
 30
0.0
  0
SPLINE
  5
309
100
AcDbEntity
  8
0
100
AcDbSpline
 62
7
  6
CONTINUOUS
 70
0
 71
3
 72
9
 73
5
 74
0
 42
0.0000001
 43
0.0000001
 44
0.0000000001
 40
0.0
 40
0.0
 40
0.0
 40
0.0
 40
0.4652721036
 40
1.0
 40
1.0
 40
1.0
 40
1.0
 10
14.0211683293
 20
12.0116233953
 30
0.0
 10
14.0217236876
 20
12.0126052551
 30
0.0
 10
14.0227225852
 20
12.014826026
 30
0.0
 10
14.0234381906
 20
12.0171472825
 30
0.0
 10
14.0237622139
 20
12.0184025696
 30
0.0
  0
SPLINE
  5
30A
100
AcDbEntity
  8
0
100
AcDbSpline
 62
7
  6
CONTINUOUS
 70
0
 71
3
 72
9
 73
5
 74
0
 42
0.0000001
 43
0.0000001
 44
0.0000000001
 40
0.0
 40
0.0
 40
0.0
 40
0.0
 40
0.2417201814
 40
1.0
 40
1.0
 40
1.0
 40
1.0
 10
14.0211683293
 20
12.0116233953
 30
0.0
 10
14.0198399141
 20
12.0092747897
 30
0.0
 10
14.0144574296
 20
11.9994947213
 30
0.0
 10
14.0095133586
 20
11.9894755508
 30
0.0
 10
14.0059802641
 20
11.9817836734
 30
0.0
  0
SPLINE
  5
30B
100
AcDbEntity
  8
0
100
AcDbSpline
 62
7
  6
CONTINUOUS
 70
0
 71
3
 72
15
 73
11
 74
0
 42
0.0000001
 43
0.0000001
 44
0.0000000001
 40
0.0
 40
0.0
 40
0.0
 40
0.0
 40
0.1275761094
 40
0.260633062
 40
0.3957383132
 40
0.5298346026
 40
0.659996807
 40
0.7834620981
 40
0.8976104382
 40
1.0
 40
1.0
 40
1.0
 40
1.0
 10
14.0023831663
 20
11.9388766976
 30
0.0
 10
14.0020457726
 20
11.9407005143
 30
0.0
 10
14.0015015539
 20
11.9444542758
 30
0.0
 10
14.0010564772
 20
11.9501942685
 30
0.0
 10
14.0009814935
 20
11.9560460351
 30
0.0
 10
14.0012730951
 20
11.9618488297
 30
0.0
 10
14.0019264935
 20
11.9674520117
 30
0.0
 10
14.0029207922
 20
11.9727111162
 30
0.0
 10
14.004234454
 20
11.9774822132
 30
0.0
 10
14.0053589252
 20
11.9804309606
 30
0.0
 10
14.0059802641
 20
11.9817836734
 30
0.0
  0
SPLINE
  5
30C
100
AcDbEntity
  8
0
100
AcDbSpline
 62
7
  6
CONTINUOUS
 70
0
 71
3
 72
9
 73
5
 74
0
 42
0.0000001
 43
0.0000001
 44
0.0000000001
 40
0.0
 40
0.0
 40
0.0
 40
0.0
 40
0.4753230562
 40
1.0
 40
1.0
 40
1.0
 40
1.0
 10
14.0694971199
 20
11.78925453
 30
0.0
 10
14.0699544795
 20
11.7904774038
 30
0.0
 10
14.0707488192
 20
11.793113698
 30
0.0
 10
14.0712834443
 20
11.7958117296
 30
0.0
 10
14.07150665
 20
11.7972355061
 30
0.0
  0
SPLINE
  5
30D
100
AcDbEntity
  8
0
100
AcDbSpline
 62
7
  6
CONTINUOUS
 70
0
 71
3
 72
9
 73
5
 74
0
 42
0.0000001
 43
0.0000001
 44
0.0000000001
 40
0.0
 40
0.0
 40
0.0
 40
0.0
 40
0.243743079
 40
1.0
 40
1.0
 40
1.0
 40
1.0
 10
14.0694971199
 20
11.78925453
 30
0.0
 10
14.0683830067
 20
11.7862756487
 30
0.0
 10
14.0639137494
 20
11.7740163782
 30
0.0
 10
14.0598399324
 20
11.7616138987
 30
0.0
 10
14.0569583396
 20
11.7521762305
 30
0.0
  0
SPLINE
  5
30E
100
AcDbEntity
  8
0
100
AcDbSpline
 62
7
  6
CONTINUOUS
 70
0
 71
3
 72
13
 73
9
 74
0
 42
0.0000001
 43
0.0000001
 44
0.0000000001
 40
0.0
 40
0.0
 40
0.0
 40
0.0
 40
0.1153732265
 40
0.2394086799
 40
0.501318121
 40
0.7625395818
 40
0.8857403444
 40
1.0
 40
1.0
 40
1.0
 40
1.0
 10
14.056797458
 20
11.7082881685
 30
0.0
 10
14.0563163586
 20
11.709926447
 30
0.0
 10
14.0554807486
 20
11.7133748476
 30
0.0
 10
14.0542865321
 20
11.7207027205
 30
0.0
 10
14.0537356417
 20
11.7302929955
 30
0.0
 10
14.0543542767
 20
11.7398671961
 30
0.0
 10
14.055602986
 20
11.7471465156
 30
0.0
 10
14.0564645399
 20
11.7505589588
 30
0.0
 10
14.0569583396
 20
11.7521762305
 30
0.0
  0
SPLINE
  5
30F
100
AcDbEntity
  8
0
100
AcDbSpline
 62
7
  6
CONTINUOUS
 70
0
 71
3
 72
9
 73
5
 74
0
 42
0.0000001
 43
0.0000001
 44
0.0000000001
 40
0.0
 40
0.0
 40
0.0
 40
0.0
 40
0.2375916011
 40
1.0
 40
1.0
 40
1.0
 40
1.0
 10
14.1342641599
 20
11.5964113076
 30
0.0
 10
14.134433442
 20
11.5971007189
 30
0.0
 10
14.1350728986
 20
11.600020147
 30
0.0
 10
14.1354460044
 20
11.6029952409
 30
0.0
 10
14.1356071062
 20
11.6052675062
 30
0.0
  0
SPLINE
  5
310
100
AcDbEntity
  8
0
100
AcDbSpline
 62
7
  6
CONTINUOUS
 70
0
 71
3
 72
15
 73
11
 74
0
 42
0.0000001
 43
0.0000001
 44
0.0000000001
 40
0.0
 40
0.0
 40
0.0
 40
0.0
 40
0.1034805688
 40
0.2184734225
 40
0.3424764485
 40
0.4728388314
 40
0.6067817679
 40
0.7413793879
 40
0.8735851696
 40
1.0
 40
1.0
 40
1.0
 40
1.0
 10
14.1281696657
 20
11.5105384033
 30
0.0
 10
14.1275593841
 20
11.5119185817
 30
0.0
 10
14.1264579912
 20
11.5149161122
 30
0.0
 10
14.1251789324
 20
11.5197495389
 30
0.0
 10
14.1242227712
 20
11.5250557775
 30
0.0
 10
14.1236100457
 20
11.5306895472
 30
0.0
 10
14.1233605452
 20
11.5365054574
 30
0.0
 10
14.1234779247
 20
11.5423525039
 30
0.0
 10
14.123964507
 20
11.5480700626
 30
0.0
 10
14.1245365405
 20
11.5518018862
 30
0.0
 10
14.1248877479
 20
11.5536116642
 30
0.0
  0
SPLINE
  5
311
100
AcDbEntity
  8
0
100
AcDbSpline
 62
7
  6
CONTINUOUS
 70
0
 71
3
 72
9
 73
5
 74
0
 42
0.0000001
 43
0.0000001
 44
0.0000000001
 40
0.0
 40
0.0
 40
0.0
 40
0.0
 40
0.2439520363
 40
1.0
 40
1.0
 40
1.0
 40
1.0
 10
14.2128192002
 20
11.4409848189
 30
0.0
 10
14.2129299784
 20
11.4417407085
 30
0.0
 10
14.2133185435
 20
11.4448485847
 30
0.0
 10
14.2134613952
 20
11.4479862868
 30
0.0
 10
14.2134406096
 20
11.4503538469
 30
0.0
  0
SPLINE
  5
312
100
AcDbEntity
  8
0
100
AcDbSpline
 62
7
  6
CONTINUOUS
 70
0
 71
3
 72
15
 73
11
 74
0
 42
0.0000001
 43
0.0000001
 44
0.0000000001
 40
0.0
 40
0.0
 40
0.0
 40
0.0
 40
0.0918560006
 40
0.197624437
 40
0.3156204139
 40
0.443626084
 40
0.5791001288
 40
0.7191710133
 40
0.860713976
 40
1.0
 40
1.0
 40
1.0
 40
1.0
 10
14.2135792586
 20
11.3537192668
 30
0.0
 10
14.2128607381
 20
11.35477426
 30
0.0
 10
14.211528171
 20
11.3571898558
 30
0.0
 10
14.2099025938
 20
11.3612713738
 30
0.0
 10
14.2085566951
 20
11.3659780446
 30
0.0
 10
14.2075208329
 20
11.371181928
 30
0.0
 10
14.2068260909
 20
11.3767509467
 30
0.0
 10
14.2064880288
 20
11.3825410411
 30
0.0
 10
14.2065217911
 20
11.3883934527
 30
0.0
 10
14.2067896482
 20
11.3922899354
 30
0.0
 10
14.2069888366
 20
11.394215181
 30
0.0
  0
SPLINE
  5
313
100
AcDbEntity
  8
0
100
AcDbSpline
 62
7
  6
CONTINUOUS
 70
0
 71
3
 72
15
 73
11
 74
0
 42
0.0000001
 43
0.0000001
 44
0.0000000001
 40
0.0
 40
0.0
 40
0.0
 40
0.0
 40
0.0810102285
 40
0.1772570178
 40
0.2885587853
 40
0.4135227329
 40
0.5500780636
 40
0.6955568852
 40
0.8468614232
 40
1.0
 40
1.0
 40
1.0
 40
1.0
 10
14.3095313001
 20
11.2442477544
 30
0.0
 10
14.30873765
 20
11.2449158553
 30
0.0
 10
14.3072161899
 20
11.2466325041
 30
0.0
 10
14.3053057335
 20
11.2498095708
 30
0.0
 10
14.3036240764
 20
11.2537334192
 30
0.0
 10
14.3022080674
 20
11.2582998836
 30
0.0
 10
14.3010971384
 20
11.263397808
 30
0.0
 10
14.3003176991
 20
11.2688967836
 30
0.0
 10
14.2998974072
 20
11.2746470477
 30
0.0
 10
14.2998584474
 20
11.2785486277
 30
0.0
 10
14.2999020522
 20
11.2805092403
 30
0.0
  0
SPLINE
  5
314
100
AcDbEntity
  8
0
100
AcDbSpline
 62
7
  6
CONTINUOUS
 70
0
 71
3
 72
15
 73
11
 74
0
 42
0.0000001
 43
0.0000001
 44
0.0000000001
 40
0.0
 40
0.0
 40
0.0
 40
0.0
 40
0.1591394875
 40
0.2089493404
 40
0.2630300056
 40
0.3837783754
 40
0.5204176327
 40
0.6707955997
 40
0.8320376884
 40
1.0
 40
1.0
 40
1.0
 40
1.0
 10
14.4120994596
 20
11.1866034097
 30
0.0
 10
14.4103555321
 20
11.1871168087
 30
0.0
 10
14.4084049364
 20
11.1888146807
 30
0.0
 10
14.4066360265
 20
11.1912219278
 30
0.0
 10
14.4052958045
 20
11.1934188587
 30
0.0
 10
14.4037970584
 20
11.1966554772
 30
0.0
 10
14.4023152392
 20
11.2010796335
 30
0.0
 10
14.401127023
 20
11.2060664986
 30
0.0
 10
14.4002704303
 20
11.2114822075
 30
0.0
 10
14.3999347857
 20
11.2152310621
 30
0.0
 10
14.3998254118
 20
11.2171466574
 30
0.0
  0
SPLINE
  5
315
100
AcDbEntity
  8
0
100
AcDbSpline
 62
7
  6
CONTINUOUS
 70
0
 71
3
 72
9
 73
5
 74
0
 42
0.0000001
 43
0.0000001
 44
0.0000000001
 40
0.0
 40
0.0
 40
0.0
 40
0.0
 40
0.4926948277
 40
1.0
 40
1.0
 40
1.0
 40
1.0
 10
14.2639570432
 20
13.6213079175
 30
0.0
 10
14.2646094765
 20
13.6251869115
 30
0.0
 10
14.2656983114
 20
13.6331007345
 30
0.0
 10
14.2663624919
 20
13.6410607055
 30
0.0
 10
14.266595262
 20
13.6451041341
 30
0.0
  0
SPLINE
  5
316
100
AcDbEntity
  8
0
100
AcDbSpline
 62
7
  6
CONTINUOUS
 70
0
 71
3
 72
11
 73
7
 74
0
 42
0.0000001
 43
0.0000001
 44
0.0000000001
 40
0.0
 40
0.0
 40
0.0
 40
0.0
 40
0.2293790474
 40
0.4767553282
 40
0.7360927461
 40
1.0
 40
1.0
 40
1.0
 40
1.0
 10
14.174226362
 20
13.4527704973
 30
0.0
 10
14.1756371098
 20
13.4574619497
 30
0.0
 10
14.1780600732
 20
13.4673694974
 30
0.0
 10
14.1805117044
 20
13.4829131542
 30
0.0
 10
14.181864643
 20
13.4993297634
 30
0.0
 10
14.1820094745
 20
13.510514462
 30
0.0
 10
14.1818867539
 20
13.5161495364
 30
0.0
  0
SPLINE
  5
317
100
AcDbEntity
  8
0
100
AcDbSpline
 62
7
  6
CONTINUOUS
 70
0
 71
3
 72
15
 73
11
 74
0
 42
0.0000001
 43
0.0000001
 44
0.0000000001
 40
0.0
 40
0.0
 40
0.0
 40
0.0
 40
0.100424041
 40
0.2116214519
 40
0.3320747875
 40
0.4598981189
 40
0.5929204698
 40
0.7289025758
 40
0.8655119034
 40
1.0
 40
1.0
 40
1.0
 40
1.0
 10
14.0962672958
 20
13.2473964298
 30
0.0
 10
14.0977491247
 20
13.2504193642
 30
0.0
 10
14.1004824521
 20
13.2569828584
 30
0.0
 10
14.1038029678
 20
13.2676205248
 30
0.0
 10
14.1065005598
 20
13.2793766086
 30
0.0
 10
14.1085182381
 20
13.2920075745
 30
0.0
 10
14.1098129697
 20
13.3052553039
 30
0.0
 10
14.110357948
 20
13.3188494787
 30
0.0
 10
14.1101365811
 20
13.3325012473
 30
0.0
 10
14.1094793375
 20
13.3415716848
 30
0.0
 10
14.1090175428
 20
13.3460565214
 30
0.0
  0
SPLINE
  5
318
100
AcDbEntity
  8
0
100
AcDbSpline
 62
7
  6
CONTINUOUS
 70
0
 71
3
 72
23
 73
19
 74
0
 42
0.0000001
 43
0.0000001
 44
0.0000000001
 40
0.0
 40
0.0
 40
0.0
 40
0.0
 40
0.0417605463
 40
0.0884323684
 40
0.1399193237
 40
0.1959424141
 40
0.2560738381
 40
0.3197828089
 40
0.386455084
 40
0.4554123766
 40
0.525933997
 40
0.5972651742
 40
0.6686399586
 40
0.7392890465
 40
0.8084490048
 40
0.8753948677
 40
0.9394728671
 40
1.0
 40
1.0
 40
1.0
 40
1.0
 10
16.6370841659
 20
12.1571500934
 30
0.0
 10
16.6315909536
 20
12.163732055
 30
0.0
 10
16.6210084143
 20
12.178557347
 30
0.0
 10
16.6070462102
 20
12.2037093963
 30
0.0
 10
16.5942639246
 20
12.2327075371
 30
0.0
 10
16.5828270342
 20
12.2651967133
 30
0.0
 10
16.5728718686
 20
12.3007779666
 30
0.0
 10
16.5645265611
 20
12.3390078611
 30
0.0
 10
16.5578992351
 20
12.3794074763
 30
0.0
 10
16.5530713856
 20
12.4214678463
 30
0.0
 10
16.550108596
 20
12.464658374
 30
0.0
 10
16.5490478242
 20
12.5084333276
 30
0.0
 10
16.5499020886
 20
12.5522389616
 30
0.0
 10
16.5526616769
 20
12.5955197404
 30
0.0
 10
16.5572878698
 20
12.6377272261
 30
0.0
 10
16.5637280541
 20
12.6783330876
 30
0.0
 10
16.5718933195
 20
12.7168178249
 30
0.0
 10
16.5786243083
 20
12.74151652
 30
0.0
 10
16.5822929608
 20
12.753388283
 30
0.0
  0
SPLINE
  5
319
100
AcDbEntity
  8
0
100
AcDbSpline
 62
7
  6
CONTINUOUS
 70
0
 71
3
 72
11
 73
7
 74
0
 42
0.0000001
 43
0.0000001
 44
0.0000000001
 40
0.0
 40
0.0
 40
0.0
 40
0.0
 40
0.278577576
 40
0.5337262159
 40
0.771513599
 40
1.0
 40
1.0
 40
1.0
 40
1.0
 10
16.6377117306
 20
12.8635839814
 30
0.0
 10
16.6415101469
 20
12.8671204
 30
0.0
 10
16.6492388514
 20
12.8734418395
 30
0.0
 10
16.6617517341
 20
12.8806635216
 30
0.0
 10
16.674548222
 20
12.8850597189
 30
0.0
 10
16.6832628865
 20
12.886054275
 30
0.0
 10
16.6875195215
 20
12.8860547674
 30
0.0
  0
SPLINE
  5
31A
100
AcDbEntity
  8
0
100
AcDbSpline
 62
7
  6
CONTINUOUS
 70
0
 71
3
 72
16
 73
12
 74
0
 42
0.0000001
 43
0.0000001
 44
0.0000000001
 40
0.0
 40
0.0
 40
0.0
 40
0.0
 40
0.1491231356
 40
0.2896557184
 40
0.4221595466
 40
0.4856598136
 40
0.5474676672
 40
0.6665041433
 40
0.7805757436
 40
0.8911813996
 40
1.0
 40
1.0
 40
1.0
 40
1.0
 10
16.875958937
 20
11.4736013942
 30
0.0
 10
16.8688260644
 20
11.4650562667
 30
0.0
 10
16.8544016123
 20
11.4489195043
 30
0.0
 10
16.8315985866
 20
11.427122892
 30
0.0
 10
16.8119414554
 20
11.4114165533
 30
0.0
 10
16.7960359364
 20
11.4005702032
 30
0.0
 10
16.7804424837
 20
11.3910973811
 30
0.0
 10
16.7607055507
 20
11.3812292662
 30
0.0
 10
16.7364635743
 20
11.3726212921
 30
0.0
 10
16.7120430628
 20
11.3674314638
 30
0.0
 10
16.695642064
 20
11.3662742941
 30
0.0
 10
16.6875195843
 20
11.3662747009
 30
0.0
  0
SPLINE
  5
31B
100
AcDbEntity
  8
0
100
AcDbSpline
 62
7
  6
CONTINUOUS
 70
0
 71
3
 72
28
 73
24
 74
0
 42
0.0000001
 43
0.0000001
 44
0.0000000001
 40
0.0
 40
0.0
 40
0.0
 40
0.0
 40
0.0202801804
 40
0.0417792768
 40
0.0645088326
 40
0.0884625608
 40
0.1136230465
 40
0.1399587956
 40
0.1674293284
 40
0.1959859993
 40
0.2561135238
 40
0.3198186794
 40
0.386487064
 40
0.4554409813
 40
0.5259571753
 40
0.597283052
 40
0.6686507377
 40
0.7392912803
 40
0.8084503555
 40
0.8753956566
 40
0.9394566905
 40
0.9702115009
 40
1.0
 40
1.0
 40
1.0
 40
1.0
 10
16.8873053045
 20
13.5344147775
 30
0.0
 10
16.895027425
 20
13.5251629147
 30
0.0
 10
16.9102315466
 20
13.5055075951
 30
0.0
 10
16.9317079801
 20
13.47372963
 30
0.0
 10
16.9524493966
 20
13.4389019256
 30
0.0
 10
16.9723947647
 20
13.4011370933
 30
0.0
 10
16.9914773611
 20
13.3605501309
 30
0.0
 10
17.0096415011
 20
13.3172703919
 30
0.0
 10
17.0268292316
 20
13.2714329958
 30
0.0
 10
17.0487451972
 20
13.2059695272
 30
0.0
 10
17.0731588224
 20
13.1187012436
 30
0.0
 10
17.0973124495
 20
13.008051714
 30
0.0
 10
17.1164972447
 20
12.8911185616
 30
0.0
 10
17.1304670583
 20
12.7693793745
 30
0.0
 10
17.1390429777
 20
12.6443700495
 30
0.0
 10
17.1421147011
 20
12.517671289
 30
0.0
 10
17.1396425647
 20
12.3908854825
 30
0.0
 10
17.1316572191
 20
12.2656163842
 30
0.0
 10
17.1182622862
 20
12.1434496361
 30
0.0
 10
17.0996312084
 20
12.0259264594
 30
0.0
 10
17.0796753015
 20
11.9318429836
 30
0.0
 10
17.0611672332
 20
11.8601408153
 30
0.0
 10
17.0511160962
 20
11.8255891822
 30
0.0
 10
17.0458898701
 20
11.8086771084
 30
0.0
  0
SPLINE
  5
31C
100
AcDbEntity
  8
0
100
AcDbSpline
 62
7
  6
CONTINUOUS
 70
0
 71
3
 72
11
 73
7
 74
0
 42
0.0000001
 43
0.0000001
 44
0.0000000001
 40
0.0
 40
0.0
 40
0.0
 40
0.0
 40
0.2288257081
 40
0.4668021657
 40
0.7218544949
 40
1.0
 40
1.0
 40
1.0
 40
1.0
 10
16.6875195215
 20
12.1355552184
 30
0.0
 10
16.6833054963
 20
12.135554731
 30
0.0
 10
16.6746814401
 20
12.136529718
 30
0.0
 10
16.6620124511
 20
12.1408381141
 30
0.0
 10
16.649615888
 20
12.1479152214
 30
0.0
 10
16.6419520338
 20
12.1541189504
 30
0.0
 10
16.638184094
 20
12.1575888939
 30
0.0
  0
SPLINE
  5
31D
100
AcDbEntity
  8
0
100
AcDbSpline
 62
7
  6
CONTINUOUS
 70
0
 71
3
 72
15
 73
11
 74
0
 42
0.0000001
 43
0.0000001
 44
0.0000000001
 40
0.0
 40
0.0
 40
0.0
 40
0.0
 40
0.1088238254
 40
0.2194327776
 40
0.3335115882
 40
0.4525511695
 40
0.5778193204
 40
0.7103327428
 40
0.8508671161
 40
1.0
 40
1.0
 40
1.0
 40
1.0
 10
16.6875195843
 20
13.6553352849
 30
0.0
 10
16.6956421142
 20
13.6553348782
 30
0.0
 10
16.7120428135
 20
13.6541767735
 30
0.0
 10
16.7364642554
 20
13.6489911866
 30
0.0
 10
16.7607056781
 20
13.6403785125
 30
0.0
 10
16.7846865872
 20
13.6283912367
 30
0.0
 10
16.8083375879
 20
13.613074338
 30
0.0
 10
16.8315961202
 20
13.5944861887
 30
0.0
 10
16.8544032126
 20
13.5726913391
 30
0.0
 10
16.868826366
 20
13.5565538039
 30
0.0
 10
16.8759590335
 20
13.5480081639
 30
0.0
  0
SPLINE
  5
31E
100
AcDbEntity
  8
0
100
AcDbSpline
 62
7
  6
CONTINUOUS
 70
0
 71
3
 72
15
 73
11
 74
0
 42
0.0000001
 43
0.0000001
 44
0.0000000001
 40
0.0
 40
0.0
 40
0.0
 40
0.0
 40
0.1770219524
 40
0.3420248334
 40
0.492098368
 40
0.6254344385
 40
0.7411326155
 40
0.8397638138
 40
0.924093665
 40
1.0
 40
1.0
 40
1.0
 40
1.0
 10
14.4632537814
 20
13.8207326083
 30
0.0
 10
14.4635043178
 20
13.8223741631
 30
0.0
 10
14.4640889812
 20
13.8255318327
 30
0.0
 10
14.4652622593
 20
13.8300012765
 30
0.0
 10
14.4666813881
 20
13.8339677028
 30
0.0
 10
14.4683121259
 20
13.8373476551
 30
0.0
 10
14.4701255221
 20
13.8400740554
 30
0.0
 10
14.4720965175
 20
13.8420968808
 30
0.0
 10
14.474216326
 20
13.8433546621
 30
0.0
 10
14.4757377462
 20
13.8436306815
 30
0.0
 10
14.4764495509
 20
13.8436122523
 30
0.0
  0
SPLINE
  5
31F
100
AcDbEntity
  8
0
100
AcDbSpline
 62
7
  6
CONTINUOUS
 70
0
 71
3
 72
15
 73
11
 74
0
 42
0.0000001
 43
0.0000001
 44
0.0000000001
 40
0.0
 40
0.0
 40
0.0
 40
0.0
 40
0.1620533173
 40
0.3193901679
 40
0.4679086107
 40
0.6046155259
 40
0.7271050142
 40
0.8338248262
 40
0.9243010388
 40
1.0
 40
1.0
 40
1.0
 40
1.0
 10
14.3605856603
 20
13.7861293577
 30
0.0
 10
14.3606365499
 20
13.7880717938
 30
0.0
 10
14.3608594199
 20
13.7918980609
 30
0.0
 10
14.3615504595
 20
13.7974700642
 30
0.0
 10
14.3625855531
 20
13.8026799861
 30
0.0
 10
14.3639299161
 20
13.8073871496
 30
0.0
 10
14.3655515431
 20
13.811473111
 30
0.0
 10
14.3674091677
 20
13.8148428174
 30
0.0
 10
14.369466847
 20
13.817410368
 30
0.0
 10
14.3710787408
 20
13.8186411979
 30
0.0
 10
14.3718903707
 20
13.8190475485
 30
0.0
  0
SPLINE
  5
320
100
AcDbEntity
  8
0
100
AcDbSpline
 62
7
  6
CONTINUOUS
 70
0
 71
3
 72
9
 73
5
 74
0
 42
0.0000001
 43
0.0000001
 44
0.0000000001
 40
0.0
 40
0.0
 40
0.0
 40
0.0
 40
0.5374256591
 40
1.0
 40
1.0
 40
1.0
 40
1.0
 10
14.2730881047
 20
13.7427538667
 30
0.0
 10
14.273733944
 20
13.7434387964
 30
0.0
 10
14.2750761574
 20
13.7445991418
 30
0.0
 10
14.2767449449
 20
13.7452743888
 30
0.0
 10
14.2775444095
 20
13.7454063699
 30
0.0
  0
SPLINE
  5
321
100
AcDbEntity
  8
0
100
AcDbSpline
 62
7
  6
CONTINUOUS
 70
0
 71
3
 72
15
 73
11
 74
0
 42
0.0000001
 43
0.0000001
 44
0.0000000001
 40
0.0
 40
0.0
 40
0.0
 40
0.0
 40
0.1476561667
 40
0.2951415502
 40
0.4385567317
 40
0.5747771839
 40
0.70103151
 40
0.8150264542
 40
0.9149791796
 40
1.0
 40
1.0
 40
1.0
 40
1.0
 10
14.2629019739
 20
13.702863035
 30
0.0
 10
14.2627981329
 20
13.7048195492
 30
0.0
 10
14.2627188681
 20
13.7087381233
 30
0.0
 10
14.262964544
 20
13.714555962
 30
0.0
 10
14.263576065
 20
13.720194758
 30
0.0
 10
14.2645305255
 20
13.725500412
 30
0.0
 10
14.2658055398
 20
13.7303364189
 30
0.0
 10
14.2673643279
 20
13.7345826314
 30
0.0
 10
14.2691719298
 20
13.7381248421
 30
0.0
 10
14.2706257289
 20
13.7401252825
 30
0.0
 10
14.2713955927
 20
13.7409499256
 30
0.0
  0
SPLINE
  5
322
100
AcDbEntity
  8
0
100
AcDbSpline
 62
7
  6
CONTINUOUS
 70
0
 71
3
 72
17
 73
13
 74
0
 42
0.0000001
 43
0.0000001
 44
0.0000000001
 40
0.0
 40
0.0
 40
0.0
 40
0.0
 40
0.0418649522
 40
0.088007352
 40
0.1383861846
 40
0.1928196184
 40
0.3125022808
 40
0.4438856413
 40
0.5829227598
 40
0.7250462202
 40
0.8656756011
 40
1.0
 40
1.0
 40
1.0
 40
1.0
 10
14.033537488
 20
13.0121006004
 30
0.0
 10
14.0346964262
 20
13.013534008
 30
0.0
 10
14.0369381547
 20
13.0167066294
 30
0.0
 10
14.0399456689
 20
13.0220142838
 30
0.0
 10
14.0427344676
 20
13.0280548946
 30
0.0
 10
14.0462365142
 20
13.0373051238
 30
0.0
 10
14.0498159882
 20
13.050302383
 30
0.0
 10
14.052773683
 20
13.067242952
 30
0.0
 10
14.0543994409
 20
13.0853539852
 30
0.0
 10
14.0546321349
 20
13.1039421683
 30
0.0
 10
14.0534559371
 20
13.1222855564
 30
0.0
 10
14.0517117341
 20
13.1342835453
 30
0.0
 10
14.0505839664
 20
13.1400893193
 30
0.0
  0
SPLINE
  5
323
100
AcDbEntity
  8
0
100
AcDbSpline
 62
7
  6
CONTINUOUS
 70
0
 71
3
 72
11
 73
7
 74
0
 42
0.0000001
 43
0.0000001
 44
0.0000000001
 40
0.0
 40
0.0
 40
0.0
 40
0.0
 40
0.3077315671
 40
0.571549832
 40
0.7971804683
 40
1.0
 40
1.0
 40
1.0
 40
1.0
 10
14.1805939437
 20
13.6151568284
 30
0.0
 10
14.1811272916
 20
13.6160823784
 30
0.0
 10
14.182230256
 20
13.6177423859
 30
0.0
 10
14.1841634846
 20
13.6197506539
 30
0.0
 10
14.1862417351
 20
13.6210249992
 30
0.0
 10
14.187739413
 20
13.6213285305
 30
0.0
 10
14.1884434574
 20
13.6213288258
 30
0.0
  0
SPLINE
  5
324
100
AcDbEntity
  8
0
100
AcDbSpline
 62
7
  6
CONTINUOUS
 70
0
 71
3
 72
15
 73
11
 74
0
 42
0.0000001
 43
0.0000001
 44
0.0000000001
 40
0.0
 40
0.0
 40
0.0
 40
0.0
 40
0.1342010585
 40
0.272081271
 40
0.4100317459
 40
0.5449478819
 40
0.6739240405
 40
0.7943079383
 40
0.9036839402
 40
1.0
 40
1.0
 40
1.0
 40
1.0
 10
14.1737424645
 20
13.5708180308
 30
0.0
 10
14.173483701
 20
13.5727079848
 30
0.0
 10
14.1730971428
 20
13.5765595537
 30
0.0
 10
14.1728869672
 20
13.5823878033
 30
0.0
 10
14.173049425
 20
13.5882280797
 30
0.0
 10
14.173574338
 20
13.593920067
 30
0.0
 10
14.1744506636
 20
13.599316228
 30
0.0
 10
14.1756514922
 20
13.6042784472
 30
0.0
 10
14.1771499977
 20
13.6086713451
 30
0.0
 10
14.1783977734
 20
13.6113266621
 30
0.0
 10
14.1790774351
 20
13.6125151163
 30
0.0
  0
SPLINE
  5
325
100
AcDbEntity
  8
0
100
AcDbSpline
 62
7
  6
CONTINUOUS
 70
0
 71
3
 72
9
 73
5
 74
0
 42
0.0000001
 43
0.0000001
 44
0.0000000001
 40
0.0
 40
0.0
 40
0.0
 40
0.0
 40
0.2567303096
 40
1.0
 40
1.0
 40
1.0
 40
1.0
 10
14.1818867539
 20
13.5161495364
 30
0.0
 10
14.1818694911
 20
13.5169422075
 30
0.0
 10
14.1817445423
 20
13.5200279791
 30
0.0
 10
14.1813936931
 20
13.5231066703
 30
0.0
 10
14.1809814801
 20
13.525364791
 30
0.0
  0
SPLINE
  5
326
100
AcDbEntity
  8
0
100
AcDbSpline
 62
7
  6
CONTINUOUS
 70
0
 71
3
 72
13
 73
9
 74
0
 42
0.0000001
 43
0.0000001
 44
0.0000000001
 40
0.0
 40
0.0
 40
0.0
 40
0.0
 40
0.3252407821
 40
0.5958417279
 40
0.7110717251
 40
0.8147962311
 40
0.9097779645
 40
1.0
 40
1.0
 40
1.0
 40
1.0
 10
14.0999919811
 20
13.4423700221
 30
0.0
 10
14.1005924813
 20
13.443948011
 30
0.0
 10
14.1018674308
 20
13.4467768604
 30
0.0
 10
14.1039643277
 20
13.449858355
 30
0.0
 10
14.1058147047
 20
13.4516146591
 30
0.0
 10
14.1071788339
 20
13.4525243394
 30
0.0
 10
14.1085846381
 20
13.4530822758
 30
0.0
 10
14.10955013
 20
13.4532085745
 30
0.0
 10
14.1100184897
 20
13.4532085862
 30
0.0
  0
SPLINE
  5
327
100
AcDbEntity
  8
0
100
AcDbSpline
 62
7
  6
CONTINUOUS
 70
0
 71
3
 72
15
 73
11
 74
0
 42
0.0000001
 43
0.0000001
 44
0.0000000001
 40
0.0
 40
0.0
 40
0.0
 40
0.0
 40
0.1216384061
 40
0.2503253024
 40
0.3828080333
 40
0.5160921738
 40
0.6472567648
 40
0.7734667352
 40
0.8919578643
 40
1.0
 40
1.0
 40
1.0
 40
1.0
 10
14.0967555141
 20
13.3953975899
 30
0.0
 10
14.096347704
 20
13.3971417732
 30
0.0
 10
14.0956613261
 20
13.4007678946
 30
0.0
 10
14.095003934
 20
13.4063705981
 30
0.0
 10
14.0947106288
 20
13.4121759697
 30
0.0
 10
14.0947839804
 20
13.4180245323
 30
0.0
 10
14.0952250917
 20
13.4237643954
 30
0.0
 10
14.096018856
 20
13.4292469783
 30
0.0
 10
14.0971490455
 20
13.4343219599
 30
0.0
 10
14.0981511488
 20
13.4375103385
 30
0.0
 10
14.098713531
 20
13.4389986372
 30
0.0
  0
SPLINE
  5
328
100
AcDbEntity
  8
0
100
AcDbSpline
 62
7
  6
CONTINUOUS
 70
0
 71
3
 72
9
 73
5
 74
0
 42
0.0000001
 43
0.0000001
 44
0.0000000001
 40
0.0
 40
0.0
 40
0.0
 40
0.0
 40
0.5189326624
 40
1.0
 40
1.0
 40
1.0
 40
1.0
 10
14.1090175428
 20
13.3460565214
 30
0.0
 10
14.1088630922
 20
13.3475565077
 30
0.0
 10
14.1084554649
 20
13.3504370285
 30
0.0
 10
14.1077985998
 20
13.3532730137
 30
0.0
 10
14.1074085913
 20
13.3546153935
 30
0.0
  0
SPLINE
  5
329
100
AcDbEntity
  8
0
100
AcDbSpline
 62
7
  6
CONTINUOUS
 70
0
 71
3
 72
15
 73
11
 74
0
 42
0.0000001
 43
0.0000001
 44
0.0000000001
 40
0.0
 40
0.0
 40
0.0
 40
0.0
 40
0.1745125943
 40
0.3361394138
 40
0.4828792694
 40
0.6136442776
 40
0.7286183779
 40
0.829013886
 40
0.9178076507
 40
1.0
 40
1.0
 40
1.0
 40
1.0
 10
14.0345804267
 20
13.2314638356
 30
0.0
 10
14.0348846828
 20
13.2326794515
 30
0.0
 10
14.0355446905
 20
13.2350034594
 30
0.0
 10
14.0367343712
 20
13.2382640665
 30
0.0
 10
14.0380720412
 20
13.2411250667
 30
0.0
 10
14.0395405532
 20
13.2435385042
 30
0.0
 10
14.0411164687
 20
13.2454733624
 30
0.0
 10
14.0427901607
 20
13.2469009776
 30
0.0
 10
14.0445484283
 20
13.2477917218
 30
0.0
 10
14.0457834638
 20
13.2479998345
 30
0.0
 10
14.0463736578
 20
13.2479991237
 30
0.0
  0
SPLINE
  5
32A
100
AcDbEntity
  8
0
100
AcDbSpline
 62
7
  6
CONTINUOUS
 70
0
 71
3
 72
15
 73
11
 74
0
 42
0.0000001
 43
0.0000001
 44
0.0000000001
 40
0.0
 40
0.0
 40
0.0
 40
0.0
 40
0.109527705
 40
0.2291481533
 40
0.3560640556
 40
0.4874789211
 40
0.620542681
 40
0.7523386408
 40
0.8798918788
 40
1.0
 40
1.0
 40
1.0
 40
1.0
 10
14.0346802889
 20
13.1820198402
 30
0.0
 10
14.0341340335
 20
13.1835409879
 30
0.0
 10
14.033165161
 20
13.1867868758
 30
0.0
 10
14.0320847877
 20
13.1919337393
 30
0.0
 10
14.0313447977
 20
13.1974664502
 30
0.0
 10
14.0309599751
 20
13.2032332583
 30
0.0
 10
14.0309438895
 20
13.2090847769
 30
0.0
 10
14.0312938865
 20
13.2148690461
 30
0.0
 10
14.0320058279
 20
13.2204271806
 30
0.0
 10
14.0327286845
 20
13.224014127
 30
0.0
 10
14.0331544886
 20
13.2257346061
 30
0.0
  0
SPLINE
  5
32B
100
AcDbEntity
  8
0
100
AcDbSpline
 62
7
  6
CONTINUOUS
 70
0
 71
3
 72
9
 73
5
 74
0
 42
0.0000001
 43
0.0000001
 44
0.0000000001
 40
0.0
 40
0.0
 40
0.0
 40
0.0
 40
0.2569880563
 40
1.0
 40
1.0
 40
1.0
 40
1.0
 10
14.0346802889
 20
13.1820198402
 30
0.0
 10
14.0357515762
 20
13.1790366453
 30
0.0
 10
14.0400122253
 20
13.1674617685
 30
0.0
 10
14.0446486759
 20
13.1560238744
 30
0.0
 10
14.048332558
 20
13.1476325101
 30
0.0
  0
SPLINE
  5
32C
100
AcDbEntity
  8
0
100
AcDbSpline
 62
7
  6
CONTINUOUS
 70
0
 71
3
 72
9
 73
5
 74
0
 42
0.0000001
 43
0.0000001
 44
0.0000000001
 40
0.0
 40
0.0
 40
0.0
 40
0.0
 40
0.5285480123
 40
1.0
 40
1.0
 40
1.0
 40
1.0
 10
14.0505839664
 20
13.1400893193
 30
0.0
 10
14.05031911
 20
13.1414528061
 30
0.0
 10
14.0497088582
 20
13.1440129838
 30
0.0
 10
14.0488305806
 20
13.1464980847
 30
0.0
 10
14.048332558
 20
13.1476325101
 30
0.0
  0
SPLINE
  5
32D
100
AcDbEntity
  8
0
100
AcDbSpline
 62
7
  6
CONTINUOUS
 70
0
 71
3
 72
19
 73
15
 74
0
 42
0.0000001
 43
0.0000001
 44
0.0000000001
 40
0.0
 40
0.0
 40
0.0
 40
0.0
 40
0.0397646448
 40
0.0846655882
 40
0.1346551951
 40
0.1894931659
 40
0.2488055691
 40
0.3120784549
 40
0.4478220133
 40
0.5909292766
 40
0.7349191957
 40
0.873308478
 40
0.938517923
 40
1.0
 40
1.0
 40
1.0
 40
1.0
 10
13.9944064879
 20
12.762878813
 30
0.0
 10
13.9958223714
 20
12.7643206781
 30
0.0
 10
13.9985631155
 20
12.7676625045
 30
0.0
 10
14.0021925184
 20
12.7734792737
 30
0.0
 10
14.0055336777
 20
12.7803286189
 30
0.0
 10
14.0085441331
 20
12.7881166349
 30
0.0
 10
14.011186103
 20
12.7967445846
 30
0.0
 10
14.0142414609
 20
12.809519217
 30
0.0
 10
14.016852209
 20
12.8267427877
 30
0.0
 10
14.0180693553
 20
12.8482248887
 30
0.0
 10
14.0173717284
 20
12.869864261
 30
0.0
 10
14.0151863211
 20
12.8874250908
 30
0.0
 10
14.0124552383
 20
12.9006223578
 30
0.0
 10
14.0107861126
 20
12.9068459188
 30
0.0
 10
14.0098730341
 20
12.9098340105
 30
0.0
  0
SPLINE
  5
32E
100
AcDbEntity
  8
0
100
AcDbSpline
 62
7
  6
CONTINUOUS
 70
0
 71
3
 72
15
 73
11
 74
0
 42
0.0000001
 43
0.0000001
 44
0.0000000001
 40
0.0
 40
0.0
 40
0.0
 40
0.0
 40
0.1460029513
 40
0.2864841194
 40
0.4210831845
 40
0.5495512535
 40
0.6717394967
 40
0.7875503004
 40
0.8969557654
 40
1.0
 40
1.0
 40
1.0
 40
1.0
 10
17.0458898701
 20
11.8086771084
 30
0.0
 10
17.0407078457
 20
11.7919080713
 30
0.0
 10
17.0299960422
 20
11.7591686337
 30
0.0
 10
17.0125301125
 20
11.7116455043
 30
0.0
 10
16.9940215938
 20
11.6667885114
 30
0.0
 10
16.9745350735
 20
11.6247578107
 30
0.0
 10
16.9541370244
 20
11.5856904035
 30
0.0
 10
16.9328878281
 20
11.5497127498
 30
0.0
 10
16.9108635598
 20
11.5169416421
 30
0.0
 10
16.8952433219
 20
11.4967045815
 30
0.0
 10
16.887305353
 20
11.4871949538
 30
0.0
  0
SPLINE
  5
32F
100
AcDbEntity
  8
0
100
AcDbSpline
 62
7
  6
CONTINUOUS
 70
0
 71
3
 72
12
 73
8
 74
0
 42
0.0000001
 43
0.0000001
 44
0.0000000001
 40
0.0
 40
0.0
 40
0.0
 40
0.0
 40
0.2864250454
 40
0.5495602699
 40
0.6717889993
 40
0.7876285176
 40
1.0
 40
1.0
 40
1.0
 40
1.0
 10
16.5822929608
 20
12.753388283
 30
0.0
 10
16.5858044937
 20
12.7647516086
 30
0.0
 10
16.5932469115
 20
12.7863464047
 30
0.0
 10
16.6043593446
 20
12.8119726568
 30
0.0
 10
16.6139951616
 20
12.830430656
 30
0.0
 10
16.623507164
 20
12.8465390949
 30
0.0
 10
16.6314332784
 20
12.8576892887
 30
0.0
 10
16.6370842849
 20
12.8644592596
 30
0.0
  0
SPLINE
  5
330
100
AcDbEntity
  8
0
100
AcDbSpline
 62
7
  6
CONTINUOUS
 70
0
 71
3
 72
20
 73
16
 74
0
 42
0.0000001
 43
0.0000001
 44
0.0000000001
 40
0.0
 40
0.0
 40
0.0
 40
0.0
 40
0.0474766919
 40
0.0998661769
 40
0.1567312801
 40
0.217562214
 40
0.3487242042
 40
0.4878571486
 40
0.5584805375
 40
0.6287242838
 40
0.7648408235
 40
0.8292470399
 40
0.8903191909
 40
0.9474356066
 40
1.0
 40
1.0
 40
1.0
 40
1.0
 10
13.9844069292
 20
12.51130902
 30
0.0
 10
13.9856693296
 20
12.513433723
 30
0.0
 10
13.9880647125
 20
12.5180593137
 30
0.0
 10
13.991165677
 20
12.5256143176
 30
0.0
 10
13.9939071183
 20
12.5340410527
 30
0.0
 10
13.9971134099
 20
12.5465998901
 30
0.0
 10
13.9999185144
 20
12.5636422046
 30
0.0
 10
14.0011302649
 20
12.5813725456
 30
0.0
 10
14.001150441
 20
12.595952798
 30
0.0
 10
14.0005150311
 20
12.610360685
 30
0.0
 10
13.9989422759
 20
12.6243945265
 30
0.0
 10
13.9963708804
 20
12.6377726814
 30
0.0
 10
13.9940476593
 20
12.6469958632
 30
0.0
 10
13.9913263618
 20
12.655464219
 30
0.0
 10
13.9891830221
 20
12.6607643634
 30
0.0
 10
13.9880401521
 20
12.663250546
 30
0.0
  0
SPLINE
  5
331
100
AcDbEntity
  8
0
100
AcDbSpline
 62
7
  6
CONTINUOUS
 70
0
 71
3
 72
20
 73
16
 74
0
 42
0.0000001
 43
0.0000001
 44
0.0000000001
 40
0.0
 40
0.0
 40
0.0
 40
0.0
 40
0.056009589
 40
0.1162759085
 40
0.1801154658
 40
0.2468452377
 40
0.3861114963
 40
0.5279215671
 40
0.6658121892
 40
0.7313697192
 40
0.7936930592
 40
0.8521750314
 40
0.9063148021
 40
0.9556925407
 40
1.0
 40
1.0
 40
1.0
 40
1.0
 10
13.9943274867
 20
12.2597186024
 30
0.0
 10
13.9953839906
 20
12.2624176066
 30
0.0
 10
13.99734799
 20
12.2681118756
 30
0.0
 10
13.9997996012
 20
12.2771100057
 30
0.0
 10
14.0018309104
 20
12.2867798822
 30
0.0
 10
14.0039718715
 20
12.3005836379
 30
0.0
 10
14.0054062607
 20
12.3185543096
 30
0.0
 10
14.0051993559
 20
12.340260303
 30
0.0
 10
14.0034172487
 20
12.3580684047
 30
0.0
 10
14.0010047365
 20
12.3716141294
 30
0.0
 10
13.9987898515
 20
12.3810061559
 30
0.0
 10
13.9961692309
 20
12.3896784
 30
0.0
 10
13.9931769333
 20
12.3975187689
 30
0.0
 10
13.9898522506
 20
12.404418756
 30
0.0
 10
13.9873091908
 20
12.4085617034
 30
0.0
 10
13.9859787158
 20
12.4104290522
 30
0.0
  0
SPLINE
  5
332
100
AcDbEntity
  8
0
100
AcDbSpline
 62
7
  6
CONTINUOUS
 70
0
 71
3
 72
19
 73
15
 74
0
 42
0.0000001
 43
0.0000001
 44
0.0000000001
 40
0.0
 40
0.0
 40
0.0
 40
0.0
 40
0.0648535926
 40
0.1330015646
 40
0.2757964656
 40
0.4221042029
 40
0.5654649042
 40
0.699569822
 40
0.7614157126
 40
0.8189738155
 40
0.8717962102
 40
0.9196074251
 40
0.9622963204
 40
1.0
 40
1.0
 40
1.0
 40
1.0
 10
14.0237622139
 20
12.0184025696
 30
0.0
 10
14.0245670258
 20
12.0215204632
 30
0.0
 10
14.0260188126
 20
12.027967142
 30
0.0
 10
14.0283098622
 20
12.0414728654
 30
0.0
 10
14.0299582971
 20
12.0591633598
 30
0.0
 10
14.0300437105
 20
12.0806626902
 30
0.0
 10
14.0282616923
 20
12.1016559176
 30
0.0
 10
14.025225684
 20
12.1182638026
 30
0.0
 10
14.0218657653
 20
12.1304019362
 30
0.0
 10
14.0190380741
 20
12.1384801837
 30
0.0
 10
14.0158700168
 20
12.1456773682
 30
0.0
 10
14.0124012441
 20
12.151906284
 30
0.0
 10
14.0086706678
 20
12.1570831778
 30
0.0
 10
14.0058748763
 20
12.1599640497
 30
0.0
 10
14.0044426239
 20
12.1611695495
 30
0.0
  0
SPLINE
  5
333
100
AcDbEntity
  8
0
100
AcDbSpline
 62
7
  6
CONTINUOUS
 70
0
 71
3
 72
15
 73
11
 74
0
 42
0.0000001
 43
0.0000001
 44
0.0000000001
 40
0.0
 40
0.0
 40
0.0
 40
0.0
 40
0.1350132274
 40
0.2744557655
 40
0.4143336167
 40
0.5510195393
 40
0.6808923944
 40
0.8006774339
 40
0.9076637047
 40
1.0
 40
1.0
 40
1.0
 40
1.0
 10
14.07150665
 20
11.7972355061
 30
0.0
 10
14.0723486676
 20
11.8026065369
 30
0.0
 10
14.0736219627
 20
11.8135968581
 30
0.0
 10
14.0743650457
 20
11.8302769707
 30
0.0
 10
14.0739557779
 20
11.8470370442
 30
0.0
 10
14.0724105579
 20
11.8633444013
 30
0.0
 10
14.0697809748
 20
11.878693767
 30
0.0
 10
14.0661507943
 20
11.8926115246
 30
0.0
 10
14.0616354541
 20
11.904666655
 30
0.0
 10
14.0578342766
 20
11.9117829311
 30
0.0
 10
14.0557630449
 20
11.9148707433
 30
0.0
  0
SPLINE
  5
334
100
AcDbEntity
  8
0
100
AcDbSpline
 62
7
  6
CONTINUOUS
 70
0
 71
3
 72
13
 73
9
 74
0
 42
0.0000001
 43
0.0000001
 44
0.0000000001
 40
0.0
 40
0.0
 40
0.0
 40
0.0
 40
0.2684637547
 40
0.5332604495
 40
0.6600454748
 40
0.7810190934
 40
0.8947387455
 40
1.0
 40
1.0
 40
1.0
 40
1.0
 10
14.1356071062
 20
11.6052675062
 30
0.0
 10
14.1361568314
 20
11.6130211244
 30
0.0
 10
14.1364899535
 20
11.6284841529
 30
0.0
 10
14.1351032558
 20
11.6475773684
 30
0.0
 10
14.1328728486
 20
11.6622557638
 30
0.0
 10
14.1307222297
 20
11.6725051359
 30
0.0
 10
14.1281019615
 20
11.6819998246
 30
0.0
 10
14.1259790946
 20
11.6879825415
 30
0.0
 10
14.1248339418
 20
11.6908069469
 30
0.0
  0
SPLINE
  5
335
100
AcDbEntity
  8
0
100
AcDbSpline
 62
7
  6
CONTINUOUS
 70
0
 71
3
 72
11
 73
7
 74
0
 42
0.0000001
 43
0.0000001
 44
0.0000000001
 40
0.0
 40
0.0
 40
0.0
 40
0.0
 40
0.2604702816
 40
0.5168003363
 40
0.764480303
 40
1.0
 40
1.0
 40
1.0
 40
1.0
 10
14.2134406096
 20
11.4503538469
 30
0.0
 10
14.2134035365
 20
11.454576606
 30
0.0
 10
14.2131109465
 20
11.4629546746
 30
0.0
 10
14.2120286636
 20
11.4753075289
 30
0.0
 10
14.2103144471
 20
11.4871804566
 30
0.0
 10
14.2087285803
 20
11.4948588004
 30
0.0
 10
14.2078251908
 20
11.498568802
 30
0.0
  0
SPLINE
  5
336
100
AcDbEntity
  8
AXIS
100
AcDbSpline
 62
7
  6
CONTINUOUS
 70
0
 71
3
 72
23
 73
19
 74
0
 42
0.0000001
 43
0.0000001
 44
0.0000000001
 40
0.0
 40
0.0
 40
0.0
 40
0.0
 40
0.0877520114
 40
0.1723135878
 40
0.2534803217
 40
0.3311091648
 40
0.4051148295
 40
0.4754380167
 40
0.5420537851
 40
0.6049740309
 40
0.6642720186
 40
0.7200846031
 40
0.7726205458
 40
0.8221793217
 40
0.8691515259
 40
0.9140352335
 40
0.9574255513
 40
1.0
 40
1.0
 40
1.0
 40
1.0
 10
15.9841622465
 20
13.2244132365
 30
0.0
 10
15.9892414633
 20
13.240849588
 30
0.0
 10
15.9997293273
 20
13.2729690887
 30
0.0
 10
16.0167823567
 20
13.3196557036
 30
0.0
 10
16.0348238339
 20
13.3638348556
 30
0.0
 10
16.0537954599
 20
13.4053593419
 30
0.0
 10
16.0736363356
 20
13.4441040781
 30
0.0
 10
16.0942909177
 20
13.4799525646
 30
0.0
 10
16.1156924793
 20
13.5127984519
 30
0.0
 10
16.137781784
 20
13.5425382058
 30
0.0
 10
16.1604925246
 20
13.5690810992
 30
0.0
 10
16.1837592082
 20
13.5923468942
 30
0.0
 10
16.207521211
 20
13.6122582038
 30
0.0
 10
16.2317093942
 20
13.6287534578
 30
0.0
 10
16.2562614183
 20
13.6417646165
 30
0.0
 10
16.2811045194
 20
13.6512383062
 30
0.0
 10
16.3061516111
 20
13.6571240208
 30
0.0
 10
16.3230049171
 20
13.658634192
 30
0.0
 10
16.331350143
 20
13.6587781036
 30
0.0
  0
SPLINE
  5
337
100
AcDbEntity
  8
0
100
AcDbSpline
 62
7
  6
CONTINUOUS
 70
0
 71
3
 72
24
 73
20
 74
0
 42
0.0000001
 43
0.0000001
 44
0.0000000001
 40
0.0
 40
0.0
 40
0.0
 40
0.0
 40
0.0879445578
 40
0.1726680417
 40
0.2539638188
 40
0.3316846899
 40
0.4057438248
 40
0.4760811396
 40
0.5426744144
 40
0.6055394854
 40
0.6647517589
 40
0.7204568646
 40
0.7728710902
 40
0.797946569
 40
0.8223247252
 40
0.8691905637
 40
0.9140006123
 40
0.957371907
 40
1.0
 40
1.0
 40
1.0
 40
1.0
 10
16.3383896854
 20
13.2222570269
 30
0.0
 10
16.3434906037
 20
13.2387636045
 30
0.0
 10
16.3540252276
 20
13.2710149283
 30
0.0
 10
16.3711637565
 20
13.3178813753
 30
0.0
 10
16.3893027834
 20
13.3622091299
 30
0.0
 10
16.4083833963
 20
13.4038475066
 30
0.0
 10
16.4283413368
 20
13.442669277
 30
0.0
 10
16.4491199217
 20
13.4785559692
 30
0.0
 10
16.4706517207
 20
13.5113996279
 30
0.0
 10
16.4928751162
 20
13.5410959658
 30
0.0
 10
16.5157263752
 20
13.5675510754
 30
0.0
 10
16.539133013
 20
13.5906844264
 30
0.0
 10
16.5593455251
 20
13.6073703068
 30
0.0
 10
16.5757159925
 20
13.6188957006
 30
0.0
 10
16.5917534924
 20
13.6289513139
 30
0.0
 10
16.6120646664
 20
13.6394327306
 30
0.0
 10
16.6370465019
 20
13.6485845797
 30
0.0
 10
16.6622258698
 20
13.6541043546
 30
0.0
 10
16.6791452699
 20
13.6553357043
 30
0.0
 10
16.6875195843
 20
13.6553352849
 30
0.0
  0
SPLINE
  5
338
100
AcDbEntity
  8
AXIS
100
AcDbSpline
 62
7
  6
CONTINUOUS
 70
0
 71
3
 72
23
 73
19
 74
0
 42
0.0000001
 43
0.0000001
 44
0.0000000001
 40
0.0
 40
0.0
 40
0.0
 40
0.0
 40
0.0877770695
 40
0.1723595412
 40
0.253542613
 40
0.331183118
 40
0.4051956686
 40
0.4755209724
 40
0.542134209
 40
0.6050475885
 40
0.6643350273
 40
0.7201341602
 40
0.7726549901
 40
0.822198515
 40
0.8691572707
 40
0.9140316752
 40
0.9574192625
 40
1.0
 40
1.0
 40
1.0
 40
1.0
 10
15.9852203605
 20
13.2222570269
 30
0.0
 10
15.9902889028
 20
13.2386588358
 30
0.0
 10
16.0007550007
 20
13.2707100901
 30
0.0
 10
16.0177738168
 20
13.317295916
 30
0.0
 10
16.0357798502
 20
13.3613768888
 30
0.0
 10
16.0547147841
 20
13.4028058969
 30
0.0
 10
16.0745177665
 20
13.4414579171
 30
0.0
 10
16.0951332286
 20
13.4772165134
 30
0.0
 10
16.1164944517
 20
13.5099754012
 30
0.0
 10
16.1385422598
 20
13.5396310937
 30
0.0
 10
16.1612102733
 20
13.5660930225
 30
0.0
 10
16.1844331375
 20
13.5892809592
 30
0.0
 10
16.208150162
 20
13.609117664
 30
0.0
 10
16.232292277
 20
13.6255416107
 30
0.0
 10
16.2567971615
 20
13.6384847147
 30
0.0
 10
16.2815919052
 20
13.6478938356
 30
0.0
 10
16.306589389
 20
13.6537183056
 30
0.0
 10
16.3234064444
 20
13.6551898217
 30
0.0
 10
16.3317332742
 20
13.6553154827
 30
0.0
  0
SPLINE
  5
339
100
AcDbEntity
  8
AXIS
100
AcDbSpline
 62
7
  6
CONTINUOUS
 70
0
 71
3
 72
37
 73
33
 74
0
 42
0.0000001
 43
0.0000001
 44
0.0000000001
 40
0.0
 40
0.0
 40
0.0
 40
0.0
 40
0.0326044524
 40
0.0664597867
 40
0.1014298251
 40
0.1373904928
 40
0.1742156861
 40
0.2117653821
 40
0.2498943521
 40
0.2884540053
 40
0.3662531854
 40
0.4439427351
 40
0.4823662218
 40
0.5203055511
 40
0.5576133002
 40
0.594147529
 40
0.6297707488
 40
0.6643537754
 40
0.6977740271
 40
0.7299204324
 40
0.7606913109
 40
0.7900004524
 40
0.8177750462
 40
0.8439632273
 40
0.8685328533
 40
0.8914811069
 40
0.9128353678
 40
0.932665581
 40
0.9510882107
 40
0.9682800229
 40
0.9844813048
 40
1.0
 40
1.0
 40
1.0
 40
1.0
 10
15.9852203605
 20
13.2222570269
 30
0.0
 10
15.9787861094
 20
13.2014357828
 30
0.0
 10
15.9665259044
 20
13.1587263594
 30
0.0
 10
15.9501979604
 20
13.0929130306
 30
0.0
 10
15.9356544692
 20
13.0243876381
 30
0.0
 10
15.9229606532
 20
12.9534795013
 30
0.0
 10
15.9121780612
 20
12.8805129429
 30
0.0
 10
15.9033519984
 20
12.8058251573
 30
0.0
 10
15.8965293254
 20
12.7297637052
 30
0.0
 10
15.8901232185
 20
12.6266925328
 30
0.0
 10
15.8873087629
 20
12.4969563574
 30
0.0
 10
15.891343848
 20
12.3673429982
 30
0.0
 10
15.8987274057
 20
12.2646288654
 30
0.0
 10
15.9062666189
 20
12.1890163113
 30
0.0
 10
15.9157953285
 20
12.11490161
 30
0.0
 10
15.9272642892
 20
12.0426284969
 30
0.0
 10
15.9406249327
 20
11.972533375
 30
0.0
 10
15.9558094433
 20
11.9049411431
 30
0.0
 10
15.9727523953
 20
11.8401660159
 30
0.0
 10
15.9913690616
 20
11.7785071093
 30
0.0
 10
16.0115787323
 20
11.720250539
 30
0.0
 10
16.0332816351
 20
11.6656634028
 30
0.0
 10
16.0563841973
 20
11.6149981718
 30
0.0
 10
16.0807744758
 20
11.5684841401
 30
0.0
 10
16.1063497878
 20
11.5263355112
 30
0.0
 10
16.1329909128
 20
11.4887392655
 30
0.0
 10
16.1605919984
 20
11.4558696049
 30
0.0
 10
16.1890344154
 20
11.4278716803
 30
0.0
 10
16.2182145194
 20
11.4048873845
 30
0.0
 10
16.2480197231
 20
11.3870341757
 30
0.0
 10
16.2783236113
 20
11.3744444213
 30
0.0
 10
16.299076835
 20
11.3695581828
 30
0.0
 10
16.3093431526
 20
11.3680766792
 30
0.0
  0
SPLINE
  5
33A
100
AcDbEntity
  8
0
100
AcDbSpline
 62
7
  6
CONTINUOUS
 70
0
 71
3
 72
34
 73
30
 74
0
 42
0.0000001
 43
0.0000001
 44
0.0000000001
 40
0.0
 40
0.0
 40
0.0
 40
0.0
 40
0.022366806
 40
0.0427914427
 40
0.0615416107
 40
0.0790092612
 40
0.0957202662
 40
0.1122921315
 40
0.1293621806
 40
0.1475015173
 40
0.167163631
 40
0.1886652994
 40
0.2122092041
 40
0.2378938793
 40
0.2657485489
 40
0.2957363427
 40
0.3277784849
 40
0.3617552722
 40
0.3975172511
 40
0.4348908718
 40
0.5136584468
 40
0.5963303666
 40
0.680988992
 40
0.7656352087
 40
0.8482608906
 40
0.8882150433
 40
0.9269689822
 40
0.9643079699
 40
1.0
 40
1.0
 40
1.0
 40
1.0
 10
16.6370842849
 20
12.8644592596
 30
0.0
 10
16.6407557256
 20
12.8688576878
 30
0.0
 10
16.6482169489
 20
12.8769270471
 30
0.0
 10
16.6603508101
 20
12.8870685629
 30
0.0
 10
16.6728313462
 20
12.8946002456
 30
0.0
 10
16.6855936881
 20
12.8994229768
 30
0.0
 10
16.6985337795
 20
12.9014564786
 30
0.0
 10
16.7115087184
 20
12.9006470876
 30
0.0
 10
16.7243618902
 20
12.8970170078
 30
0.0
 10
16.7369745801
 20
12.8906452914
 30
0.0
 10
16.7492639805
 20
12.881617939
 30
0.0
 10
16.7611731427
 20
12.8700265077
 30
0.0
 10
16.7726339736
 20
12.8559511886
 30
0.0
 10
16.7835888237
 20
12.839492954
 30
0.0
 10
16.7939624405
 20
12.8207570505
 30
0.0
 10
16.8036936631
 20
12.7998724789
 30
0.0
 10
16.8127117551
 20
12.77697872
 30
0.0
 10
16.8209578215
 20
12.7522338053
 30
0.0
 10
16.8283738383
 20
12.7258074838
 30
0.0
 10
16.8372387113
 20
12.6879095525
 30
0.0
 10
16.8457921954
 20
12.6376511277
 30
0.0
 10
16.8519539537
 20
12.5748674526
 30
0.0
 10
16.8540058859
 20
12.5103083539
 30
0.0
 10
16.851888934
 20
12.4457663904
 30
0.0
 10
16.8466496979
 20
12.392897088
 30
0.0
 10
16.8403538361
 20
12.3520449323
 30
0.0
 10
16.8347180901
 20
12.3228499364
 30
0.0
 10
16.8281565318
 20
12.2949696474
 30
0.0
 10
16.8230774926
 20
12.276956818
 30
0.0
 10
16.8203781377
 20
12.2682217028
 30
0.0
  0
SPLINE
  5
33B
100
AcDbEntity
  8
0
100
AcDbSpline
 62
7
  6
CONTINUOUS
 70
0
 71
3
 72
47
 73
43
 74
0
 42
0.0000001
 43
0.0000001
 44
0.0000000001
 40
0.0
 40
0.0
 40
0.0
 40
0.0
 40
0.0215877279
 40
0.0316834885
 40
0.041353229
 40
0.0506381721
 40
0.0595872681
 40
0.0682583367
 40
0.0767167349
 40
0.0850339735
 40
0.093286471
 40
0.1015528925
 40
0.1099112658
 40
0.1184367762
 40
0.1271989469
 40
0.1456586664
 40
0.1554745373
 40
0.1657290982
 40
0.1876620102
 40
0.1993923976
 40
0.2116465767
 40
0.2377477371
 40
0.2659827289
 40
0.2963087037
 40
0.3286372803
 40
0.3628474752
 40
0.3987883106
 40
0.4362861241
 40
0.475148085
 40
0.515164729
 40
0.5561149751
 40
0.5977666938
 40
0.6398815114
 40
0.6822158178
 40
0.7245241068
 40
0.7665606715
 40
0.8080836522
 40
0.8488550651
 40
0.8886427264
 40
0.9272304996
 40
0.964420333
 40
1.0
 40
1.0
 40
1.0
 40
1.0
 10
16.875243212
 20
11.4733071487
 30
0.0
 10
16.8645920143
 20
11.4615338562
 30
0.0
 10
16.8479985974
 20
11.4450600114
 30
0.0
 10
16.824296775
 20
11.4259705165
 30
0.0
 10
16.8066943107
 20
11.413823702
 30
0.0
 10
16.7889010231
 20
11.4035521594
 30
0.0
 10
16.77094297
 20
11.3951795208
 30
0.0
 10
16.7528519379
 20
11.3887229827
 30
0.0
 10
16.7346605015
 20
11.3841956209
 30
0.0
 10
16.7164020547
 20
11.3816117779
 30
0.0
 10
16.698112987
 20
11.3809810781
 30
0.0
 10
16.6798306258
 20
11.3823011107
 30
0.0
 10
16.6615914839
 20
11.3855681397
 30
0.0
 10
16.6434308465
 20
11.3907781858
 30
0.0
 10
16.6189504951
 20
11.4004556458
 30
0.0
 10
16.5951180259
 20
11.4139664567
 30
0.0
 10
16.572225559
 20
11.4306924962
 30
0.0
 10
16.5486326328
 20
11.450670626
 30
0.0
 10
16.526135151
 20
11.4739740706
 30
0.0
 10
16.5046935762
 20
11.5000736785
 30
0.0
 10
16.4827595297
 20
11.5296844469
 30
0.0
 10
16.4564103212
 20
11.5710417114
 30
0.0
 10
16.4271005984
 20
11.6260325168
 30
0.0
 10
16.3996597969
 20
11.6870318561
 30
0.0
 10
16.3742648565
 20
11.7536272999
 30
0.0
 10
16.3510915408
 20
11.8253751706
 30
0.0
 10
16.3302949408
 20
11.9017904988
 30
0.0
 10
16.3120172617
 20
11.9823559694
 30
0.0
 10
16.2963865081
 20
12.0665247995
 30
0.0
 10
16.2835058571
 20
12.1537238187
 30
0.0
 10
16.2734689712
 20
12.2433592917
 30
0.0
 10
16.2663404635
 20
12.3348197404
 30
0.0
 10
16.2621723246
 20
12.4274812447
 30
0.0
 10
16.2609924989
 20
12.5207115623
 30
0.0
 10
16.2628075615
 20
12.6138741743
 30
0.0
 10
16.2676086755
 20
12.7063335179
 30
0.0
 10
16.2753582273
 20
12.7974588325
 30
0.0
 10
16.286007073
 20
12.886626538
 30
0.0
 10
16.2994776042
 20
12.973228992
 30
0.0
 10
16.3156814825
 20
13.0566827306
 30
0.0
 10
16.3345063791
 20
13.1364083035
 30
0.0
 10
16.3490556393
 20
13.1879328625
 30
0.0
 10
16.3567812283
 20
13.2129328774
 30
0.0
  0
SPLINE
  5
33C
100
AcDbEntity
  8
0
100
AcDbSpline
 62
7
  6
CONTINUOUS
 70
0
 71
3
 72
39
 73
35
 74
0
 42
0.0000001
 43
0.0000001
 44
0.0000000001
 40
0.0
 40
0.0
 40
0.0
 40
0.0
 40
0.0076950708
 40
0.0154425812
 40
0.0232937464
 40
0.0312974291
 40
0.047926314
 40
0.0656544742
 40
0.0847196831
 40
0.105290126
 40
0.1274735305
 40
0.1513272943
 40
0.1768684789
 40
0.2040803877
 40
0.2329200718
 40
0.2633211298
 40
0.2951995998
 40
0.3284543874
 40
0.3629723597
 40
0.3986275294
 40
0.4352856662
 40
0.4728030102
 40
0.5110304194
 40
0.5498121964
 40
0.6283928117
 40
0.7072516257
 40
0.746379093
 40
0.785087159
 40
0.8232167396
 40
0.8606122567
 40
0.8971237619
 40
0.9326161845
 40
0.9669566651
 40
1.0
 40
1.0
 40
1.0
 40
1.0
 10
16.6875195843
 20
11.3662747009
 30
0.0
 10
16.6823118215
 20
11.3662749617
 30
0.0
 10
16.6718547927
 20
11.36674704
 30
0.0
 10
16.656213633
 20
11.3688654149
 30
0.0
 10
16.6406135474
 20
11.3723932615
 30
0.0
 10
16.6196386004
 20
11.3790514395
 30
0.0
 10
16.5934749127
 20
11.3910761092
 30
0.0
 10
16.563064068
 20
11.410823507
 30
0.0
 10
16.5333417804
 20
11.4359354792
 30
0.0
 10
16.504433101
 20
11.4662736614
 30
0.0
 10
16.4764530946
 20
11.5016870269
 30
0.0
 10
16.4495226414
 20
11.5420064463
 30
0.0
 10
16.423763566
 20
11.5870410529
 30
0.0
 10
16.3992944422
 20
11.6365761991
 30
0.0
 10
16.3762332722
 20
11.6903752787
 30
0.0
 10
16.354688915
 20
11.7481787322
 30
0.0
 10
16.3347686366
 20
11.8097074999
 30
0.0
 10
16.3165667944
 20
11.874662462
 30
0.0
 10
16.3001758612
 20
11.9427279862
 30
0.0
 10
16.2856728012
 20
12.0135718762
 30
0.0
 10
16.2731327242
 20
12.0868486354
 30
0.0
 10
16.2626134458
 20
12.1621997865
 30
0.0
 10
16.254170552
 20
12.239257612
 30
0.0
 10
16.2456972807
 20
12.3442260154
 30
0.0
 10
16.2405686909
 20
12.4769941297
 30
0.0
 10
16.242641796
 20
12.6100777993
 30
0.0
 10
16.2486679311
 20
12.7159633743
 30
0.0
 10
16.2553185045
 20
12.7941733036
 30
0.0
 10
16.2640831311
 20
12.8709949284
 30
0.0
 10
16.2749109411
 20
12.9460521688
 30
0.0
 10
16.2877536873
 20
13.0189802079
 30
0.0
 10
16.3025469896
 20
13.0894279354
 30
0.0
 10
16.319223086
 20
13.1570389101
 30
0.0
 10
16.3317871842
 20
13.2008913252
 30
0.0
 10
16.3383896854
 20
13.2222570269
 30
0.0
  0
SPLINE
  5
33D
100
AcDbEntity
  8
0
100
AcDbSpline
 62
7
  6
CONTINUOUS
 70
0
 71
3
 72
29
 73
25
 74
0
 42
0.0000001
 43
0.0000001
 44
0.0000000001
 40
0.0
 40
0.0
 40
0.0
 40
0.0
 40
0.0154290782
 40
0.0312714433
 40
0.0479014024
 40
0.065631933
 40
0.0846987513
 40
0.1052710922
 40
0.1274577325
 40
0.1513133412
 40
0.1768578193
 40
0.2040732022
 40
0.2329151986
 40
0.2633208195
 40
0.328447751
 40
0.3986177772
 40
0.4727920683
 40
0.5498013688
 40
0.628391287
 40
0.7072611124
 40
0.7851004612
 40
0.8606188719
 40
0.9326310234
 40
1.0
 40
1.0
 40
1.0
 40
1.0
 10
16.6875195215
 20
12.8860547674
 30
0.0
 10
16.690942664
 20
12.8860551633
 30
0.0
 10
16.6978960073
 20
12.8854203216
 30
0.0
 10
16.7081914569
 20
12.8825937812
 30
0.0
 10
16.7183528295
 20
12.8779240261
 30
0.0
 10
16.7283235964
 20
12.8714478267
 30
0.0
 10
16.7380686076
 20
12.8632155012
 30
0.0
 10
16.7475471527
 20
12.8532688508
 30
0.0
 10
16.756719715
 20
12.8416573931
 30
0.0
 10
16.7655506076
 20
12.8284388817
 30
0.0
 10
16.7739953568
 20
12.8136731033
 30
0.0
 10
16.7820175712
 20
12.7974322008
 30
0.0
 10
16.7895799563
 20
12.7797936256
 30
0.0
 10
16.7992172727
 20
12.7539277177
 30
0.0
 10
16.8097500889
 20
12.7186595825
 30
0.0
 10
16.8197725059
 20
12.6732445942
 30
0.0
 10
16.8272547458
 20
12.6246760704
 30
0.0
 10
16.8320475987
 20
12.5738961852
 30
0.0
 10
16.8340579012
 20
12.5218891467
 30
0.0
 10
16.8332468318
 20
12.4696654549
 30
0.0
 10
16.8296189357
 20
12.4182441467
 30
0.0
 10
16.8232661515
 20
12.3686181448
 30
0.0
 10
16.814301913
 20
12.3217587593
 30
0.0
 10
16.8063995645
 20
12.2918262293
 30
0.0
 10
16.8019865948
 20
12.2775458523
 30
0.0
  0
SPLINE
  5
33E
100
AcDbEntity
  8
0
100
AcDbSpline
 62
7
  6
CONTINUOUS
 70
0
 71
3
 72
27
 73
23
 74
0
 42
0.0000001
 43
0.0000001
 44
0.0000000001
 40
0.0
 40
0.0
 40
0.0
 40
0.0
 40
0.0939462684
 40
0.1828061449
 40
0.2662077533
 40
0.3439548255
 40
0.4159564432
 40
0.4822451978
 40
0.5430401062
 40
0.5987828689
 40
0.6501994247
 40
0.674622178
 40
0.6983823319
 40
0.7216587503
 40
0.7446446245
 40
0.7675432012
 40
0.7905600471
 40
0.8138969626
 40
0.8377462772
 40
0.8876204916
 40
0.9414207274
 40
1.0
 40
1.0
 40
1.0
 40
1.0
 10
16.3567812283
 20
13.2129328774
 30
0.0
 10
16.3639089808
 20
13.2359982931
 30
0.0
 10
16.3787968854
 20
13.2805757703
 30
0.0
 10
16.403777152
 20
13.3442946367
 30
0.0
 10
16.4306647008
 20
13.4026881192
 30
0.0
 10
16.4592857227
 20
13.4553798138
 30
0.0
 10
16.4894669865
 20
13.5020499737
 30
0.0
 10
16.5210360648
 20
13.5424093358
 30
0.0
 10
16.5538197108
 20
13.5762107717
 30
0.0
 10
16.5876501595
 20
13.6032208458
 30
0.0
 10
16.6170930949
 20
13.6201887989
 30
0.0
 10
16.6408092117
 20
13.6298973729
 30
0.0
 10
16.6584053031
 20
13.6352484412
 30
0.0
 10
16.6760799883
 20
13.6387784902
 30
0.0
 10
16.6938027177
 20
13.6404752535
 30
0.0
 10
16.7115394964
 20
13.6403357896
 30
0.0
 10
16.729256837
 20
13.6383632317
 30
0.0
 10
16.7469229203
 20
13.6345600886
 30
0.0
 10
16.7707109399
 20
13.6269495349
 30
0.0
 10
16.800374766
 20
13.6125912607
 30
0.0
 10
16.83459669
 20
13.5885246474
 30
0.0
 10
16.8558032474
 20
13.5687918152
 30
0.0
 10
16.8662446359
 20
13.5579484525
 30
0.0
  0
SPLINE
  5
33F
100
AcDbEntity
  8
0
100
AcDbSpline
 62
7
  6
CONTINUOUS
 70
0
 71
3
 72
23
 73
19
 74
0
 42
0.0000001
 43
0.0000001
 44
0.0000000001
 40
0.0
 40
0.0
 40
0.0
 40
0.0
 40
0.0938082315
 40
0.1823516819
 40
0.2652012312
 40
0.342134612
 40
0.4130753184
 40
0.4781099894
 40
0.5375184184
 40
0.5918522596
 40
0.6419996
 40
0.6892083018
 40
0.7350615352
 40
0.781315254
 40
0.8296703987
 40
0.881573461
 40
0.9381060582
 40
1.0
 40
1.0
 40
1.0
 40
1.0
 10
16.8203781377
 20
12.2682217028
 30
0.0
 10
16.8178191508
 20
12.2599408176
 30
0.0
 10
16.8124638498
 20
12.2439575811
 30
0.0
 10
16.8034432699
 20
12.2211618992
 30
0.0
 10
16.7937127957
 20
12.2003658364
 30
0.0
 10
16.783344423
 20
12.1817169319
 30
0.0
 10
16.7723998
 20
12.1653405057
 30
0.0
 10
16.7609488997
 20
12.1513421213
 30
0.0
 10
16.7490564198
 20
12.139815679
 30
0.0
 10
16.7367822959
 20
12.1308499142
 30
0.0
 10
16.7241912875
 20
12.1245251221
 30
0.0
 10
16.7113593597
 20
12.1209404674
 30
0.0
 10
16.6984096558
 20
12.1201600495
 30
0.0
 10
16.6854961161
 20
12.1222162406
 30
0.0
 10
16.6727603851
 20
12.1270468073
 30
0.0
 10
16.6603049532
 20
12.1345753527
 30
0.0
 10
16.648196754
 20
12.1447050916
 30
0.0
 10
16.640748365
 20
12.1527596538
 30
0.0
 10
16.6370841659
 20
12.1571500934
 30
0.0
  0
SPLINE
  5
340
100
AcDbEntity
  8
AXIS
100
AcDbSpline
 62
7
  6
CONTINUOUS
 70
0
 71
3
 72
37
 73
33
 74
0
 42
0.0000001
 43
0.0000001
 44
0.0000000001
 40
0.0
 40
0.0
 40
0.0
 40
0.0
 40
0.0326044524
 40
0.0664597867
 40
0.1014298251
 40
0.1373904928
 40
0.1742156861
 40
0.2117653821
 40
0.2498943521
 40
0.2884540053
 40
0.3662531854
 40
0.4439427351
 40
0.4823662218
 40
0.5203055511
 40
0.5576133002
 40
0.594147529
 40
0.6297707488
 40
0.6643537754
 40
0.6977740271
 40
0.7299204324
 40
0.7606913109
 40
0.7900004524
 40
0.8177750462
 40
0.8439632273
 40
0.8685328533
 40
0.8914811069
 40
0.9128353678
 40
0.932665581
 40
0.9510882107
 40
0.9682800229
 40
0.9844813048
 40
1.0
 40
1.0
 40
1.0
 40
1.0
 10
15.9841622465
 20
13.2244132365
 30
0.0
 10
15.9777084951
 20
13.2035288891
 30
0.0
 10
15.9654111328
 20
13.1606900256
 30
0.0
 10
15.9490337035
 20
13.0946772352
 30
0.0
 10
15.9344461351
 20
13.0259441616
 30
0.0
 10
15.9217138477
 20
12.9548211223
 30
0.0
 10
15.9108985767
 20
12.8816334229
 30
0.0
 10
15.9020457646
 20
12.8067192799
 30
0.0
 10
15.8952024141
 20
12.730427307
 30
0.0
 10
15.888776892
 20
12.6270437551
 30
0.0
 10
15.8859539066
 20
12.4969143861
 30
0.0
 10
15.890001221
 20
12.3669082056
 30
0.0
 10
15.8974071561
 20
12.2638827753
 30
0.0
 10
15.9049692185
 20
12.188041061
 30
0.0
 10
15.9145268069
 20
12.113701739
 30
0.0
 10
15.9260305268
 20
12.0412095865
 30
0.0
 10
15.9394316626
 20
11.9709020262
 30
0.0
 10
15.9546621932
 20
11.9031049414
 30
0.0
 10
15.9716564944
 20
11.8381334992
 30
0.0
 10
15.9903295826
 20
11.7762877219
 30
0.0
 10
16.0106005031
 20
11.7178545924
 30
0.0
 10
16.0323691812
 20
11.6631020181
 30
0.0
 10
16.0555417608
 20
11.6122832351
 30
0.0
 10
16.0800059593
 20
11.5656282325
 30
0.0
 10
16.1056587828
 20
11.523351863
 30
0.0
 10
16.1323806495
 20
11.4856416738
 30
0.0
 10
16.1600653862
 20
11.4526723946
 30
0.0
 10
16.1885940041
 20
11.4245896162
 30
0.0
 10
16.2178625447
 20
11.4015356615
 30
0.0
 10
16.2477580796
 20
11.3836283447
 30
0.0
 10
16.2781538103
 20
11.3710004343
 30
0.0
 10
16.2989699311
 20
11.3660993871
 30
0.0
 10
16.309267363
 20
11.3646133934
 30
0.0
  0
SPLINE
  5
341
100
AcDbEntity
  8
0
100
AcDbSpline
 62
7
  6
CONTINUOUS
 70
0
 71
3
 72
18
 73
14
 74
0
 42
0.0000001
 43
0.0000001
 44
0.0000000001
 40
0.0
 40
0.0
 40
0.0
 40
0.0
 40
0.1726387147
 40
0.3317033875
 40
0.4761004642
 40
0.6055215328
 40
0.7203886702
 40
0.7728190219
 40
0.822272064
 40
0.8691550088
 40
0.9139778655
 40
0.9573604906
 40
1.0
 40
1.0
 40
1.0
 40
1.0
 10
16.8019865948
 20
12.2775458523
 30
0.0
 10
16.7987045043
 20
12.2669250049
 30
0.0
 10
16.7917602804
 20
12.2467054841
 30
0.0
 10
16.7796480899
 20
12.2185077875
 30
0.0
 10
16.7663727031
 20
12.1939448511
 30
0.0
 10
16.7521005851
 20
12.173316432
 30
0.0
 10
16.7391116651
 20
12.1591808664
 30
0.0
 10
16.7283335175
 20
12.1502825002
 30
0.0
 10
16.7203549207
 20
12.1449481664
 30
0.0
 10
16.7122591235
 20
12.1407692387
 30
0.0
 10
16.704067653
 20
12.1377688723
 30
0.0
 10
16.695812167
 20
12.1359606079
 30
0.0
 10
16.690265129
 20
12.135555536
 30
0.0
 10
16.6875195215
 20
12.1355552184
 30
0.0
  0
ENDSEC
  0
SECTION
  2
OBJECTS
  0
DICTIONARY
  5
C
100
AcDbDictionary
280
0
281
1
  3
ACAD_GROUP
350
D
  3
ACAD_MLINESTYLE
350
17
  3
ACAD_LAYOUT
350
1A
  3
ACAD_PLOTSETTINGS
350
19
  3
ACAD_PLOTSTYLENAME
350
E
  0
DICTIONARY
  5
D
102
{ACAD_REACTORS
330
C
102
}
100
AcDbDictionary
280
0
281
1
  0
ACDBDICTIONARYWDFLT
  5
E
102
{ACAD_REACTORS
330
C
102
}
100
AcDbDictionary
281
1
  3
Normal
350
F
100
AcDbDictionaryWithDefault
340
F
  0
DICTIONARY
  5
17
102
{ACAD_REACTORS
330
C
102
}
100
AcDbDictionary
280
0
281
1
  3
Standard
350
18
  0
DICTIONARY
  5
19
102
{ACAD_REACTORS
330
C
102
}
100
AcDbDictionary
281
1
  0
DICTIONARY
  5
1A
102
{ACAD_REACTORS
330
C
102
}
100
AcDbDictionary
281
1
  3
Model
350
342
  3
Layout1
350
343
  0
ACDBPLACEHOLDER
  5
F
102
{ACAD_REACTORS
330
E
102
}
  0
MLINESTYLE
  5
18
102
{ACAD_REACTORS
330
17
102
}
100
AcDbMlineStyle
  2
STANDARD
 70
0
  3

 62
256
 51
90.0
 52
90.0
 71
2
 49
0.5
 62
256
  6
BYLAYER
 49
-0.5
 62
256
  6
BYLAYER
  0
LAYOUT
  5
342
102
{ACAD_REACTORS
330
1A
102
}
100
AcDbPlotSettings
  1

  2
none_device
  4
ANSI_C_(22.00_x_17.00_Inches)
  6

 40
0.0
 41
0.0
 42
0.0
 43
0.0
 44
558.8
 45
431.8
 46
0.0
 47
0.0
 48
0.0
 49
0.0
140
0.0
141
0.0
142
1.0
143
1.0
 70
1024
 72
0
 73
0
 74
0
  7

 75
0
147
1.0
148
0.0
149
0.0
100
AcDbLayout
  1
Model
 70
0
 71
0
 10
0.0
 20
0.0
 11
22.0
 21
17.0
 12
0.0
 22
0.0
 32
0.0
 14
0.0
 24
0.0
 34
0.0
 15
0.0
 25
0.0
 35
0.0
146
0.0
 13
0.0
 23
0.0
 33
0.0
 16
1.0
 26
0.0
 36
0.0
 17
0.0
 27
1.0
 37
0.0
 76
0
330
224
345
0
346
0
  0
LAYOUT
  5
343
102
{ACAD_REACTORS
330
1A
102
}
100
AcDbPlotSettings
  1

  2
none_device
  4
ANSI_C_(22.00_x_17.00_Inches)
  6

 40
0.0
 41
0.0
 42
0.0
 43
0.0
 44
558.8
 45
431.8
 46
0.0
 47
0.0
 48
0.0
 49
0.0
140
0.0
141
0.0
142
1.0
143
1.0
 70
0
 72
0
 73
0
 74
0
  7

 75
0
147
1.0
148
0.0
149
0.0
100
AcDbLayout
  1
Layout1
 70
0
 71
1
 10
0.0
 20
0.0
 11
22.0
 21
17.0
 12
0.0
 22
0.0
 32
0.0
 14
0.0
 24
0.0
 34
0.0
 15
0.0
 25
0.0
 35
0.0
146
0.0
 13
0.0
 23
0.0
 33
0.0
 16
1.0
 26
0.0
 36
0.0
 17
0.0
 27
1.0
 37
0.0
 76
0
330
225
345
0
346
0
  0
ENDSEC
  0
EOF