999
DXF file: _cgs_temp_output.dxf
999
Pro/ENGINEER 2016360 by Parametric Technology Corporation
  0
SECTION
  2
HEADER
  9
$ACADVER
  1
AC1021
  9
$DWGCODEPAGE
  3
ANSI_1252
  9
$EXTMAX
 10
22.0
 20
17.0
 30
0.0
  9
$EXTMIN
 10
0.0
 20
0.0
 30
0.0
  9
$LIMMIN
 10
0.0
 20
0.0
  9
$LIMMAX
 10
22.0
 20
17.0
  9
$VIEWCTR
 10
11.0
 20
8.5
  9
$VIEWSIZE
 40
17.0
  9
$CLAYER
  8
0
  9
$LTSCALE
 40
1.21
  9
$CELTYPE
  6
BYLAYER
  9
$DIMSCALE
 40
1.0
  9
$DIMASZ
 40
0.1875
  9
$DIMEXO
 40
0.0625
  9
$DIMDLI
 40
0.836
  9
$DIMEXE
 40
0.125
  9
$DIMCEN
 40
0.198
  9
$DIMLFAC
 40
1.0
  9
$DIMBLK
  1
_CLOSED
  9
$DIMALT
 70
0
  9
$DIMALTF
 40
25.4
  9
$DIMTXT
 40
0.15625
  9
$DIMTOL
 70
0
  9
$DIMLIM
 70
0
  9
$DIMTFAC
 40
1.0
  9
$DIMGAP
 40
0.09
  9
$DIMDSEP
 70
46
  9
$AUNITS
 70
0
  9
$PDMODE
 70
3
  9
$PDSIZE
 40
0.3125
  9
$HANDSEED
  5
2DD
  9
$TILEMODE
 70
1
  9
$MEASUREMENT
 70
0
  9
$INSUNITS
 70
1
  0
ENDSEC
  0
SECTION
  2
CLASSES
  0
CLASS
  1
ACDBDICTIONARYWDFLT
  2
AcDbDictionaryWithDefault
  3
AutoCAD 2000
 90
0
 91
1
280
0
281
0
  0
CLASS
  1
ACDBPLACEHOLDER
  2
AcDbPlaceHolder
  3
AutoCAD 2000
 90
0
 91
1
280
0
281
0
  0
CLASS
  1
LAYOUT
  2
AcDbLayout
  3
AutoCAD 2000
 90
0
 91
0
280
0
281
0
  0
ENDSEC
  0
SECTION
  2
TABLES
  0
TABLE
  2
VPORT
  5
8
100
AcDbSymbolTable
 70
2
  0
VPORT
  5
1F4
100
AcDbSymbolTableRecord
100
AcDbViewportTableRecord
  2
*ACTIVE
 70
0
 10
0.0
 20
0.0
 11
1.0
 21
1.0
 12
11.0
 22
8.5
 13
0.0
 23
0.0
 14
1.0
 24
1.0
 15
0.0
 25
0.0
 16
0.0
 26
0.0
 36
1.0
 17
0.0
 27
0.0
 37
0.0
 40
17.0
 41
1.2941176471
 42
50.0
 43
0.0
 44
0.0
 50
0.0
 51
0.0
 71
0
 72
100
 73
1
 74
1
 75
0
 76
0
 77
0
 78
0
  0
ENDTAB
  0
TABLE
  2
LTYPE
  5
5
100
AcDbSymbolTable
 70
6
  0
LTYPE
  5
14
100
AcDbSymbolTableRecord
100
AcDbLinetypeTableRecord
  2
BYBLOCK
 70
0
  3

 72
65
 73
0
 40
0.0
  0
LTYPE
  5
15
100
AcDbSymbolTableRecord
100
AcDbLinetypeTableRecord
  2
BYLAYER
 70
0
  3

 72
65
 73
0
 40
0.0
  0
LTYPE
  5
16
100
AcDbSymbolTableRecord
100
AcDbLinetypeTableRecord
  2
CONTINUOUS
 70
64
  3
Solid line
 72
65
 73
0
 40
0.0
  0
LTYPE
  5
1F5
100
AcDbSymbolTableRecord
100
AcDbLinetypeTableRecord
  2
CENTER
 70
64
  3
____ _ ____ _ ____ _ ____ _ ____ _ ____ _ ____
 72
65
 73
4
 40
0.6
 49
0.375
 74
0
 49
-0.075
 74
0
 49
0.075
 74
0
 49
-0.075
 74
0
  0
LTYPE
  5
1F6
100
AcDbSymbolTableRecord
100
AcDbLinetypeTableRecord
  2
HIDDEN
 70
64
  3
- - - - - - - - - - - - - - - - - - - -
 72
65
 73
2
 40
0.2
 49
0.1
 74
0
 49
-0.1
 74
0
  0
LTYPE
  5
1F7
100
AcDbSymbolTableRecord
100
AcDbLinetypeTableRecord
  2
PHANTOM
 70
64
  3
_____ _ _ _____ _ _ _____ _ _ _____
 72
65
 73
6
 40
0.8
 49
0.45
 74
0
 49
-0.05
 74
0
 49
0.1
 74
0
 49
-0.05
 74
0
 49
0.1
 74
0
 49
-0.05
 74
0
  0
LTYPE
  5
1F8
100
AcDbSymbolTableRecord
100
AcDbLinetypeTableRecord
  2
DOT
 70
64
  3
. . . . . . . . . . . . . . . . . . . .
 72
65
 73
2
 40
0.2
 49
0.1
 74
0
 49
-0.1
 74
0
  0
LTYPE
  5
1F9
100
AcDbSymbolTableRecord
100
AcDbLinetypeTableRecord
  2
DASHED
 70
64
  3
- - - - - - - - - - - - - - - - - - - -
 72
65
 73
2
 40
0.2
 49
0.1
 74
0
 49
-0.1
 74
0
  0
ENDTAB
  0
TABLE
  2
LAYER
  5
2
100
AcDbSymbolTable
 70
36
  0
LAYER
  5
10
100
AcDbSymbolTableRecord
100
AcDbLayerTableRecord
  2
0
 70
0
 62
7
  6
CONTINUOUS
370
-3
390
F
  0
LAYER
  5
1FA
100
AcDbSymbolTableRecord
100
AcDbLayerTableRecord
  2
DEFAULT_1
 70
0
 62
7
  6
CENTER
370
-3
390
F
  0
LAYER
  5
1FB
100
AcDbSymbolTableRecord
100
AcDbLayerTableRecord
  2
DEFAULT_2
 70
0
 62
8
  6
HIDDEN
370
-3
390
F
  0
LAYER
  5
1FC
100
AcDbSymbolTableRecord
100
AcDbLayerTableRecord
  2
DEFAULT_3
 70
0
 62
7
  6
PHANTOM
370
-3
390
F
  0
LAYER
  5
1FD
100
AcDbSymbolTableRecord
100
AcDbLayerTableRecord
  2
01_ALL_DTM_PLN
 70
0
 62
7
  6
CONTINUOUS
370
-3
390
F
  0
LAYER
  5
1FE
100
AcDbSymbolTableRecord
100
AcDbLayerTableRecord
  2
01__ASM_ALL_DTM_PLN
 70
0
 62
7
  6
CONTINUOUS
370
-3
390
F
  0
LAYER
  5
1FF
100
AcDbSymbolTableRecord
100
AcDbLayerTableRecord
  2
01__ASM_DEF_DTM_PLN
 70
0
 62
7
  6
CONTINUOUS
370
-3
390
F
  0
LAYER
  5
200
100
AcDbSymbolTableRecord
100
AcDbLayerTableRecord
  2
01___PRT_ALL_DTM_PLN
 70
0
 62
7
  6
CONTINUOUS
370
-3
390
F
  0
LAYER
  5
201
100
AcDbSymbolTableRecord
100
AcDbLayerTableRecord
  2
01___PRT_DEF_DTM_PLN
 70
0
 62
7
  6
CONTINUOUS
370
-3
390
F
  0
LAYER
  5
202
100
AcDbSymbolTableRecord
100
AcDbLayerTableRecord
  2
02_ALL_AXES
 70
0
 62
7
  6
CONTINUOUS
370
-3
390
F
  0
LAYER
  5
203
100
AcDbSymbolTableRecord
100
AcDbLayerTableRecord
  2
02__ASM_ALL_AXES
 70
0
 62
7
  6
CONTINUOUS
370
-3
390
F
  0
LAYER
  5
204
100
AcDbSymbolTableRecord
100
AcDbLayerTableRecord
  2
02___PRT_ALL_AXES
 70
0
 62
7
  6
CONTINUOUS
370
-3
390
F
  0
LAYER
  5
205
100
AcDbSymbolTableRecord
100
AcDbLayerTableRecord
  2
03_ALL_CURVES
 70
0
 62
7
  6
CONTINUOUS
370
-3
390
F
  0
LAYER
  5
206
100
AcDbSymbolTableRecord
100
AcDbLayerTableRecord
  2
03__ASM_ALL_CURVES
 70
0
 62
7
  6
CONTINUOUS
370
-3
390
F
  0
LAYER
  5
207
100
AcDbSymbolTableRecord
100
AcDbLayerTableRecord
  2
03___PRT_ALL_CURVES
 70
0
 62
7
  6
CONTINUOUS
370
-3
390
F
  0
LAYER
  5
208
100
AcDbSymbolTableRecord
100
AcDbLayerTableRecord
  2
04_ALL_DTM_PNT
 70
0
 62
7
  6
CONTINUOUS
370
-3
390
F
  0
LAYER
  5
209
100
AcDbSymbolTableRecord
100
AcDbLayerTableRecord
  2
04__ASM_ALL_DTM_PNT
 70
0
 62
7
  6
CONTINUOUS
370
-3
390
F
  0
LAYER
  5
20A
100
AcDbSymbolTableRecord
100
AcDbLayerTableRecord
  2
04___PRT_ALL_DTM_PNT
 70
0
 62
7
  6
CONTINUOUS
370
-3
390
F
  0
LAYER
  5
20B
100
AcDbSymbolTableRecord
100
AcDbLayerTableRecord
  2
05_ALL_DTM_CSYS
 70
0
 62
7
  6
CONTINUOUS
370
-3
390
F
  0
LAYER
  5
20C
100
AcDbSymbolTableRecord
100
AcDbLayerTableRecord
  2
05__ASM_ALL_DTM_CSYS
 70
0
 62
7
  6
CONTINUOUS
370
-3
390
F
  0
LAYER
  5
20D
100
AcDbSymbolTableRecord
100
AcDbLayerTableRecord
  2
05__ASM_DEF_DTM_CSYS
 70
0
 62
7
  6
CONTINUOUS
370
-3
390
F
  0
LAYER
  5
20E
100
AcDbSymbolTableRecord
100
AcDbLayerTableRecord
  2
05___PRT_ALL_DTM_CSYS
 70
0
 62
7
  6
CONTINUOUS
370
-3
390
F
  0
LAYER
  5
20F
100
AcDbSymbolTableRecord
100
AcDbLayerTableRecord
  2
05___PRT_DEF_DTM_CSYS
 70
0
 62
7
  6
CONTINUOUS
370
-3
390
F
  0
LAYER
  5
210
100
AcDbSymbolTableRecord
100
AcDbLayerTableRecord
  2
06_ALL_SURFS
 70
0
 62
7
  6
CONTINUOUS
370
-3
390
F
  0
LAYER
  5
211
100
AcDbSymbolTableRecord
100
AcDbLayerTableRecord
  2
06__ASM_ALL_SURFS
 70
0
 62
7
  6
CONTINUOUS
370
-3
390
F
  0
LAYER
  5
212
100
AcDbSymbolTableRecord
100
AcDbLayerTableRecord
  2
06___PRT_ALL_SURFS
 70
0
 62
7
  6
CONTINUOUS
370
-3
390
F
  0
LAYER
  5
213
100
AcDbSymbolTableRecord
100
AcDbLayerTableRecord
  2
07__ASM_ALL_SKELETONS
 70
0
 62
7
  6
CONTINUOUS
370
-3
390
F
  0
LAYER
  5
214
100
AcDbSymbolTableRecord
100
AcDbLayerTableRecord
  2
LAYER_AXIS
 70
0
 62
7
  6
CONTINUOUS
370
-3
390
F
  0
LAYER
  5
215
100
AcDbSymbolTableRecord
100
AcDbLayerTableRecord
  2
LAYER_CHAMFER_FEAT
 70
0
 62
7
  6
CONTINUOUS
370
-3
390
F
  0
LAYER
  5
216
100
AcDbSymbolTableRecord
100
AcDbLayerTableRecord
  2
LAYER_CUT_FEAT
 70
0
 62
7
  6
CONTINUOUS
370
-3
390
F
  0
LAYER
  5
217
100
AcDbSymbolTableRecord
100
AcDbLayerTableRecord
  2
LAYER_DATUM
 70
0
 62
7
  6
CONTINUOUS
370
-3
390
F
  0
LAYER
  5
218
100
AcDbSymbolTableRecord
100
AcDbLayerTableRecord
  2
LAYER_DIM
 70
0
 62
7
  6
CONTINUOUS
370
-3
390
F
  0
LAYER
  5
219
100
AcDbSymbolTableRecord
100
AcDbLayerTableRecord
  2
LAYER_FEATURE
 70
0
 62
7
  6
CONTINUOUS
370
-3
390
F
  0
LAYER
  5
21A
100
AcDbSymbolTableRecord
100
AcDbLayerTableRecord
  2
LAYER_GEOM_FEAT
 70
0
 62
7
  6
CONTINUOUS
370
-3
390
F
  0
LAYER
  5
21B
100
AcDbSymbolTableRecord
100
AcDbLayerTableRecord
  2
LAYER_NOGEOM_FEAT
 70
0
 62
7
  6
CONTINUOUS
370
-3
390
F
  0
LAYER
  5
21C
100
AcDbSymbolTableRecord
100
AcDbLayerTableRecord
  2
LAYER_PARAMETER_DIM
 70
0
 62
7
  6
CONTINUOUS
370
-3
390
F
  0
LAYER
  5
21D
100
AcDbSymbolTableRecord
100
AcDbLayerTableRecord
  2
LAYER_PROTRUSION_FEAT
 70
0
 62
7
  6
CONTINUOUS
370
-3
390
F
  0
LAYER
  5
21E
100
AcDbSymbolTableRecord
100
AcDbLayerTableRecord
  2
LAYER_QUILT
 70
0
 62
7
  6
CONTINUOUS
370
-3
390
F
  0
LAYER
  5
21F
100
AcDbSymbolTableRecord
100
AcDbLayerTableRecord
  2
LAYER_ROUND_FEAT
 70
0
 62
7
  6
CONTINUOUS
370
-3
390
F
  0
ENDTAB
  0
TABLE
  2
STYLE
  5
3
100
AcDbSymbolTable
 70
1
  0
STYLE
  5
11
100
AcDbSymbolTableRecord
100
AcDbTextStyleTableRecord
  2
STANDARD
 70
0
 40
0.0
 41
0.8
 50
0.0
 71
0
 42
0.2
  3
txt
  4

  0
STYLE
  5
220
100
AcDbSymbolTableRecord
100
AcDbTextStyleTableRecord
  2
TEXTSTYLE_1
 70
0
 40
0.0
 41
0.8
 50
0.0
 71
0
 42
0.2
  3
gdt
  4

  0
ENDTAB
  0
TABLE
  2
VIEW
  5
6
100
AcDbSymbolTable
 70
0
  0
ENDTAB
  0
TABLE
  2
UCS
  5
7
100
AcDbSymbolTable
 70
0
  0
ENDTAB
  0
TABLE
  2
APPID
  5
9
100
AcDbSymbolTable
 70
1
  0
APPID
  5
221
100
AcDbSymbolTableRecord
100
AcDbRegAppTableRecord
  2
ACAD
 70
0
  0
ENDTAB
  0
TABLE
  2
BLOCK_RECORD
  5
1
100
AcDbSymbolTable
 70
0
  0
BLOCK_RECORD
  5
222
100
AcDbSymbolTableRecord
100
AcDbBlockTableRecord
  2
*Model_Space
  0
BLOCK_RECORD
  5
223
100
AcDbSymbolTableRecord
100
AcDbBlockTableRecord
  2
*Paper_Space
  0
ENDTAB
  0
TABLE
  2
DIMSTYLE
  5
A
100
AcDbSymbolTable
 70
1
100
AcDbDimStyleTable
 71
0
  0
DIMSTYLE
105
224
100
AcDbSymbolTableRecord
100
AcDbDimStyleTableRecord
  2
STANDARD
 70
0
  3

  4

 40
1.0
 41
0.1875
 42
0.0625
 43
0.38
 44
0.125
 45
0.0
 46
0.0
 47
0.0001
 48
0.0001
140
0.15625
141
0.09
142
0.0
143
25.4
144
1.0
145
0.0
146
1.0
147
0.09
 71
0.0
 72
0.0
 73
1
 74
1
 75
0
 76
0
 77
0
 78
4
 79
1
170
0
171
3
172
0
173
0
174
0
175
0
176
0
177
0
178
0
270
2
179
4
271
4
272
4
273
2
274
2
275
0
280
0
281
0
282
0
283
1
284
4
285
0
286
0
287
3
288
0
340
11
278
46
  0
ENDTAB
  0
ENDSEC
  0
SECTION
  2
BLOCKS
  0
BLOCK
  5
20
100
AcDbEntity
  8
0
100
AcDbBlockBegin
  2
*Model_Space
 70
0
 10
0.0
 20
0.0
 30
0.0
  3
*Model_Space
  1

  0
ENDBLK
  5
21
100
AcDbEntity
  8
0
100
AcDbBlockEnd
  0
BLOCK
  5
1C
100
AcDbEntity
  8
0
100
AcDbBlockBegin
  2
*Paper_Space
 70
0
 10
0.0
 20
0.0
 30
0.0
  3
*Paper_Space
  1

  0
ENDBLK
  5
1D
100
AcDbEntity
  8
0
100
AcDbBlockEnd
  0
ENDSEC
  0
SECTION
  2
ENTITIES
  0
MTEXT
  5
225
100
AcDbEntity
  8
0
100
AcDbMText
 62
7
  6
CONTINUOUS
  7
STANDARD
 71
1
 72
1
 10
15.9560215477
 20
0.9479130325
 30
0.0
 11
1.0
 21
0.0
 31
0.0
 44
0.9
  1
SCALE: 1:1.000
 40
0.3
 41
3.36
  0
LINE
  5
226
100
AcDbEntity
  8
0
100
AcDbLine
 62
7
  6
CONTINUOUS
 10
0.0
 20
0.0
 11
0.0
 21
17.0
  0
LINE
  5
227
100
AcDbEntity
  8
0
100
AcDbLine
 62
7
  6
CONTINUOUS
 10
0.0
 20
0.0
 11
22.0
 21
0.0
  0
LINE
  5
228
100
AcDbEntity
  8
0
100
AcDbLine
 62
7
  6
CONTINUOUS
 10
0.0
 20
17.0
 11
22.0
 21
17.0
  0
LINE
  5
229
100
AcDbEntity
  8
0
100
AcDbLine
 62
7
  6
CONTINUOUS
 10
22.0
 20
0.0
 11
22.0
 21
17.0
  0
LINE
  5
22A
100
AcDbEntity
  8
LAYER_FEATURE
100
AcDbLine
 62
7
  6
CONTINUOUS
 10
4.8208720839
 20
12.4750477814
 11
4.8208720839
 21
12.5150477814
  0
LINE
  5
22B
100
AcDbEntity
  8
LAYER_FEATURE
100
AcDbLine
 62
7
  6
CONTINUOUS
 10
4.8208720839
 20
13.1850477814
 11
4.8208720839
 21
13.2250477814
  0
LINE
  5
22C
100
AcDbEntity
  8
LAYER_CUT_FEAT
100
AcDbLine
 62
7
  6
CONTINUOUS
 10
4.9519468432
 20
13.1350477814
 11
4.9519468432
 21
12.5650477814
  0
LINE
  5
22D
100
AcDbEntity
  8
LAYER_CUT_FEAT
100
AcDbLine
 62
7
  6
CONTINUOUS
 10
5.0156518241
 20
13.1350477814
 11
5.0156518241
 21
12.5650477814
  0
LINE
  5
22E
100
AcDbEntity
  8
LAYER_CUT_FEAT
100
AcDbLine
 62
7
  6
CONTINUOUS
 10
5.1915389833
 20
13.1350477814
 11
5.1915389833
 21
12.5650477814
  0
LINE
  5
22F
100
AcDbEntity
  8
02___PRT_ALL_AXES
100
AcDbLine
 62
7
  6
CONTINUOUS
 10
5.2273720839
 20
11.9750477814
 11
5.2273720839
 21
12.4750477814
  0
LINE
  5
230
100
AcDbEntity
  8
LAYER_CUT_FEAT
100
AcDbLine
 62
7
  6
CONTINUOUS
 10
5.4605482178
 20
13.1350477814
 11
5.4605482178
 21
12.5650477814
  0
LINE
  5
231
100
AcDbEntity
  8
02___PRT_ALL_AXES
100
AcDbLine
 62
7
  6
CONTINUOUS
 10
5.2273720839
 20
11.9750477814
 11
6.9143720839
 21
11.9750477814
  0
LINE
  5
232
100
AcDbEntity
  8
LAYER_FEATURE
100
AcDbLine
 62
7
  6
CONTINUOUS
 10
4.8208720839
 20
12.5150477814
 11
4.8958302136
 21
12.5525268462
  0
LINE
  5
233
100
AcDbEntity
  8
LAYER_FEATURE
100
AcDbLine
 62
7
  6
CONTINUOUS
 10
4.8208720839
 20
12.4750477814
 11
7.3208720839
 21
12.4750477814
  0
LINE
  5
234
100
AcDbEntity
  8
LAYER_FEATURE
100
AcDbLine
 62
7
  6
CONTINUOUS
 10
4.8208720839
 20
12.5150477814
 11
7.3208720839
 21
12.5150477814
  0
LINE
  5
235
100
AcDbEntity
  8
LAYER_FEATURE
100
AcDbLine
 62
7
  6
CONTINUOUS
 10
7.192874349
 20
12.5650477814
 11
4.9488698187
 21
12.5650477814
  0
LINE
  5
236
100
AcDbEntity
  8
LAYER_FEATURE
100
AcDbLine
 62
7
  6
CONTINUOUS
 10
4.8958302136
 20
13.1475687165
 11
4.8208720839
 21
13.1850477814
  0
LINE
  5
237
100
AcDbEntity
  8
LAYER_FEATURE
100
AcDbLine
 62
7
  6
CONTINUOUS
 10
7.2459139542
 20
13.1475687165
 11
7.3208720839
 21
13.1850477814
  0
LINE
  5
238
100
AcDbEntity
  8
LAYER_FEATURE
100
AcDbLine
 62
7
  6
CONTINUOUS
 10
7.192874349
 20
13.1350477814
 11
4.9488698187
 21
13.1350477814
  0
LINE
  5
239
100
AcDbEntity
  8
LAYER_FEATURE
100
AcDbLine
 62
7
  6
CONTINUOUS
 10
7.3208720839
 20
12.5150477814
 11
7.2459139542
 21
12.5525268462
  0
LINE
  5
23A
100
AcDbEntity
  8
LAYER_CUT_FEAT
100
AcDbLine
 62
7
  6
CONTINUOUS
 10
6.68119595
 20
13.1350477814
 11
6.68119595
 21
12.5650477814
  0
LINE
  5
23B
100
AcDbEntity
  8
LAYER_FEATURE
100
AcDbLine
 62
7
  6
CONTINUOUS
 10
4.8208720839
 20
13.1850477814
 11
7.3208720839
 21
13.1850477814
  0
LINE
  5
23C
100
AcDbEntity
  8
LAYER_FEATURE
100
AcDbLine
 62
7
  6
CONTINUOUS
 10
4.8208720839
 20
13.2250477814
 11
7.3208720839
 21
13.2250477814
  0
LINE
  5
23D
100
AcDbEntity
  8
02___PRT_ALL_AXES
100
AcDbLine
 62
7
  6
CONTINUOUS
 10
6.9143720839
 20
11.9750477814
 11
6.9143720839
 21
12.4750477814
  0
LINE
  5
23E
100
AcDbEntity
  8
LAYER_CUT_FEAT
100
AcDbLine
 62
7
  6
CONTINUOUS
 10
6.9502051845
 20
13.1350477814
 11
6.9502051845
 21
12.5650477814
  0
LINE
  5
23F
100
AcDbEntity
  8
LAYER_CUT_FEAT
100
AcDbLine
 62
7
  6
CONTINUOUS
 10
7.1260923436
 20
13.1350477814
 11
7.1260923436
 21
12.5650477814
  0
LINE
  5
240
100
AcDbEntity
  8
LAYER_CUT_FEAT
100
AcDbLine
 62
7
  6
CONTINUOUS
 10
7.1897973245
 20
13.1350477814
 11
7.1897973245
 21
12.5650477814
  0
LINE
  5
241
100
AcDbEntity
  8
LAYER_FEATURE
100
AcDbLine
 62
7
  6
CONTINUOUS
 10
7.3208720839
 20
12.4750477814
 11
7.3208720839
 21
12.5150477814
  0
LINE
  5
242
100
AcDbEntity
  8
LAYER_FEATURE
100
AcDbLine
 62
7
  6
CONTINUOUS
 10
7.3208720839
 20
13.1850477814
 11
7.3208720839
 21
13.2250477814
  0
LINE
  5
243
100
AcDbEntity
  8
LAYER_FEATURE
100
AcDbLine
 62
7
  6
CONTINUOUS
 10
16.1853552569
 20
4.2106247044
 11
16.1453552569
 21
4.2106247044
  0
LINE
  5
244
100
AcDbEntity
  8
LAYER_FEATURE
100
AcDbLine
 62
7
  6
CONTINUOUS
 10
15.4753552569
 20
4.2106247044
 11
15.4353552569
 21
4.2106247044
  0
LINE
  5
245
100
AcDbEntity
  8
02___PRT_ALL_AXES
100
AcDbLine
 62
7
  6
CONTINUOUS
 10
15.5253552569
 20
4.3416247044
 11
16.0953552569
 21
4.3416247044
  0
LINE
  5
246
100
AcDbEntity
  8
LAYER_CUT_FEAT
100
AcDbLine
 62
7
  6
CONTINUOUS
 10
16.0953552569
 20
4.3784730548
 11
15.5253552569
 21
4.3784730548
  0
LINE
  5
247
100
AcDbEntity
  8
LAYER_CUT_FEAT
100
AcDbLine
 62
7
  6
CONTINUOUS
 10
16.0953552569
 20
4.5276524196
 11
15.5253552569
 21
4.5276524196
  0
LINE
  5
248
100
AcDbEntity
  8
02___PRT_ALL_AXES
100
AcDbLine
 62
7
  6
CONTINUOUS
 10
15.4353552569
 20
4.6171247044
 11
14.9353552569
 21
4.6171247044
  0
LINE
  5
249
100
AcDbEntity
  8
LAYER_CUT_FEAT
100
AcDbLine
 62
7
  6
CONTINUOUS
 10
16.0953552569
 20
4.7757664977
 11
15.5253552569
 21
4.7757664977
  0
LINE
  5
24A
100
AcDbEntity
  8
02___PRT_ALL_AXES
100
AcDbLine
 62
7
  6
CONTINUOUS
 10
14.9353552569
 20
6.3041247044
 11
14.9353552569
 21
4.6171247044
  0
LINE
  5
24B
100
AcDbEntity
  8
LAYER_CUT_FEAT
100
AcDbLine
 62
7
  6
CONTINUOUS
 10
16.0953552569
 20
5.0959282788
 11
15.5253552569
 21
5.0959282788
  0
LINE
  5
24C
100
AcDbEntity
  8
LAYER_FEATURE
100
AcDbLine
 62
7
  6
CONTINUOUS
 10
15.4353552569
 20
6.7106247044
 11
15.4353552569
 21
4.2106247044
  0
LINE
  5
24D
100
AcDbEntity
  8
LAYER_FEATURE
100
AcDbLine
 62
7
  6
CONTINUOUS
 10
15.4753552569
 20
6.7106247044
 11
15.4753552569
 21
4.2106247044
  0
LINE
  5
24E
100
AcDbEntity
  8
LAYER_FEATURE
100
AcDbLine
 62
7
  6
CONTINUOUS
 10
15.5253552569
 20
4.3386223666
 11
15.5253552569
 21
6.5826270423
  0
LINE
  5
24F
100
AcDbEntity
  8
LAYER_FEATURE
100
AcDbLine
 62
7
  6
CONTINUOUS
 10
16.1453552569
 20
6.7106247044
 11
16.1078761921
 21
6.6356665747
  0
LINE
  5
250
100
AcDbEntity
  8
LAYER_FEATURE
100
AcDbLine
 62
7
  6
CONTINUOUS
 10
16.1453552569
 20
4.2106247044
 11
16.1078761921
 21
4.2855828342
  0
LINE
  5
251
100
AcDbEntity
  8
LAYER_FEATURE
100
AcDbLine
 62
7
  6
CONTINUOUS
 10
16.0953552569
 20
4.3386223666
 11
16.0953552569
 21
6.5826270423
  0
LINE
  5
252
100
AcDbEntity
  8
LAYER_FEATURE
100
AcDbLine
 62
7
  6
CONTINUOUS
 10
15.5128343218
 20
4.2855828342
 11
15.4753552569
 21
4.2106247044
  0
LINE
  5
253
100
AcDbEntity
  8
LAYER_CUT_FEAT
100
AcDbLine
 62
7
  6
CONTINUOUS
 10
16.0953552569
 20
5.9923817193
 11
15.5253552569
 21
5.9923817193
  0
LINE
  5
254
100
AcDbEntity
  8
LAYER_FEATURE
100
AcDbLine
 62
7
  6
CONTINUOUS
 10
15.5128343218
 20
6.6356665747
 11
15.4753552569
 21
6.7106247044
  0
LINE
  5
255
100
AcDbEntity
  8
LAYER_FEATURE
100
AcDbLine
 62
7
  6
CONTINUOUS
 10
16.1453552569
 20
6.7106247044
 11
16.1453552569
 21
4.2106247044
  0
LINE
  5
256
100
AcDbEntity
  8
LAYER_FEATURE
100
AcDbLine
 62
7
  6
CONTINUOUS
 10
16.1853552569
 20
6.7106247044
 11
16.1853552569
 21
4.2106247044
  0
LINE
  5
257
100
AcDbEntity
  8
LAYER_CUT_FEAT
100
AcDbLine
 62
7
  6
CONTINUOUS
 10
16.0953552569
 20
6.2804485044
 11
15.5253552569
 21
6.2804485044
  0
LINE
  5
258
100
AcDbEntity
  8
02___PRT_ALL_AXES
100
AcDbLine
 62
7
  6
CONTINUOUS
 10
15.4353552569
 20
6.3041247044
 11
14.9353552569
 21
6.3041247044
  0
LINE
  5
259
100
AcDbEntity
  8
LAYER_CUT_FEAT
100
AcDbLine
 62
7
  6
CONTINUOUS
 10
16.0953552569
 20
6.4818419702
 11
15.5253552569
 21
6.4818419702
  0
LINE
  5
25A
100
AcDbEntity
  8
LAYER_CUT_FEAT
100
AcDbLine
 62
7
  6
CONTINUOUS
 10
16.0953552569
 20
6.5747380098
 11
15.5253552569
 21
6.5747380098
  0
LINE
  5
25B
100
AcDbEntity
  8
LAYER_FEATURE
100
AcDbLine
 62
7
  6
CONTINUOUS
 10
16.1853552569
 20
6.7106247044
 11
16.1453552569
 21
6.7106247044
  0
LINE
  5
25C
100
AcDbEntity
  8
LAYER_FEATURE
100
AcDbLine
 62
7
  6
CONTINUOUS
 10
15.4753552569
 20
6.7106247044
 11
15.4353552569
 21
6.7106247044
  0
LINE
  5
25D
100
AcDbEntity
  8
LAYER_FEATURE
100
AcDbLine
 62
7
  6
CONTINUOUS
 10
14.1860615419
 20
12.6556061175
 11
14.1957441948
 21
12.6869391939
  0
LINE
  5
25E
100
AcDbEntity
  8
LAYER_FEATURE
100
AcDbLine
 62
7
  6
CONTINUOUS
 10
14.3579286315
 20
13.2117682233
 11
14.3676112844
 21
13.2431012997
  0
LINE
  5
25F
100
AcDbEntity
  8
LAYER_CUT_FEAT
100
AcDbLine
 62
7
  6
CONTINUOUS
 10
14.4690830249
 20
13.1275608727
 11
14.4150605406
 21
12.9527440494
  0
LINE
  5
260
100
AcDbEntity
  8
LAYER_CUT_FEAT
100
AcDbLine
 62
7
  6
CONTINUOUS
 10
14.5205137742
 20
13.2353060729
 11
14.437296633
 21
12.9660153051
  0
LINE
  5
261
100
AcDbEntity
  8
LAYER_CUT_FEAT
100
AcDbLine
 62
7
  6
CONTINUOUS
 10
14.4126873661
 20
12.585573441
 11
14.4247906823
 21
12.6247397865
  0
LINE
  5
262
100
AcDbEntity
  8
LAYER_CUT_FEAT
100
AcDbLine
 62
7
  6
CONTINUOUS
 10
14.6944965457
 20
13.3856766092
 11
14.5850855824
 21
13.0316226022
  0
LINE
  5
263
100
AcDbEntity
  8
02___PRT_ALL_AXES
100
AcDbLine
 62
7
  6
CONTINUOUS
 10
14.4534069534
 20
12.1439246062
 11
14.5744401151
 21
12.535588061
  0
LINE
  5
264
100
AcDbEntity
  8
LAYER_CUT_FEAT
100
AcDbLine
 62
7
  6
CONTINUOUS
 10
14.9580430275
 20
13.4736037924
 11
14.8381964612
 21
13.0857801617
  0
LINE
  5
265
100
AcDbEntity
  8
LAYER_CUT_FEAT
100
AcDbLine
 62
7
  6
CONTINUOUS
 10
15.2825938688
 20
13.489559348
 11
15.1586414864
 21
13.0884492916
  0
LINE
  5
266
100
AcDbEntity
  8
LAYER_FEATURE
100
AcDbLine
 62
7
  6
CONTINUOUS
 10
15.9465731237
 20
13.2958552432
 11
15.9753787292
 21
13.3112520921
  0
LINE
  5
267
100
AcDbEntity
  8
LAYER_FEATURE
100
AcDbLine
 62
7
  6
CONTINUOUS
 10
15.6179987279
 20
13.4111936306
 11
15.6339257228
 21
13.4337242544
  0
LINE
  5
268
100
AcDbEntity
  8
LAYER_FEATURE
100
AcDbLine
 62
7
  6
CONTINUOUS
 10
15.8204581856
 20
13.3759516298
 11
15.8207970516
 21
13.3483831618
  0
LINE
  5
269
100
AcDbEntity
  8
LAYER_CUT_FEAT
100
AcDbLine
 62
7
  6
CONTINUOUS
 10
16.1417270076
 20
13.2234961781
 11
16.0177840053
 21
12.8224164757
  0
LINE
  5
26A
100
AcDbEntity
  8
LAYER_FEATURE
100
AcDbLine
 62
7
  6
CONTINUOUS
 10
16.440746449
 20
12.9234093197
 11
16.4848873422
 21
12.9204870181
  0
LINE
  5
26B
100
AcDbEntity
  8
LAYER_FEATURE
100
AcDbLine
 62
7
  6
CONTINUOUS
 10
14.486444094
 20
13.1337617353
 11
14.4890177403
 21
13.1333848698
  0
LINE
  5
26C
100
AcDbEntity
  8
LAYER_FEATURE
100
AcDbLine
 62
7
  6
CONTINUOUS
 10
16.5527940308
 20
12.7066620786
 11
16.5977297848
 21
12.6945395656
  0
LINE
  5
26D
100
AcDbEntity
  8
LAYER_FEATURE
100
AcDbLine
 62
7
  6
CONTINUOUS
 10
14.6065288118
 20
13.3112520921
 11
14.6504457694
 21
13.2958552432
  0
LINE
  5
26E
100
AcDbEntity
  8
LAYER_FEATURE
100
AcDbLine
 62
7
  6
CONTINUOUS
 10
16.5940022785
 20
12.4813638265
 11
16.5959617778
 21
12.48040429
  0
LINE
  5
26F
100
AcDbEntity
  8
LAYER_FEATURE
100
AcDbLine
 62
7
  6
CONTINUOUS
 10
14.8277806023
 20
13.4337242544
 11
14.8658204458
 21
13.4111936306
  0
LINE
  5
270
100
AcDbEntity
  8
LAYER_FEATURE
100
AcDbLine
 62
7
  6
CONTINUOUS
 10
15.1262234008
 20
13.4879064631
 11
15.1542639228
 21
13.4606836071
  0
LINE
  5
271
100
AcDbEntity
  8
LAYER_FEATURE
100
AcDbLine
 62
7
  6
CONTINUOUS
 10
15.4695162994
 20
13.4679272351
 11
15.4845188742
 21
13.4389621658
  0
LINE
  5
272
100
AcDbEntity
  8
LAYER_FEATURE
100
AcDbLine
 62
7
  6
CONTINUOUS
 10
16.2310999979
 20
13.1271671487
 11
16.2696626798
 21
13.1337617353
  0
LINE
  5
273
100
AcDbEntity
  8
LAYER_CUT_FEAT
100
AcDbLine
 62
7
  6
CONTINUOUS
 10
16.4001672825
 20
13.0269772695
 11
16.280356078
 21
12.6392680698
  0
LINE
  5
274
100
AcDbEntity
  8
02___PRT_ALL_AXES
100
AcDbLine
 62
7
  6
CONTINUOUS
 10
16.0652019176
 20
11.6458422905
 11
16.1862350793
 21
12.0375057453
  0
LINE
  5
275
100
AcDbEntity
  8
LAYER_FEATURE
100
AcDbLine
 62
7
  6
CONTINUOUS
 10
15.5026138246
 20
13.4274319674
 11
15.5996260006
 21
13.4072500003
  0
LINE
  5
276
100
AcDbEntity
  8
LAYER_FEATURE
100
AcDbLine
 62
7
  6
CONTINUOUS
 10
15.8337015713
 20
13.3347523777
 11
15.9251146954
 21
13.2965754727
  0
LINE
  5
277
100
AcDbEntity
  8
LAYER_FEATURE
100
AcDbLine
 62
7
  6
CONTINUOUS
 10
16.1329731805
 20
13.1845079729
 11
16.2088812224
 21
13.1324731901
  0
LINE
  5
278
100
AcDbEntity
  8
LAYER_CUT_FEAT
100
AcDbLine
 62
7
  6
CONTINUOUS
 10
16.567476764
 20
12.8056058618
 11
16.4581849694
 21
12.4519374848
  0
LINE
  5
279
100
AcDbEntity
  8
LAYER_CUT_FEAT
100
AcDbLine
 62
7
  6
CONTINUOUS
 10
16.3479878283
 20
11.9875203653
 11
16.3600911444
 21
12.0266867108
  0
LINE
  5
27A
100
AcDbEntity
  8
LAYER_FEATURE
100
AcDbLine
 62
7
  6
CONTINUOUS
 10
14.8880636785
 20
13.4072500003
 11
14.9418860102
 21
13.4213196654
  0
LINE
  5
27B
100
AcDbEntity
  8
LAYER_FEATURE
100
AcDbLine
 62
7
  6
CONTINUOUS
 10
15.1755884353
 20
13.4525034704
 11
15.2676868885
 21
13.4525034704
  0
LINE
  5
27C
100
AcDbEntity
  8
LAYER_FEATURE
100
AcDbLine
 62
7
  6
CONTINUOUS
 10
16.3839637964
 20
12.9745427693
 11
16.4201750752
 21
12.9327261811
  0
LINE
  5
27D
100
AcDbEntity
  8
LAYER_CUT_FEAT
100
AcDbLine
 62
7
  6
CONTINUOUS
 10
16.6255248737
 20
12.5833709819
 11
16.542568873
 21
12.3149252651
  0
LINE
  5
27E
100
AcDbEntity
  8
LAYER_CUT_FEAT
100
AcDbLine
 62
7
  6
CONTINUOUS
 10
16.6067588349
 20
12.4655089043
 11
16.5531669976
 21
12.2920856551
  0
LINE
  5
27F
100
AcDbEntity
  8
LAYER_FEATURE
100
AcDbLine
 62
7
  6
CONTINUOUS
 10
16.5746136525
 20
11.9174876888
 11
16.5842963055
 21
11.9488207652
  0
LINE
  5
280
100
AcDbEntity
  8
LAYER_FEATURE
100
AcDbLine
 62
7
  6
CONTINUOUS
 10
16.7464807421
 20
12.4736497946
 11
16.7561633951
 21
12.504982871
  0
CIRCLE
  5
281
100
AcDbEntity
  8
LAYER_FEATURE
100
AcDbCircle
 62
7
  6
CONTINUOUS
 10
6.1303672762
 20
5.5201198968
 40
1.25
  0
CIRCLE
  5
282
100
AcDbEntity
  8
LAYER_FEATURE
100
AcDbCircle
 62
7
  6
CONTINUOUS
 10
6.1303672762
 20
5.5201198968
 40
1.15
  0
CIRCLE
  5
283
100
AcDbEntity
  8
LAYER_CUT_FEAT
100
AcDbCircle
 62
7
  6
CONTINUOUS
 10
6.1303672762
 20
5.5201198968
 40
1.0128
  0
CIRCLE
  5
284
100
AcDbEntity
  8
02___PRT_ALL_AXES
100
AcDbCircle
 62
7
  6
CONTINUOUS
 10
6.1303672762
 20
5.5201198968
 40
0.8435
  0
CIRCLE
  5
285
100
AcDbEntity
  8
LAYER_CHAMFER_FEAT
100
AcDbCircle
 62
7
  6
CONTINUOUS
 10
6.1303672762
 20
5.5201198968
 40
0.2875
  0
CIRCLE
  5
286
100
AcDbEntity
  8
LAYER_CHAMFER_FEAT
100
AcDbCircle
 62
7
  6
CONTINUOUS
 10
6.1303672762
 20
5.5201198968
 40
0.25
  0
ARC
  5
287
100
AcDbEntity
  8
LAYER_FEATURE
100
AcDbCircle
 62
7
  6
CONTINUOUS
 10
7.1928744217
 20
12.4464477814
 40
0.1186
100
AcDbArc
 50
63.4349488229
 51
90.0
  0
ARC
  5
288
100
AcDbEntity
  8
LAYER_FEATURE
100
AcDbCircle
 62
7
  6
CONTINUOUS
 10
4.948869746
 20
12.4464477814
 40
0.1186
100
AcDbArc
 50
90.0
 51
116.5650511771
  0
ARC
  5
289
100
AcDbEntity
  8
LAYER_FEATURE
100
AcDbCircle
 62
7
  6
CONTINUOUS
 10
7.1928744217
 20
13.2536477814
 40
0.1186
100
AcDbArc
 50
270.0
 51
296.5650511771
  0
ARC
  5
28A
100
AcDbEntity
  8
LAYER_FEATURE
100
AcDbCircle
 62
7
  6
CONTINUOUS
 10
4.948869746
 20
13.2536477814
 40
0.1186
100
AcDbArc
 50
243.4349488229
 51
270.0
  0
ARC
  5
28B
100
AcDbEntity
  8
LAYER_FEATURE
100
AcDbCircle
 62
7
  6
CONTINUOUS
 10
15.4067552569
 20
4.3386223666
 40
0.1186
100
AcDbArc
 50
333.4349488229
 51
360.0
  0
ARC
  5
28C
100
AcDbEntity
  8
LAYER_FEATURE
100
AcDbCircle
 62
7
  6
CONTINUOUS
 10
15.4067552569
 20
6.5826270423
 40
0.1186
100
AcDbArc
 50
0.0
 51
26.5650511771
  0
ARC
  5
28D
100
AcDbEntity
  8
LAYER_FEATURE
100
AcDbCircle
 62
7
  6
CONTINUOUS
 10
16.2139552569
 20
4.3386223666
 40
0.1186
100
AcDbArc
 50
180.0
 51
206.5650511771
  0
ARC
  5
28E
100
AcDbEntity
  8
LAYER_FEATURE
100
AcDbCircle
 62
7
  6
CONTINUOUS
 10
16.2139552569
 20
6.5826270423
 40
0.1186
100
AcDbArc
 50
153.4349488229
 51
180.0
  0
ARC
  5
28F
100
AcDbEntity
  8
LAYER_FEATURE
100
AcDbCircle
 62
7
  6
CONTINUOUS
 10
15.1527017624
 20
11.5499206272
 40
1.9527883793
100
AcDbArc
 50
70.4611963662
 51
75.1213236768
  0
SPLINE
  5
290
100
AcDbEntity
  8
LAYER_CUT_FEAT
100
AcDbSpline
 62
7
  6
CONTINUOUS
 70
0
 71
3
 72
22
 73
18
 74
0
 42
0.0000001
 43
0.0000001
 44
0.0000000001
 40
0.0
 40
0.0
 40
0.0
 40
0.0
 40
0.138119746
 40
0.2053664285
 40
0.2714549226
 40
0.3364371368
 40
0.4003725798
 40
0.4633278425
 40
0.5253764101
 40
0.5865986145
 40
0.6470813095
 40
0.7069174418
 40
0.7662055029
 40
0.8250488587
 40
0.8835549592
 40
0.9418344156
 40
1.0
 40
1.0
 40
1.0
 40
1.0
 10
14.4474870225
 20
12.2865469032
 30
0.0
 10
14.4412309543
 20
12.2992954296
 30
0.0
 10
14.4326105814
 20
12.3186005627
 30
0.0
 10
14.4227787791
 20
12.3447271587
 30
0.0
 10
14.4163856538
 20
12.3640957108
 30
0.0
 10
14.4109151373
 20
12.3833909748
 30
0.0
 10
14.4063723946
 20
12.4025950563
 30
0.0
 10
14.4027620268
 20
12.4216894493
 30
0.0
 10
14.400087699
 20
12.4406559074
 30
0.0
 10
14.398352212
 20
12.4594762101
 30
0.0
 10
14.3975574317
 20
12.4781322481
 30
0.0
 10
14.397704324
 20
12.4966060179
 30
0.0
 10
14.3987929483
 20
12.5148796619
 30
0.0
 10
14.400822419
 20
12.5329354088
 30
0.0
 10
14.4037909422
 20
12.5507558913
 30
0.0
 10
14.407695526
 20
12.5683231089
 30
0.0
 10
14.4109216965
 20
12.5798597266
 30
0.0
 10
14.4126873662
 20
12.585573441
 30
0.0
  0
SPLINE
  5
291
100
AcDbEntity
  8
LAYER_CHAMFER_FEAT
100
AcDbSpline
 62
7
  6
CONTINUOUS
 70
0
 71
3
 72
23
 73
19
 74
0
 42
0.0000001
 43
0.0000001
 44
0.0000000001
 40
0.0
 40
0.0
 40
0.0
 40
0.0
 40
0.073932803
 40
0.1460710876
 40
0.2164194611
 40
0.2849969973
 40
0.3518383211
 40
0.4169947223
 40
0.4805348743
 40
0.5425455569
 40
0.6031323148
 40
0.6624195518
 40
0.7205501769
 40
0.7776848686
 40
0.8340006707
 40
0.8896887675
 40
0.9449516991
 40
1.0
 40
1.0
 40
1.0
 40
1.0
 10
15.1127804746
 20
12.0687693127
 30
0.0
 10
15.1101023377
 20
12.0679467407
 30
0.0
 10
15.1048434286
 20
12.0662135226
 30
0.0
 10
15.0971705188
 20
12.0633108815
 30
0.0
 10
15.0898235734
 20
12.0601425149
 30
0.0
 10
15.0828167654
 20
12.0567143738
 30
0.0
 10
15.0761634277
 20
12.0530328157
 30
0.0
 10
15.0698762802
 20
12.0491047179
 30
0.0
 10
15.0639673766
 20
12.0449373876
 30
0.0
 10
15.0584481213
 20
12.0405385577
 30
0.0
 10
15.0533292048
 20
12.0359164426
 30
0.0
 10
15.0486206064
 20
12.0310797043
 30
0.0
 10
15.0443316089
 20
12.0260374351
 30
0.0
 10
15.0404707435
 20
12.0207991772
 30
0.0
 10
15.0370457314
 20
12.0153750032
 30
0.0
 10
15.0340634417
 20
12.0097752597
 30
0.0
 10
15.0315300832
 20
12.0040113061
 30
0.0
 10
15.0301426064
 20
12.0000630594
 30
0.0
 10
15.0295267204
 20
11.9980700476
 30
0.0
  0
SPLINE
  5
292
100
AcDbEntity
  8
LAYER_CHAMFER_FEAT
100
AcDbSpline
 62
7
  6
CONTINUOUS
 70
0
 71
3
 72
23
 73
19
 74
0
 42
0.0000001
 43
0.0000001
 44
0.0000000001
 40
0.0
 40
0.0
 40
0.0
 40
0.0
 40
0.0739047344
 40
0.1460179201
 40
0.2163445908
 40
0.2849042068
 40
0.3517316659
 40
0.4168784558
 40
0.4804134093
 40
0.5424233562
 40
0.603013741
 40
0.6623088037
 40
0.720451175
 40
0.7776011008
 40
0.833935091
 40
0.8896437047
 40
0.94492876
 40
1.0
 40
1.0
 40
1.0
 40
1.0
 10
15.4785645844
 20
11.9555630309
 30
0.0
 10
15.480303567
 20
11.9533768927
 30
0.0
 10
15.4836519096
 20
11.9489870329
 30
0.0
 10
15.4883267643
 20
11.9422746167
 30
0.0
 10
15.4925840889
 20
11.9355272334
 30
0.0
 10
15.4964156221
 20
11.9287577159
 30
0.0
 10
15.4998140044
 20
11.9219787516
 30
0.0
 10
15.5027726688
 20
11.9152031121
 30
0.0
 10
15.50528585
 20
11.9084435533
 30
0.0
 10
15.5073485504
 20
11.9017128138
 30
0.0
 10
15.5089566022
 20
11.8950236205
 30
0.0
 10
15.5101066967
 20
11.8883886769
 30
0.0
 10
15.5107963392
 20
11.8818206457
 30
0.0
 10
15.511023878
 20
11.8753321347
 30
0.0
 10
15.5107886341
 20
11.8689357356
 30
0.0
 10
15.5100907888
 20
11.8626437852
 30
0.0
 10
15.5089316276
 20
11.8564690782
 30
0.0
 10
15.5078517012
 20
11.8524351414
 30
0.0
 10
15.5072371248
 20
11.8504463673
 30
0.0
  0
SPLINE
  5
293
100
AcDbEntity
  8
LAYER_FEATURE
100
AcDbSpline
 62
7
  6
CONTINUOUS
 70
0
 71
3
 72
36
 73
32
 74
0
 42
0.0000001
 43
0.0000001
 44
0.0000000001
 40
0.0
 40
0.0
 40
0.0
 40
0.0
 40
0.0262477008
 40
0.0525347596
 40
0.0789002427
 40
0.105382644
 40
0.1320196071
 40
0.1588476759
 40
0.1859020731
 40
0.2132164871
 40
0.2408229006
 40
0.2687514618
 40
0.297030358
 40
0.3256857283
 40
0.3547416273
 40
0.3842199792
 40
0.4445113468
 40
0.4753672399
 40
0.5067120349
 40
0.5709042087
 40
0.6037766895
 40
0.6371723867
 40
0.67109531
 40
0.7055477562
 40
0.7405304091
 40
0.7760424166
 40
0.8120814297
 40
0.8486436928
 40
0.8857241241
 40
0.9233163501
 40
1.0
 40
1.0
 40
1.0
 40
1.0
 10
14.1860615422
 20
12.6556061174
 30
0.0
 10
14.1841549605
 20
12.6494364076
 30
0.0
 10
14.1806304554
 20
12.6369954752
 30
0.0
 10
14.1762256156
 20
12.6180834252
 30
0.0
 10
14.1727039563
 20
12.5989280886
 30
0.0
 10
14.1700682386
 20
12.5795442221
 30
0.0
 10
14.1683202745
 20
12.5599460604
 30
0.0
 10
14.1674612528
 20
12.5401481607
 30
0.0
 10
14.1674917263
 20
12.5201651536
 30
0.0
 10
14.1684115441
 20
12.5000118
 30
0.0
 10
14.1702198723
 20
12.4797029502
 30
0.0
 10
14.1729152701
 20
12.4592535563
 30
0.0
 10
14.1764956349
 20
12.4386786159
 30
0.0
 10
14.180958138
 20
12.4179933177
 30
0.0
 10
14.18629954
 20
12.3972124246
 30
0.0
 10
14.1946494401
 20
12.3691904752
 30
0.0
 10
14.2047068538
 20
12.3412374837
 30
0.0
 10
14.2163624208
 20
12.3134420292
 30
0.0
 10
14.2293475833
 20
12.2851816932
 30
0.0
 10
14.2439475293
 20
12.2571375618
 30
0.0
 10
14.2600506505
 20
12.2293691358
 30
0.0
 10
14.2730449016
 20
12.2084183664
 30
0.0
 10
14.2868495805
 20
12.1875256679
 30
0.0
 10
14.301454795
 20
12.1667058229
 30
0.0
 10
14.316849762
 20
12.1459741432
 30
0.0
 10
14.3330232377
 20
12.1253457473
 30
0.0
 10
14.349963368
 20
12.1048356795
 30
0.0
 10
14.3676576896
 20
12.0844589635
 30
0.0
 10
14.3860934608
 20
12.0642302816
 30
0.0
 10
14.4118136082
 20
12.0372993942
 30
0.0
 10
14.4319258199
 20
12.017636678
 30
0.0
 10
14.4456936877
 20
12.0047380551
 30
0.0
  0
SPLINE
  5
294
100
AcDbEntity
  8
LAYER_FEATURE
100
AcDbSpline
 62
7
  6
CONTINUOUS
 70
0
 71
3
 72
22
 73
18
 74
0
 42
0.0000001
 43
0.0000001
 44
0.0000000001
 40
0.0
 40
0.0
 40
0.0
 40
0.0
 40
0.0595761873
 40
0.1192263467
 40
0.1790239988
 40
0.2390417689
 40
0.2993509451
 40
0.3600211054
 40
0.4211197142
 40
0.4827117987
 40
0.5448596793
 40
0.6076226568
 40
0.6710568655
 40
0.7352150762
 40
0.8001465404
 40
0.8658969784
 40
1.0
 40
1.0
 40
1.0
 40
1.0
 10
14.3579286318
 20
13.2117682232
 30
0.0
 10
14.3561939978
 20
13.2061549372
 30
0.0
 10
14.352963869
 20
13.194845191
 30
0.0
 10
14.3488481237
 20
13.1776716094
 30
0.0
 10
14.3454628512
 20
13.1602945641
 30
0.0
 10
14.3428102591
 20
13.1427251147
 30
0.0
 10
14.3408918332
 20
13.1249739263
 30
0.0
 10
14.3397087505
 20
13.1070518913
 30
0.0
 10
14.3392616509
 20
13.0889699672
 30
0.0
 10
14.339550708
 20
13.0707392014
 30
0.0
 10
14.3405757243
 20
13.0523707166
 30
0.0
 10
14.3423359358
 20
13.0338757109
 30
0.0
 10
14.3448302205
 20
13.0152654074
 30
0.0
 10
14.3480569574
 20
12.996551242
 30
0.0
 10
14.3520142014
 20
12.9777441091
 30
0.0
 10
14.3583015645
 20
12.9523961723
 30
0.0
 10
14.3640517691
 20
12.9335237512
 30
0.0
 10
14.368316223
 20
12.9210054013
 30
0.0
  0
SPLINE
  5
295
100
AcDbEntity
  8
LAYER_FEATURE
100
AcDbSpline
 62
7
  6
CONTINUOUS
 70
0
 71
3
 72
36
 73
32
 74
0
 42
0.0000001
 43
0.0000001
 44
0.0000000001
 40
0.0
 40
0.0
 40
0.0
 40
0.0
 40
0.0262484723
 40
0.052536294
 40
0.078902524
 40
0.1053856477
 40
0.1320232998
 40
0.1588520191
 40
0.185907022
 40
0.2132219876
 40
0.2408288965
 40
0.2687578939
 40
0.2970371581
 40
0.3256928286
 40
0.3547489609
 40
0.3842274709
 40
0.4445189419
 40
0.4753747768
 40
0.506719442
 40
0.5709111587
 40
0.6037833102
 40
0.6371786219
 40
0.6711011014
 40
0.7055530482
 40
0.7405351568
 40
0.7760465764
 40
0.8120849592
 40
0.8486465612
 40
0.8857263048
 40
0.9233178168
 40
1.0
 40
1.0
 40
1.0
 40
1.0
 10
16.5746136522
 20
11.9174876889
 30
0.0
 10
16.5727073019
 20
11.9113187279
 30
0.0
 10
16.5685990476
 20
11.8990598328
 30
0.0
 10
16.5615673325
 20
11.8809620076
 30
0.0
 10
16.5536693531
 20
11.8631615046
 30
0.0
 10
16.5449111628
 20
11.8456720584
 30
0.0
 10
16.5352993081
 20
11.8285064312
 30
0.0
 10
16.5248410002
 20
11.8116773173
 30
0.0
 10
16.5135440317
 20
11.7951971069
 30
0.0
 10
16.5014168704
 20
11.7790778844
 30
0.0
 10
16.488468564
 20
11.7633314466
 30
0.0
 10
16.4747087282
 20
11.7479693284
 30
0.0
 10
16.4601475748
 20
11.7330027051
 30
0.0
 10
16.444795992
 20
11.7184425281
 30
0.0
 10
16.4286649707
 20
11.704299165
 30
0.0
 10
16.4059661033
 20
11.6858746918
 30
0.0
 10
16.3818965799
 20
11.6684702085
 30
0.0
 10
16.3565966338
 20
11.6520971483
 30
0.0
 10
16.3299369557
 20
11.6360902404
 30
0.0
 10
16.302066196
 20
11.6211725763
 30
0.0
 10
16.2731100529
 20
11.6073303
 30
0.0
 10
16.2505658467
 20
11.5973630147
 30
0.0
 10
16.2273853776
 20
11.5879007515
 30
0.0
 10
16.2035851466
 20
11.5789501297
 30
0.0
 10
16.1791826819
 20
11.5705177211
 30
0.0
 10
16.1541957918
 20
11.5626096575
 30
0.0
 10
16.1286427462
 20
11.5552316619
 30
0.0
 10
16.1025422986
 20
11.5483891209
 30
0.0
 10
16.0759132454
 20
11.542086967
 30
0.0
 10
16.0394903958
 20
11.534360126
 30
0.0
 10
16.0117965645
 20
11.5294707026
 30
0.0
 10
15.9931553946
 20
11.5265872111
 30
0.0
  0
SPLINE
  5
296
100
AcDbEntity
  8
LAYER_FEATURE
100
AcDbSpline
 62
7
  6
CONTINUOUS
 70
0
 71
3
 72
23
 73
19
 74
0
 42
0.0000001
 43
0.0000001
 44
0.0000000001
 40
0.0
 40
0.0
 40
0.0
 40
0.0
 40
0.0595773287
 40
0.1192285653
 40
0.1790271697
 40
0.2390457013
 40
0.2993553924
 40
0.3600257664
 40
0.4211242277
 40
0.4827157647
 40
0.5448626457
 40
0.6076241319
 40
0.6710563336
 40
0.7352119751
 40
0.8001402962
 40
0.8658869968
 40
0.9324940948
 40
1.0
 40
1.0
 40
1.0
 40
1.0
 10
16.7464807418
 20
12.4736497947
 30
0.0
 10
16.7447468738
 20
12.4680389877
 30
0.0
 10
16.741034963
 20
12.4568835673
 30
0.0
 10
16.7347475957
 20
12.4403892104
 30
0.0
 10
16.7277429257
 20
12.4241387587
 30
0.0
 10
16.7200254056
 20
12.4081425583
 30
0.0
 10
16.7115997976
 20
12.3924102486
 30
0.0
 10
16.7024712593
 20
12.3769514812
 30
0.0
 10
16.6926454648
 20
12.3617756336
 30
0.0
 10
16.6821284603
 20
12.3468919348
 30
0.0
 10
16.6709266976
 20
12.3323094328
 30
0.0
 10
16.6590471067
 20
12.3180369239
 30
0.0
 10
16.6464969411
 20
12.3040830716
 30
0.0
 10
16.6332839044
 20
12.2904562857
 30
0.0
 10
16.619416109
 20
12.2771647786
 30
0.0
 10
16.6049019324
 20
12.2642165531
 30
0.0
 10
16.5897504887
 20
12.2516195252
 30
0.0
 10
16.5793020781
 20
12.2435159966
 30
0.0
 10
16.5739778696
 20
12.2395247243
 30
0.0
  0
SPLINE
  5
297
100
AcDbEntity
  8
LAYER_CUT_FEAT
100
AcDbSpline
 62
7
  6
CONTINUOUS
 70
0
 71
3
 72
23
 73
19
 74
0
 42
0.0000001
 43
0.0000001
 44
0.0000000001
 40
0.0
 40
0.0
 40
0.0
 40
0.0
 40
0.0567897436
 40
0.1137354174
 40
0.1709908453
 40
0.2287057289
 40
0.2870237993
 40
0.3460812023
 40
0.4060051564
 40
0.4669129059
 40
0.5289109667
 40
0.5920946453
 40
0.6565478044
 40
0.7223428408
 40
0.789540831
 40
0.8581918105
 40
0.9283351497
 40
1.0
 40
1.0
 40
1.0
 40
1.0
 10
16.3479878282
 20
11.9875203653
 30
0.0
 10
16.3458956533
 20
11.980750079
 30
0.0
 10
16.3412696113
 20
11.9673212634
 30
0.0
 10
16.3330407952
 20
11.9476209657
 30
0.0
 10
16.3235292735
 20
11.9283773424
 30
0.0
 10
16.3127486977
 20
11.9096177742
 30
0.0
 10
16.3007140553
 20
11.8913674562
 30
0.0
 10
16.2874421568
 20
11.8736511294
 30
0.0
 10
16.2729514255
 20
11.856492577
 30
0.0
 10
16.2572618823
 20
11.8399147409
 30
0.0
 10
16.2403950853
 20
11.823939681
 30
0.0
 10
16.222374093
 20
11.80858858
 30
0.0
 10
16.203223432
 20
11.7938817382
 30
0.0
 10
16.1829690511
 20
11.7798385665
 30
0.0
 10
16.1616383454
 20
11.7664776002
 30
0.0
 10
16.1392599325
 20
11.7538164
 30
0.0
 10
16.1158643836
 20
11.7418718793
 30
0.0
 10
16.0997829857
 20
11.7344766285
 30
0.0
 10
16.0915874837
 20
11.7308991663
 30
0.0
  0
SPLINE
  5
298
100
AcDbEntity
  8
LAYER_CUT_FEAT
100
AcDbSpline
 62
7
  6
CONTINUOUS
 70
0
 71
3
 72
9
 73
5
 74
0
 42
0.0000001
 43
0.0000001
 44
0.0000000001
 40
0.0
 40
0.0
 40
0.0
 40
0.0
 40
0.5066973771
 40
1.0
 40
1.0
 40
1.0
 40
1.0
 10
14.4795914082
 20
12.2290651436
 30
0.0
 10
14.4736849786
 20
12.2384915229
 30
0.0
 10
14.4624761885
 20
12.2573802685
 30
0.0
 10
14.4522580541
 20
12.2768245629
 30
0.0
 10
14.4474870225
 20
12.2865469032
 30
0.0
  0
SPLINE
  5
299
100
AcDbEntity
  8
02___PRT_ALL_AXES
100
AcDbSpline
 62
7
  6
CONTINUOUS
 70
0
 71
3
 72
57
 73
53
 74
0
 42
0.0000001
 43
0.0000001
 44
0.0000000001
 40
0.0
 40
0.0
 40
0.0
 40
0.0
 40
0.0106256167
 40
0.0212738774
 40
0.0319671883
 40
0.0427274884
 40
0.0535760342
 40
0.064533206
 40
0.0756183402
 40
0.0868495889
 40
0.0982438103
 40
0.1098164865
 40
0.1215816698
 40
0.133551953
 40
0.1457384607
 40
0.1581508597
 40
0.170797384
 40
0.1836848706
 40
0.1968188044
 40
0.2102033699
 40
0.2238415055
 40
0.2377349612
 40
0.2518843579
 40
0.2662892455
 40
0.280948161
 40
0.295858685
 40
0.3110174961
 40
0.3264204241
 40
0.3420625003
 40
0.3579380066
 40
0.3740405221
 40
0.3903629673
 40
0.4068976472
 40
0.4236362916
 40
0.4405700941
 40
0.4576897502
 40
0.4749854931
 40
0.4924471286
 40
0.5278235376
 40
0.5637320374
 40
0.6000789782
 40
0.6367668816
 40
0.673695357
 40
0.7107619916
 40
0.7478632238
 40
0.7848952052
 40
0.8217546615
 40
0.8583397576
 40
0.894550975
 40
0.9302920101
 40
0.9654707073
 40
1.0
 40
1.0
 40
1.0
 40
1.0
 10
14.4534069545
 20
12.1439246058
 30
0.0
 10
14.4518725272
 20
12.1389591936
 30
0.0
 10
14.4490802824
 20
12.1289288096
 30
0.0
 10
14.4457398467
 20
12.1136463442
 30
0.0
 10
14.4432486139
 20
12.0981355691
 30
0.0
 10
14.4416093072
 20
12.0824135659
 30
0.0
 10
14.4408234612
 20
12.0664968183
 30
0.0
 10
14.4408917406
 20
12.0504021888
 30
0.0
 10
14.4418138684
 20
12.0341466217
 30
0.0
 10
14.4435886627
 20
12.0177471959
 30
0.0
 10
14.4462140433
 20
12.0012210869
 30
0.0
 10
14.4496870469
 20
11.9845855576
 30
0.0
 10
14.4540038379
 20
11.967857944
 30
0.0
 10
14.4591597191
 20
11.9510556438
 30
0.0
 10
14.4651491392
 20
11.9341961053
 30
0.0
 10
14.4719657026
 20
11.9172968154
 30
0.0
 10
14.4796021764
 20
11.9003752885
 30
0.0
 10
14.4880504974
 20
11.883449053
 30
0.0
 10
14.4973017787
 20
11.8665356379
 30
0.0
 10
14.5073463175
 20
11.8496525583
 30
0.0
 10
14.5181736015
 20
11.8328172997
 30
0.0
 10
14.5297723176
 20
11.8160473012
 30
0.0
 10
14.5421303624
 20
11.7993599396
 30
0.0
 10
14.5552348525
 20
11.7827725121
 30
0.0
 10
14.5690721357
 20
11.7663022179
 30
0.0
 10
14.5836278038
 20
11.7499661415
 30
0.0
 10
14.598886706
 20
11.7337812341
 30
0.0
 10
14.614832962
 20
11.7177642954
 30
0.0
 10
14.6314499791
 20
11.7019319561
 30
0.0
 10
14.6487204681
 20
11.6863006604
 30
0.0
 10
14.6666264609
 20
11.6708866482
 30
0.0
 10
14.6851493287
 20
11.6557059377
 30
0.0
 10
14.7042698012
 20
11.6407743083
 30
0.0
 10
14.7239679834
 20
11.6261072852
 30
0.0
 10
14.7442233866
 20
11.6117201142
 30
0.0
 10
14.7650149087
 20
11.5976277787
 30
0.0
 10
14.7863210134
 20
11.5838448584
 30
0.0
 10
14.8155106306
 20
11.5658222574
 30
0.0
 10
14.8531476373
 20
11.5441716873
 30
0.0
 10
14.8998042057
 20
11.5197600601
 30
0.0
 10
14.9479544958
 20
11.4969065877
 30
0.0
 10
14.997398001
 20
11.475706451
 30
0.0
 10
15.0479295257
 20
11.4562476176
 30
0.0
 10
15.0993391268
 20
11.4386109361
 30
0.0
 10
15.1514132492
 20
11.4228696669
 30
0.0
 10
15.2039355616
 20
11.4090892079
 30
0.0
 10
15.2566878734
 20
11.3973268027
 30
0.0
 10
15.309451095
 20
11.387631307
 30
0.0
 10
15.3620060067
 20
11.3800429935
 30
0.0
 10
15.4141347709
 20
11.3745933837
 30
0.0
 10
15.4656197095
 20
11.3713051362
 30
0.0
 10
15.4997186323
 20
11.3705554401
 30
0.0
 10
15.51660725
 20
11.3705554401
 30
0.0
  0
SPLINE
  5
29A
100
AcDbEntity
  8
02___PRT_ALL_AXES
100
AcDbSpline
 62
7
  6
CONTINUOUS
 70
0
 71
3
 72
39
 73
35
 74
0
 42
0.0000001
 43
0.0000001
 44
0.0000000001
 40
0.0
 40
0.0
 40
0.0
 40
0.0
 40
0.0248034971
 40
0.049664333
 40
0.0746391943
 40
0.0997834852
 40
0.1251507434
 40
0.1507921176
 40
0.17675592
 40
0.2030872601
 40
0.2298277627
 40
0.2570153687
 40
0.2846842107
 40
0.3128645568
 40
0.3415828097
 40
0.3708615539
 40
0.4007196423
 40
0.4311723098
 40
0.4622313079
 40
0.4939050525
 40
0.5261987792
 40
0.5591147052
 40
0.5926521908
 40
0.6268078993
 40
0.6615759518
 40
0.6969480772
 40
0.7329137591
 40
0.7694603759
 40
0.8065733341
 40
0.8442361959
 40
0.8824307952
 40
0.9211373865
 40
0.960334618
 40
1.0
 40
1.0
 40
1.0
 40
1.0
 10
16.0652019165
 20
11.6458422908
 30
0.0
 10
16.0636035783
 20
11.6406700627
 30
0.0
 10
16.0600979106
 20
11.6304051814
 30
0.0
 10
16.0539350174
 20
11.6153157827
 30
0.0
 10
16.0468720855
 20
11.6005431323
 30
0.0
 10
16.0389175977
 20
11.5861048832
 30
0.0
 10
16.0300808029
 20
11.5720173468
 30
0.0
 10
16.0203720395
 20
11.5582966069
 30
0.0
 10
16.0098026095
 20
11.5449581964
 30
0.0
 10
15.9983847767
 20
11.5320171695
 30
0.0
 10
15.9861317355
 20
11.5194880697
 30
0.0
 10
15.9730575865
 20
11.5073849344
 30
0.0
 10
15.9591773157
 20
11.4957212885
 30
0.0
 10
15.9445067768
 20
11.4845101416
 30
0.0
 10
15.9290626756
 20
11.473763983
 30
0.0
 10
15.9128625559
 20
11.4634947733
 30
0.0
 10
15.8959247821
 20
11.45371394
 30
0.0
 10
15.8782685234
 20
11.444432369
 30
0.0
 10
15.8599137371
 20
11.4356603956
 30
0.0
 10
15.8408811518
 20
11.4274077935
 30
0.0
 10
15.8211922489
 20
11.4196837627
 30
0.0
 10
15.8008692407
 20
11.4124969216
 30
0.0
 10
15.7799350484
 20
11.405855296
 30
0.0
 10
15.7584132787
 20
11.39976631
 30
0.0
 10
15.7363281998
 20
11.3942367754
 30
0.0
 10
15.7137047161
 20
11.3892728807
 30
0.0
 10
15.6905683408
 20
11.3848801857
 30
0.0
 10
15.6669451667
 20
11.3810636136
 30
0.0
 10
15.6428618392
 20
11.3778274446
 30
0.0
 10
15.618345523
 20
11.37517531
 30
0.0
 10
15.5934238849
 20
11.3731101829
 30
0.0
 10
15.5681250143
 20
11.3716343839
 30
0.0
 10
15.5424776104
 20
11.3707495597
 30
0.0
 10
15.5252645339
 20
11.3705554401
 30
0.0
 10
15.51660725
 20
11.3705554401
 30
0.0
  0
SPLINE
  5
29B
100
AcDbEntity
  8
LAYER_CHAMFER_FEAT
100
AcDbSpline
 62
7
  6
CONTINUOUS
 70
0
 71
3
 72
11
 73
7
 74
0
 42
0.0000001
 43
0.0000001
 44
0.0000000001
 40
0.0
 40
0.0
 40
0.0
 40
0.0
 40
0.2617773894
 40
0.5161276515
 40
0.7623842886
 40
1.0
 40
1.0
 40
1.0
 40
1.0
 10
15.1716048988
 20
12.0735963142
 30
0.0
 10
15.1650106669
 20
12.0735963142
 30
0.0
 10
15.152006476
 20
12.0732689618
 30
0.0
 10
15.1328521209
 20
12.0717531137
 30
0.0
 10
15.114418059
 20
12.0692277095
 30
0.0
 10
15.1024562342
 20
12.066835681
 30
0.0
 10
15.0966296053
 20
12.0654653787
 30
0.0
  0
SPLINE
  5
29C
100
AcDbEntity
  8
LAYER_CHAMFER_FEAT
100
AcDbSpline
 62
7
  6
CONTINUOUS
 70
0
 71
3
 72
26
 73
22
 74
0
 42
0.0000001
 43
0.0000001
 44
0.0000000001
 40
0.0
 40
0.0
 40
0.0
 40
0.0
 40
0.0614577021
 40
0.1243099563
 40
0.1883101439
 40
0.2531941342
 40
0.3186862461
 40
0.3845027407
 40
0.4503556331
 40
0.5159564692
 40
0.5810200692
 40
0.6452683431
 40
0.7084341755
 40
0.7702654579
 40
0.8305294315
 40
0.8600104033
 40
0.8890235184
 40
0.9175472218
 40
0.9455621402
 40
0.9730512438
 40
1.0
 40
1.0
 40
1.0
 40
1.0
 10
15.1716048988
 20
12.0735963142
 30
0.0
 10
15.1788265304
 20
12.0735963142
 30
0.0
 10
15.1934362875
 20
12.073193548
 30
0.0
 10
15.215503075
 20
12.0714387072
 30
0.0
 10
15.237854788
 20
12.0685371239
 30
0.0
 10
15.260345575
 20
12.0645075918
 30
0.0
 10
15.2828296335
 20
12.0593763266
 30
0.0
 10
15.3051608774
 20
12.0531766261
 30
0.0
 10
15.327194274
 20
12.0459487587
 30
0.0
 10
15.348786705
 20
12.0377396998
 30
0.0
 10
15.3697979334
 20
12.0286027273
 30
0.0
 10
15.3900915086
 20
12.0185971987
 30
0.0
 10
15.4095358559
 20
12.0077879629
 30
0.0
 10
15.4280043853
 20
11.9962453251
 30
0.0
 10
15.4425881652
 20
11.9860030544
 30
0.0
 10
15.4536547564
 20
11.9774994157
 30
0.0
 10
15.4615777104
 20
11.9710332472
 30
0.0
 10
15.4691710102
 20
11.9644429106
 30
0.0
 10
15.4764223881
 20
11.9577390291
 30
0.0
 10
15.4833199269
 20
11.9509326444
 30
0.0
 10
15.4877194511
 20
11.9462869904
 30
0.0
 10
15.4898555811
 20
11.9439493605
 30
0.0
  0
SPLINE
  5
29D
100
AcDbEntity
  8
LAYER_FEATURE
100
AcDbSpline
 62
7
  6
CONTINUOUS
 70
0
 71
3
 72
40
 73
36
 74
0
 42
0.0000001
 43
0.0000001
 44
0.0000000001
 40
0.0
 40
0.0
 40
0.0
 40
0.0
 40
0.039665119
 40
0.0788625779
 40
0.1175689642
 40
0.1557635445
 40
0.1934263296
 40
0.2305392284
 40
0.2670857827
 40
0.3030514013
 40
0.3384234642
 40
0.3731914561
 40
0.4073471071
 40
0.4408845372
 40
0.4738004077
 40
0.5060940775
 40
0.5377677657
 40
0.5688267098
 40
0.5992793256
 40
0.6291373641
 40
0.6584160591
 40
0.6728447437
 40
0.6871359821
 40
0.7153162787
 40
0.7429850724
 40
0.7701726315
 40
0.7969130885
 40
0.8232443842
 40
0.8492081426
 40
0.8748494725
 40
0.9002166865
 40
0.9253609337
 40
0.950335752
 40
0.9751965454
 40
1.0
 40
1.0
 40
1.0
 40
1.0
 10
15.0087179168
 20
13.0948924399
 30
0.0
 10
14.9958885728
 20
13.0948924399
 30
0.0
 10
14.9703801287
 20
13.0946047596
 30
0.0
 10
14.9323727251
 20
13.0932935422
 30
0.0
 10
14.894881744
 20
13.0911065004
 30
0.0
 10
14.8579498886
 20
13.08804616
 30
0.0
 10
14.8216186433
 20
13.0841159023
 30
0.0
 10
14.7859290667
 20
13.0793201626
 30
0.0
 10
14.750921398
 20
13.073664306
 30
0.0
 10
14.716635129
 20
13.0671546783
 30
0.0
 10
14.6831089253
 20
13.0597985778
 30
0.0
 10
14.6503805935
 20
13.0516042454
 30
0.0
 10
14.618487039
 20
13.042580854
 30
0.0
 10
14.5874642263
 20
13.0327384961
 30
0.0
 10
14.5573471409
 20
13.0220881701
 30
0.0
 10
14.5281697537
 20
13.0106417679
 30
0.0
 10
14.4999649731
 20
12.9984120612
 30
0.0
 10
14.4727646531
 20
12.9854127019
 30
0.0
 10
14.4465994276
 20
12.9716581193
 30
0.0
 10
14.421499176
 20
12.9571638241
 30
0.0
 10
14.4013960808
 20
12.9444205241
 30
0.0
 10
14.3858841882
 20
12.9338689026
 30
0.0
 10
14.3708962939
 20
12.9231865911
 30
0.0
 10
14.3528641126
 20
12.9094064999
 30
0.0
 10
14.3322948115
 20
12.892122019
 30
0.0
 10
14.3129199209
 20
12.8741861033
 30
0.0
 10
14.2947618966
 20
12.8556189815
 30
0.0
 10
14.2778415702
 20
12.8364414068
 30
0.0
 10
14.2621785124
 20
12.8166749442
 30
0.0
 10
14.2477908977
 20
12.7963418962
 30
0.0
 10
14.2346954732
 20
12.7754652848
 30
0.0
 10
14.2229075571
 20
12.7540689454
 30
0.0
 10
14.2124408529
 20
12.7321770512
 30
0.0
 10
14.2033079319
 20
12.7098157622
 30
0.0
 10
14.1981128038
 20
12.6946040256
 30
0.0
 10
14.1957441951
 20
12.6869391938
 30
0.0
  0
SPLINE
  5
29E
100
AcDbEntity
  8
LAYER_FEATURE
100
AcDbSpline
 62
7
  6
CONTINUOUS
 70
0
 71
3
 72
40
 73
36
 74
0
 42
0.0000001
 43
0.0000001
 44
0.0000000001
 40
0.0
 40
0.0
 40
0.0
 40
0.0
 40
0.039665119
 40
0.0788625779
 40
0.1175689642
 40
0.1557635445
 40
0.1934263296
 40
0.2305392284
 40
0.2670857827
 40
0.3030514013
 40
0.3384234642
 40
0.3731914561
 40
0.4073471071
 40
0.4408845372
 40
0.4738004077
 40
0.5060940775
 40
0.5377677657
 40
0.5688267098
 40
0.5992793256
 40
0.6291373641
 40
0.6584160591
 40
0.6728447437
 40
0.6871359821
 40
0.7153162787
 40
0.7429850724
 40
0.7701726315
 40
0.7969130885
 40
0.8232443842
 40
0.8492081426
 40
0.8748494725
 40
0.9002166865
 40
0.9253609337
 40
0.950335752
 40
0.9751965454
 40
1.0
 40
1.0
 40
1.0
 40
1.0
 10
15.1805850065
 20
13.6510545457
 30
0.0
 10
15.1677556624
 20
13.6510545457
 30
0.0
 10
15.1422472183
 20
13.6507668654
 30
0.0
 10
15.1042398147
 20
13.649455648
 30
0.0
 10
15.0667488337
 20
13.6472686062
 30
0.0
 10
15.0298169783
 20
13.6442082658
 30
0.0
 10
14.9934857329
 20
13.6402780081
 30
0.0
 10
14.9577961563
 20
13.6354822684
 30
0.0
 10
14.9227884876
 20
13.6298264119
 30
0.0
 10
14.8885022186
 20
13.6233167841
 30
0.0
 10
14.8549760149
 20
13.6159606836
 30
0.0
 10
14.8222476832
 20
13.6077663512
 30
0.0
 10
14.7903541286
 20
13.5987429599
 30
0.0
 10
14.759331316
 20
13.588900602
 30
0.0
 10
14.7292142305
 20
13.578250276
 30
0.0
 10
14.7000368433
 20
13.5668038737
 30
0.0
 10
14.6718320627
 20
13.554574167
 30
0.0
 10
14.6446317427
 20
13.5415748077
 30
0.0
 10
14.6184665172
 20
13.5278202251
 30
0.0
 10
14.5933662656
 20
13.51332593
 30
0.0
 10
14.5732631704
 20
13.5005826299
 30
0.0
 10
14.5577512779
 20
13.4900310085
 30
0.0
 10
14.5427633835
 20
13.479348697
 30
0.0
 10
14.5247312022
 20
13.4655686057
 30
0.0
 10
14.5041619011
 20
13.4482841248
 30
0.0
 10
14.4847870105
 20
13.4303482092
 30
0.0
 10
14.4666289862
 20
13.4117810874
 30
0.0
 10
14.4497086598
 20
13.3926035126
 30
0.0
 10
14.434045602
 20
13.37283705
 30
0.0
 10
14.4196579873
 20
13.3525040021
 30
0.0
 10
14.4065625628
 20
13.3316273906
 30
0.0
 10
14.3947746467
 20
13.3102310512
 30
0.0
 10
14.3843079426
 20
13.288339157
 30
0.0
 10
14.3751750216
 20
13.265977868
 30
0.0
 10
14.3699798934
 20
13.2507661314
 30
0.0
 10
14.3676112848
 20
13.2431012996
 30
0.0
  0
SPLINE
  5
29F
100
AcDbEntity
  8
LAYER_FEATURE
100
AcDbSpline
 62
7
  6
CONTINUOUS
 70
0
 71
3
 72
67
 73
63
 74
0
 42
0.0000001
 43
0.0000001
 44
0.0000000001
 40
0.0
 40
0.0
 40
0.0
 40
0.0
 40
0.0171788732
 40
0.0345307089
 40
0.0520447611
 40
0.0697106009
 40
0.0875170571
 40
0.1054527792
 40
0.1235060929
 40
0.1416650686
 40
0.1599175497
 40
0.1782511775
 40
0.1966534216
 40
0.215111606
 40
0.2521429405
 40
0.2892435247
 40
0.3263095118
 40
0.3632373421
 40
0.381618191
 40
0.3999262434
 40
0.4181490225
 40
0.4362742338
 40
0.4542897929
 40
0.4721838544
 40
0.4899448405
 40
0.5075614727
 40
0.5250228029
 40
0.5423182437
 40
0.5594376014
 40
0.5763711084
 40
0.5931094598
 40
0.6096438503
 40
0.6259660105
 40
0.6420682454
 40
0.6579434752
 40
0.6735852777
 40
0.6889879357
 40
0.7041464817
 40
0.7190567458
 40
0.7337154063
 40
0.7481200425
 40
0.7622691911
 40
0.7761624035
 40
0.7898003009
 40
0.8031846335
 40
0.8163183385
 40
0.8292055994
 40
0.8418519022
 40
0.8542640843
 40
0.8664503797
 40
0.8784204542
 40
0.8901854318
 40
0.9017579054
 40
0.9131519276
 40
0.9243829805
 40
0.9354679215
 40
0.9464249018
 40
0.9572732578
 40
0.9680333698
 40
0.978726494
 40
0.9893745688
 40
1.0
 40
1.0
 40
1.0
 40
1.0
 10
15.0087179168
 20
13.0948924399
 30
0.0
 10
15.021169759
 20
13.0948924399
 30
0.0
 10
15.0461996118
 20
13.094618452
 30
0.0
 10
15.0839064674
 20
13.0934010578
 30
0.0
 10
15.1219321824
 20
13.0913763105
 30
0.0
 10
15.1602367758
 20
13.0885463999
 30
0.0
 10
15.1987805939
 20
13.084914219
 30
0.0
 10
15.2375234455
 20
13.080483569
 30
0.0
 10
15.2764250303
 20
13.0752590568
 30
0.0
 10
15.315444851
 20
13.0692461271
 30
0.0
 10
15.3545423057
 20
13.0624510386
 30
0.0
 10
15.3936766523
 20
13.0548808698
 30
0.0
 10
15.4328073287
 20
13.0465434713
 30
0.0
 10
15.484975201
 20
13.0344031636
 30
0.0
 10
15.5499067446
 20
13.0173668111
 30
0.0
 10
15.6270761328
 20
12.994039599
 30
0.0
 10
15.7032607477
 20
12.9679035509
 30
0.0
 10
15.765760206
 20
12.9438361147
 30
0.0
 10
15.81499832
 20
12.9232649958
 30
0.0
 10
15.8514297021
 20
12.9072293028
 30
0.0
 10
15.8873806441
 20
12.8905801665
 30
0.0
 10
15.9228138824
 20
12.873334838
 30
0.0
 10
15.9576924955
 20
12.8555112886
 30
0.0
 10
15.9919801909
 20
12.837128062
 30
0.0
 10
16.0256412765
 20
12.8182042868
 30
0.0
 10
16.0586407198
 20
12.7987596549
 30
0.0
 10
16.0909441811
 20
12.7788144031
 30
0.0
 10
16.1225180451
 20
12.7583892838
 30
0.0
 10
16.1533294556
 20
12.7375055448
 30
0.0
 10
16.1833463489
 20
12.7161849065
 30
0.0
 10
16.2125374891
 20
12.6944495394
 30
0.0
 10
16.2408725078
 20
12.6723220495
 30
0.0
 10
16.2683219271
 20
12.6498254428
 30
0.0
 10
16.2948571891
 20
12.6269831029
 30
0.0
 10
16.3204506848
 20
12.6038187665
 30
0.0
 10
16.3450757821
 20
12.5803564958
 30
0.0
 10
16.3687068628
 20
12.5566206627
 30
0.0
 10
16.3913193421
 20
12.532635915
 30
0.0
 10
16.4128896887
 20
12.5084271485
 30
0.0
 10
16.4333954479
 20
12.4840194831
 30
0.0
 10
16.4528152617
 20
12.4594382331
 30
0.0
 10
16.4711288981
 20
12.434708887
 30
0.0
 10
16.488317271
 20
12.4098570806
 30
0.0
 10
16.5043624463
 20
12.3849085647
 30
0.0
 10
16.5192476592
 20
12.3598891832
 30
0.0
 10
16.5329573264
 20
12.3348248464
 30
0.0
 10
16.5454770635
 20
12.3097415086
 30
0.0
 10
16.5567937076
 20
12.2846651494
 30
0.0
 10
16.5668953127
 20
12.2596217444
 30
0.0
 10
16.5757711607
 20
12.2346372479
 30
0.0
 10
16.5834117709
 20
12.2097375743
 30
0.0
 10
16.5898089095
 20
12.184948579
 30
0.0
 10
16.594955621
 20
12.1602960459
 30
0.0
 10
16.5988462259
 20
12.1358056653
 30
0.0
 10
16.6014763332
 20
12.1115030189
 30
0.0
 10
16.6028428583
 20
12.0874135595
 30
0.0
 10
16.602944041
 20
12.063562597
 30
0.0
 10
16.6017794736
 20
12.0399752421
 30
0.0
 10
16.5993501498
 20
12.0166764828
 30
0.0
 10
16.5956583434
 20
11.9936907458
 30
0.0
 10
16.5907080902
 20
11.9710433441
 30
0.0
 10
16.5865702029
 20
11.9561791123
 30
0.0
 10
16.5842963051
 20
11.9488207653
 30
0.0
  0
SPLINE
  5
2A0
100
AcDbEntity
  8
LAYER_FEATURE
100
AcDbSpline
 62
7
  6
CONTINUOUS
 70
0
 71
3
 72
67
 73
63
 74
0
 42
0.0000001
 43
0.0000001
 44
0.0000000001
 40
0.0
 40
0.0
 40
0.0
 40
0.0
 40
0.0171788732
 40
0.0345307089
 40
0.0520447611
 40
0.0697106009
 40
0.0875170571
 40
0.1054527792
 40
0.1235060929
 40
0.1416650686
 40
0.1599175497
 40
0.1782511775
 40
0.1966534216
 40
0.215111606
 40
0.2521429405
 40
0.2892435247
 40
0.3263095118
 40
0.3632373421
 40
0.381618191
 40
0.3999262434
 40
0.4181490225
 40
0.4362742338
 40
0.4542897929
 40
0.4721838544
 40
0.4899448405
 40
0.5075614727
 40
0.5250228029
 40
0.5423182437
 40
0.5594376014
 40
0.5763711084
 40
0.5931094598
 40
0.6096438503
 40
0.6259660105
 40
0.6420682454
 40
0.6579434752
 40
0.6735852777
 40
0.6889879357
 40
0.7041464817
 40
0.7190567458
 40
0.7337154063
 40
0.7481200425
 40
0.7622691911
 40
0.7761624035
 40
0.7898003009
 40
0.8031846335
 40
0.8163183385
 40
0.8292055994
 40
0.8418519022
 40
0.8542640843
 40
0.8664503797
 40
0.8784204542
 40
0.8901854318
 40
0.9017579054
 40
0.9131519276
 40
0.9243829805
 40
0.9354679215
 40
0.9464249018
 40
0.9572732578
 40
0.9680333698
 40
0.978726494
 40
0.9893745688
 40
1.0
 40
1.0
 40
1.0
 40
1.0
 10
15.1805850065
 20
13.6510545457
 30
0.0
 10
15.1930368486
 20
13.6510545457
 30
0.0
 10
15.2180667014
 20
13.6507805578
 30
0.0
 10
15.255773557
 20
13.6495631636
 30
0.0
 10
15.293799272
 20
13.6475384163
 30
0.0
 10
15.3321038654
 20
13.6447085057
 30
0.0
 10
15.3706476835
 20
13.6410763249
 30
0.0
 10
15.4093905351
 20
13.6366456748
 30
0.0
 10
15.4482921199
 20
13.6314211626
 30
0.0
 10
15.4873119406
 20
13.6254082329
 30
0.0
 10
15.5264093953
 20
13.6186131444
 30
0.0
 10
15.565543742
 20
13.6110429757
 30
0.0
 10
15.6046744184
 20
13.6027055772
 30
0.0
 10
15.6568422907
 20
13.5905652694
 30
0.0
 10
15.7217738342
 20
13.5735289169
 30
0.0
 10
15.7989432224
 20
13.5502017049
 30
0.0
 10
15.8751278373
 20
13.5240656568
 30
0.0
 10
15.9376272956
 20
13.4999982205
 30
0.0
 10
15.9868654096
 20
13.4794271016
 30
0.0
 10
16.0232967917
 20
13.4633914086
 30
0.0
 10
16.0592477337
 20
13.4467422723
 30
0.0
 10
16.094680972
 20
13.4294969438
 30
0.0
 10
16.1295595851
 20
13.4116733945
 30
0.0
 10
16.1638472805
 20
13.3932901678
 30
0.0
 10
16.1975083661
 20
13.3743663927
 30
0.0
 10
16.2305078094
 20
13.3549217607
 30
0.0
 10
16.2628112707
 20
13.334976509
 30
0.0
 10
16.2943851347
 20
13.3145513897
 30
0.0
 10
16.3251965453
 20
13.2936676507
 30
0.0
 10
16.3552134385
 20
13.2723470123
 30
0.0
 10
16.3844045787
 20
13.2506116452
 30
0.0
 10
16.4127395974
 20
13.2284841554
 30
0.0
 10
16.4401890167
 20
13.2059875486
 30
0.0
 10
16.4667242787
 20
13.1831452087
 30
0.0
 10
16.4923177744
 20
13.1599808723
 30
0.0
 10
16.5169428717
 20
13.1365186016
 30
0.0
 10
16.5405739524
 20
13.1127827685
 30
0.0
 10
16.5631864317
 20
13.0887980208
 30
0.0
 10
16.5847567783
 20
13.0645892544
 30
0.0
 10
16.6052625376
 20
13.040181589
 30
0.0
 10
16.6246823513
 20
13.0156003389
 30
0.0
 10
16.6429959878
 20
12.9908709928
 30
0.0
 10
16.6601843606
 20
12.9660191864
 30
0.0
 10
16.6762295359
 20
12.9410706705
 30
0.0
 10
16.6911147488
 20
12.916051289
 30
0.0
 10
16.7048244161
 20
12.8909869522
 30
0.0
 10
16.7173441531
 20
12.8659036145
 30
0.0
 10
16.7286607972
 20
12.8408272552
 30
0.0
 10
16.7387624024
 20
12.8157838502
 30
0.0
 10
16.7476382503
 20
12.7907993537
 30
0.0
 10
16.7552788605
 20
12.7658996802
 30
0.0
 10
16.7616759991
 20
12.7411106849
 30
0.0
 10
16.7668227106
 20
12.7164581518
 30
0.0
 10
16.7707133155
 20
12.6919677712
 30
0.0
 10
16.7733434228
 20
12.6676651248
 30
0.0
 10
16.774709948
 20
12.6435756654
 30
0.0
 10
16.7748111307
 20
12.6197247028
 30
0.0
 10
16.7736465632
 20
12.596137348
 30
0.0
 10
16.7712172394
 20
12.5728385887
 30
0.0
 10
16.767525433
 20
12.5498528516
 30
0.0
 10
16.7625751798
 20
12.52720545
 30
0.0
 10
16.7584372926
 20
12.5123412181
 30
0.0
 10
16.7561633947
 20
12.5049828711
 30
0.0
  0
SPLINE
  5
2A1
100
AcDbEntity
  8
LAYER_CUT_FEAT
100
AcDbSpline
 62
7
  6
CONTINUOUS
 70
0
 71
3
 72
78
 73
74
 74
0
 42
0.0000001
 43
0.0000001
 44
0.0000000001
 40
0.0
 40
0.0
 40
0.0
 40
0.0
 40
0.0053541108
 40
0.0107129107
 40
0.0160810692
 40
0.0214632142
 40
0.0268639159
 40
0.0322876632
 40
0.0377388523
 40
0.0432217632
 40
0.0487405524
 40
0.0542992305
 40
0.0655500317
 40
0.0770046161
 40
0.0828172546
 40
0.0886903354
 40
0.1006274884
 40
0.1128373038
 40
0.1190503845
 40
0.1253376627
 40
0.1381401075
 40
0.1512565204
 40
0.1646948606
 40
0.1784604065
 40
0.1925559104
 40
0.2069817575
 40
0.2217361245
 40
0.2368151342
 40
0.2522130044
 40
0.2679221909
 40
0.2839335216
 40
0.3002363252
 40
0.3168185514
 40
0.3336668852
 40
0.3507668548
 40
0.3681029343
 40
0.385658641
 40
0.4034166287
 40
0.4213587768
 40
0.4394662766
 40
0.4577197143
 40
0.4760991513
 40
0.4945842036
 40
0.5131541179
 40
0.5317878479
 40
0.5504641282
 40
0.5691615485
 40
0.5878586267
 40
0.6065338817
 40
0.6251659068
 40
0.6437334425
 40
0.6622154505
 40
0.6805911883
 40
0.6988402846
 40
0.7169428166
 40
0.7348793883
 40
0.7526312117
 40
0.7701801894
 40
0.7875090014
 40
0.804601194
 40
0.8214412733
 40
0.8380148027
 40
0.8543085058
 40
0.8703103744
 40
0.886009783
 40
0.9013976095
 40
0.9164663633
 40
0.931210321
 40
0.9456256683
 40
0.9597106497
 40
0.9734657235
 40
0.9868937197
 40
1.0
 40
1.0
 40
1.0
 40
1.0
 10
14.4126873662
 20
12.585573441
 30
0.0
 10
14.4138674765
 20
12.5893922825
 30
0.0
 10
14.416367019
 20
12.596991362
 30
0.0
 10
14.4205280313
 20
12.6082548841
 30
0.0
 10
14.4250998049
 20
12.6193808196
 30
0.0
 10
14.4300802161
 20
12.6303642179
 30
0.0
 10
14.435467207
 20
12.6412003694
 30
0.0
 10
14.441258357
 20
12.6518846413
 30
0.0
 10
14.4474512439
 20
12.6624124132
 30
0.0
 10
14.454043082
 20
12.6727791858
 30
0.0
 10
14.461031192
 20
12.6829805745
 30
0.0
 10
14.4709115249
 20
12.6964087877
 30
0.0
 10
14.4842619139
 20
12.7127693008
 30
0.0
 10
14.4987645578
 20
12.7283755461
 30
0.0
 10
14.5110976861
 20
12.7404750942
 30
0.0
 10
14.5240567032
 20
12.7524396929
 30
0.0
 10
14.5411972457
 20
12.766898707
 30
0.0
 10
14.5593332061
 20
12.7805124174
 30
0.0
 10
14.5745235106
 20
12.7909821026
 30
0.0
 10
14.590356702
 20
12.8012871013
 30
0.0
 10
14.6110136444
 20
12.8136116672
 30
0.0
 10
14.6369662276
 20
12.8274095309
 30
0.0
 10
14.6641873728
 20
12.8402814799
 30
0.0
 10
14.6926301327
 20
12.8522056896
 30
0.0
 10
14.7222461186
 20
12.8631622604
 30
0.0
 10
14.752984809
 20
12.8731327837
 30
0.0
 10
14.7847938318
 20
12.8821005078
 30
0.0
 10
14.8176189842
 20
12.8900503364
 30
0.0
 10
14.8514043339
 20
12.8969688707
 30
0.0
 10
14.8860923036
 20
12.9028444356
 30
0.0
 10
14.9216237678
 20
12.9076671064
 30
0.0
 10
14.9579381499
 20
12.9114287313
 30
0.0
 10
14.9949735256
 20
12.9141229495
 30
0.0
 10
15.0326667273
 20
12.9157452069
 30
0.0
 10
15.0709534522
 20
12.9162927669
 30
0.0
 10
15.1097683731
 20
12.9157647181
 30
0.0
 10
15.1490452496
 20
12.9141619783
 30
0.0
 10
15.1887170432
 20
12.9114872952
 30
0.0
 10
15.228716032
 20
12.9077452427
 30
0.0
 10
15.2689739273
 20
12.9029422151
 30
0.0
 10
15.3094219917
 20
12.8970864166
 30
0.0
 10
15.3499911572
 20
12.8901878485
 30
0.0
 10
15.3906121438
 20
12.8822582925
 30
0.0
 10
15.4312155793
 20
12.8733112912
 30
0.0
 10
15.4717321182
 20
12.8633621248
 30
0.0
 10
15.5120925614
 20
12.8524277858
 30
0.0
 10
15.5522279746
 20
12.8405269495
 30
0.0
 10
15.5920698073
 20
12.8276799421
 30
0.0
 10
15.6315500107
 20
12.8139087063
 30
0.0
 10
15.6706011539
 20
12.7992367628
 30
0.0
 10
15.7091565408
 20
12.7836891703
 30
0.0
 10
15.7471503236
 20
12.7672924819
 30
0.0
 10
15.7845176167
 20
12.7500746995
 30
0.0
 10
15.8211946076
 20
12.7320652248
 30
0.0
 10
15.8571186665
 20
12.7132948086
 30
0.0
 10
15.8922284539
 20
12.6937954969
 30
0.0
 10
15.9264640254
 20
12.6736005754
 30
0.0
 10
15.9597669346
 20
12.6527445109
 30
0.0
 10
15.9920803327
 20
12.6312628909
 30
0.0
 10
16.0233490656
 20
12.609192361
 30
0.0
 10
16.0535197677
 20
12.5865705601
 30
0.0
 10
16.0825409521
 20
12.5634360538
 30
0.0
 10
16.1103630971
 20
12.539828266
 30
0.0
 10
16.1369387293
 20
12.5157874084
 30
0.0
 10
16.1622225013
 20
12.4913544086
 30
0.0
 10
16.1861712655
 20
12.4665708377
 30
0.0
 10
16.2087441437
 20
12.4414788341
 30
0.0
 10
16.2299025864
 20
12.4161210368
 30
0.0
 10
16.2496104449
 20
12.39054048
 30
0.0
 10
16.2678339689
 20
12.3647806307
 30
0.0
 10
16.2845420476
 20
12.3388849128
 30
0.0
 10
16.2997055422
 20
12.3128980903
 30
0.0
 10
16.3088777775
 20
12.2953305635
 30
0.0
 10
16.3131881719
 20
12.2865469032
 30
0.0
  0
SPLINE
  5
2A2
100
AcDbEntity
  8
LAYER_CHAMFER_FEAT
100
AcDbSpline
 62
7
  6
CONTINUOUS
 70
0
 71
3
 72
65
 73
61
 74
0
 42
0.0000001
 43
0.0000001
 44
0.0000000001
 40
0.0
 40
0.0
 40
0.0
 40
0.0
 40
0.0157585323
 40
0.0311485609
 40
0.0461664119
 40
0.0608111599
 40
0.0750848483
 40
0.0889927286
 40
0.1025434767
 40
0.1157493838
 40
0.1286265392
 40
0.1411949883
 40
0.1534788079
 40
0.1655060899
 40
0.1773088317
 40
0.1889227066
 40
0.2003866701
 40
0.2117424149
 40
0.2230336911
 40
0.2343055118
 40
0.2456032747
 40
0.2569718641
 40
0.2684547866
 40
0.2800933806
 40
0.2919261549
 40
0.3039882775
 40
0.3163112093
 40
0.3289224684
 40
0.3418455412
 40
0.3550999027
 40
0.3687011037
 40
0.3826609004
 40
0.3969874523
 40
0.4116855418
 40
0.42675679
 40
0.4421998582
 40
0.4580106802
 40
0.4741826816
 40
0.4907069751
 40
0.5075725311
 40
0.5247663714
 40
0.5422737455
 40
0.5600782817
 40
0.578162122
 40
0.5965060773
 40
0.6150897662
 40
0.6338917365
 40
0.6528895771
 40
0.6913757996
 40
0.730358105
 40
0.7696345506
 40
0.8089985506
 40
0.8482421445
 40
0.8871592589
 40
0.9064339941
 40
0.9255524195
 40
0.9444908055
 40
0.9632259086
 40
0.9817364833
 40
1.0
 40
1.0
 40
1.0
 40
1.0
 10
15.0966296053
 20
12.0654653787
 30
0.0
 10
15.093317714
 20
12.0646864906
 30
0.0
 10
15.0868000202
 20
12.0630214836
 30
0.0
 10
15.07724819
 20
12.0601642639
 30
0.0
 10
15.0680534067
 20
12.0569819228
 30
0.0
 10
15.0592338777
 20
12.0534806315
 30
0.0
 10
15.0508068564
 20
12.0496670987
 30
0.0
 10
15.0427888983
 20
12.0455486507
 30
0.0
 10
15.0351957608
 20
12.0411331923
 30
0.0
 10
15.0280424179
 20
12.0364291776
 30
0.0
 10
15.0213430436
 20
12.0314455983
 30
0.0
 10
15.0151109703
 20
12.0261920121
 30
0.0
 10
15.0093586752
 20
12.0206785282
 30
0.0
 10
15.0040977788
 20
12.0149157937
 30
0.0
 10
14.9993390235
 20
12.0089150014
 30
0.0
 10
14.9950921987
 20
12.0026879257
 30
0.0
 10
14.9913661022
 20
11.9962469063
 30
0.0
 10
14.988168507
 20
11.9896048242
 30
0.0
 10
14.9855061073
 20
11.9827750758
 30
0.0
 10
14.9833844133
 20
11.9757715454
 30
0.0
 10
14.9818077294
 20
11.9686085217
 30
0.0
 10
14.9807791564
 20
11.9613006155
 30
0.0
 10
14.9803005961
 20
11.9538626888
 30
0.0
 10
14.9803727189
 20
11.9463097894
 30
0.0
 10
14.9809950288
 20
11.9386570852
 30
0.0
 10
14.9821659249
 20
11.930919826
 30
0.0
 10
14.9838827411
 20
11.9231133255
 30
0.0
 10
14.9861417299
 20
11.9152529378
 30
0.0
 10
14.9889381209
 20
11.907354048
 30
0.0
 10
14.9922661555
 20
11.8994320681
 30
0.0
 10
14.9961190985
 20
11.8915024327
 30
0.0
 10
15.0004892051
 20
11.8835805661
 30
0.0
 10
15.0053677612
 20
11.8756818742
 30
0.0
 10
15.0107451051
 20
11.8678217273
 30
0.0
 10
15.0166106358
 20
11.8600154402
 30
0.0
 10
15.0229527919
 20
11.8522782213
 30
0.0
 10
15.0297590955
 20
11.8446251594
 30
0.0
 10
15.0370161802
 20
11.8370711984
 30
0.0
 10
15.0447098104
 20
11.8296311111
 30
0.0
 10
15.0528248776
 20
11.8223194425
 30
0.0
 10
15.0613454509
 20
11.8151504989
 30
0.0
 10
15.070254813
 20
11.8081383226
 30
0.0
 10
15.0795354889
 20
11.8012966656
 30
0.0
 10
15.0891692549
 20
11.7946389349
 30
0.0
 10
15.0991372018
 20
11.7881781797
 30
0.0
 10
15.1094197418
 20
11.7819270947
 30
0.0
 10
15.119996777
 20
11.7758978983
 30
0.0
 10
15.1345260517
 20
11.7681377761
 30
0.0
 10
15.1532900214
 20
11.7590755393
 30
0.0
 10
15.1765384575
 20
11.7493104539
 30
0.0
 10
15.2004347313
 20
11.7406840347
 30
0.0
 10
15.2247915693
 20
11.7332640004
 30
0.0
 10
15.2494180463
 20
11.7271084021
 30
0.0
 10
15.2700714519
 20
11.7230593844
 30
0.0
 10
15.2865665413
 20
11.7204976972
 30
0.0
 10
15.2988456156
 20
11.7189250657
 30
0.0
 10
15.3110469006
 20
11.7176981364
 30
0.0
 10
15.3231467102
 20
11.7168192528
 30
0.0
 10
15.3351209537
 20
11.7162902344
 30
0.0
 10
15.3430609013
 20
11.7161705825
 30
0.0
 10
15.3470039722
 20
11.7161705825
 30
0.0
  0
SPLINE
  5
2A3
100
AcDbEntity
  8
LAYER_FEATURE
100
AcDbSpline
 62
7
  6
CONTINUOUS
 70
0
 71
3
 72
22
 73
18
 74
0
 42
0.0000001
 43
0.0000001
 44
0.0000000001
 40
0.0
 40
0.0
 40
0.0
 40
0.0
 40
0.047069421
 40
0.0947703161
 40
0.1436877151
 40
0.1943438679
 40
0.2471590612
 40
0.3024529811
 40
0.3604429066
 40
0.4212508479
 40
0.4849133168
 40
0.5513910447
 40
0.6205791782
 40
0.6923178571
 40
0.7663992663
 40
0.8425711288
 40
1.0
 40
1.0
 40
1.0
 40
1.0
 10
16.6067588324
 20
12.465508905
 30
0.0
 10
16.6068507524
 20
12.4658063911
 30
0.0
 10
16.6069931509
 20
12.4664194746
 30
0.0
 10
16.6070760256
 20
12.4673692583
 30
0.0
 10
16.6070286696
 20
12.4683451825
 30
0.0
 10
16.6068519342
 20
12.4693401692
 30
0.0
 10
16.606547485
 20
12.4703476228
 30
0.0
 10
16.606117807
 20
12.4713609558
 30
0.0
 10
16.6055660555
 20
12.4723736869
 30
0.0
 10
16.6048960478
 20
12.4733793484
 30
0.0
 10
16.6041122836
 20
12.4743714968
 30
0.0
 10
16.6032199728
 20
12.4753437481
 30
0.0
 10
16.6022250034
 20
12.4762898202
 30
0.0
 10
16.6011339283
 20
12.4772035419
 30
0.0
 10
16.5999538713
 20
12.478078966
 30
0.0
 10
16.598253922
 20
12.4791995226
 30
0.0
 10
16.5968970522
 20
12.4799463007
 30
0.0
 10
16.5959617778
 20
12.48040429
 30
0.0
  0
LINE
  5
2A4
100
AcDbEntity
  8
LAYER_FEATURE
100
AcDbLine
 62
7
  6
CONTINUOUS
 10
16.6255248737
 20
12.5833709819
 11
16.6258216449
 21
12.5853766257
  0
SPLINE
  5
2A5
100
AcDbEntity
  8
LAYER_FEATURE
100
AcDbSpline
 62
7
  6
CONTINUOUS
 70
0
 71
3
 72
14
 73
10
 74
0
 42
0.0000001
 43
0.0000001
 44
0.0000000001
 40
0.0
 40
0.0
 40
0.0
 40
0.0
 40
0.1161190342
 40
0.2331837663
 40
0.3521034035
 40
0.4737162636
 40
0.5987583906
 40
0.727869573
 40
1.0
 40
1.0
 40
1.0
 40
1.0
 10
16.5674767572
 20
12.8056058639
 30
0.0
 10
16.5675481789
 20
12.805836994
 30
0.0
 10
16.5676659547
 20
12.8063095062
 30
0.0
 10
16.5677642269
 20
12.8070378306
 30
0.0
 10
16.5677842171
 20
12.807783958
 30
0.0
 10
16.5677258781
 20
12.808544605
 30
0.0
 10
16.5675896467
 20
12.8093167618
 30
0.0
 10
16.5673001388
 20
12.8103754673
 30
0.0
 10
16.5669739309
 20
12.8111503641
 30
0.0
 10
16.5667171547
 20
12.8116558165
 30
0.0
  0
SPLINE
  5
2A6
100
AcDbEntity
  8
LAYER_FEATURE
100
AcDbSpline
 62
7
  6
CONTINUOUS
 70
0
 71
3
 72
17
 73
13
 74
0
 42
0.0000001
 43
0.0000001
 44
0.0000000001
 40
0.0
 40
0.0
 40
0.0
 40
0.0
 40
0.0529707882
 40
0.1062371129
 40
0.1600864251
 40
0.2147908222
 40
0.3276493179
 40
0.446589035
 40
0.5727996358
 40
0.7069862715
 40
0.8494229092
 40
1.0
 40
1.0
 40
1.0
 40
1.0
 10
16.4001672759
 20
13.0269772716
 30
0.0
 10
16.4002262818
 20
13.0271682229
 30
0.0
 10
16.4003271478
 20
13.0275568434
 30
0.0
 10
16.4004251652
 20
13.0281536361
 30
0.0
 10
16.400469893
 20
13.0287633795
 30
0.0
 10
16.4004582588
 20
13.0295995893
 30
0.0
 10
16.4003050639
 20
13.0306749039
 30
0.0
 10
16.399911227
 20
13.0319717388
 30
0.0
 10
16.3993114764
 20
13.0332756161
 30
0.0
 10
16.3985132181
 20
13.0345728382
 30
0.0
 10
16.3975256641
 20
13.0358500174
 30
0.0
 10
16.3967683693
 20
13.0366578514
 30
0.0
 10
16.3963629147
 20
13.0370558212
 30
0.0
  0
LINE
  5
2A7
100
AcDbEntity
  8
LAYER_FEATURE
100
AcDbLine
 62
7
  6
CONTINUOUS
 10
16.1303177519
 20
13.1866009468
 11
16.1329731805
 21
13.1845079729
  0
SPLINE
  5
2A8
100
AcDbEntity
  8
LAYER_FEATURE
100
AcDbSpline
 62
7
  6
CONTINUOUS
 70
0
 71
3
 72
21
 73
17
 74
0
 42
0.0000001
 43
0.0000001
 44
0.0000000001
 40
0.0
 40
0.0
 40
0.0
 40
0.0
 40
0.0485370311
 40
0.0975993124
 40
0.1476823771
 40
0.1992313721
 40
0.2526268628
 40
0.308173292
 40
0.3660984952
 40
0.426556428
 40
0.4896312018
 40
0.5553448289
 40
0.6236642946
 40
0.694508015
 40
0.8431718599
 40
1.0
 40
1.0
 40
1.0
 40
1.0
 10
16.1417270087
 20
13.2234961778
 30
0.0
 10
16.1418093637
 20
13.2237626853
 30
0.0
 10
16.1419407736
 20
13.2243098257
 30
0.0
 10
16.1420333022
 20
13.2251556088
 30
0.0
 10
16.142021499
 20
13.2260236668
 30
0.0
 10
16.1419056387
 20
13.2269089451
 30
0.0
 10
16.1416866591
 20
13.2278066631
 30
0.0
 10
16.1413660397
 20
13.2287120567
 30
0.0
 10
16.1409457069
 20
13.2296204135
 30
0.0
 10
16.1404280199
 20
13.2305270193
 30
0.0
 10
16.1398158422
 20
13.2314272039
 30
0.0
 10
16.139112469
 20
13.2323162984
 30
0.0
 10
16.1383216203
 20
13.2331896954
 30
0.0
 10
16.1371371606
 20
13.2343456295
 30
0.0
 10
16.1354598615
 20
13.2357182501
 30
0.0
 10
16.1339929545
 20
13.2366884347
 30
0.0
 10
16.1332194501
 20
13.237151052
 30
0.0
  0
SPLINE
  5
2A9
100
AcDbEntity
  8
02___PRT_ALL_AXES
100
AcDbSpline
 62
7
  6
CONTINUOUS
 70
0
 71
3
 72
39
 73
35
 74
0
 42
0.0000001
 43
0.0000001
 44
0.0000000001
 40
0.0
 40
0.0
 40
0.0
 40
0.0
 40
0.0248034973
 40
0.0496643335
 40
0.0746391947
 40
0.0997834851
 40
0.1251507427
 40
0.1507921168
 40
0.1767559198
 40
0.2030872608
 40
0.2298277638
 40
0.2570153696
 40
0.284684211
 40
0.312864556
 40
0.3415828085
 40
0.3708615539
 40
0.4007196437
 40
0.4311723119
 40
0.4622313094
 40
0.493905052
 40
0.5261987774
 40
0.5591147045
 40
0.5926521923
 40
0.6268079021
 40
0.6615759537
 40
0.6969480775
 40
0.7329137579
 40
0.7694603751
 40
0.8065733377
 40
0.8442361876
 40
0.8824308336
 40
0.9211372865
 40
0.9603348127
 40
1.0
 40
1.0
 40
1.0
 40
1.0
 10
14.5744401153
 20
12.5355880609
 30
0.0
 10
14.5760384524
 20
12.5407602894
 30
0.0
 10
14.5795441249
 20
12.5510251693
 30
0.0
 10
14.58570702
 20
12.5661145671
 30
0.0
 10
14.5927699519
 20
12.5808872173
 30
0.0
 10
14.6007244377
 20
12.5953254671
 30
0.0
 10
14.6095612302
 20
12.6094130046
 30
0.0
 10
14.6192699925
 20
12.6231337452
 30
0.0
 10
14.6298394244
 20
12.6364721546
 30
0.0
 10
14.6412572588
 20
12.6494131806
 30
0.0
 10
14.6535103007
 20
12.6619422798
 30
0.0
 10
14.6665844494
 20
12.6740454151
 30
0.0
 10
14.6804647191
 20
12.6857090616
 30
0.0
 10
14.6951352563
 20
12.6969202097
 30
0.0
 10
14.7105793569
 20
12.7076663692
 30
0.0
 10
14.7267794779
 20
12.7179355777
 30
0.0
 10
14.7437172533
 20
12.7277164095
 30
0.0
 10
14.7613735128
 20
12.7369979793
 30
0.0
 10
14.7797282983
 20
12.7457699532
 30
0.0
 10
14.7987608816
 20
12.7540225576
 30
0.0
 10
14.8184497832
 20
12.7617465903
 30
0.0
 10
14.8387727923
 20
12.7689334301
 30
0.0
 10
14.8597069863
 20
12.7755750533
 30
0.0
 10
14.8812287569
 20
12.7816640377
 30
0.0
 10
14.9033138352
 20
12.7871935733
 30
0.0
 10
14.9259373174
 20
12.7921574699
 30
0.0
 10
14.9490736918
 20
12.7965501667
 30
0.0
 10
14.9726968666
 20
12.8003667387
 30
0.0
 10
14.9967801929
 20
12.8036029038
 30
0.0
 10
15.0212965173
 20
12.8062550417
 30
0.0
 10
15.0462181333
 20
12.8083201594
 30
0.0
 10
15.0715170473
 20
12.8097959752
 30
0.0
 10
15.0971644433
 20
12.8106807847
 30
0.0
 10
15.1143775413
 20
12.8108749114
 30
0.0
 10
15.1230347827
 20
12.8108749114
 30
0.0
  0
SPLINE
  5
2AA
100
AcDbEntity
  8
LAYER_CHAMFER_FEAT
100
AcDbSpline
 62
7
  6
CONTINUOUS
 70
0
 71
3
 72
48
 73
44
 74
0
 42
0.0000001
 43
0.0000001
 44
0.0000000001
 40
0.0
 40
0.0
 40
0.0
 40
0.0
 40
0.035733588
 40
0.0703709686
 40
0.1039027007
 40
0.1363338806
 40
0.1676855884
 40
0.197996311
 40
0.2273232373
 40
0.2557432705
 40
0.2833535491
 40
0.2968943601
 40
0.3102782913
 40
0.3235229259
 40
0.3366468398
 40
0.3496695683
 40
0.3626114161
 40
0.3754933668
 40
0.3883368803
 40
0.4011637499
 40
0.4139959037
 40
0.4268552247
 40
0.439763374
 40
0.4527415941
 40
0.4658105717
 40
0.4789902452
 40
0.4922997161
 40
0.5057570798
 40
0.5193793858
 40
0.5471747096
 40
0.5758050344
 40
0.605362613
 40
0.635919531
 40
0.6675283668
 40
0.70022329
 40
0.7340213992
 40
0.7689241574
 40
0.8049188378
 40
0.8419798984
 40
0.8800703363
 40
0.9191427809
 40
0.9591409277
 40
1.0
 40
1.0
 40
1.0
 40
1.0
 10
15.4898555811
 20
11.9439493605
 30
0.0
 10
15.4928344871
 20
11.9406894562
 30
0.0
 10
15.4985427965
 20
11.9341225769
 30
0.0
 10
15.5064397535
 20
11.9239897726
 30
0.0
 10
15.5135143712
 20
11.9137579005
 30
0.0
 10
15.5197426279
 20
11.9034608461
 30
0.0
 10
15.5251035223
 20
11.8931322478
 30
0.0
 10
15.5295786536
 20
11.8828059972
 30
0.0
 10
15.5331523625
 20
11.8725157793
 30
0.0
 10
15.5358116934
 20
11.8622961092
 30
0.0
 10
15.5372668174
 20
11.8538103177
 30
0.0
 10
15.5379551925
 20
11.847104118
 30
0.0
 10
15.5382354227
 20
11.842146033
 30
0.0
 10
15.5382826187
 20
11.8372318071
 30
0.0
 10
15.5380966306
 20
11.8323654724
 30
0.0
 10
15.5376776753
 20
11.8275511591
 30
0.0
 10
15.5370259712
 20
11.8227929374
 30
0.0
 10
15.5361421516
 20
11.8180948233
 30
0.0
 10
15.5350268396
 20
11.8134608171
 30
0.0
 10
15.5336810761
 20
11.8088948228
 30
0.0
 10
15.5321058961
 20
11.8044007411
 30
0.0
 10
15.5303027403
 20
11.7999823436
 30
0.0
 10
15.5282730541
 20
11.7956434068
 30
0.0
 10
15.5260186641
 20
11.7913875507
 30
0.0
 10
15.5235414191
 20
11.7872184058
 30
0.0
 10
15.5208435101
 20
11.7831394226
 30
0.0
 10
15.517927194
 20
11.7791540823
 30
0.0
 10
15.514794939
 20
11.7752656015
 30
0.0
 10
15.5103047334
 20
11.7701810345
 30
0.0
 10
15.5041464741
 20
11.764080543
 30
0.0
 10
15.4959912079
 20
11.7572512207
 30
0.0
 10
15.4870481392
 20
11.750884657
 30
0.0
 10
15.4773479888
 20
11.7450016419
 30
0.0
 10
15.4669232305
 20
11.7396207842
 30
0.0
 10
15.4558086794
 20
11.7347592975
 30
0.0
 10
15.4440412718
 20
11.7304327432
 30
0.0
 10
15.4316600473
 20
11.7266550412
 30
0.0
 10
15.4187060496
 20
11.7234383952
 30
0.0
 10
15.4052222115
 20
11.7207932338
 30
0.0
 10
15.391253269
 20
11.7187281687
 30
0.0
 10
15.3768454794
 20
11.7172499244
 30
0.0
 10
15.3620469777
 20
11.7163633401
 30
0.0
 10
15.3520533599
 20
11.7161705825
 30
0.0
 10
15.3470039722
 20
11.7161705825
 30
0.0
  0
SPLINE
  5
2AB
100
AcDbEntity
  8
LAYER_CHAMFER_FEAT
100
AcDbSpline
 62
7
  6
CONTINUOUS
 70
0
 71
3
 72
44
 73
40
 74
0
 42
0.0000001
 43
0.0000001
 44
0.0000000001
 40
0.0
 40
0.0
 40
0.0
 40
0.0
 40
0.0106260961
 40
0.0212748387
 40
0.0319686305
 40
0.0427294192
 40
0.0535784514
 40
0.0645361216
 40
0.0756217524
 40
0.086853512
 40
0.0982482446
 40
0.1098214461
 40
0.1335519277
 40
0.1581465042
 40
0.1836768039
 40
0.2101921588
 40
0.2377211132
 40
0.26627321
 40
0.2958408547
 40
0.3264011391
 40
0.3579175607
 40
0.3903416129
 40
0.4236142435
 40
0.4576671909
 40
0.4924242119
 40
0.5278022183
 40
0.5637123391
 40
0.6000609206
 40
0.6367504799
 40
0.6736806219
 40
0.7107489295
 40
0.7478518363
 40
0.7848854899
 40
0.8217466092
 40
0.8583333621
 40
0.8945462007
 40
0.9302888907
 40
0.9654690812
 40
1.0
 40
1.0
 40
1.0
 40
1.0
 10
15.0295267204
 20
11.9980700476
 30
0.0
 10
15.0290719411
 20
11.9965983782
 30
0.0
 10
15.0282443453
 20
11.9936255365
 30
0.0
 10
15.0272543207
 20
11.9890960509
 30
0.0
 10
15.0265159323
 20
11.9844989076
 30
0.0
 10
15.0260300938
 20
11.9798391533
 30
0.0
 10
15.0257971577
 20
11.9751216829
 30
0.0
 10
15.0258174157
 20
11.9703514921
 30
0.0
 10
15.0260907024
 20
11.9655335945
 30
0.0
 10
15.0266167331
 20
11.9606730842
 30
0.0
 10
15.0273948642
 20
11.9557749413
 30
0.0
 10
15.0287786868
 20
11.949146348
 30
0.0
 10
15.0311525765
 20
11.9407808378
 30
0.0
 10
15.0349657811
 20
11.9307640048
 30
0.0
 10
15.0397501385
 20
11.920724786
 30
0.0
 10
15.0454846812
 20
11.910704746
 30
0.0
 10
15.0521450113
 20
11.900744451
 30
0.0
 10
15.0597031198
 20
11.8908845468
 30
0.0
 10
15.068127474
 20
11.881165304
 30
0.0
 10
15.0773830624
 20
11.8716265542
 30
0.0
 10
15.0874314932
 20
11.8623074912
 30
0.0
 10
15.0982311159
 20
11.8532465007
 30
0.0
 10
15.1097371712
 20
11.8444809811
 30
0.0
 10
15.1219019616
 20
11.8360471719
 30
0.0
 10
15.1346750414
 20
11.8279799874
 30
0.0
 10
15.1480034221
 20
11.8203128593
 30
0.0
 10
15.1618317915
 20
11.8130775866
 30
0.0
 10
15.1761027439
 20
11.8063041957
 30
0.0
 10
15.1907570207
 20
11.8000208085
 30
0.0
 10
15.2057337592
 20
11.7942535202
 30
0.0
 10
15.2209707481
 20
11.7890262875
 30
0.0
 10
15.2364046901
 20
11.7843608253
 30
0.0
 10
15.2519714686
 20
11.7802765157
 30
0.0
 10
15.2676064157
 20
11.7767903241
 30
0.0
 10
15.2832445948
 20
11.7739167343
 30
0.0
 10
15.2988210397
 20
11.7716676746
 30
0.0
 10
15.3142711676
 20
11.7700525016
 30
0.0
 10
15.3295304867
 20
11.7690779108
 30
0.0
 10
15.3396368617
 20
11.7688557154
 30
0.0
 10
15.3446423893
 20
11.7688557154
 30
0.0
  0
SPLINE
  5
2AC
100
AcDbEntity
  8
LAYER_CHAMFER_FEAT
100
AcDbSpline
 62
7
  6
CONTINUOUS
 70
0
 71
3
 72
27
 73
23
 74
0
 42
0.0000001
 43
0.0000001
 44
0.0000000001
 40
0.0
 40
0.0
 40
0.0
 40
0.0
 40
0.024806396
 40
0.0496701418
 40
0.0746479196
 40
0.0997951536
 40
0.1251653763
 40
0.1508097478
 40
0.1767765903
 40
0.2031110006
 40
0.2570287797
 40
0.3128695266
 40
0.3708599389
 40
0.4311658638
 40
0.4938953822
 40
0.5591032576
 40
0.6267959576
 40
0.6969367887
 40
0.7694506783
 40
0.844229142
 40
0.9211332277
 40
1.0
 40
1.0
 40
1.0
 40
1.0
 10
15.5072371248
 20
11.8504463673
 30
0.0
 10
15.5067634034
 20
11.848913401
 30
0.0
 10
15.505724393
 20
11.8458710482
 30
0.0
 10
15.5038977904
 20
11.8413987981
 30
0.0
 10
15.5018044632
 20
11.8370204125
 30
0.0
 10
15.499446873
 20
11.8327411499
 30
0.0
 10
15.4968277844
 20
11.8285658236
 30
0.0
 10
15.4939502824
 20
11.8244992253
 30
0.0
 10
15.4908175969
 20
11.820545886
 30
0.0
 10
15.486270508
 20
11.8153920557
 30
0.0
 10
15.4799411492
 20
11.809251438
 30
0.0
 10
15.4714531044
 20
11.8024688573
 30
0.0
 10
15.4620510348
 20
11.7962417062
 30
0.0
 10
15.4517786348
 20
11.7905970856
 30
0.0
 10
15.4406823087
 20
11.7855587781
 30
0.0
 10
15.428812025
 20
11.7811483433
 30
0.0
 10
15.416220994
 20
11.7773847133
 30
0.0
 10
15.4029656006
 20
11.7742841775
 30
0.0
 10
15.3891052238
 20
11.7718602149
 30
0.0
 10
15.3747019073
 20
11.7701234493
 30
0.0
 10
15.3598206165
 20
11.7690814567
 30
0.0
 10
15.3497435408
 20
11.7688557154
 30
0.0
 10
15.3446423893
 20
11.7688557154
 30
0.0
  0
SPLINE
  5
2AD
100
AcDbEntity
  8
02___PRT_ALL_AXES
100
AcDbSpline
 62
7
  6
CONTINUOUS
 70
0
 71
3
 72
58
 73
54
 74
0
 42
0.0000001
 43
0.0000001
 44
0.0000000001
 40
0.0
 40
0.0
 40
0.0
 40
0.0
 40
0.0345292825
 40
0.0520436081
 40
0.0697097236
 40
0.1054506876
 40
0.1416618382
 40
0.1782468659
 40
0.215106254
 40
0.2521381665
 40
0.2892393297
 40
0.3263058954
 40
0.363234302
 40
0.3999221375
 40
0.4362690103
 40
0.4721774438
 40
0.5075537868
 40
0.5250153895
 40
0.5423111003
 40
0.5594307251
 40
0.5763644965
 40
0.5931031092
 40
0.6096377577
 40
0.6259601727
 40
0.6420626589
 40
0.6579381364
 40
0.6735801831
 40
0.6889830815
 40
0.7041418641
 40
0.7190523609
 40
0.7337112502
 40
0.7481161112
 40
0.7622654807
 40
0.7761589099
 40
0.7897970201
 40
0.8031815616
 40
0.8163154716
 40
0.8292029337
 40
0.8418494338
 40
0.8542618097
 40
0.8664482952
 40
0.8784185567
 40
0.8901837179
 40
0.901756372
 40
0.9131505721
 40
0.9243818003
 40
0.9354669143
 40
0.9464240657
 40
0.9572725909
 40
0.9680328708
 40
0.978726162
 40
0.989374403
 40
1.0
 40
1.0
 40
1.0
 40
1.0
 10
15.1230347827
 20
12.8108749114
 30
0.0
 10
15.1399234267
 20
12.8108749114
 30
0.0
 10
15.1653825167
 20
12.8103152085
 30
0.0
 10
15.1994316784
 20
12.8085022432
 30
0.0
 10
15.2340280545
 20
12.8059462441
 30
0.0
 10
15.2776362458
 20
12.8013873175
 30
0.0
 10
15.3301908778
 20
12.7937990506
 30
0.0
 10
15.382954176
 20
12.7841035478
 30
0.0
 10
15.4357064665
 20
12.7723411426
 30
0.0
 10
15.4882287836
 20
12.7585606803
 30
0.0
 10
15.5403029065
 20
12.7428194183
 30
0.0
 10
15.5917125056
 20
12.7251827304
 30
0.0
 10
15.6422440308
 20
12.7057238989
 30
0.0
 10
15.6916875371
 20
12.6845237651
 30
0.0
 10
15.7398378248
 20
12.6616702877
 30
0.0
 10
15.7864943953
 20
12.6372586653
 30
0.0
 10
15.8241314009
 20
12.6156080933
 30
0.0
 10
15.8533210169
 20
12.5975854911
 30
0.0
 10
15.8746271221
 20
12.5838025714
 30
0.0
 10
15.8954186457
 20
12.5697102373
 30
0.0
 10
15.9156740496
 20
12.5553230671
 30
0.0
 10
15.9353722298
 20
12.5406560423
 30
0.0
 10
15.9544927007
 20
12.5257244119
 30
0.0
 10
15.9730155688
 20
12.5105437018
 30
0.0
 10
15.9909215636
 20
12.4951296908
 30
0.0
 10
16.0081920545
 20
12.4794983966
 30
0.0
 10
16.0248090701
 20
12.4636660563
 30
0.0
 10
16.0407553234
 20
12.4476491162
 30
0.0
 10
16.0560142245
 20
12.4314642084
 30
0.0
 10
16.0705698944
 20
12.4151281328
 30
0.0
 10
16.0844071807
 20
12.3986578402
 30
0.0
 10
16.097511671
 20
12.3820704126
 30
0.0
 10
16.1098697129
 20
12.3653830499
 30
0.0
 10
16.1214684269
 20
12.3486130509
 30
0.0
 10
16.1322957112
 20
12.3317777924
 30
0.0
 10
16.1423402528
 20
12.3148947138
 30
0.0
 10
16.1515915363
 20
12.2979812993
 30
0.0
 10
16.1600398549
 20
12.281055063
 30
0.0
 10
16.1676763263
 20
12.2641335358
 30
0.0
 10
16.1744928894
 20
12.2472342461
 30
0.0
 10
16.1804823117
 20
12.2303747078
 30
0.0
 10
16.1856381954
 20
12.2135724081
 30
0.0
 10
16.1899549845
 20
12.1968447941
 30
0.0
 10
16.1934279854
 20
12.1802092648
 30
0.0
 10
16.1960533657
 20
12.1636831559
 30
0.0
 10
16.1978281621
 20
12.1472837301
 30
0.0
 10
16.1987502932
 20
12.1310281629
 30
0.0
 10
16.1988185713
 20
12.1149335334
 30
0.0
 10
16.1980327212
 20
12.0990167864
 30
0.0
 10
16.1963934135
 20
12.0832947836
 30
0.0
 10
16.1939021825
 20
12.0677840082
 30
0.0
 10
16.1905617517
 20
12.0525015416
 30
0.0
 10
16.1877695054
 20
12.0424711579
 30
0.0
 10
16.1862350791
 20
12.0375057454
 30
0.0
  0
SPLINE
  5
2AE
100
AcDbEntity
  8
LAYER_FEATURE
100
AcDbSpline
 62
7
  6
CONTINUOUS
 70
0
 71
3
 72
40
 73
36
 74
0
 42
0.0000001
 43
0.0000001
 44
0.0000000001
 40
0.0
 40
0.0
 40
0.0
 40
0.0
 40
0.039665119
 40
0.0788625779
 40
0.1175689642
 40
0.1557635445
 40
0.1934263296
 40
0.2305392284
 40
0.2670857827
 40
0.3030514013
 40
0.3384234642
 40
0.3731914561
 40
0.4073471071
 40
0.4408845372
 40
0.4738004077
 40
0.5060940775
 40
0.5377677657
 40
0.5688267098
 40
0.5992793256
 40
0.6291373641
 40
0.6584160591
 40
0.6728447437
 40
0.6871359821
 40
0.7153162787
 40
0.7429850724
 40
0.7701726315
 40
0.7969130885
 40
0.8232443842
 40
0.8492081426
 40
0.8748494725
 40
0.9002166865
 40
0.9253609337
 40
0.950335752
 40
0.9751965454
 40
1.0
 40
1.0
 40
1.0
 40
1.0
 10
14.9990352639
 20
13.0635593635
 30
0.0
 10
14.9862059199
 20
13.0635593635
 30
0.0
 10
14.9606974758
 20
13.0632716832
 30
0.0
 10
14.9226900722
 20
13.0619604658
 30
0.0
 10
14.8851990911
 20
13.059773424
 30
0.0
 10
14.8482672357
 20
13.0567130836
 30
0.0
 10
14.8119359903
 20
13.0527828259
 30
0.0
 10
14.7762464137
 20
13.0479870862
 30
0.0
 10
14.741238745
 20
13.0423312297
 30
0.0
 10
14.706952476
 20
13.0358216019
 30
0.0
 10
14.6734262724
 20
13.0284655014
 30
0.0
 10
14.6406979406
 20
13.020271169
 30
0.0
 10
14.608804386
 20
13.0112477776
 30
0.0
 10
14.5777815734
 20
13.0014054198
 30
0.0
 10
14.5476644879
 20
12.9907550937
 30
0.0
 10
14.5184871007
 20
12.9793086915
 30
0.0
 10
14.4902823202
 20
12.9670789848
 30
0.0
 10
14.4630820002
 20
12.9540796255
 30
0.0
 10
14.4369167746
 20
12.9403250429
 30
0.0
 10
14.411816523
 20
12.9258307477
 30
0.0
 10
14.3917134278
 20
12.9130874477
 30
0.0
 10
14.3762015353
 20
12.9025358262
 30
0.0
 10
14.361213641
 20
12.8918535148
 30
0.0
 10
14.3431814597
 20
12.8780734235
 30
0.0
 10
14.3226121586
 20
12.8607889426
 30
0.0
 10
14.3032372679
 20
12.842853027
 30
0.0
 10
14.2850792437
 20
12.8242859051
 30
0.0
 10
14.2681589172
 20
12.8051083304
 30
0.0
 10
14.2524958595
 20
12.7853418678
 30
0.0
 10
14.2381082447
 20
12.7650088199
 30
0.0
 10
14.2250128202
 20
12.7441322084
 30
0.0
 10
14.2132249041
 20
12.722735869
 30
0.0
 10
14.2027582
 20
12.7008439748
 30
0.0
 10
14.193625279
 20
12.6784826858
 30
0.0
 10
14.1884301509
 20
12.6632709492
 30
0.0
 10
14.1860615422
 20
12.6556061174
 30
0.0
  0
SPLINE
  5
2AF
100
AcDbEntity
  8
02___PRT_ALL_AXES
100
AcDbSpline
 62
7
  6
CONTINUOUS
 70
0
 71
3
 72
39
 73
35
 74
0
 42
0.0000001
 43
0.0000001
 44
0.0000000001
 40
0.0
 40
0.0
 40
0.0
 40
0.0
 40
0.039665382
 40
0.0788626135
 40
0.1175692048
 40
0.1557638041
 40
0.1934266659
 40
0.2305396241
 40
0.2670862409
 40
0.3030519228
 40
0.3384240482
 40
0.3731921007
 40
0.4073478092
 40
0.4408852948
 40
0.4738012208
 40
0.5060949475
 40
0.5377686921
 40
0.5688276902
 40
0.5992803577
 40
0.6291384461
 40
0.6584171903
 40
0.6871354432
 40
0.7153157893
 40
0.7429846313
 40
0.7701722373
 40
0.7969127399
 40
0.82324408
 40
0.8492078824
 40
0.8748492566
 40
0.9002165148
 40
0.9253608057
 40
0.950335667
 40
0.9751965029
 40
1.0
 40
1.0
 40
1.0
 40
1.0
 10
15.002001621
 20
12.4192114566
 30
0.0
 10
14.9933443371
 20
12.4192114566
 30
0.0
 10
14.9761312606
 20
12.4190173369
 30
0.0
 10
14.9504838567
 20
12.4181325128
 30
0.0
 10
14.9251849861
 20
12.4166567137
 30
0.0
 10
14.900263348
 20
12.4145915866
 30
0.0
 10
14.8757470318
 20
12.4119394521
 30
0.0
 10
14.8516637043
 20
12.4087032831
 30
0.0
 10
14.8280405302
 20
12.404886711
 30
0.0
 10
14.8049041548
 20
12.400494016
 30
0.0
 10
14.7822806712
 20
12.3955301213
 30
0.0
 10
14.7601955923
 20
12.3900005867
 30
0.0
 10
14.7386738226
 20
12.3839116006
 30
0.0
 10
14.7177396303
 20
12.3772699751
 30
0.0
 10
14.6974166221
 20
12.370083134
 30
0.0
 10
14.6777277192
 20
12.3623591032
 30
0.0
 10
14.6586951339
 20
12.3541065011
 30
0.0
 10
14.6403403476
 20
12.3453345276
 30
0.0
 10
14.6226840889
 20
12.3360529567
 30
0.0
 10
14.6057463151
 20
12.3262721234
 30
0.0
 10
14.5895461954
 20
12.3160029136
 30
0.0
 10
14.5741020942
 20
12.305256755
 30
0.0
 10
14.5594315553
 20
12.2940456082
 30
0.0
 10
14.5455512844
 20
12.2823819623
 30
0.0
 10
14.5324771354
 20
12.270278827
 30
0.0
 10
14.5202240943
 20
12.2577497272
 30
0.0
 10
14.5088062615
 20
12.2448087002
 30
0.0
 10
14.4982368315
 20
12.2314702897
 30
0.0
 10
14.488528068
 20
12.2177495499
 30
0.0
 10
14.4796912733
 20
12.2036620135
 30
0.0
 10
14.4717367855
 20
12.1892237644
 30
0.0
 10
14.4646738536
 20
12.174451114
 30
0.0
 10
14.4585109604
 20
12.1593617153
 30
0.0
 10
14.4550052926
 20
12.149096834
 30
0.0
 10
14.4534069545
 20
12.1439246058
 30
0.0
  0
SPLINE
  5
2B0
100
AcDbEntity
  8
LAYER_FEATURE
100
AcDbSpline
 62
7
  6
CONTINUOUS
 70
0
 71
3
 72
40
 73
36
 74
0
 42
0.0000001
 43
0.0000001
 44
0.0000000001
 40
0.0
 40
0.0
 40
0.0
 40
0.0
 40
0.039665119
 40
0.0788625779
 40
0.1175689642
 40
0.1557635445
 40
0.1934263296
 40
0.2305392284
 40
0.2670857827
 40
0.3030514013
 40
0.3384234642
 40
0.3731914561
 40
0.4073471071
 40
0.4408845372
 40
0.4738004077
 40
0.5060940775
 40
0.5377677657
 40
0.5688267098
 40
0.5992793256
 40
0.6291373641
 40
0.6584160591
 40
0.6728447437
 40
0.6871359821
 40
0.7153162787
 40
0.7429850724
 40
0.7701726315
 40
0.7969130885
 40
0.8232443842
 40
0.8492081426
 40
0.8748494725
 40
0.9002166865
 40
0.9253609337
 40
0.950335752
 40
0.9751965454
 40
1.0
 40
1.0
 40
1.0
 40
1.0
 10
15.1709023535
 20
13.6197214693
 30
0.0
 10
15.1580730095
 20
13.6197214693
 30
0.0
 10
15.1325645654
 20
13.619433789
 30
0.0
 10
15.0945571618
 20
13.6181225716
 30
0.0
 10
15.0570661807
 20
13.6159355298
 30
0.0
 10
15.0201343253
 20
13.6128751894
 30
0.0
 10
14.9838030799
 20
13.6089449317
 30
0.0
 10
14.9481135033
 20
13.604149192
 30
0.0
 10
14.9131058347
 20
13.5984933355
 30
0.0
 10
14.8788195656
 20
13.5919837077
 30
0.0
 10
14.845293362
 20
13.5846276072
 30
0.0
 10
14.8125650302
 20
13.5764332748
 30
0.0
 10
14.7806714756
 20
13.5674098835
 30
0.0
 10
14.749648663
 20
13.5575675256
 30
0.0
 10
14.7195315776
 20
13.5469171996
 30
0.0
 10
14.6903541903
 20
13.5354707974
 30
0.0
 10
14.6621494098
 20
13.5232410906
 30
0.0
 10
14.6349490898
 20
13.5102417313
 30
0.0
 10
14.6087838643
 20
13.4964871487
 30
0.0
 10
14.5836836127
 20
13.4819928536
 30
0.0
 10
14.5635805175
 20
13.4692495535
 30
0.0
 10
14.5480686249
 20
13.4586979321
 30
0.0
 10
14.5330807306
 20
13.4480156206
 30
0.0
 10
14.5150485493
 20
13.4342355294
 30
0.0
 10
14.4944792482
 20
13.4169510484
 30
0.0
 10
14.4751043576
 20
13.3990151328
 30
0.0
 10
14.4569463333
 20
13.380448011
 30
0.0
 10
14.4400260069
 20
13.3612704363
 30
0.0
 10
14.4243629491
 20
13.3415039736
 30
0.0
 10
14.4099753343
 20
13.3211709257
 30
0.0
 10
14.3968799099
 20
13.3002943142
 30
0.0
 10
14.3850919937
 20
13.2788979749
 30
0.0
 10
14.3746252896
 20
13.2570060806
 30
0.0
 10
14.3654923686
 20
13.2346447916
 30
0.0
 10
14.3602972405
 20
13.2194330551
 30
0.0
 10
14.3579286318
 20
13.2117682232
 30
0.0
  0
SPLINE
  5
2B1
100
AcDbEntity
  8
LAYER_CUT_FEAT
100
AcDbSpline
 62
7
  6
CONTINUOUS
 70
0
 71
3
 72
22
 73
18
 74
0
 42
0.0000001
 43
0.0000001
 44
0.0000000001
 40
0.0
 40
0.0
 40
0.0
 40
0.0
 40
0.138119746
 40
0.2053664285
 40
0.2714549226
 40
0.3364371368
 40
0.4003725798
 40
0.4633278425
 40
0.5253764101
 40
0.5865986145
 40
0.6470813095
 40
0.7069174418
 40
0.7662055029
 40
0.8250488587
 40
0.8835549592
 40
0.9418344156
 40
1.0
 40
1.0
 40
1.0
 40
1.0
 10
16.3131881719
 20
12.2865469032
 30
0.0
 10
16.3194442401
 20
12.2737983767
 30
0.0
 10
16.328064613
 20
12.2544932436
 30
0.0
 10
16.3378964153
 20
12.2283666477
 30
0.0
 10
16.3442895405
 20
12.2089980955
 30
0.0
 10
16.3497600571
 20
12.1897028315
 30
0.0
 10
16.3543027998
 20
12.17049875
 30
0.0
 10
16.3579131676
 20
12.151404357
 30
0.0
 10
16.3605874954
 20
12.1324378989
 30
0.0
 10
16.3623229824
 20
12.1136175962
 30
0.0
 10
16.3631177627
 20
12.0949615583
 30
0.0
 10
16.3629708704
 20
12.0764877884
 30
0.0
 10
16.3618822461
 20
12.0582141444
 30
0.0
 10
16.3598527754
 20
12.0401583975
 30
0.0
 10
16.3568842522
 20
12.022337915
 30
0.0
 10
16.3529796684
 20
12.0047706974
 30
0.0
 10
16.3497534979
 20
11.9932340797
 30
0.0
 10
16.3479878282
 20
11.9875203653
 30
0.0
  0
SPLINE
  5
2B2
100
AcDbEntity
  8
LAYER_FEATURE
100
AcDbSpline
 62
7
  6
CONTINUOUS
 70
0
 71
3
 72
87
 73
83
 74
0
 42
0.0000001
 43
0.0000001
 44
0.0000000001
 40
0.0
 40
0.0
 40
0.0
 40
0.0
 40
0.0182640289
 40
0.0367722715
 40
0.0555040957
 40
0.0744377363
 40
0.0935506692
 40
0.1128196019
 40
0.1322206211
 40
0.1517292859
 40
0.1713207333
 40
0.1909697784
 40
0.2106510141
 40
0.2303389094
 40
0.2500079079
 40
0.2696325256
 40
0.2891874496
 40
0.3086476364
 40
0.327988413
 40
0.3471855774
 40
0.3662155028
 40
0.3850552435
 40
0.4036826438
 40
0.4220764508
 40
0.4402164313
 40
0.4580834942
 40
0.4756598175
 40
0.4929289838
 40
0.5098761212
 40
0.5264880542
 40
0.5427534633
 40
0.5586630544
 40
0.5742097387
 40
0.589388823
 40
0.6041982098
 40
0.6186386052
 40
0.6327137322
 40
0.6464305436
 40
0.6597994279
 40
0.6663582899
 40
0.6728357401
 40
0.6855545875
 40
0.697978995
 40
0.7040894492
 40
0.7101362279
 40
0.7161231376
 40
0.7220542169
 40
0.7279337275
 40
0.7337661476
 40
0.7395561532
 40
0.7453086103
 40
0.7510285503
 40
0.7567211571
 40
0.7623917406
 40
0.7680457166
 40
0.7736885807
 40
0.779325882
 40
0.7849631977
 40
0.790606104
 40
0.7962601502
 40
0.801930832
 40
0.8076235635
 40
0.813343656
 40
0.8190962898
 40
0.8248864991
 40
0.8307191453
 40
0.8365989065
 40
0.8425302578
 40
0.8485174605
 40
0.854564553
 40
0.8606753378
 40
0.8731004601
 40
0.8858200827
 40
0.8922979413
 40
0.8988572197
 40
0.9122269696
 40
0.9259446773
 40
0.9400207224
 40
0.954462049
 40
0.969272372
 40
0.9844523904
 40
1.0
 40
1.0
 40
1.0
 40
1.0
 10
15.0416427667
 20
13.0405647121
 30
0.0
 10
15.0572709991
 20
13.0405647121
 30
0.0
 10
15.0887382502
 20
13.0400949124
 30
0.0
 10
15.1361927986
 20
13.0380170409
 30
0.0
 10
15.1841419096
 20
13.0345651157
 30
0.0
 10
15.2324926346
 20
13.0297457759
 30
0.0
 10
15.2811518548
 20
13.0235683409
 30
0.0
 10
15.3300257082
 20
13.0160447191
 30
0.0
 10
15.3790199428
 20
13.0071894269
 30
0.0
 10
15.4280400583
 20
12.9970195437
 30
0.0
 10
15.4769915009
 20
12.9855546866
 30
0.0
 10
15.5257798444
 20
12.9728169706
 30
0.0
 10
15.5743109742
 20
12.9588309664
 30
0.0
 10
15.6224912701
 20
12.9436236536
 30
0.0
 10
15.6702277887
 20
12.9272243687
 30
0.0
 10
15.7174284439
 20
12.9096647475
 30
0.0
 10
15.7640021853
 20
12.8909786631
 30
0.0
 10
15.8098591752
 20
12.8712021599
 30
0.0
 10
15.854910963
 20
12.8503733831
 30
0.0
 10
15.8990706562
 20
12.8285325035
 30
0.0
 10
15.9422530898
 20
12.805721639
 30
0.0
 10
15.9843749902
 20
12.7819847713
 30
0.0
 10
16.0253551374
 20
12.7573676589
 30
0.0
 10
16.0651145212
 20
12.7319177463
 30
0.0
 10
16.1035764943
 20
12.7056840697
 30
0.0
 10
16.1406669201
 20
12.6787171598
 30
0.0
 10
16.1763143146
 20
12.6510689394
 30
0.0
 10
16.2104499813
 20
12.6227926187
 30
0.0
 10
16.2430081418
 20
12.5939425883
 30
0.0
 10
16.2739260578
 20
12.5645743085
 30
0.0
 10
16.3031441463
 20
12.5347441967
 30
0.0
 10
16.3306060861
 20
12.5045095141
 30
0.0
 10
16.3562589162
 20
12.473928248
 30
0.0
 10
16.3800531212
 20
12.4430590033
 30
0.0
 10
16.4019427192
 20
12.4119608632
 30
0.0
 10
16.4218852931
 20
12.3806933683
 30
0.0
 10
16.4398421783
 20
12.3493160856
 30
0.0
 10
16.4557780439
 20
12.3178896778
 30
0.0
 10
16.4674214139
 20
12.2915429892
 30
0.0
 10
16.4756745704
 20
12.2705068249
 30
0.0
 10
16.4831323271
 20
12.2497659962
 30
0.0
 10
16.4911673374
 20
12.223911323
 30
0.0
 10
16.4975170505
 20
12.1979129352
 30
0.0
 10
16.501506835
 20
12.177257411
 30
0.0
 10
16.5039470504
 20
12.1619217113
 30
0.0
 10
16.5058501999
 20
12.1466648543
 30
0.0
 10
16.5072153726
 20
12.1314940649
 30
0.0
 10
16.5080418206
 20
12.116416731
 30
0.0
 10
16.508329155
 20
12.1014401549
 30
0.0
 10
16.508077126
 20
12.0865716056
 30
0.0
 10
16.5072858981
 20
12.0718183045
 30
0.0
 10
16.505955735
 20
12.0571874278
 30
0.0
 10
16.5040873355
 20
12.0426860883
 30
0.0
 10
16.5016815089
 20
12.0283213548
 30
0.0
 10
16.4987394631
 20
12.0141002169
 30
0.0
 10
16.4952625782
 20
12.0000296112
 30
0.0
 10
16.4912525538
 20
11.9861163937
 30
0.0
 10
16.4867113494
 20
11.9723673414
 30
0.0
 10
16.4816411503
 20
11.9587891647
 30
0.0
 10
16.476044486
 20
11.9453884561
 30
0.0
 10
16.4699240323
 20
11.9321717654
 30
0.0
 10
16.4632828628
 20
11.9191454835
 30
0.0
 10
16.4561241569
 20
11.9063159776
 30
0.0
 10
16.4484514963
 20
11.8936894311
 30
0.0
 10
16.4402685785
 20
11.8812720013
 30
0.0
 10
16.4315794571
 20
11.8690696661
 30
0.0
 10
16.4223883549
 20
11.8570883473
 30
0.0
 10
16.4126997665
 20
11.8453338144
 30
0.0
 10
16.4025184602
 20
11.833811758
 30
0.0
 10
16.3918492525
 20
11.8225276435
 30
0.0
 10
16.3768985486
 20
11.8077258048
 30
0.0
 10
16.3569842939
 20
11.7898445101
 30
0.0
 10
16.3357598376
 20
11.7730327353
 30
0.0
 10
16.3178978816
 20
11.7601172032
 30
0.0
 10
16.2992125965
 20
11.7474065676
 30
0.0
 10
16.2747314296
 20
11.7322244791
 30
0.0
 10
16.2438397581
 20
11.7152705185
 30
0.0
 10
16.2113072733
 20
11.6994973988
 30
0.0
 10
16.177197433
 20
11.6849352743
 30
0.0
 10
16.1415755779
 20
11.6716114595
 30
0.0
 10
16.1045110855
 20
11.6595513695
 30
0.0
 10
16.0791856302
 20
11.6524527202
 30
0.0
 10
16.066308034
 20
11.649112124
 30
0.0
  0
SPLINE
  5
2B3
100
AcDbEntity
  8
LAYER_FEATURE
100
AcDbSpline
 62
7
  6
CONTINUOUS
 70
0
 71
3
 72
69
 73
65
 74
0
 42
0.0000001
 43
0.0000001
 44
0.0000000001
 40
0.0
 40
0.0
 40
0.0
 40
0.0
 40
0.0409504123
 40
0.0611119266
 40
0.0810529
 40
0.1007655726
 40
0.1202427451
 40
0.1394777861
 40
0.15846457
 40
0.1771975668
 40
0.1956718571
 40
0.2138831618
 40
0.2318278937
 40
0.2495031889
 40
0.2669069386
 40
0.2840378375
 40
0.30089543
 40
0.3174801418
 40
0.3337933233
 40
0.3498373053
 40
0.3656154317
 40
0.3963881604
 40
0.4113995228
 40
0.4261693392
 40
0.4407065894
 40
0.4550214703
 40
0.4691253962
 40
0.4830309961
 40
0.4967521083
 40
0.5103037475
 40
0.5237020539
 40
0.5369642335
 40
0.5501084786
 40
0.5631538595
 40
0.5761202056
 40
0.5890279712
 40
0.6018980807
 40
0.614751764
 40
0.627610386
 40
0.640495271
 40
0.6534275288
 40
0.6664278866
 40
0.6795165271
 40
0.6927129455
 40
0.7060358213
 40
0.7195029014
 40
0.7331309079
 40
0.7469354694
 40
0.7609310618
 40
0.7751309651
 40
0.7895472493
 40
0.8041907673
 40
0.8190711492
 40
0.8341968222
 40
0.8495750393
 40
0.8652119012
 40
0.8811123867
 40
0.8972804021
 40
0.9137188194
 40
0.9304295075
 40
0.9474133851
 40
0.964670468
 40
0.9821999007
 40
1.0
 40
1.0
 40
1.0
 40
1.0
 10
15.0416427667
 20
13.0405647121
 30
0.0
 10
15.0217246925
 20
13.0405647121
 30
0.0
 10
14.991995416
 20
13.0399992644
 30
0.0
 10
14.9526174276
 20
13.0380619587
 30
0.0
 10
14.9235918388
 20
13.0360387206
 30
0.0
 10
14.8949464922
 20
13.0334394427
 30
0.0
 10
14.8667043998
 20
13.0302662125
 30
0.0
 10
14.8388885153
 20
13.0265215987
 30
0.0
 10
14.8115213524
 20
13.0222086022
 30
0.0
 10
14.7846250879
 20
13.0173307232
 30
0.0
 10
14.7582215084
 20
13.0118918978
 30
0.0
 10
14.7323320077
 20
13.0058964916
 30
0.0
 10
14.7069775553
 20
12.9993493475
 30
0.0
 10
14.6821786841
 20
12.9922557512
 30
0.0
 10
14.6579554867
 20
12.984621403
 30
0.0
 10
14.6343275851
 20
12.9764524385
 30
0.0
 10
14.6113141238
 20
12.9677554548
 30
0.0
 10
14.5889337088
 20
12.9585374204
 30
0.0
 10
14.5672046329
 20
12.948805806
 30
0.0
 10
14.5461439688
 20
12.938568148
 30
0.0
 10
14.5192049706
 20
12.924374341
 30
0.0
 10
14.4934180775
 20
12.9090974195
 30
0.0
 10
14.4689246787
 20
12.8927307033
 30
0.0
 10
14.451453376
 20
12.8800951826
 30
0.0
 10
14.4347452301
 20
12.8670091513
 30
0.0
 10
14.418813534
 20
12.8534829255
 30
0.0
 10
14.4036713976
 20
12.839527435
 30
0.0
 10
14.3893312253
 20
12.8251538777
 30
0.0
 10
14.3758047966
 20
12.8103738494
 30
0.0
 10
14.3631032351
 20
12.7951992937
 30
0.0
 10
14.3512370386
 20
12.7796424802
 30
0.0
 10
14.3402160413
 20
12.7637160202
 30
0.0
 10
14.3300493626
 20
12.7474328821
 30
0.0
 10
14.3207454502
 20
12.7308063422
 30
0.0
 10
14.3123120688
 20
12.7138499817
 30
0.0
 10
14.3047562172
 20
12.6965777083
 30
0.0
 10
14.2980841625
 20
12.6790037114
 30
0.0
 10
14.2923014546
 20
12.6611424401
 30
0.0
 10
14.2874128697
 20
12.6430086039
 30
0.0
 10
14.2834223877
 20
12.6246171504
 30
0.0
 10
14.2803332494
 20
12.6059832272
 30
0.0
 10
14.2781479426
 20
12.587122171
 30
0.0
 10
14.2768681332
 20
12.5680494944
 30
0.0
 10
14.2764947412
 20
12.5487808529
 30
0.0
 10
14.2770279578
 20
12.5293320339
 30
0.0
 10
14.2784671888
 20
12.5097189425
 30
0.0
 10
14.2808110816
 20
12.4899575824
 30
0.0
 10
14.2840575786
 20
12.4700640476
 30
0.0
 10
14.2882038963
 20
12.4500545146
 30
0.0
 10
14.2932464847
 20
12.4299452197
 30
0.0
 10
14.2991811041
 20
12.4097524605
 30
0.0
 10
14.3060028281
 20
12.3894925919
 30
0.0
 10
14.3137059864
 20
12.3691819986
 30
0.0
 10
14.3222842124
 20
12.3488370941
 30
0.0
 10
14.3317304722
 20
12.3284743221
 30
0.0
 10
14.3420370333
 20
12.3081101346
 30
0.0
 10
14.3531954521
 20
12.2877609696
 30
0.0
 10
14.3651966319
 20
12.2674432626
 30
0.0
 10
14.3780308168
 20
12.2471734353
 30
0.0
 10
14.3916875524
 20
12.2269678495
 30
0.0
 10
14.4061557256
 20
12.2068428377
 30
0.0
 10
14.421423639
 20
12.1868146298
 30
0.0
 10
14.4374787601
 20
12.166899581
 30
0.0
 10
14.4486138485
 20
12.1538083122
 30
0.0
 10
14.4543064579
 20
12.1472850415
 30
0.0
  0
SPLINE
  5
2B4
100
AcDbEntity
  8
LAYER_FEATURE
100
AcDbSpline
 62
7
  6
CONTINUOUS
 70
0
 71
3
 72
67
 73
63
 74
0
 42
0.0000001
 43
0.0000001
 44
0.0000000001
 40
0.0
 40
0.0
 40
0.0
 40
0.0
 40
0.0171788732
 40
0.0345307089
 40
0.0520447611
 40
0.0697106009
 40
0.0875170571
 40
0.1054527792
 40
0.1235060929
 40
0.1416650686
 40
0.1599175497
 40
0.1782511775
 40
0.1966534216
 40
0.215111606
 40
0.2521429405
 40
0.2892435247
 40
0.3263095118
 40
0.3632373421
 40
0.381618191
 40
0.3999262434
 40
0.4181490225
 40
0.4362742338
 40
0.4542897929
 40
0.4721838544
 40
0.4899448405
 40
0.5075614727
 40
0.5250228029
 40
0.5423182437
 40
0.5594376014
 40
0.5763711084
 40
0.5931094598
 40
0.6096438503
 40
0.6259660105
 40
0.6420682454
 40
0.6579434752
 40
0.6735852777
 40
0.6889879357
 40
0.7041464817
 40
0.7190567458
 40
0.7337154063
 40
0.7481200425
 40
0.7622691911
 40
0.7761624035
 40
0.7898003009
 40
0.8031846335
 40
0.8163183385
 40
0.8292055994
 40
0.8418519022
 40
0.8542640843
 40
0.8664503797
 40
0.8784204542
 40
0.8901854318
 40
0.9017579054
 40
0.9131519276
 40
0.9243829805
 40
0.9354679215
 40
0.9464249018
 40
0.9572732578
 40
0.9680333698
 40
0.978726494
 40
0.9893745688
 40
1.0
 40
1.0
 40
1.0
 40
1.0
 10
14.9990352639
 20
13.0635593635
 30
0.0
 10
15.0114871061
 20
13.0635593635
 30
0.0
 10
15.0365169588
 20
13.0632853756
 30
0.0
 10
15.0742238144
 20
13.0620679814
 30
0.0
 10
15.1122495295
 20
13.0600432341
 30
0.0
 10
15.1505541229
 20
13.0572133235
 30
0.0
 10
15.189097941
 20
13.0535811426
 30
0.0
 10
15.2278407925
 20
13.0491504926
 30
0.0
 10
15.2667423773
 20
13.0439259804
 30
0.0
 10
15.305762198
 20
13.0379130507
 30
0.0
 10
15.3448596527
 20
13.0311179622
 30
0.0
 10
15.3839939994
 20
13.0235477934
 30
0.0
 10
15.4231246758
 20
13.0152103949
 30
0.0
 10
15.4752925481
 20
13.0030700872
 30
0.0
 10
15.5402240917
 20
12.9860337347
 30
0.0
 10
15.6173934798
 20
12.9627065227
 30
0.0
 10
15.6935780947
 20
12.9365704745
 30
0.0
 10
15.756077553
 20
12.9125030383
 30
0.0
 10
15.805315667
 20
12.8919319194
 30
0.0
 10
15.8417470492
 20
12.8758962264
 30
0.0
 10
15.8776979911
 20
12.8592470901
 30
0.0
 10
15.9131312295
 20
12.8420017616
 30
0.0
 10
15.9480098425
 20
12.8241782122
 30
0.0
 10
15.9822975379
 20
12.8057949856
 30
0.0
 10
16.0159586236
 20
12.7868712104
 30
0.0
 10
16.0489580669
 20
12.7674265785
 30
0.0
 10
16.0812615281
 20
12.7474813268
 30
0.0
 10
16.1128353922
 20
12.7270562074
 30
0.0
 10
16.1436468027
 20
12.7061724685
 30
0.0
 10
16.173663696
 20
12.6848518301
 30
0.0
 10
16.2028548362
 20
12.663116463
 30
0.0
 10
16.2311898549
 20
12.6409889731
 30
0.0
 10
16.2586392741
 20
12.6184923664
 30
0.0
 10
16.2851745361
 20
12.5956500265
 30
0.0
 10
16.3107680319
 20
12.5724856901
 30
0.0
 10
16.3353931291
 20
12.5490234194
 30
0.0
 10
16.3590242098
 20
12.5252875863
 30
0.0
 10
16.3816366892
 20
12.5013028386
 30
0.0
 10
16.4032070358
 20
12.4770940722
 30
0.0
 10
16.423712795
 20
12.4526864068
 30
0.0
 10
16.4431326087
 20
12.4281051567
 30
0.0
 10
16.4614462452
 20
12.4033758106
 30
0.0
 10
16.478634618
 20
12.3785240042
 30
0.0
 10
16.4946797934
 20
12.3535754883
 30
0.0
 10
16.5095650063
 20
12.3285561068
 30
0.0
 10
16.5232746735
 20
12.30349177
 30
0.0
 10
16.5357944106
 20
12.2784084322
 30
0.0
 10
16.5471110546
 20
12.253332073
 30
0.0
 10
16.5572126598
 20
12.228288668
 30
0.0
 10
16.5660885078
 20
12.2033041715
 30
0.0
 10
16.5737291179
 20
12.1784044979
 30
0.0
 10
16.5801262565
 20
12.1536155027
 30
0.0
 10
16.585272968
 20
12.1289629695
 30
0.0
 10
16.589163573
 20
12.1044725889
 30
0.0
 10
16.5917936803
 20
12.0801699425
 30
0.0
 10
16.5931602054
 20
12.0560804832
 30
0.0
 10
16.5932613881
 20
12.0322295206
 30
0.0
 10
16.5920968207
 20
12.0086421658
 30
0.0
 10
16.5896674969
 20
11.9853434065
 30
0.0
 10
16.5859756904
 20
11.9623576694
 30
0.0
 10
16.5810254373
 20
11.9397102677
 30
0.0
 10
16.57688755
 20
11.9248460359
 30
0.0
 10
16.5746136522
 20
11.9174876889
 30
0.0
  0
SPLINE
  5
2B5
100
AcDbEntity
  8
02___PRT_ALL_AXES
100
AcDbSpline
 62
7
  6
CONTINUOUS
 70
0
 71
3
 72
57
 73
53
 74
0
 42
0.0000001
 43
0.0000001
 44
0.0000000001
 40
0.0
 40
0.0
 40
0.0
 40
0.0
 40
0.0345292927
 40
0.0697079899
 40
0.105449025
 40
0.1416602424
 40
0.1782453385
 40
0.2151047948
 40
0.2521367762
 40
0.2892380084
 40
0.326304643
 40
0.3632331184
 40
0.3999210218
 40
0.4362679626
 40
0.4721764624
 40
0.5075528714
 40
0.5250145069
 40
0.5423102498
 40
0.5594299059
 40
0.5763637084
 40
0.5931023528
 40
0.6096370327
 40
0.6259594779
 40
0.6420619934
 40
0.6579374997
 40
0.6735795759
 40
0.6889825039
 40
0.704141315
 40
0.719051839
 40
0.7337107545
 40
0.7481156421
 40
0.7622650388
 40
0.7761584945
 40
0.7897966301
 40
0.8031811956
 40
0.8163151294
 40
0.829202616
 40
0.8418491403
 40
0.8542615393
 40
0.866448047
 40
0.8784183302
 40
0.8901835135
 40
0.9017561897
 40
0.9131504111
 40
0.9243816598
 40
0.935466794
 40
0.9464239658
 40
0.9572725116
 40
0.9680328117
 40
0.9787261226
 40
0.9893743833
 40
1.0
 40
1.0
 40
1.0
 40
1.0
 10
15.002001621
 20
12.4192114566
 30
0.0
 10
15.0188902387
 20
12.4192114566
 30
0.0
 10
15.0529891615
 20
12.4184617604
 30
0.0
 10
15.1044741001
 20
12.415173513
 30
0.0
 10
15.1566028643
 20
12.4097239032
 30
0.0
 10
15.209157776
 20
12.4021355897
 30
0.0
 10
15.2619209976
 20
12.392440094
 30
0.0
 10
15.3146733094
 20
12.3806776888
 30
0.0
 10
15.3671956218
 20
12.3668972297
 30
0.0
 10
15.4192697442
 20
12.3511559605
 30
0.0
 10
15.4706793453
 20
12.3335192791
 30
0.0
 10
15.52121087
 20
12.3140604457
 30
0.0
 10
15.5706543752
 20
12.292860309
 30
0.0
 10
15.6188046653
 20
12.2700068366
 30
0.0
 10
15.6654612337
 20
12.2455952094
 30
0.0
 10
15.7030982404
 20
12.2239446393
 30
0.0
 10
15.7322878576
 20
12.2059220383
 30
0.0
 10
15.7535939623
 20
12.192139118
 30
0.0
 10
15.7743854844
 20
12.1780467825
 30
0.0
 10
15.7946408876
 20
12.1636596114
 30
0.0
 10
15.8143390698
 20
12.1489925884
 30
0.0
 10
15.8334595423
 20
12.134060959
 30
0.0
 10
15.85198241
 20
12.1188802485
 30
0.0
 10
15.8698884029
 20
12.1034662363
 30
0.0
 10
15.8871588919
 20
12.0878349406
 30
0.0
 10
15.903775909
 20
12.0720026013
 30
0.0
 10
15.919722165
 20
12.0559856626
 30
0.0
 10
15.9349810672
 20
12.0398007552
 30
0.0
 10
15.9495367353
 20
12.0234646787
 30
0.0
 10
15.9633740185
 20
12.0069943846
 30
0.0
 10
15.9764785086
 20
11.990406957
 30
0.0
 10
15.9888365534
 20
11.9737195955
 30
0.0
 10
16.0004352695
 20
11.956949597
 30
0.0
 10
16.0112625535
 20
11.9401143383
 30
0.0
 10
16.0213070923
 20
11.9232312588
 30
0.0
 10
16.0305583736
 20
11.9063178437
 30
0.0
 10
16.0390066946
 20
11.8893916082
 30
0.0
 10
16.0466431684
 20
11.8724700813
 30
0.0
 10
16.0534597318
 20
11.8555707914
 30
0.0
 10
16.0594491519
 20
11.8387112528
 30
0.0
 10
16.0646050331
 20
11.8219089527
 30
0.0
 10
16.0689218241
 20
11.8051813391
 30
0.0
 10
16.0723948276
 20
11.7885458098
 30
0.0
 10
16.0750202083
 20
11.7720197008
 30
0.0
 10
16.0767950026
 20
11.755620275
 30
0.0
 10
16.0777171304
 20
11.7393647079
 30
0.0
 10
16.0777854098
 20
11.7232700784
 30
0.0
 10
16.0769995637
 20
11.7073533308
 30
0.0
 10
16.0753602571
 20
11.6916313276
 30
0.0
 10
16.0728690243
 20
11.6761205525
 30
0.0
 10
16.0695285886
 20
11.660838087
 30
0.0
 10
16.0667363438
 20
11.650807703
 30
0.0
 10
16.0652019165
 20
11.6458422908
 30
0.0
  0
SPLINE
  5
2B6
100
AcDbEntity
  8
LAYER_FEATURE
100
AcDbSpline
 62
7
  6
CONTINUOUS
 70
0
 71
3
 72
22
 73
18
 74
0
 42
0.0000001
 43
0.0000001
 44
0.0000000001
 40
0.0
 40
0.0
 40
0.0
 40
0.0
 40
0.1574295534
 40
0.2336098474
 40
0.3077030378
 40
0.379455321
 40
0.4486574383
 40
0.5151481279
 40
0.578821269
 40
0.6396364529
 40
0.6976292609
 40
0.7529210641
 40
0.8057288765
 40
0.8563724745
 40
0.905272768
 40
0.9529534637
 40
1.0
 40
1.0
 40
1.0
 40
1.0
 10
14.486444094
 20
13.1337617353
 30
0.0
 10
14.4854114417
 20
13.1339129491
 30
0.0
 10
14.483866587
 20
13.1340641877
 30
0.0
 10
14.4818262906
 20
13.134100662
 30
0.0
 10
14.4803545835
 20
13.134045271
 30
0.0
 10
14.4789347196
 20
13.1339077676
 30
0.0
 10
14.4775759902
 20
13.1336890376
 30
0.0
 10
14.4762873407
 20
13.1333904771
 30
0.0
 10
14.4750772269
 20
13.1330139532
 30
0.0
 10
14.4739536
 20
13.1325618017
 30
0.0
 10
14.4729238553
 20
13.132036812
 30
0.0
 10
14.471994834
 20
13.1314421818
 30
0.0
 10
14.4711728349
 20
13.1307814961
 30
0.0
 10
14.4704636618
 20
13.1300588069
 30
0.0
 10
14.4698724409
 20
13.1292786379
 30
0.0
 10
14.4694039041
 20
13.1284463811
 30
0.0
 10
14.4691751199
 20
13.1278588565
 30
0.0
 10
14.4690830267
 20
13.1275608721
 30
0.0
  0
LINE
  5
2B7
100
AcDbEntity
  8
LAYER_FEATURE
100
AcDbLine
 62
7
  6
CONTINUOUS
 10
14.5214151087
 20
13.237151052
 11
14.5205137742
 21
13.2353060729
  0
SPLINE
  5
2B8
100
AcDbEntity
  8
LAYER_FEATURE
100
AcDbSpline
 62
7
  6
CONTINUOUS
 70
0
 71
3
 72
11
 73
7
 74
0
 42
0.0000001
 43
0.0000001
 44
0.0000000001
 40
0.0
 40
0.0
 40
0.0
 40
0.0
 40
0.2444501596
 40
0.4922975992
 40
0.744006234
 40
1.0
 40
1.0
 40
1.0
 40
1.0
 10
14.5214151087
 20
13.237151052
 30
0.0
 10
14.5258876209
 20
13.243627694
 30
0.0
 10
14.5352794589
 20
13.2564096654
 30
0.0
 10
14.5505450543
 20
13.2748869295
 30
0.0
 10
14.5670579805
 20
13.2927672806
 30
0.0
 10
14.5787802868
 20
13.3041735233
 30
0.0
 10
14.5848326085
 20
13.3097689438
 30
0.0
  0
SPLINE
  5
2B9
100
AcDbEntity
  8
LAYER_FEATURE
100
AcDbSpline
 62
7
  6
CONTINUOUS
 70
0
 71
3
 72
20
 73
16
 74
0
 42
0.0000001
 43
0.0000001
 44
0.0000000001
 40
0.0
 40
0.0
 40
0.0
 40
0.0
 40
0.144944004
 40
0.2883042011
 40
0.4275482297
 40
0.4949176594
 40
0.5604225854
 40
0.6238386837
 40
0.6849783908
 40
0.7436973903
 40
0.7999025587
 40
0.8535602098
 40
0.9047036168
 40
0.9534538692
 40
1.0
 40
1.0
 40
1.0
 40
1.0
 10
14.6065288118
 20
13.3112520921
 30
0.0
 10
14.6054951017
 20
13.3116145006
 30
0.0
 10
14.6034036852
 20
13.3122389846
 30
0.0
 10
14.6002300324
 20
13.3128693078
 30
0.0
 10
14.5975927906
 20
13.3131291587
 30
0.0
 10
14.5955357393
 20
13.3131660282
 30
0.0
 10
14.594052524
 20
13.3131095562
 30
0.0
 10
14.5926220893
 20
13.3129696629
 30
0.0
 10
14.591253962
 20
13.3127472477
 30
0.0
 10
14.5899572869
 20
13.3124437538
 30
0.0
 10
14.5887407045
 20
13.3120611096
 30
0.0
 10
14.5876123688
 20
13.3116017242
 30
0.0
 10
14.5865797253
 20
13.311068454
 30
0.0
 10
14.5856499973
 20
13.3104646851
 30
0.0
 10
14.5850909038
 20
13.31000774
 30
0.0
 10
14.5848326085
 20
13.3097689438
 30
0.0
  0
SPLINE
  5
2BA
100
AcDbEntity
  8
LAYER_FEATURE
100
AcDbSpline
 62
7
  6
CONTINUOUS
 70
0
 71
3
 72
15
 73
11
 74
0
 42
0.0000001
 43
0.0000001
 44
0.0000000001
 40
0.0
 40
0.0
 40
0.0
 40
0.0
 40
0.1331122395
 40
0.2658175489
 40
0.3970955299
 40
0.5259535648
 40
0.6514604533
 40
0.7727686034
 40
0.8891444409
 40
1.0
 40
1.0
 40
1.0
 40
1.0
 10
14.6504457694
 20
13.2958552432
 30
0.0
 10
14.6511221187
 20
13.2956181219
 30
0.0
 10
14.6524877308
 20
13.2951861664
 30
0.0
 10
14.6545632637
 20
13.2946674916
 30
0.0
 10
14.6566446647
 20
13.2942831875
 30
0.0
 10
14.6587079986
 20
13.2940377063
 30
0.0
 10
14.6607296502
 20
13.293933847
 30
0.0
 10
14.6626865916
 20
13.2939728414
 30
0.0
 10
14.6645563095
 20
13.2941542535
 30
0.0
 10
14.6657617359
 20
13.2943745786
 30
0.0
 10
14.6663430735
 20
13.294509881
 30
0.0
  0
SPLINE
  5
2BB
100
AcDbEntity
  8
LAYER_FEATURE
100
AcDbSpline
 62
7
  6
CONTINUOUS
 70
0
 71
3
 72
14
 73
10
 74
0
 42
0.0000001
 43
0.0000001
 44
0.0000000001
 40
0.0
 40
0.0
 40
0.0
 40
0.0
 40
0.2722802318
 40
0.4014229028
 40
0.5264687711
 40
0.6480602262
 40
0.7669376851
 40
0.883945522
 40
1.0
 40
1.0
 40
1.0
 40
1.0
 10
14.6985640817
 20
13.3902580858
 30
0.0
 10
14.6980634652
 20
13.389985428
 30
0.0
 10
14.6973519794
 20
13.3895289721
 30
0.0
 10
14.696509676
 20
13.3888162253
 30
0.0
 10
14.6959577692
 20
13.3882537886
 30
0.0
 10
14.695477249
 20
13.3876565638
 30
0.0
 10
14.6950702097
 20
13.3870268146
 30
0.0
 10
14.6947384922
 20
13.3863673141
 30
0.0
 10
14.6945682927
 20
13.3859087489
 30
0.0
 10
14.6944965522
 20
13.3856766072
 30
0.0
  0
SPLINE
  5
2BC
100
AcDbEntity
  8
LAYER_FEATURE
100
AcDbSpline
 62
7
  6
CONTINUOUS
 70
0
 71
3
 72
11
 73
7
 74
0
 42
0.0000001
 43
0.0000001
 44
0.0000000001
 40
0.0
 40
0.0
 40
0.0
 40
0.0
 40
0.2422985151
 40
0.4896907762
 40
0.7422449813
 40
1.0
 40
1.0
 40
1.0
 40
1.0
 10
14.6985640817
 20
13.3902580858
 30
0.0
 10
14.706767504
 20
13.3947260312
 30
0.0
 10
14.7235388635
 20
13.4034074845
 30
0.0
 10
14.7494635458
 20
13.41553825
 30
0.0
 10
14.7763831912
 20
13.4268972532
 30
0.0
 10
14.7947833006
 20
13.4338749882
 30
0.0
 10
14.8041350059
 20
13.4372353497
 30
0.0
  0
SPLINE
  5
2BD
100
AcDbEntity
  8
LAYER_FEATURE
100
AcDbSpline
 62
7
  6
CONTINUOUS
 70
0
 71
3
 72
18
 73
14
 74
0
 42
0.0000001
 43
0.0000001
 44
0.0000000001
 40
0.0
 40
0.0
 40
0.0
 40
0.0
 40
0.1293264958
 40
0.2620040177
 40
0.3956713197
 40
0.5279063673
 40
0.6563666669
 40
0.7185270777
 40
0.7789727592
 40
0.8374963362
 40
0.893921615
 40
0.9481229288
 40
1.0
 40
1.0
 40
1.0
 40
1.0
 10
14.8277806023
 20
13.4337242544
 30
0.0
 10
14.8268687194
 20
13.4342643537
 30
0.0
 10
14.8249621339
 20
13.4352611386
 30
0.0
 10
14.8219525673
 20
13.4364801693
 30
0.0
 10
14.8188189451
 20
13.4374190695
 30
0.0
 10
14.8156450605
 20
13.4380526862
 30
0.0
 10
14.813007235
 20
13.4383153221
 30
0.0
 10
14.8109492401
 20
13.4383544947
 30
0.0
 10
14.8094650484
 20
13.4382997298
 30
0.0
 10
14.8080334594
 20
13.4381615242
 30
0.0
 10
14.8066639218
 20
13.4379407889
 30
0.0
 10
14.8053657811
 20
13.4376389291
 30
0.0
 10
14.8045350923
 20
13.4373791133
 30
0.0
 10
14.8041350059
 20
13.4372353497
 30
0.0
  0
SPLINE
  5
2BE
100
AcDbEntity
  8
LAYER_FEATURE
100
AcDbSpline
 62
7
  6
CONTINUOUS
 70
0
 71
3
 72
17
 73
13
 74
0
 42
0.0000001
 43
0.0000001
 44
0.0000000001
 40
0.0
 40
0.0
 40
0.0
 40
0.0
 40
0.1275351381
 40
0.2582935235
 40
0.3902762788
 40
0.521421119
 40
0.6497062182
 40
0.7732476638
 40
0.8327359321
 40
0.8904483956
 40
0.9462455452
 40
1.0
 40
1.0
 40
1.0
 40
1.0
 10
14.8658204458
 20
13.4111936306
 30
0.0
 10
14.866666032
 20
13.4106927983
 30
0.0
 10
14.8684294316
 20
13.4097622864
 30
0.0
 10
14.8712084911
 20
13.4086030801
 30
0.0
 10
14.874104748
 20
13.4076821953
 30
0.0
 10
14.8770515803
 20
13.4070208841
 30
0.0
 10
14.8799813307
 20
13.4066343213
 30
0.0
 10
14.8823831383
 20
13.4065473289
 30
0.0
 10
14.8842373448
 20
13.4066270803
 30
0.0
 10
14.8855647658
 20
13.4067580712
 30
0.0
 10
14.8868384931
 20
13.406960227
 30
0.0
 10
14.8876629174
 20
13.4071452375
 30
0.0
 10
14.8880636785
 20
13.4072500003
 30
0.0
  0
SPLINE
  5
2BF
100
AcDbEntity
  8
LAYER_FEATURE
100
AcDbSpline
 62
7
  6
CONTINUOUS
 70
0
 71
3
 72
17
 73
13
 74
0
 42
0.0000001
 43
0.0000001
 44
0.0000000001
 40
0.0
 40
0.0
 40
0.0
 40
0.0
 40
0.1506413441
 40
0.2931307608
 40
0.4273526386
 40
0.5535760676
 40
0.6725040735
 40
0.7853272461
 40
0.8400066497
 40
0.8938271813
 40
0.9470620416
 40
1.0
 40
1.0
 40
1.0
 40
1.0
 10
14.9669066777
 20
13.4797853997
 30
0.0
 10
14.9663451368
 20
13.479686208
 30
0.0
 10
14.9652597105
 20
13.4794475231
 30
0.0
 10
14.9637173347
 20
13.4789510371
 30
0.0
 10
14.9623204487
 20
13.4783304656
 30
0.0
 10
14.961084351
 20
13.47759169
 30
0.0
 10
14.9600230118
 20
13.4767418806
 30
0.0
 10
14.9592867595
 20
13.4759388311
 30
0.0
 10
14.9588034587
 20
13.4752533902
 30
0.0
 10
14.9584952301
 20
13.4747234445
 30
0.0
 10
14.9582385794
 20
13.4741740133
 30
0.0
 10
14.9581022011
 20
13.4737952466
 30
0.0
 10
14.9580430338
 20
13.4736037905
 30
0.0
  0
SPLINE
  5
2C0
100
AcDbEntity
  8
LAYER_FEATURE
100
AcDbSpline
 62
7
  6
CONTINUOUS
 70
0
 71
3
 72
11
 73
7
 74
0
 42
0.0000001
 43
0.0000001
 44
0.0000000001
 40
0.0
 40
0.0
 40
0.0
 40
0.0
 40
0.2441378383
 40
0.4922681479
 40
0.7442677532
 40
1.0
 40
1.0
 40
1.0
 40
1.0
 10
14.9669066777
 20
13.4797853997
 30
0.0
 10
14.9779107187
 20
13.4817291765
 30
0.0
 10
15.000157298
 20
13.485324064
 30
0.0
 10
15.033930213
 20
13.489812894
 30
0.0
 10
15.0683403304
 20
13.4934373629
 30
0.0
 10
15.0915110449
 20
13.4952613653
 30
0.0
 10
15.1031907786
 20
13.4960313202
 30
0.0
  0
SPLINE
  5
2C1
100
AcDbEntity
  8
LAYER_FEATURE
100
AcDbSpline
 62
7
  6
CONTINUOUS
 70
0
 71
3
 72
17
 73
13
 74
0
 42
0.0000001
 43
0.0000001
 44
0.0000000001
 40
0.0
 40
0.0
 40
0.0
 40
0.0
 40
0.0560965651
 40
0.1142022309
 40
0.1741199089
 40
0.2356450306
 40
0.3624926801
 40
0.4926548516
 40
0.623810638
 40
0.7535850191
 40
0.8796766454
 40
1.0
 40
1.0
 40
1.0
 40
1.0
 10
15.1262234008
 20
13.4879064631
 30
0.0
 10
15.1258872411
 20
13.4882328204
 30
0.0
 10
15.125180073
 20
13.4888740676
 30
0.0
 10
15.1240436885
 20
13.4897828322
 30
0.0
 10
15.1228194539
 20
13.4906503285
 30
0.0
 10
15.1210635432
 20
13.4917551745
 30
0.0
 10
15.1187027106
 20
13.4929923972
 30
0.0
 10
15.115694707
 20
13.4942142286
 30
0.0
 10
15.1125620207
 20
13.4951560958
 30
0.0
 10
15.1093878418
 20
13.4957929562
 30
0.0
 10
15.1062567247
 20
13.4961079575
 30
0.0
 10
15.1041935491
 20
13.4960974252
 30
0.0
 10
15.1031907786
 20
13.4960313202
 30
0.0
  0
SPLINE
  5
2C2
100
AcDbEntity
  8
LAYER_FEATURE
100
AcDbSpline
 62
7
  6
CONTINUOUS
 70
0
 71
3
 72
15
 73
11
 74
0
 42
0.0000001
 43
0.0000001
 44
0.0000000001
 40
0.0
 40
0.0
 40
0.0
 40
0.0
 40
0.1134544174
 40
0.2337220141
 40
0.3592947612
 40
0.4883781366
 40
0.6190070708
 40
0.7491436183
 40
0.8767714483
 40
1.0
 40
1.0
 40
1.0
 40
1.0
 10
15.1542639228
 20
13.4606836071
 30
0.0
 10
15.1548974156
 20
13.4600685871
 30
0.0
 10
15.1562842851
 20
13.458884224
 30
0.0
 10
15.1585978128
 20
13.4573059112
 30
0.0
 10
15.1611608573
 20
13.4559024343
 30
0.0
 10
15.1639145289
 20
13.4547060984
 30
0.0
 10
15.1667959207
 20
13.4537441827
 30
0.0
 10
15.1697390656
 20
13.4530387284
 30
0.0
 10
15.1726761545
 20
13.4526059167
 30
0.0
 10
15.1746294423
 20
13.4525034704
 30
0.0
 10
15.1755884353
 20
13.4525034704
 30
0.0
  0
LINE
  5
2C3
100
AcDbEntity
  8
LAYER_FEATURE
100
AcDbLine
 62
7
  6
CONTINUOUS
 10
15.2676868885
 20
13.4525034704
 11
15.2712216765
 21
13.4527507979
  0
SPLINE
  5
2C4
100
AcDbEntity
  8
LAYER_FEATURE
100
AcDbSpline
 62
7
  6
CONTINUOUS
 70
0
 71
3
 72
21
 73
17
 74
0
 42
0.0000001
 43
0.0000001
 44
0.0000000001
 40
0.0
 40
0.0
 40
0.0
 40
0.0
 40
0.1568473353
 40
0.3055414113
 40
0.3764009745
 40
0.4447350569
 40
0.5104608973
 40
0.5735444066
 40
0.6340067479
 40
0.6919313631
 40
0.7474717983
 40
0.8008558619
 40
0.8523883297
 40
0.9024505116
 40
0.9514886615
 40
1.0
 40
1.0
 40
1.0
 40
1.0
 10
15.2973638128
 20
13.4960313202
 30
0.0
 10
15.2964619447
 20
13.4960871606
 30
0.0
 10
15.2946988993
 20
13.4961162091
 30
0.0
 10
15.2925337468
 20
13.4959315775
 30
0.0
 10
15.2908989574
 20
13.4956467807
 30
0.0
 10
15.2897498605
 20
13.4953725705
 30
0.0
 10
15.288664259
 20
13.4950357823
 30
0.0
 10
15.2876478627
 20
13.4946381245
 30
0.0
 10
15.286706062
 20
13.4941816006
 30
0.0
 10
15.2858438898
 20
13.4936684592
 30
0.0
 10
15.2850659856
 20
13.4931012705
 30
0.0
 10
15.2843766255
 20
13.4924828531
 30
0.0
 10
15.2837797459
 20
13.4918163189
 30
0.0
 10
15.2832788444
 20
13.4911051019
 30
0.0
 10
15.2828770156
 20
13.490353244
 30
0.0
 10
15.2826763831
 20
13.4898263622
 30
0.0
 10
15.2825938676
 20
13.4895593483
 30
0.0
  0
SPLINE
  5
2C5
100
AcDbEntity
  8
LAYER_FEATURE
100
AcDbSpline
 62
7
  6
CONTINUOUS
 70
0
 71
3
 72
11
 73
7
 74
0
 42
0.0000001
 43
0.0000001
 44
0.0000000001
 40
0.0
 40
0.0
 40
0.0
 40
0.0
 40
0.2469554552
 40
0.4960700997
 40
0.7471510197
 40
1.0
 40
1.0
 40
1.0
 40
1.0
 10
15.2973638128
 20
13.4960313202
 30
0.0
 10
15.3099458903
 20
13.4952522843
 30
0.0
 10
15.3352031297
 20
13.4933999503
 30
0.0
 10
15.3731718648
 20
13.4897654856
 30
0.0
 10
15.4113508214
 20
13.4852668182
 30
0.0
 10
15.4368293955
 20
13.4817068092
 30
0.0
 10
15.4495925933
 20
13.4797853997
 30
0.0
  0
SPLINE
  5
2C6
100
AcDbEntity
  8
LAYER_FEATURE
100
AcDbSpline
 62
7
  6
CONTINUOUS
 70
0
 71
3
 72
19
 73
15
 74
0
 42
0.0000001
 43
0.0000001
 44
0.0000000001
 40
0.0
 40
0.0
 40
0.0
 40
0.0
 40
0.0492583363
 40
0.1009224818
 40
0.1549895341
 40
0.2114148578
 40
0.2700902222
 40
0.3308638094
 40
0.3935452749
 40
0.457911618
 40
0.5906363177
 40
0.7268542112
 40
0.8641355556
 40
1.0
 40
1.0
 40
1.0
 40
1.0
 10
15.4695162994
 20
13.4679272351
 30
0.0
 10
15.4693355264
 20
13.4682762485
 30
0.0
 10
15.4689298003
 20
13.4689734314
 30
0.0
 10
15.4682163782
 20
13.4699852546
 30
0.0
 10
15.4673885009
 20
13.4709812947
 30
0.0
 10
15.4664519233
 20
13.4719548694
 30
0.0
 10
15.4654128432
 20
13.4728995847
 30
0.0
 10
15.464278271
 20
13.4738091491
 30
0.0
 10
15.4630557892
 20
13.474677537
 30
0.0
 10
15.4613018413
 20
13.4757838068
 30
0.0
 10
15.4589430087
 20
13.4770230493
 30
0.0
 10
15.4559366418
 20
13.4782475829
 30
0.0
 10
15.452805048
 20
13.4791924105
 30
0.0
 10
15.450664628
 20
13.4796240125
 30
0.0
 10
15.4495925933
 20
13.4797853997
 30
0.0
  0
SPLINE
  5
2C7
100
AcDbEntity
  8
LAYER_FEATURE
100
AcDbSpline
 62
7
  6
CONTINUOUS
 70
0
 71
3
 72
17
 73
13
 74
0
 42
0.0000001
 43
0.0000001
 44
0.0000000001
 40
0.0
 40
0.0
 40
0.0
 40
0.0
 40
0.1011520649
 40
0.1551411248
 40
0.2113489487
 40
0.2696925539
 40
0.3300522916
 40
0.4561377722
 40
0.5881200818
 40
0.7241436619
 40
0.8621517363
 40
1.0
 40
1.0
 40
1.0
 40
1.0
 10
15.4845188742
 20
13.4389621658
 30
0.0
 10
15.4848612537
 20
13.4383011429
 30
0.0
 10
15.4854813046
 20
13.4373345174
 30
0.0
 10
15.4864591504
 20
13.4361241709
 30
0.0
 10
15.4873037035
 20
13.4352142885
 30
0.0
 10
15.4882381622
 20
13.4343278149
 30
0.0
 10
15.4896168901
 20
13.4331668673
 30
0.0
 10
15.4915338833
 20
13.4318106107
 30
0.0
 10
15.4940593587
 20
13.4303760143
 30
0.0
 10
15.4967858314
 20
13.4291433543
 30
0.0
 10
15.4996503958
 20
13.4281410358
 30
0.0
 10
15.5016205946
 20
13.4276385944
 30
0.0
 10
15.5026138246
 20
13.4274319674
 30
0.0
  0
SPLINE
  5
2C8
100
AcDbEntity
  8
LAYER_FEATURE
100
AcDbSpline
 62
7
  6
CONTINUOUS
 70
0
 71
3
 72
20
 73
16
 74
0
 42
0.0000001
 43
0.0000001
 44
0.0000000001
 40
0.0
 40
0.0
 40
0.0
 40
0.0
 40
0.1516212739
 40
0.298387587
 40
0.438273646
 40
0.505128975
 40
0.5696842918
 40
0.6318179948
 40
0.6914538353
 40
0.7485674074
 40
0.8031937872
 40
0.8554348824
 40
0.9054648431
 40
0.9535449002
 40
1.0
 40
1.0
 40
1.0
 40
1.0
 10
15.5996260006
 20
13.4072500003
 30
0.0
 10
15.6006026238
 20
13.4070468281
 30
0.0
 10
15.602543435
 20
13.4067310713
 30
0.0
 10
15.6054241959
 20
13.4065337051
 30
0.0
 10
15.6077537186
 20
13.40660855
 30
0.0
 10
15.6095271154
 20
13.4068185438
 30
0.0
 10
15.6107811157
 20
13.4070445485
 30
0.0
 10
15.6119717574
 20
13.4073401108
 30
0.0
 10
15.6130922184
 20
13.4077036058
 30
0.0
 10
15.6141360389
 20
13.4081330276
 30
0.0
 10
15.615097193
 20
13.4086260531
 30
0.0
 10
15.6159700503
 20
13.4091800251
 30
0.0
 10
15.6167495294
 20
13.409791996
 30
0.0
 10
15.6174307042
 20
13.4104585222
 30
0.0
 10
15.6178223042
 20
13.4109440584
 30
0.0
 10
15.6179987279
 20
13.4111936306
 30
0.0
  0
SPLINE
  5
2C9
100
AcDbEntity
  8
LAYER_FEATURE
100
AcDbSpline
 62
7
  6
CONTINUOUS
 70
0
 71
3
 72
22
 73
18
 74
0
 42
0.0000001
 43
0.0000001
 44
0.0000000001
 40
0.0
 40
0.0
 40
0.0
 40
0.0
 40
0.1508637139
 40
0.2250284839
 40
0.2979098001
 40
0.3692031369
 40
0.4386320571
 40
0.5059499127
 40
0.5709451708
 40
0.6334492755
 40
0.6933445873
 40
0.7505725746
 40
0.8051435342
 40
0.8571463524
 40
0.906756408
 40
0.9542541739
 40
1.0
 40
1.0
 40
1.0
 40
1.0
 10
15.6541253287
 20
13.4372353497
 30
0.0
 10
15.6530747545
 20
13.4375144308
 30
0.0
 10
15.6514867841
 20
13.437857844
 30
0.0
 10
15.6493605472
 20
13.4381566361
 30
0.0
 10
15.6477928963
 20
13.4382970736
 30
0.0
 10
15.6462541643
 20
13.4383541057
 30
0.0
 10
15.6447546236
 20
13.4383273613
 30
0.0
 10
15.6433043434
 20
13.4382170101
 30
0.0
 10
15.6419130253
 20
13.4380237582
 30
0.0
 10
15.6405899718
 20
13.4377488431
 30
0.0
 10
15.6393440088
 20
13.4373940342
 30
0.0
 10
15.6381834412
 20
13.4369615893
 30
0.0
 10
15.6371160192
 20
13.4364542055
 30
0.0
 10
15.636148967
 20
13.4358750213
 30
0.0
 10
15.6352887938
 20
13.4352275668
 30
0.0
 10
15.6345418019
 20
13.4345160057
 30
0.0
 10
15.634115987
 20
13.4339934057
 30
0.0
 10
15.6339257228
 20
13.4337242544
 30
0.0
  0
SPLINE
  5
2CA
100
AcDbEntity
  8
LAYER_FEATURE
100
AcDbSpline
 62
7
  6
CONTINUOUS
 70
0
 71
3
 72
22
 73
18
 74
0
 42
0.0000001
 43
0.0000001
 44
0.0000000001
 40
0.0
 40
0.0
 40
0.0
 40
0.0
 40
0.0457430008
 40
0.0932280231
 40
0.1428183618
 40
0.1947973734
 40
0.2493430885
 40
0.3065467308
 40
0.3664205974
 40
0.4289078349
 40
0.4938921866
 40
0.5612062149
 40
0.6306392715
 40
0.7019453859
 40
0.7748486122
 40
0.8490447433
 40
1.0
 40
1.0
 40
1.0
 40
1.0
 10
15.8204581856
 20
13.3759516298
 30
0.0
 10
15.820454138
 20
13.3762809196
 30
0.0
 10
15.8203998194
 20
13.3769521719
 30
0.0
 10
15.8201880251
 20
13.3779607258
 30
0.0
 10
15.819846551
 20
13.3789803861
 30
0.0
 10
15.8193782317
 20
13.3800041568
 30
0.0
 10
15.8187864312
 20
13.3810254502
 30
0.0
 10
15.8180753244
 20
13.3820375984
 30
0.0
 10
15.8172497694
 20
13.383034001
 30
0.0
 10
15.8163153303
 20
13.3840081061
 30
0.0
 10
15.8152782771
 20
13.3849534697
 30
0.0
 10
15.8141455747
 20
13.385863817
 30
0.0
 10
15.8129248183
 20
13.3867330854
 30
0.0
 10
15.8116242103
 20
13.3875554464
 30
0.0
 10
15.810252428
 20
13.3883254025
 30
0.0
 10
15.8083302555
 20
13.389280495
 30
0.0
 10
15.8068266066
 20
13.3898945858
 30
0.0
 10
15.8058024384
 20
13.3902580858
 30
0.0
  0
SPLINE
  5
2CB
100
AcDbEntity
  8
LAYER_FEATURE
100
AcDbSpline
 62
7
  6
CONTINUOUS
 70
0
 71
3
 72
20
 73
16
 74
0
 42
0.0000001
 43
0.0000001
 44
0.0000000001
 40
0.0
 40
0.0
 40
0.0
 40
0.0
 40
0.0464555619
 40
0.094526625
 40
0.1445407325
 40
0.1967616833
 40
0.2513660238
 40
0.3084578094
 40
0.3680739873
 40
0.4301917493
 40
0.4947361891
 40
0.5615868148
 40
0.7014852425
 40
0.8482971863
 40
1.0
 40
1.0
 40
1.0
 40
1.0
 10
15.8207970516
 20
13.3483831618
 30
0.0
 10
15.8208008048
 20
13.348077823
 30
0.0
 10
15.8208479633
 20
13.3474564441
 30
0.0
 10
15.821031072
 20
13.3465222018
 30
0.0
 10
15.8213261755
 20
13.3455773849
 30
0.0
 10
15.8217311662
 20
13.3446276177
 30
0.0
 10
15.8222435266
 20
13.3436782014
 30
0.0
 10
15.822860123
 20
13.3427345069
 30
0.0
 10
15.8235773062
 20
13.3418018527
 30
0.0
 10
15.82439089
 20
13.340885541
 30
0.0
 10
15.8252961735
 20
13.3399907647
 30
0.0
 10
15.8266387081
 20
13.3388156687
 30
0.0
 10
15.8285163666
 20
13.3374377568
 30
0.0
 10
15.8310027605
 20
13.3359728416
 30
0.0
 10
15.8327814185
 20
13.3351366615
 30
0.0
 10
15.8337015713
 20
13.3347523777
 30
0.0
  0
SPLINE
  5
2CC
100
AcDbEntity
  8
LAYER_FEATURE
100
AcDbSpline
 62
7
  6
CONTINUOUS
 70
0
 71
3
 72
17
 73
13
 74
0
 42
0.0000001
 43
0.0000001
 44
0.0000000001
 40
0.0
 40
0.0
 40
0.0
 40
0.0
 40
0.1377495006
 40
0.2756900926
 40
0.4116781134
 40
0.5436558833
 40
0.6697652218
 40
0.7301460961
 40
0.7885160071
 40
0.8447543409
 40
0.8987769594
 40
1.0
 40
1.0
 40
1.0
 40
1.0
 10
15.9251146954
 20
13.2965754727
 30
0.0
 10
15.9260507077
 20
13.2961845655
 30
0.0
 10
15.9279599632
 20
13.2954854755
 30
0.0
 10
15.9308898682
 20
13.2946931689
 30
0.0
 10
15.9338366895
 20
13.2941687332
 30
0.0
 10
15.936732455
 20
13.2939242974
 30
0.0
 10
15.9390821066
 20
13.2939590727
 30
0.0
 10
15.9408773018
 20
13.2941369583
 30
0.0
 10
15.9421506368
 20
13.2943396367
 30
0.0
 10
15.9433631545
 20
13.2946124027
 30
0.0
 10
15.9448561102
 20
13.2950575152
 30
0.0
 10
15.9459157505
 20
13.2955038714
 30
0.0
 10
15.9465731237
 20
13.2958552432
 30
0.0
  0
SPLINE
  5
2CD
100
AcDbEntity
  8
LAYER_FEATURE
100
AcDbSpline
 62
7
  6
CONTINUOUS
 70
0
 71
3
 72
19
 73
15
 74
0
 42
0.0000001
 43
0.0000001
 44
0.0000000001
 40
0.0
 40
0.0
 40
0.0
 40
0.0
 40
0.1357587493
 40
0.2729669381
 40
0.4091456317
 40
0.541864649
 40
0.6062399796
 40
0.6689377007
 40
0.7297341319
 40
0.7884380735
 40
0.8448966542
 40
0.8990003641
 40
0.9507030492
 40
1.0
 40
1.0
 40
1.0
 40
1.0
 10
15.9985305795
 20
13.3097689438
 30
0.0
 10
15.9975552807
 20
13.3102416753
 30
0.0
 10
15.9955459032
 20
13.3110953458
 30
0.0
 10
15.9924285369
 20
13.3120858998
 30
0.0
 10
15.9892556328
 20
13.3127751643
 30
0.0
 10
15.9866082499
 20
13.3130864402
 30
0.0
 10
15.9845348568
 20
13.3131655992
 30
0.0
 10
15.9830343939
 20
13.3131405554
 30
0.0
 10
15.9815830169
 20
13.3130319059
 30
0.0
 10
15.9801903961
 20
13.3128403335
 30
0.0
 10
15.978865881
 20
13.3125670637
 30
0.0
 10
15.9776182097
 20
13.3122138657
 30
0.0
 10
15.9764559178
 20
13.3117829964
 30
0.0
 10
15.9757258198
 20
13.311437615
 30
0.0
 10
15.9753787292
 20
13.3112520921
 30
0.0
  0
SPLINE
  5
2CE
100
AcDbEntity
  8
LAYER_FEATURE
100
AcDbSpline
 62
7
  6
CONTINUOUS
 70
0
 71
3
 72
11
 73
7
 74
0
 42
0.0000001
 43
0.0000001
 44
0.0000000001
 40
0.0
 40
0.0
 40
0.0
 40
0.0
 40
0.2528688527
 40
0.5039562468
 40
0.7530641814
 40
1.0
 40
1.0
 40
1.0
 40
1.0
 10
15.9985305795
 20
13.3097689438
 30
0.0
 10
16.0101403498
 20
13.3041416388
 30
0.0
 10
16.0331599683
 20
13.2926809711
 30
0.0
 10
16.0671807058
 20
13.2748180514
 30
0.0
 10
16.1005376628
 20
13.2563616233
 30
0.0
 10
16.1224067743
 20
13.2436178945
 30
0.0
 10
16.1332194501
 20
13.237151052
 30
0.0
  0
SPLINE
  5
2CF
100
AcDbEntity
  8
LAYER_FEATURE
100
AcDbSpline
 62
7
  6
CONTINUOUS
 70
0
 71
3
 72
15
 73
11
 74
0
 42
0.0000001
 43
0.0000001
 44
0.0000000001
 40
0.0
 40
0.0
 40
0.0
 40
0.0
 40
0.1231325037
 40
0.2506897341
 40
0.3807838986
 40
0.5114000173
 40
0.6405001149
 40
0.7661176744
 40
0.8864552078
 40
1.0
 40
1.0
 40
1.0
 40
1.0
 10
16.2088812224
 20
13.1324731901
 30
0.0
 10
16.2096717179
 20
13.1319313074
 30
0.0
 10
16.2113399796
 20
13.1309120552
 30
0.0
 10
16.2140064278
 20
13.1296093761
 30
0.0
 10
16.2168326102
 20
13.128527992
 30
0.0
 10
16.2197534535
 20
13.1276928774
 30
0.0
 10
16.2227020767
 20
13.1271231359
 30
0.0
 10
16.2256111446
 20
13.1268318248
 30
0.0
 10
16.2284137814
 20
13.126825589
 30
0.0
 10
16.2302288747
 20
13.1270181783
 30
0.0
 10
16.2310999979
 20
13.1271671487
 30
0.0
  0
SPLINE
  5
2D0
100
AcDbEntity
  8
LAYER_FEATURE
100
AcDbSpline
 62
7
  6
CONTINUOUS
 70
0
 71
3
 72
17
 73
13
 74
0
 42
0.0000001
 43
0.0000001
 44
0.0000000001
 40
0.0
 40
0.0
 40
0.0
 40
0.0
 40
0.1202219408
 40
0.2462377355
 40
0.3759658302
 40
0.5071069908
 40
0.6372865661
 40
0.7641822629
 40
0.8257419208
 40
0.88570041
 40
0.9438524344
 40
1.0
 40
1.0
 40
1.0
 40
1.0
 10
16.2932579122
 20
13.1274450656
 30
0.0
 10
16.2924688517
 20
13.1280661786
 30
0.0
 10
16.2907741224
 20
13.1292406589
 30
0.0
 10
16.288014612
 20
13.1307500596
 30
0.0
 10
16.2850369356
 20
13.1320185065
 30
0.0
 10
16.2819203486
 20
13.1330121179
 30
0.0
 10
16.2787476294
 20
13.1337045342
 30
0.0
 10
16.2760997444
 20
13.1340186048
 30
0.0
 10
16.2740255417
 20
13.1341000462
 30
0.0
 10
16.2725241402
 20
13.1340767275
 30
0.0
 10
16.2710717232
 20
13.1339697611
 30
0.0
 10
16.2701249586
 20
13.1338407893
 30
0.0
 10
16.2696626798
 20
13.1337617353
 30
0.0
  0
SPLINE
  5
2D1
100
AcDbEntity
  8
LAYER_FEATURE
100
AcDbSpline
 62
7
  6
CONTINUOUS
 70
0
 71
3
 72
11
 73
7
 74
0
 42
0.0000001
 43
0.0000001
 44
0.0000000001
 40
0.0
 40
0.0
 40
0.0
 40
0.0
 40
0.2557503358
 40
0.5077555038
 40
0.755879532
 40
1.0
 40
1.0
 40
1.0
 40
1.0
 10
16.2932579122
 20
13.1274450656
 30
0.0
 10
16.3024471626
 20
13.1202117009
 30
0.0
 10
16.3205088727
 20
13.1056174691
 30
0.0
 10
16.3468126903
 20
13.0831887559
 30
0.0
 10
16.3721007188
 20
13.0604076411
 30
0.0
 10
16.3883964239
 20
13.0448752487
 30
0.0
 10
16.3963629147
 20
13.0370558212
 30
0.0
  0
SPLINE
  5
2D2
100
AcDbEntity
  8
LAYER_FEATURE
100
AcDbSpline
 62
7
  6
CONTINUOUS
 70
0
 71
3
 72
17
 73
13
 74
0
 42
0.0000001
 43
0.0000001
 44
0.0000000001
 40
0.0
 40
0.0
 40
0.0
 40
0.0
 40
0.0537095596
 40
0.109465234
 40
0.1671406079
 40
0.2265969682
 40
0.350092605
 40
0.4783591126
 40
0.6095147847
 40
0.7415384901
 40
0.8723672245
 40
1.0
 40
1.0
 40
1.0
 40
1.0
 10
16.4201750752
 20
12.9327261811
 30
0.0
 10
16.4204459332
 20
12.9324133958
 30
0.0
 10
16.4210204472
 20
12.9317950882
 30
0.0
 10
16.4219555258
 20
12.9309088237
 30
0.0
 10
16.4229752508
 20
12.9300508787
 30
0.0
 10
16.4244583229
 20
12.9289374757
 30
0.0
 10
16.426487421
 20
12.9276521199
 30
0.0
 10
16.429121572
 20
12.9263154672
 30
0.0
 10
16.4319257395
 20
12.9251956163
 30
0.0
 10
16.4348355468
 20
12.9243182849
 30
0.0
 10
16.4377840223
 20
12.9237035966
 30
0.0
 10
16.4397653537
 20
12.9234742721
 30
0.0
 10
16.440746449
 20
12.9234093197
 30
0.0
  0
SPLINE
  5
2D3
100
AcDbEntity
  8
LAYER_FEATURE
100
AcDbSpline
 62
7
  6
CONTINUOUS
 70
0
 71
3
 72
18
 73
14
 74
0
 42
0.0000001
 43
0.0000001
 44
0.0000000001
 40
0.0
 40
0.0
 40
0.0
 40
0.0
 40
0.0518318078
 40
0.1059902777
 40
0.1623764855
 40
0.2208658797
 40
0.2812831984
 40
0.3434218211
 40
0.4718604425
 40
0.6041055504
 40
0.7378158049
 40
0.87056851
 40
1.0
 40
1.0
 40
1.0
 40
1.0
 10
16.5063690473
 20
12.9100213363
 30
0.0
 10
16.5061208851
 20
12.9103658835
 30
0.0
 10
16.5055836701
 20
12.9110493868
 30
0.0
 10
16.5046850575
 20
12.9120316252
 30
0.0
 10
16.5036815548
 20
12.912987336
 30
0.0
 10
16.5025800673
 20
12.9139100814
 30
0.0
 10
16.5013878653
 20
12.9147937729
 30
0.0
 10
16.4996693066
 20
12.9159243016
 30
0.0
 10
16.4973459597
 20
12.9171982366
 30
0.0
 10
16.4943703679
 20
12.9184691902
 30
0.0
 10
16.4912546933
 20
12.919465776
 30
0.0
 10
16.4880822752
 20
12.9201613837
 30
0.0
 10
16.4859453492
 20
12.9204169739
 30
0.0
 10
16.4848873422
 20
12.9204870181
 30
0.0
  0
SPLINE
  5
2D4
100
AcDbEntity
  8
LAYER_FEATURE
100
AcDbSpline
 62
7
  6
CONTINUOUS
 70
0
 71
3
 72
11
 73
7
 74
0
 42
0.0000001
 43
0.0000001
 44
0.0000000001
 40
0.0
 40
0.0
 40
0.0
 40
0.0
 40
0.2577607805
 40
0.5103156581
 40
0.7577053407
 40
1.0
 40
1.0
 40
1.0
 40
1.0
 10
16.5063690473
 20
12.9100213363
 30
0.0
 10
16.512169382
 20
12.9019681773
 30
0.0
 10
16.5233742395
 20
12.8858213421
 30
0.0
 10
16.5391143151
 20
12.8612497578
 30
0.0
 10
16.5535962874
 20
12.8366042157
 30
0.0
 10
16.562491831
 20
12.8199731761
 30
0.0
 10
16.5667171547
 20
12.8116558165
 30
0.0
  0
SPLINE
  5
2D5
100
AcDbEntity
  8
LAYER_FEATURE
100
AcDbSpline
 62
7
  6
CONTINUOUS
 70
0
 71
3
 72
15
 73
11
 74
0
 42
0.0000001
 43
0.0000001
 44
0.0000000001
 40
0.0
 40
0.0
 40
0.0
 40
0.0
 40
0.1116551123
 40
0.2285423385
 40
0.3500843924
 40
0.4755769447
 40
0.6042161123
 40
0.7351243312
 40
0.8673712936
 40
1.0
 40
1.0
 40
1.0
 40
1.0
 10
16.5392242093
 20
12.7142183051
 30
0.0
 10
16.5396285986
 20
12.7137959486
 30
0.0
 10
16.5404957978
 20
12.7129685923
 30
0.0
 10
16.5419204593
 20
12.7118119812
 30
0.0
 10
16.5434855891
 20
12.7107216438
 30
0.0
 10
16.5451742563
 20
12.7097093632
 30
0.0
 10
16.5469683532
 20
12.7087859513
 30
0.0
 10
16.5488485893
 20
12.7079613444
 30
0.0
 10
16.5507946269
 20
12.7072444368
 30
0.0
 10
16.5521234309
 20
12.7068429892
 30
0.0
 10
16.5527940308
 20
12.7066620786
 30
0.0
  0
SPLINE
  5
2D6
100
AcDbEntity
  8
LAYER_FEATURE
100
AcDbSpline
 62
7
  6
CONTINUOUS
 70
0
 71
3
 72
20
 73
16
 74
0
 42
0.0000001
 43
0.0000001
 44
0.0000000001
 40
0.0
 40
0.0
 40
0.0
 40
0.0
 40
0.0465243214
 40
0.0952476676
 40
0.1463616749
 40
0.1999897553
 40
0.2561672008
 40
0.314862035
 40
0.3759825583
 40
0.4393856227
 40
0.5048846052
 40
0.5722559188
 40
0.7115291545
 40
0.854954532
 40
1.0
 40
1.0
 40
1.0
 40
1.0
 10
16.6147700864
 20
12.6810589905
 30
0.0
 10
16.6146927425
 20
12.6814017187
 30
0.0
 10
16.6144913043
 20
12.6820942002
 30
0.0
 10
16.6140677035
 20
12.6831171479
 30
0.0
 10
16.613519261
 20
12.68414013
 30
0.0
 10
16.6128500112
 20
12.6851562742
 30
0.0
 10
16.6120644706
 20
12.6861590208
 30
0.0
 10
16.6111679933
 20
12.6871417783
 30
0.0
 10
16.6101666065
 20
12.6880980769
 30
0.0
 10
16.6090670283
 20
12.6890215612
 30
0.0
 10
16.6078766
 20
12.6899061081
 30
0.0
 10
16.6061601263
 20
12.691038002
 30
0.0
 10
16.6038388414
 20
12.6923139027
 30
0.0
 10
16.6008653097
 20
12.6935874399
 30
0.0
 10
16.5987873455
 20
12.6942542628
 30
0.0
 10
16.5977297848
 20
12.6945395656
 30
0.0
  0
SPLINE
  5
2D7
100
AcDbEntity
  8
LAYER_FEATURE
100
AcDbSpline
 62
7
  6
CONTINUOUS
 70
0
 71
3
 72
11
 73
7
 74
0
 42
0.0000001
 43
0.0000001
 44
0.0000000001
 40
0.0
 40
0.0
 40
0.0
 40
0.0
 40
0.255959039
 40
0.5076541357
 40
0.7555121993
 40
1.0
 40
1.0
 40
1.0
 40
1.0
 10
16.6147700864
 20
12.6810589905
 30
0.0
 10
16.6165825791
 20
12.6730274238
 30
0.0
 10
16.619770159
 20
12.6570026361
 30
0.0
 10
16.6232313843
 20
12.6329357347
 30
0.0
 10
16.6253257285
 20
12.6090815925
 30
0.0
 10
16.6258114806
 20
12.5932411598
 30
0.0
 10
16.6258216449
 20
12.5853766257
 30
0.0
  0
SPLINE
  5
2D8
100
AcDbEntity
  8
LAYER_FEATURE
100
AcDbSpline
 62
7
  6
CONTINUOUS
 70
0
 71
3
 72
67
 73
63
 74
0
 42
0.0000001
 43
0.0000001
 44
0.0000000001
 40
0.0
 40
0.0
 40
0.0
 40
0.0
 40
0.0171788732
 40
0.0345307089
 40
0.0520447611
 40
0.0697106009
 40
0.0875170571
 40
0.1054527792
 40
0.1235060929
 40
0.1416650686
 40
0.1599175497
 40
0.1782511775
 40
0.1966534216
 40
0.215111606
 40
0.2521429405
 40
0.2892435247
 40
0.3263095118
 40
0.3632373421
 40
0.381618191
 40
0.3999262434
 40
0.4181490225
 40
0.4362742338
 40
0.4542897929
 40
0.4721838544
 40
0.4899448405
 40
0.5075614727
 40
0.5250228029
 40
0.5423182437
 40
0.5594376014
 40
0.5763711084
 40
0.5931094598
 40
0.6096438503
 40
0.6259660105
 40
0.6420682454
 40
0.6579434752
 40
0.6735852777
 40
0.6889879357
 40
0.7041464817
 40
0.7190567458
 40
0.7337154063
 40
0.7481200425
 40
0.7622691911
 40
0.7761624035
 40
0.7898003009
 40
0.8031846335
 40
0.8163183385
 40
0.8292055994
 40
0.8418519022
 40
0.8542640843
 40
0.8664503797
 40
0.8784204542
 40
0.8901854318
 40
0.9017579054
 40
0.9131519276
 40
0.9243829805
 40
0.9354679215
 40
0.9464249018
 40
0.9572732578
 40
0.9680333698
 40
0.978726494
 40
0.9893745688
 40
1.0
 40
1.0
 40
1.0
 40
1.0
 10
15.1709023535
 20
13.6197214693
 30
0.0
 10
15.1833541957
 20
13.6197214693
 30
0.0
 10
15.2083840484
 20
13.6194474815
 30
0.0
 10
15.246090904
 20
13.6182300872
 30
0.0
 10
15.2841166191
 20
13.6162053399
 30
0.0
 10
15.3224212125
 20
13.6133754294
 30
0.0
 10
15.3609650306
 20
13.6097432485
 30
0.0
 10
15.3997078822
 20
13.6053125984
 30
0.0
 10
15.438609467
 20
13.6000880862
 30
0.0
 10
15.4776292876
 20
13.5940751566
 30
0.0
 10
15.5167267424
 20
13.5872800681
 30
0.0
 10
15.555861089
 20
13.5797098993
 30
0.0
 10
15.5949917654
 20
13.5713725008
 30
0.0
 10
15.6471596377
 20
13.559232193
 30
0.0
 10
15.7120911813
 20
13.5421958405
 30
0.0
 10
15.7892605694
 20
13.5188686285
 30
0.0
 10
15.8654451843
 20
13.4927325804
 30
0.0
 10
15.9279446427
 20
13.4686651442
 30
0.0
 10
15.9771827566
 20
13.4480940252
 30
0.0
 10
16.0136141388
 20
13.4320583323
 30
0.0
 10
16.0495650807
 20
13.4154091959
 30
0.0
 10
16.0849983191
 20
13.3981638674
 30
0.0
 10
16.1198769321
 20
13.3803403181
 30
0.0
 10
16.1541646276
 20
13.3619570914
 30
0.0
 10
16.1878257132
 20
13.3430333163
 30
0.0
 10
16.2208251565
 20
13.3235886843
 30
0.0
 10
16.2531286177
 20
13.3036434326
 30
0.0
 10
16.2847024818
 20
13.2832183133
 30
0.0
 10
16.3155138923
 20
13.2623345743
 30
0.0
 10
16.3455307856
 20
13.2410139359
 30
0.0
 10
16.3747219258
 20
13.2192785689
 30
0.0
 10
16.4030569445
 20
13.197151079
 30
0.0
 10
16.4305063638
 20
13.1746544722
 30
0.0
 10
16.4570416257
 20
13.1518121323
 30
0.0
 10
16.4826351215
 20
13.1286477959
 30
0.0
 10
16.5072602187
 20
13.1051855252
 30
0.0
 10
16.5308912995
 20
13.0814496922
 30
0.0
 10
16.5535037788
 20
13.0574649444
 30
0.0
 10
16.5750741254
 20
13.033256178
 30
0.0
 10
16.5955798846
 20
13.0088485126
 30
0.0
 10
16.6149996983
 20
12.9842672625
 30
0.0
 10
16.6333133348
 20
12.9595379164
 30
0.0
 10
16.6505017077
 20
12.93468611
 30
0.0
 10
16.666546883
 20
12.9097375941
 30
0.0
 10
16.6814320959
 20
12.8847182126
 30
0.0
 10
16.6951417631
 20
12.8596538759
 30
0.0
 10
16.7076615002
 20
12.8345705381
 30
0.0
 10
16.7189781443
 20
12.8094941788
 30
0.0
 10
16.7290797494
 20
12.7844507738
 30
0.0
 10
16.7379555974
 20
12.7594662773
 30
0.0
 10
16.7455962075
 20
12.7345666038
 30
0.0
 10
16.7519933461
 20
12.7097776085
 30
0.0
 10
16.7571400576
 20
12.6851250754
 30
0.0
 10
16.7610306626
 20
12.6606346948
 30
0.0
 10
16.7636607699
 20
12.6363320484
 30
0.0
 10
16.765027295
 20
12.612242589
 30
0.0
 10
16.7651284777
 20
12.5883916264
 30
0.0
 10
16.7639639103
 20
12.5648042716
 30
0.0
 10
16.7615345865
 20
12.5415055123
 30
0.0
 10
16.7578427801
 20
12.5185197753
 30
0.0
 10
16.7528925269
 20
12.4958723736
 30
0.0
 10
16.7487546396
 20
12.4810081417
 30
0.0
 10
16.7464807418
 20
12.4736497947
 30
0.0
  0
SPLINE
  5
2D9
100
AcDbEntity
  8
LAYER_FEATURE
100
AcDbSpline
 62
7
  6
CONTINUOUS
 70
0
 71
3
 72
78
 73
74
 74
0
 42
0.0000001
 43
0.0000001
 44
0.0000000001
 40
0.0
 40
0.0
 40
0.0
 40
0.0
 40
0.0053541108
 40
0.0107129107
 40
0.0160810692
 40
0.0214632142
 40
0.0268639159
 40
0.0322876632
 40
0.0377388523
 40
0.0432217632
 40
0.0487405524
 40
0.0542992305
 40
0.0655500317
 40
0.0770046161
 40
0.0828172546
 40
0.0886903354
 40
0.1006274884
 40
0.1128373038
 40
0.1190503845
 40
0.1253376627
 40
0.1381401075
 40
0.1512565204
 40
0.1646948606
 40
0.1784604065
 40
0.1925559104
 40
0.2069817575
 40
0.2217361245
 40
0.2368151342
 40
0.2522130044
 40
0.2679221909
 40
0.2839335216
 40
0.3002363252
 40
0.3168185514
 40
0.3336668852
 40
0.3507668548
 40
0.3681029343
 40
0.385658641
 40
0.4034166287
 40
0.4213587768
 40
0.4394662766
 40
0.4577197143
 40
0.4760991513
 40
0.4945842036
 40
0.5131541179
 40
0.5317878479
 40
0.5504641282
 40
0.5691615485
 40
0.5878586267
 40
0.6065338817
 40
0.6251659068
 40
0.6437334425
 40
0.6622154505
 40
0.6805911883
 40
0.6988402846
 40
0.7169428166
 40
0.7348793883
 40
0.7526312117
 40
0.7701801894
 40
0.7875090014
 40
0.804601194
 40
0.8214412733
 40
0.8380148027
 40
0.8543085058
 40
0.8703103744
 40
0.886009783
 40
0.9013976095
 40
0.9164663633
 40
0.931210321
 40
0.9456256683
 40
0.9597106497
 40
0.9734657235
 40
0.9868937197
 40
1.0
 40
1.0
 40
1.0
 40
1.0
 10
14.4247906824
 20
12.6247397864
 30
0.0
 10
14.4259707926
 20
12.628558628
 30
0.0
 10
14.4284703352
 20
12.6361577075
 30
0.0
 10
14.4326313474
 20
12.6474212296
 30
0.0
 10
14.4372031211
 20
12.6585471651
 30
0.0
 10
14.4421835323
 20
12.6695305634
 30
0.0
 10
14.4475705231
 20
12.6803667149
 30
0.0
 10
14.4533616732
 20
12.6910509868
 30
0.0
 10
14.45955456
 20
12.7015787587
 30
0.0
 10
14.4661463982
 20
12.7119455312
 30
0.0
 10
14.4731345082
 20
12.72214692
 30
0.0
 10
14.483014841
 20
12.7355751332
 30
0.0
 10
14.4963652301
 20
12.7519356463
 30
0.0
 10
14.5108678739
 20
12.7675418916
 30
0.0
 10
14.5232010023
 20
12.7796414396
 30
0.0
 10
14.5361600193
 20
12.7916060384
 30
0.0
 10
14.5533005619
 20
12.8060650525
 30
0.0
 10
14.5714365223
 20
12.8196787629
 30
0.0
 10
14.5866268268
 20
12.8301484481
 30
0.0
 10
14.6024600182
 20
12.8404534468
 30
0.0
 10
14.6231169606
 20
12.8527780127
 30
0.0
 10
14.6490695438
 20
12.8665758764
 30
0.0
 10
14.676290689
 20
12.8794478254
 30
0.0
 10
14.7047334489
 20
12.8913720351
 30
0.0
 10
14.7343494348
 20
12.9023286059
 30
0.0
 10
14.7650881252
 20
12.9122991291
 30
0.0
 10
14.7968971479
 20
12.9212668532
 30
0.0
 10
14.8297223004
 20
12.9292166819
 30
0.0
 10
14.86350765
 20
12.9361352162
 30
0.0
 10
14.8981956198
 20
12.9420107811
 30
0.0
 10
14.9337270839
 20
12.9468334519
 30
0.0
 10
14.9700414661
 20
12.9505950767
 30
0.0
 10
15.0070768418
 20
12.953289295
 30
0.0
 10
15.0447700434
 20
12.9549115524
 30
0.0
 10
15.0830567684
 20
12.9554591124
 30
0.0
 10
15.1218716892
 20
12.9549310635
 30
0.0
 10
15.1611485658
 20
12.9533283238
 30
0.0
 10
15.2008203594
 20
12.9506536407
 30
0.0
 10
15.2408193481
 20
12.9469115882
 30
0.0
 10
15.2810772435
 20
12.9421085605
 30
0.0
 10
15.3215253079
 20
12.9362527621
 30
0.0
 10
15.3620944733
 20
12.929354194
 30
0.0
 10
15.40271546
 20
12.921424638
 30
0.0
 10
15.4433188955
 20
12.9124776367
 30
0.0
 10
15.4838354344
 20
12.9025284703
 30
0.0
 10
15.5241958775
 20
12.8915941313
 30
0.0
 10
15.5643312907
 20
12.8796932949
 30
0.0
 10
15.6041731235
 20
12.8668462876
 30
0.0
 10
15.6436533268
 20
12.8530750518
 30
0.0
 10
15.6827044701
 20
12.8384031083
 30
0.0
 10
15.7212598569
 20
12.8228555158
 30
0.0
 10
15.7592536398
 20
12.8064588274
 30
0.0
 10
15.7966209329
 20
12.789241045
 30
0.0
 10
15.8332979237
 20
12.7712315703
 30
0.0
 10
15.8692219827
 20
12.7524611541
 30
0.0
 10
15.9043317701
 20
12.7329618424
 30
0.0
 10
15.9385673416
 20
12.7127669209
 30
0.0
 10
15.9718702507
 20
12.6919108564
 30
0.0
 10
16.0041836488
 20
12.6704292364
 30
0.0
 10
16.0354523817
 20
12.6483587065
 30
0.0
 10
16.0656230839
 20
12.6257369055
 30
0.0
 10
16.0946442682
 20
12.6026023993
 30
0.0
 10
16.1224664133
 20
12.5789946115
 30
0.0
 10
16.1490420455
 20
12.5549537539
 30
0.0
 10
16.1743258175
 20
12.530520754
 30
0.0
 10
16.1982745817
 20
12.5057371832
 30
0.0
 10
16.2208474599
 20
12.4806451796
 30
0.0
 10
16.2420059025
 20
12.4552873823
 30
0.0
 10
16.261713761
 20
12.4297068255
 30
0.0
 10
16.2799372851
 20
12.4039469761
 30
0.0
 10
16.2966453637
 20
12.3780512583
 30
0.0
 10
16.3118088583
 20
12.3520644358
 30
0.0
 10
16.3209810937
 20
12.334496909
 30
0.0
 10
16.3252914881
 20
12.3257132486
 30
0.0
  0
SPLINE
  5
2DA
100
AcDbEntity
  8
LAYER_FEATURE
100
AcDbSpline
 62
7
  6
CONTINUOUS
 70
0
 71
3
 72
22
 73
18
 74
0
 42
0.0000001
 43
0.0000001
 44
0.0000000001
 40
0.0
 40
0.0
 40
0.0
 40
0.0
 40
0.138119746
 40
0.2053664285
 40
0.2714549226
 40
0.3364371368
 40
0.4003725798
 40
0.4633278425
 40
0.5253764101
 40
0.5865986145
 40
0.6470813095
 40
0.7069174418
 40
0.7662055029
 40
0.8250488587
 40
0.8835549592
 40
0.9418344156
 40
1.0
 40
1.0
 40
1.0
 40
1.0
 10
16.3252914881
 20
12.3257132486
 30
0.0
 10
16.3315475562
 20
12.3129647221
 30
0.0
 10
16.3401679291
 20
12.2936595891
 30
0.0
 10
16.3499997315
 20
12.2675329931
 30
0.0
 10
16.3563928567
 20
12.248164441
 30
0.0
 10
16.3618633732
 20
12.2288691769
 30
0.0
 10
16.366406116
 20
12.2096650955
 30
0.0
 10
16.3700164838
 20
12.1905707025
 30
0.0
 10
16.3726908116
 20
12.1716042444
 30
0.0
 10
16.3744262985
 20
12.1527839417
 30
0.0
 10
16.3752210789
 20
12.1341279037
 30
0.0
 10
16.3750741865
 20
12.1156541339
 30
0.0
 10
16.3739855623
 20
12.0973804899
 30
0.0
 10
16.3719560916
 20
12.079324743
 30
0.0
 10
16.3689875683
 20
12.0615042605
 30
0.0
 10
16.3650829846
 20
12.0439370429
 30
0.0
 10
16.361856814
 20
12.0324004252
 30
0.0
 10
16.3600911443
 20
12.0266867108
 30
0.0
  0
ENDSEC
  0
SECTION
  2
OBJECTS
  0
DICTIONARY
  5
C
100
AcDbDictionary
280
0
281
1
  3
ACAD_GROUP
350
D
  3
ACAD_MLINESTYLE
350
17
  3
ACAD_LAYOUT
350
1A
  3
ACAD_PLOTSETTINGS
350
19
  3
ACAD_PLOTSTYLENAME
350
E
  0
DICTIONARY
  5
D
102
{ACAD_REACTORS
330
C
102
}
100
AcDbDictionary
280
0
281
1
  0
ACDBDICTIONARYWDFLT
  5
E
102
{ACAD_REACTORS
330
C
102
}
100
AcDbDictionary
281
1
  3
Normal
350
F
100
AcDbDictionaryWithDefault
340
F
  0
DICTIONARY
  5
17
102
{ACAD_REACTORS
330
C
102
}
100
AcDbDictionary
280
0
281
1
  3
Standard
350
18
  0
DICTIONARY
  5
19
102
{ACAD_REACTORS
330
C
102
}
100
AcDbDictionary
281
1
  0
DICTIONARY
  5
1A
102
{ACAD_REACTORS
330
C
102
}
100
AcDbDictionary
281
1
  3
Model
350
2DB
  3
Layout1
350
2DC
  0
ACDBPLACEHOLDER
  5
F
102
{ACAD_REACTORS
330
E
102
}
  0
MLINESTYLE
  5
18
102
{ACAD_REACTORS
330
17
102
}
100
AcDbMlineStyle
  2
STANDARD
 70
0
  3

 62
256
 51
90.0
 52
90.0
 71
2
 49
0.5
 62
256
  6
BYLAYER
 49
-0.5
 62
256
  6
BYLAYER
  0
LAYOUT
  5
2DB
102
{ACAD_REACTORS
330
1A
102
}
100
AcDbPlotSettings
  1

  2
none_device
  4
ANSI_C_(22.00_x_17.00_Inches)
  6

 40
0.0
 41
0.0
 42
0.0
 43
0.0
 44
558.8
 45
431.8
 46
0.0
 47
0.0
 48
0.0
 49
0.0
140
0.0
141
0.0
142
1.0
143
1.0
 70
1024
 72
0
 73
0
 74
0
  7

 75
0
147
1.0
148
0.0
149
0.0
100
AcDbLayout
  1
Model
 70
0
 71
0
 10
0.0
 20
0.0
 11
22.0
 21
17.0
 12
0.0
 22
0.0
 32
0.0
 14
0.0
 24
0.0
 34
0.0
 15
0.0
 25
0.0
 35
0.0
146
0.0
 13
0.0
 23
0.0
 33
0.0
 16
1.0
 26
0.0
 36
0.0
 17
0.0
 27
1.0
 37
0.0
 76
0
330
222
345
0
346
0
  0
LAYOUT
  5
2DC
102
{ACAD_REACTORS
330
1A
102
}
100
AcDbPlotSettings
  1

  2
none_device
  4
ANSI_C_(22.00_x_17.00_Inches)
  6

 40
0.0
 41
0.0
 42
0.0
 43
0.0
 44
558.8
 45
431.8
 46
0.0
 47
0.0
 48
0.0
 49
0.0
140
0.0
141
0.0
142
1.0
143
1.0
 70
0
 72
0
 73
0
 74
0
  7

 75
0
147
1.0
148
0.0
149
0.0
100
AcDbLayout
  1
Layout1
 70
0
 71
1
 10
0.0
 20
0.0
 11
22.0
 21
17.0
 12
0.0
 22
0.0
 32
0.0
 14
0.0
 24
0.0
 34
0.0
 15
0.0
 25
0.0
 35
0.0
146
0.0
 13
0.0
 23
0.0
 33
0.0
 16
1.0
 26
0.0
 36
0.0
 17
0.0
 27
1.0
 37
0.0
 76
0
330
223
345
0
346
0
  0
ENDSEC
  0
EOF