999
DXF file: _cgs_temp_output.dxf
999
Pro/ENGINEER 2016360 by Parametric Technology Corporation
  0
SECTION
  2
HEADER
  9
$ACADVER
  1
AC1021
  9
$DWGCODEPAGE
  3
ANSI_1252
  9
$EXTMAX
 10
22.0
 20
17.0
 30
0.0
  9
$EXTMIN
 10
0.0
 20
0.0
 30
0.0
  9
$LIMMIN
 10
0.0
 20
0.0
  9
$LIMMAX
 10
22.0
 20
17.0
  9
$VIEWCTR
 10
11.0
 20
8.5
  9
$VIEWSIZE
 40
17.0
  9
$CLAYER
  8
0
  9
$LTSCALE
 40
1.21
  9
$CELTYPE
  6
BYLAYER
  9
$DIMSCALE
 40
1.0
  9
$DIMASZ
 40
0.1875
  9
$DIMEXO
 40
0.0625
  9
$DIMDLI
 40
0.836
  9
$DIMEXE
 40
0.125
  9
$DIMCEN
 40
0.198
  9
$DIMLFAC
 40
1.0
  9
$DIMBLK
  1
_CLOSED
  9
$DIMALT
 70
0
  9
$DIMALTF
 40
25.4
  9
$DIMTXT
 40
0.15625
  9
$DIMTOL
 70
0
  9
$DIMLIM
 70
0
  9
$DIMTFAC
 40
1.0
  9
$DIMGAP
 40
0.09
  9
$DIMDSEP
 70
46
  9
$AUNITS
 70
0
  9
$PDMODE
 70
3
  9
$PDSIZE
 40
0.3125
  9
$HANDSEED
  5
4BF
  9
$TILEMODE
 70
1
  9
$MEASUREMENT
 70
0
  9
$INSUNITS
 70
1
  0
ENDSEC
  0
SECTION
  2
CLASSES
  0
CLASS
  1
ACDBDICTIONARYWDFLT
  2
AcDbDictionaryWithDefault
  3
AutoCAD 2000
 90
0
 91
1
280
0
281
0
  0
CLASS
  1
ACDBPLACEHOLDER
  2
AcDbPlaceHolder
  3
AutoCAD 2000
 90
0
 91
1
280
0
281
0
  0
CLASS
  1
LAYOUT
  2
AcDbLayout
  3
AutoCAD 2000
 90
0
 91
0
280
0
281
0
  0
ENDSEC
  0
SECTION
  2
TABLES
  0
TABLE
  2
VPORT
  5
8
100
AcDbSymbolTable
 70
2
  0
VPORT
  5
1F4
100
AcDbSymbolTableRecord
100
AcDbViewportTableRecord
  2
*ACTIVE
 70
0
 10
0.0
 20
0.0
 11
1.0
 21
1.0
 12
11.0
 22
8.5
 13
0.0
 23
0.0
 14
1.0
 24
1.0
 15
0.0
 25
0.0
 16
0.0
 26
0.0
 36
1.0
 17
0.0
 27
0.0
 37
0.0
 40
17.0
 41
1.2941176471
 42
50.0
 43
0.0
 44
0.0
 50
0.0
 51
0.0
 71
0
 72
100
 73
1
 74
1
 75
0
 76
0
 77
0
 78
0
  0
ENDTAB
  0
TABLE
  2
LTYPE
  5
5
100
AcDbSymbolTable
 70
6
  0
LTYPE
  5
14
100
AcDbSymbolTableRecord
100
AcDbLinetypeTableRecord
  2
BYBLOCK
 70
0
  3

 72
65
 73
0
 40
0.0
  0
LTYPE
  5
15
100
AcDbSymbolTableRecord
100
AcDbLinetypeTableRecord
  2
BYLAYER
 70
0
  3

 72
65
 73
0
 40
0.0
  0
LTYPE
  5
16
100
AcDbSymbolTableRecord
100
AcDbLinetypeTableRecord
  2
CONTINUOUS
 70
64
  3
Solid line
 72
65
 73
0
 40
0.0
  0
LTYPE
  5
1F5
100
AcDbSymbolTableRecord
100
AcDbLinetypeTableRecord
  2
CENTER
 70
64
  3
____ _ ____ _ ____ _ ____ _ ____ _ ____ _ ____
 72
65
 73
4
 40
0.6
 49
0.375
 74
0
 49
-0.075
 74
0
 49
0.075
 74
0
 49
-0.075
 74
0
  0
LTYPE
  5
1F6
100
AcDbSymbolTableRecord
100
AcDbLinetypeTableRecord
  2
HIDDEN
 70
64
  3
- - - - - - - - - - - - - - - - - - - -
 72
65
 73
2
 40
0.2
 49
0.1
 74
0
 49
-0.1
 74
0
  0
LTYPE
  5
1F7
100
AcDbSymbolTableRecord
100
AcDbLinetypeTableRecord
  2
PHANTOM
 70
64
  3
_____ _ _ _____ _ _ _____ _ _ _____
 72
65
 73
6
 40
0.8
 49
0.45
 74
0
 49
-0.05
 74
0
 49
0.1
 74
0
 49
-0.05
 74
0
 49
0.1
 74
0
 49
-0.05
 74
0
  0
LTYPE
  5
1F8
100
AcDbSymbolTableRecord
100
AcDbLinetypeTableRecord
  2
DOT
 70
64
  3
. . . . . . . . . . . . . . . . . . . .
 72
65
 73
2
 40
0.2
 49
0.1
 74
0
 49
-0.1
 74
0
  0
LTYPE
  5
1F9
100
AcDbSymbolTableRecord
100
AcDbLinetypeTableRecord
  2
DASHED
 70
64
  3
- - - - - - - - - - - - - - - - - - - -
 72
65
 73
2
 40
0.2
 49
0.1
 74
0
 49
-0.1
 74
0
  0
ENDTAB
  0
TABLE
  2
LAYER
  5
2
100
AcDbSymbolTable
 70
36
  0
LAYER
  5
10
100
AcDbSymbolTableRecord
100
AcDbLayerTableRecord
  2
0
 70
0
 62
7
  6
CONTINUOUS
370
-3
390
F
  0
LAYER
  5
1FA
100
AcDbSymbolTableRecord
100
AcDbLayerTableRecord
  2
DEFAULT_1
 70
0
 62
7
  6
CENTER
370
-3
390
F
  0
LAYER
  5
1FB
100
AcDbSymbolTableRecord
100
AcDbLayerTableRecord
  2
DEFAULT_2
 70
0
 62
8
  6
HIDDEN
370
-3
390
F
  0
LAYER
  5
1FC
100
AcDbSymbolTableRecord
100
AcDbLayerTableRecord
  2
DEFAULT_3
 70
0
 62
7
  6
PHANTOM
370
-3
390
F
  0
LAYER
  5
1FD
100
AcDbSymbolTableRecord
100
AcDbLayerTableRecord
  2
01_ALL_DTM_PLN
 70
0
 62
7
  6
CONTINUOUS
370
-3
390
F
  0
LAYER
  5
1FE
100
AcDbSymbolTableRecord
100
AcDbLayerTableRecord
  2
01__ASM_ALL_DTM_PLN
 70
0
 62
7
  6
CONTINUOUS
370
-3
390
F
  0
LAYER
  5
1FF
100
AcDbSymbolTableRecord
100
AcDbLayerTableRecord
  2
01__ASM_DEF_DTM_PLN
 70
0
 62
7
  6
CONTINUOUS
370
-3
390
F
  0
LAYER
  5
200
100
AcDbSymbolTableRecord
100
AcDbLayerTableRecord
  2
01___PRT_ALL_DTM_PLN
 70
0
 62
7
  6
CONTINUOUS
370
-3
390
F
  0
LAYER
  5
201
100
AcDbSymbolTableRecord
100
AcDbLayerTableRecord
  2
01___PRT_DEF_DTM_PLN
 70
0
 62
7
  6
CONTINUOUS
370
-3
390
F
  0
LAYER
  5
202
100
AcDbSymbolTableRecord
100
AcDbLayerTableRecord
  2
02_ALL_AXES
 70
0
 62
7
  6
CONTINUOUS
370
-3
390
F
  0
LAYER
  5
203
100
AcDbSymbolTableRecord
100
AcDbLayerTableRecord
  2
02__ASM_ALL_AXES
 70
0
 62
7
  6
CONTINUOUS
370
-3
390
F
  0
LAYER
  5
204
100
AcDbSymbolTableRecord
100
AcDbLayerTableRecord
  2
02___PRT_ALL_AXES
 70
0
 62
7
  6
CONTINUOUS
370
-3
390
F
  0
LAYER
  5
205
100
AcDbSymbolTableRecord
100
AcDbLayerTableRecord
  2
03_ALL_CURVES
 70
0
 62
7
  6
CONTINUOUS
370
-3
390
F
  0
LAYER
  5
206
100
AcDbSymbolTableRecord
100
AcDbLayerTableRecord
  2
03__ASM_ALL_CURVES
 70
0
 62
7
  6
CONTINUOUS
370
-3
390
F
  0
LAYER
  5
207
100
AcDbSymbolTableRecord
100
AcDbLayerTableRecord
  2
03___PRT_ALL_CURVES
 70
0
 62
7
  6
CONTINUOUS
370
-3
390
F
  0
LAYER
  5
208
100
AcDbSymbolTableRecord
100
AcDbLayerTableRecord
  2
04_ALL_DTM_PNT
 70
0
 62
7
  6
CONTINUOUS
370
-3
390
F
  0
LAYER
  5
209
100
AcDbSymbolTableRecord
100
AcDbLayerTableRecord
  2
04__ASM_ALL_DTM_PNT
 70
0
 62
7
  6
CONTINUOUS
370
-3
390
F
  0
LAYER
  5
20A
100
AcDbSymbolTableRecord
100
AcDbLayerTableRecord
  2
04___PRT_ALL_DTM_PNT
 70
0
 62
7
  6
CONTINUOUS
370
-3
390
F
  0
LAYER
  5
20B
100
AcDbSymbolTableRecord
100
AcDbLayerTableRecord
  2
05_ALL_DTM_CSYS
 70
0
 62
7
  6
CONTINUOUS
370
-3
390
F
  0
LAYER
  5
20C
100
AcDbSymbolTableRecord
100
AcDbLayerTableRecord
  2
05__ASM_ALL_DTM_CSYS
 70
0
 62
7
  6
CONTINUOUS
370
-3
390
F
  0
LAYER
  5
20D
100
AcDbSymbolTableRecord
100
AcDbLayerTableRecord
  2
05__ASM_DEF_DTM_CSYS
 70
0
 62
7
  6
CONTINUOUS
370
-3
390
F
  0
LAYER
  5
20E
100
AcDbSymbolTableRecord
100
AcDbLayerTableRecord
  2
05___PRT_ALL_DTM_CSYS
 70
0
 62
7
  6
CONTINUOUS
370
-3
390
F
  0
LAYER
  5
20F
100
AcDbSymbolTableRecord
100
AcDbLayerTableRecord
  2
05___PRT_DEF_DTM_CSYS
 70
0
 62
7
  6
CONTINUOUS
370
-3
390
F
  0
LAYER
  5
210
100
AcDbSymbolTableRecord
100
AcDbLayerTableRecord
  2
06_ALL_SURFS
 70
0
 62
7
  6
CONTINUOUS
370
-3
390
F
  0
LAYER
  5
211
100
AcDbSymbolTableRecord
100
AcDbLayerTableRecord
  2
06__ASM_ALL_SURFS
 70
0
 62
7
  6
CONTINUOUS
370
-3
390
F
  0
LAYER
  5
212
100
AcDbSymbolTableRecord
100
AcDbLayerTableRecord
  2
06___PRT_ALL_SURFS
 70
0
 62
7
  6
CONTINUOUS
370
-3
390
F
  0
LAYER
  5
213
100
AcDbSymbolTableRecord
100
AcDbLayerTableRecord
  2
07__ASM_ALL_SKELETONS
 70
0
 62
7
  6
CONTINUOUS
370
-3
390
F
  0
LAYER
  5
214
100
AcDbSymbolTableRecord
100
AcDbLayerTableRecord
  2
ASM0001
 70
0
 62
7
  6
CONTINUOUS
370
-3
390
F
  0
LAYER
  5
215
100
AcDbSymbolTableRecord
100
AcDbLayerTableRecord
  2
COLOR2
 70
0
 62
7
  6
CONTINUOUS
370
-3
390
F
  0
LAYER
  5
216
100
AcDbSymbolTableRecord
100
AcDbLayerTableRecord
  2
NONE
 70
0
 62
7
  6
CONTINUOUS
370
-3
390
F
  0
LAYER
  5
217
100
AcDbSymbolTableRecord
100
AcDbLayerTableRecord
  2
NONE_1
 70
0
 62
7
  6
CONTINUOUS
370
-3
390
F
  0
LAYER
  5
218
100
AcDbSymbolTableRecord
100
AcDbLayerTableRecord
  2
NONE_10
 70
0
 62
7
  6
CONTINUOUS
370
-3
390
F
  0
LAYER
  5
219
100
AcDbSymbolTableRecord
100
AcDbLayerTableRecord
  2
NONE_11
 70
0
 62
7
  6
CONTINUOUS
370
-3
390
F
  0
LAYER
  5
21A
100
AcDbSymbolTableRecord
100
AcDbLayerTableRecord
  2
NONE_2
 70
0
 62
7
  6
CONTINUOUS
370
-3
390
F
  0
LAYER
  5
21B
100
AcDbSymbolTableRecord
100
AcDbLayerTableRecord
  2
NONE_3
 70
0
 62
7
  6
CONTINUOUS
370
-3
390
F
  0
LAYER
  5
21C
100
AcDbSymbolTableRecord
100
AcDbLayerTableRecord
  2
NONE_4
 70
0
 62
7
  6
CONTINUOUS
370
-3
390
F
  0
LAYER
  5
21D
100
AcDbSymbolTableRecord
100
AcDbLayerTableRecord
  2
NONE_5
 70
0
 62
7
  6
CONTINUOUS
370
-3
390
F
  0
LAYER
  5
21E
100
AcDbSymbolTableRecord
100
AcDbLayerTableRecord
  2
NONE_6
 70
0
 62
7
  6
CONTINUOUS
370
-3
390
F
  0
LAYER
  5
21F
100
AcDbSymbolTableRecord
100
AcDbLayerTableRecord
  2
NONE_7
 70
0
 62
7
  6
CONTINUOUS
370
-3
390
F
  0
LAYER
  5
220
100
AcDbSymbolTableRecord
100
AcDbLayerTableRecord
  2
NONE_8
 70
0
 62
7
  6
CONTINUOUS
370
-3
390
F
  0
LAYER
  5
221
100
AcDbSymbolTableRecord
100
AcDbLayerTableRecord
  2
NONE_9
 70
0
 62
7
  6
CONTINUOUS
370
-3
390
F
  0
LAYER
  5
222
100
AcDbSymbolTableRecord
100
AcDbLayerTableRecord
  2
_10480
 70
0
 62
7
  6
CONTINUOUS
370
-3
390
F
  0
LAYER
  5
223
100
AcDbSymbolTableRecord
100
AcDbLayerTableRecord
  2
_10480_1
 70
0
 62
7
  6
CONTINUOUS
370
-3
390
F
  0
LAYER
  5
224
100
AcDbSymbolTableRecord
100
AcDbLayerTableRecord
  2
_10950
 70
0
 62
7
  6
CONTINUOUS
370
-3
390
F
  0
LAYER
  5
225
100
AcDbSymbolTableRecord
100
AcDbLayerTableRecord
  2
_10950_1
 70
0
 62
7
  6
CONTINUOUS
370
-3
390
F
  0
LAYER
  5
226
100
AcDbSymbolTableRecord
100
AcDbLayerTableRecord
  2
_1194
 70
0
 62
7
  6
CONTINUOUS
370
-3
390
F
  0
LAYER
  5
227
100
AcDbSymbolTableRecord
100
AcDbLayerTableRecord
  2
_1194_1
 70
0
 62
7
  6
CONTINUOUS
370
-3
390
F
  0
LAYER
  5
228
100
AcDbSymbolTableRecord
100
AcDbLayerTableRecord
  2
_12623
 70
0
 62
7
  6
CONTINUOUS
370
-3
390
F
  0
LAYER
  5
229
100
AcDbSymbolTableRecord
100
AcDbLayerTableRecord
  2
_12623_1
 70
0
 62
7
  6
CONTINUOUS
370
-3
390
F
  0
LAYER
  5
22A
100
AcDbSymbolTableRecord
100
AcDbLayerTableRecord
  2
_13457
 70
0
 62
7
  6
CONTINUOUS
370
-3
390
F
  0
LAYER
  5
22B
100
AcDbSymbolTableRecord
100
AcDbLayerTableRecord
  2
_13457_1
 70
0
 62
7
  6
CONTINUOUS
370
-3
390
F
  0
LAYER
  5
22C
100
AcDbSymbolTableRecord
100
AcDbLayerTableRecord
  2
_2155
 70
0
 62
7
  6
CONTINUOUS
370
-3
390
F
  0
LAYER
  5
22D
100
AcDbSymbolTableRecord
100
AcDbLayerTableRecord
  2
_2155_1
 70
0
 62
7
  6
CONTINUOUS
370
-3
390
F
  0
LAYER
  5
22E
100
AcDbSymbolTableRecord
100
AcDbLayerTableRecord
  2
_2680
 70
0
 62
7
  6
CONTINUOUS
370
-3
390
F
  0
LAYER
  5
22F
100
AcDbSymbolTableRecord
100
AcDbLayerTableRecord
  2
_2680_1
 70
0
 62
7
  6
CONTINUOUS
370
-3
390
F
  0
LAYER
  5
230
100
AcDbSymbolTableRecord
100
AcDbLayerTableRecord
  2
_281
 70
0
 62
7
  6
CONTINUOUS
370
-3
390
F
  0
LAYER
  5
231
100
AcDbSymbolTableRecord
100
AcDbLayerTableRecord
  2
_281_1
 70
0
 62
7
  6
CONTINUOUS
370
-3
390
F
  0
LAYER
  5
232
100
AcDbSymbolTableRecord
100
AcDbLayerTableRecord
  2
_4591
 70
0
 62
7
  6
CONTINUOUS
370
-3
390
F
  0
LAYER
  5
233
100
AcDbSymbolTableRecord
100
AcDbLayerTableRecord
  2
_4591_1
 70
0
 62
7
  6
CONTINUOUS
370
-3
390
F
  0
LAYER
  5
234
100
AcDbSymbolTableRecord
100
AcDbLayerTableRecord
  2
_5753
 70
0
 62
7
  6
CONTINUOUS
370
-3
390
F
  0
LAYER
  5
235
100
AcDbSymbolTableRecord
100
AcDbLayerTableRecord
  2
_5753_1
 70
0
 62
7
  6
CONTINUOUS
370
-3
390
F
  0
LAYER
  5
236
100
AcDbSymbolTableRecord
100
AcDbLayerTableRecord
  2
_8456
 70
0
 62
7
  6
CONTINUOUS
370
-3
390
F
  0
LAYER
  5
237
100
AcDbSymbolTableRecord
100
AcDbLayerTableRecord
  2
_8456_1
 70
0
 62
7
  6
CONTINUOUS
370
-3
390
F
  0
LAYER
  5
238
100
AcDbSymbolTableRecord
100
AcDbLayerTableRecord
  2
_888
 70
0
 62
7
  6
CONTINUOUS
370
-3
390
F
  0
LAYER
  5
239
100
AcDbSymbolTableRecord
100
AcDbLayerTableRecord
  2
_888_1
 70
0
 62
7
  6
CONTINUOUS
370
-3
390
F
  0
LAYER
  5
23A
100
AcDbSymbolTableRecord
100
AcDbLayerTableRecord
  2
___SHELL
 70
0
 62
7
  6
CONTINUOUS
370
-3
390
F
  0
ENDTAB
  0
TABLE
  2
STYLE
  5
3
100
AcDbSymbolTable
 70
1
  0
STYLE
  5
11
100
AcDbSymbolTableRecord
100
AcDbTextStyleTableRecord
  2
STANDARD
 70
0
 40
0.0
 41
0.8
 50
0.0
 71
0
 42
0.2
  3
txt
  4

  0
STYLE
  5
23B
100
AcDbSymbolTableRecord
100
AcDbTextStyleTableRecord
  2
TEXTSTYLE_1
 70
0
 40
0.0
 41
0.8
 50
0.0
 71
0
 42
0.2
  3
gdt
  4

  0
ENDTAB
  0
TABLE
  2
VIEW
  5
6
100
AcDbSymbolTable
 70
0
  0
ENDTAB
  0
TABLE
  2
UCS
  5
7
100
AcDbSymbolTable
 70
0
  0
ENDTAB
  0
TABLE
  2
APPID
  5
9
100
AcDbSymbolTable
 70
1
  0
APPID
  5
23C
100
AcDbSymbolTableRecord
100
AcDbRegAppTableRecord
  2
ACAD
 70
0
  0
ENDTAB
  0
TABLE
  2
BLOCK_RECORD
  5
1
100
AcDbSymbolTable
 70
0
  0
BLOCK_RECORD
  5
23D
100
AcDbSymbolTableRecord
100
AcDbBlockTableRecord
  2
*Model_Space
  0
BLOCK_RECORD
  5
23E
100
AcDbSymbolTableRecord
100
AcDbBlockTableRecord
  2
*Paper_Space
  0
ENDTAB
  0
TABLE
  2
DIMSTYLE
  5
A
100
AcDbSymbolTable
 70
1
100
AcDbDimStyleTable
 71
0
  0
DIMSTYLE
105
23F
100
AcDbSymbolTableRecord
100
AcDbDimStyleTableRecord
  2
STANDARD
 70
0
  3

  4

 40
1.0
 41
0.1875
 42
0.0625
 43
0.38
 44
0.125
 45
0.0
 46
0.0
 47
0.0001
 48
0.0001
140
0.15625
141
0.09
142
0.0
143
25.4
144
1.0
145
0.0
146
1.0
147
0.09
 71
0.0
 72
0.0
 73
1
 74
1
 75
0
 76
0
 77
0
 78
4
 79
1
170
0
171
3
172
0
173
0
174
0
175
0
176
0
177
0
178
0
270
2
179
4
271
4
272
4
273
2
274
2
275
0
280
0
281
0
282
0
283
1
284
4
285
0
286
0
287
3
288
0
340
11
278
46
  0
ENDTAB
  0
ENDSEC
  0
SECTION
  2
BLOCKS
  0
BLOCK
  5
20
100
AcDbEntity
  8
0
100
AcDbBlockBegin
  2
*Model_Space
 70
0
 10
0.0
 20
0.0
 30
0.0
  3
*Model_Space
  1

  0
ENDBLK
  5
21
100
AcDbEntity
  8
0
100
AcDbBlockEnd
  0
BLOCK
  5
1C
100
AcDbEntity
  8
0
100
AcDbBlockBegin
  2
*Paper_Space
 70
0
 10
0.0
 20
0.0
 30
0.0
  3
*Paper_Space
  1

  0
ENDBLK
  5
1D
100
AcDbEntity
  8
0
100
AcDbBlockEnd
  0
ENDSEC
  0
SECTION
  2
ENTITIES
  0
MTEXT
  5
240
100
AcDbEntity
  8
0
100
AcDbMText
 62
7
  6
CONTINUOUS
  7
STANDARD
 71
1
 72
1
 10
15.9560215477
 20
0.9479130325
 30
0.0
 11
1.0
 21
0.0
 31
0.0
 44
0.9
  1
SCALE: 1:1.000
 40
0.3
 41
3.36
  0
LINE
  5
241
100
AcDbEntity
  8
0
100
AcDbLine
 62
7
  6
CONTINUOUS
 10
0.0
 20
0.0
 11
0.0
 21
17.0
  0
LINE
  5
242
100
AcDbEntity
  8
0
100
AcDbLine
 62
7
  6
CONTINUOUS
 10
0.0
 20
0.0
 11
22.0
 21
0.0
  0
LINE
  5
243
100
AcDbEntity
  8
0
100
AcDbLine
 62
7
  6
CONTINUOUS
 10
0.0
 20
17.0
 11
22.0
 21
17.0
  0
LINE
  5
244
100
AcDbEntity
  8
0
100
AcDbLine
 62
7
  6
CONTINUOUS
 10
22.0
 20
0.0
 11
22.0
 21
17.0
  0
LINE
  5
245
100
AcDbEntity
  8
0
100
AcDbLine
 62
7
  6
CONTINUOUS
 10
2.9741172762
 20
4.5951198968
 11
2.9741172762
 21
3.7076198968
  0
LINE
  5
246
100
AcDbEntity
  8
0
100
AcDbLine
 62
7
  6
CONTINUOUS
 10
3.052765719
 20
4.7451198968
 11
3.052765719
 21
4.6451198968
  0
LINE
  5
247
100
AcDbEntity
  8
0
100
AcDbLine
 62
7
  6
CONTINUOUS
 10
3.3866172762
 20
4.6451198968
 11
3.3866172889
 21
4.7451198968
  0
LINE
  5
248
100
AcDbEntity
  8
0
100
AcDbLine
 62
7
  6
CONTINUOUS
 10
3.971515719
 20
4.6451198968
 11
3.971515719
 21
4.7451698198
  0
LINE
  5
249
100
AcDbEntity
  8
0
100
AcDbLine
 62
7
  6
CONTINUOUS
 10
3.971515719
 20
4.6451198968
 11
4.0098820684
 21
4.5951198968
  0
LINE
  5
24A
100
AcDbEntity
  8
0
100
AcDbLine
 62
7
  6
CONTINUOUS
 10
3.971515719
 20
4.6451198968
 11
4.3192563519
 21
5.9429056063
  0
LINE
  5
24B
100
AcDbEntity
  8
0
100
AcDbLine
 62
7
  6
CONTINUOUS
 10
2.9741172762
 20
3.7076198968
 11
9.2866172762
 21
3.7076198968
  0
LINE
  5
24C
100
AcDbEntity
  8
0
100
AcDbLine
 62
7
  6
CONTINUOUS
 10
4.8797793147
 20
4.6417842854
 11
4.7985389306
 21
4.7824967581
  0
LINE
  5
24D
100
AcDbEntity
  8
0
100
AcDbLine
 62
7
  6
CONTINUOUS
 10
5.1128962357
 20
4.798013934
 11
5.0503962357
 21
4.9062671095
  0
LINE
  5
24E
100
AcDbEntity
  8
0
100
AcDbLine
 62
7
  6
CONTINUOUS
 10
5.1894427902
 20
4.8422081078
 11
5.1269427902
 21
4.9504612833
  0
LINE
  5
24F
100
AcDbEntity
  8
0
100
AcDbLine
 62
7
  6
CONTINUOUS
 10
6.0130028462
 20
6.4419948968
 11
6.0006409223
 21
6.4306453114
  0
LINE
  5
250
100
AcDbEntity
  8
0
100
AcDbLine
 62
7
  6
CONTINUOUS
 10
9.2366172762
 20
4.6451198968
 11
8.2892188333
 21
4.6451198968
  0
LINE
  5
251
100
AcDbEntity
  8
0
100
AcDbLine
 62
7
  6
CONTINUOUS
 10
3.971515719
 20
4.6451198968
 11
3.0241172762
 21
4.6451198968
  0
LINE
  5
252
100
AcDbEntity
  8
0
100
AcDbLine
 62
7
  6
CONTINUOUS
 10
9.1829688333
 20
4.7701198968
 11
8.2557251842
 21
4.7701198968
  0
LINE
  5
253
100
AcDbEntity
  8
0
100
AcDbLine
 62
7
  6
CONTINUOUS
 10
4.0050093681
 20
4.7701198968
 11
3.077765719
 21
4.7701198968
  0
LINE
  5
254
100
AcDbEntity
  8
0
100
AcDbLine
 62
7
  6
CONTINUOUS
 10
7.1500152546
 20
7.0896223477
 11
7.3309127303
 21
7.2705198234
  0
LINE
  5
255
100
AcDbEntity
  8
0
100
AcDbLine
 62
7
  6
CONTINUOUS
 10
6.0303672762
 20
4.3979529016
 11
6.0303672762
 21
4.2006326378
  0
LINE
  5
256
100
AcDbEntity
  8
0
100
AcDbLine
 62
7
  6
CONTINUOUS
 10
6.0303672762
 20
6.5172868919
 11
6.0303672762
 21
6.7146071557
  0
LINE
  5
257
100
AcDbEntity
  8
0
100
AcDbLine
 62
7
  6
CONTINUOUS
 10
6.6722583653
 20
6.5962027953
 11
6.5735982334
 21
6.4253184341
  0
LINE
  5
258
100
AcDbEntity
  8
0
100
AcDbLine
 62
7
  6
CONTINUOUS
 10
5.5139312382
 20
4.5899213594
 11
5.4152711063
 21
4.4190369983
  0
LINE
  5
259
100
AcDbEntity
  8
0
100
AcDbLine
 62
7
  6
CONTINUOUS
 10
7.5060932498
 20
7.1427050871
 11
7.5507680229
 21
7.1873798602
  0
LINE
  5
25A
100
AcDbEntity
  8
0
100
AcDbLine
 62
7
  6
CONTINUOUS
 10
7.3031038728
 20
6.9365337296
 11
7.4840013484
 21
7.1174312052
  0
LINE
  5
25B
100
AcDbEntity
  8
0
100
AcDbLine
 62
7
  6
CONTINUOUS
 10
7.1689501747
 20
6.1727160666
 11
6.9980658135
 21
6.0740559347
  0
LINE
  5
25C
100
AcDbEntity
  8
0
100
AcDbLine
 62
7
  6
CONTINUOUS
 10
5.1626687388
 20
5.0143889396
 11
4.9917843777
 21
4.9157288076
  0
LINE
  5
25D
100
AcDbEntity
  8
0
100
AcDbLine
 62
7
  6
CONTINUOUS
 10
4.983931536
 20
4.8678936972
 11
5.1269427902
 21
4.9504612833
  0
LINE
  5
25E
100
AcDbEntity
  8
0
100
AcDbLine
 62
7
  6
CONTINUOUS
 10
4.8733800172
 20
5.3576198968
 11
5.070700281
 21
5.3576198968
  0
LINE
  5
25F
100
AcDbEntity
  8
0
100
AcDbLine
 62
7
  6
CONTINUOUS
 10
7.1900342713
 20
5.3576198968
 11
7.3873545351
 21
5.3576198968
  0
LINE
  5
260
100
AcDbEntity
  8
0
100
AcDbLine
 62
7
  6
CONTINUOUS
 10
4.9917843777
 20
5.9995109859
 11
5.1626687388
 21
5.900850854
  0
LINE
  5
261
100
AcDbEntity
  8
0
100
AcDbLine
 62
7
  6
CONTINUOUS
 10
6.9980658135
 20
4.8411838588
 11
7.1689501747
 21
4.7425237269
  0
LINE
  5
262
100
AcDbEntity
  8
0
100
AcDbLine
 62
7
  6
CONTINUOUS
 10
5.4152711063
 20
6.4962027953
 11
5.5139312382
 21
6.3253184341
  0
LINE
  5
263
100
AcDbEntity
  8
0
100
AcDbLine
 62
7
  6
CONTINUOUS
 10
6.5735982334
 20
4.4899213594
 11
6.6722583653
 21
4.3190369983
  0
LINE
  5
264
100
AcDbEntity
  8
0
100
AcDbLine
 62
7
  6
CONTINUOUS
 10
6.2303672762
 20
4.2006326378
 11
6.2303672762
 21
4.3979529016
  0
LINE
  5
265
100
AcDbEntity
  8
0
100
AcDbLine
 62
7
  6
CONTINUOUS
 10
6.2303672762
 20
6.5172868919
 11
6.2303672762
 21
6.7146071557
  0
LINE
  5
266
100
AcDbEntity
  8
0
100
AcDbLine
 62
7
  6
CONTINUOUS
 10
5.5884761871
 20
4.3190369983
 11
5.687136319
 21
4.4899213594
  0
LINE
  5
267
100
AcDbEntity
  8
0
100
AcDbLine
 62
7
  6
CONTINUOUS
 10
6.7468033141
 20
6.3253184341
 11
6.845463446
 21
6.4962027953
  0
LINE
  5
268
100
AcDbEntity
  8
0
100
AcDbLine
 62
7
  6
CONTINUOUS
 10
7.7054476313
 20
7.0327002518
 11
7.6607728582
 21
6.9880254788
  0
LINE
  5
269
100
AcDbEntity
  8
0
100
AcDbLine
 62
7
  6
CONTINUOUS
 10
7.7901785847
 20
6.811253969
 11
7.609281109
 21
6.6303564934
  0
LINE
  5
26A
100
AcDbEntity
  8
0
100
AcDbLine
 62
7
  6
CONTINUOUS
 10
7.8601272396
 20
6.8780206435
 11
7.8154524666
 21
6.8333458704
  0
LINE
  5
26B
100
AcDbEntity
  8
0
100
AcDbLine
 62
7
  6
CONTINUOUS
 10
5.1894427902
 20
4.8422081078
 11
5.046431536
 21
4.7596405218
  0
LINE
  5
26C
100
AcDbEntity
  8
0
100
AcDbLine
 62
7
  6
CONTINUOUS
 10
5.0917843777
 20
4.7425237269
 11
5.2626687388
 21
4.8411838588
  0
LINE
  5
26D
100
AcDbEntity
  8
0
100
AcDbLine
 62
7
  6
CONTINUOUS
 10
7.0980658135
 20
5.900850854
 11
7.2689501747
 21
5.9995109859
  0
LINE
  5
26E
100
AcDbEntity
  8
0
100
AcDbLine
 62
7
  6
CONTINUOUS
 10
7.3873545351
 20
5.5576198968
 11
7.1900342713
 21
5.5576198968
  0
LINE
  5
26F
100
AcDbEntity
  8
0
100
AcDbLine
 62
7
  6
CONTINUOUS
 10
5.070700281
 20
5.5576198968
 11
4.8733800172
 21
5.5576198968
  0
LINE
  5
270
100
AcDbEntity
  8
0
100
AcDbLine
 62
7
  6
CONTINUOUS
 10
7.2689501747
 20
4.9157288076
 11
7.0980658135
 21
5.0143889396
  0
LINE
  5
271
100
AcDbEntity
  8
0
100
AcDbLine
 62
7
  6
CONTINUOUS
 10
5.2626687388
 20
6.0740559347
 11
5.0917843777
 21
6.1727160666
  0
LINE
  5
272
100
AcDbEntity
  8
0
100
AcDbLine
 62
7
  6
CONTINUOUS
 10
6.845463446
 20
4.4190369983
 11
6.7468033141
 21
4.5899213594
  0
LINE
  5
273
100
AcDbEntity
  8
0
100
AcDbLine
 62
7
  6
CONTINUOUS
 10
5.687136319
 20
6.4253184341
 11
5.5884761871
 21
6.5962027953
  0
LINE
  5
274
100
AcDbEntity
  8
0
100
AcDbLine
 62
7
  6
CONTINUOUS
 10
7.7623697271
 20
6.4772678752
 11
7.9432672028
 21
6.6581653509
  0
LINE
  5
275
100
AcDbEntity
  8
0
100
AcDbLine
 62
7
  6
CONTINUOUS
 10
4.9866474907
 20
4.7966794102
 11
4.8476650778
 21
4.7460939488
  0
LINE
  5
276
100
AcDbEntity
  8
0
100
AcDbLine
 62
7
  6
CONTINUOUS
 10
4.8562155814
 20
4.7226016333
 11
4.9951979943
 21
4.7731870947
  0
LINE
  5
277
100
AcDbEntity
  8
0
100
AcDbLine
 62
7
  6
CONTINUOUS
 10
6.2477317062
 20
6.4419948968
 11
6.2600936301
 21
6.4306453114
  0
LINE
  5
278
100
AcDbEntity
  8
0
100
AcDbLine
 62
7
  6
CONTINUOUS
 10
7.1147422762
 20
5.3402711497
 11
7.1147422762
 21
5.5749686438
  0
LINE
  5
279
100
AcDbEntity
  8
0
100
AcDbLine
 62
7
  6
CONTINUOUS
 10
7.1147422762
 20
5.3402554668
 11
7.1033926908
 21
5.3278935428
  0
LINE
  5
27A
100
AcDbEntity
  8
0
100
AcDbLine
 62
7
  6
CONTINUOUS
 10
6.2477160232
 20
6.4419948968
 11
6.0130185292
 21
6.4419948968
  0
LINE
  5
27B
100
AcDbEntity
  8
0
100
AcDbLine
 62
7
  6
CONTINUOUS
 10
7.1147422762
 20
5.5749843268
 11
7.1033926908
 21
5.5873462507
  0
LINE
  5
27C
100
AcDbEntity
  8
0
100
AcDbLine
 62
7
  6
CONTINUOUS
 10
7.6958999691
 20
6.4894786019
 11
7.7623697271
 21
6.4772678752
  0
LINE
  5
27D
100
AcDbEntity
  8
0
100
AcDbLine
 62
7
  6
CONTINUOUS
 10
7.1622259813
 20
7.0231525897
 11
7.1500152546
 21
7.0896223477
  0
LINE
  5
27E
100
AcDbEntity
  8
0
100
AcDbLine
 62
7
  6
CONTINUOUS
 10
8.2892188333
 20
4.6451198968
 11
7.9414782005
 21
5.9429056063
  0
LINE
  5
27F
100
AcDbEntity
  8
0
100
AcDbLine
 62
7
  6
CONTINUOUS
 10
8.2892188333
 20
4.7451198968
 11
8.2892188333
 21
4.6451198968
  0
LINE
  5
280
100
AcDbEntity
  8
0
100
AcDbLine
 62
7
  6
CONTINUOUS
 10
7.3956155935
 20
7.2531827434
 11
7.3309127303
 21
7.2705198234
  0
LINE
  5
281
100
AcDbEntity
  8
0
100
AcDbLine
 62
7
  6
CONTINUOUS
 10
7.9259301228
 20
6.7228682141
 11
7.3956276208
 21
7.2531707161
  0
LINE
  5
282
100
AcDbEntity
  8
0
100
AcDbLine
 62
7
  6
CONTINUOUS
 10
7.8601272396
 20
6.8780206435
 11
7.5507680229
 21
7.1873798602
  0
LINE
  5
283
100
AcDbEntity
  8
0
100
AcDbLine
 62
7
  6
CONTINUOUS
 10
7.9259301228
 20
6.7228682141
 11
7.9432672028
 21
6.6581653509
  0
LINE
  5
284
100
AcDbEntity
  8
0
100
AcDbLine
 62
7
  6
CONTINUOUS
 10
8.2508524839
 20
4.5951198968
 11
8.2892188333
 21
4.6451198968
  0
LINE
  5
285
100
AcDbEntity
  8
0
100
AcDbLine
 62
7
  6
CONTINUOUS
 10
7.9582116954
 20
7.2147536379
 11
7.8875010173
 21
7.285464316
  0
LINE
  5
286
100
AcDbEntity
  8
0
100
AcDbLine
 62
7
  6
CONTINUOUS
 10
8.8741172635
 20
4.6451198968
 11
8.8741172635
 21
4.7451198968
  0
LINE
  5
287
100
AcDbEntity
  8
0
100
AcDbLine
 62
7
  6
CONTINUOUS
 10
9.2079688333
 20
4.7451198968
 11
9.2079688333
 21
4.6451198968
  0
LINE
  5
288
100
AcDbEntity
  8
0
100
AcDbLine
 62
7
  6
CONTINUOUS
 10
9.2866172762
 20
3.7076198968
 11
9.2866172762
 21
4.5951198968
  0
LINE
  5
289
100
AcDbEntity
  8
0
100
AcDbLine
 62
7
  6
CONTINUOUS
 10
2.9146220839
 20
11.7719227814
 11
2.9146220839
 21
13.9594227814
  0
LINE
  5
28A
100
AcDbEntity
  8
0
100
AcDbLine
 62
7
  6
CONTINUOUS
 10
3.327259815
 20
13.1781530606
 11
3.3271221093
 21
13.2031530606
  0
LINE
  5
28B
100
AcDbEntity
  8
0
100
AcDbLine
 62
7
  6
CONTINUOUS
 10
3.3272598099
 20
12.5531925022
 11
3.3271221093
 21
12.5281925021
  0
LINE
  5
28C
100
AcDbEntity
  8
0
100
AcDbLine
 62
7
  6
CONTINUOUS
 10
3.9120205267
 20
13.9094227814
 11
3.9120205267
 21
13.2031530606
  0
LINE
  5
28D
100
AcDbEntity
  8
0
100
AcDbLine
 62
7
  6
CONTINUOUS
 10
3.9120205267
 20
12.5281925021
 11
3.9120205267
 21
11.8219227814
  0
LINE
  5
28E
100
AcDbEntity
  8
0
100
AcDbLine
 62
7
  6
CONTINUOUS
 10
2.9146220839
 20
11.7719227814
 11
2.9646220839
 21
11.8219227814
  0
LINE
  5
28F
100
AcDbEntity
  8
0
100
AcDbLine
 62
7
  6
CONTINUOUS
 10
5.1364970839
 20
11.2406727814
 11
5.0864970839
 21
11.2906727814
  0
LINE
  5
290
100
AcDbEntity
  8
0
100
AcDbLine
 62
7
  6
CONTINUOUS
 10
5.1364970839
 20
11.2406727814
 11
7.0052470839
 21
11.2406727814
  0
LINE
  5
291
100
AcDbEntity
  8
0
100
AcDbLine
 62
7
  6
CONTINUOUS
 10
4.7369363437
 20
11.7719227814
 11
4.7369363437
 21
11.7469227814
  0
LINE
  5
292
100
AcDbEntity
  8
0
100
AcDbLine
 62
7
  6
CONTINUOUS
 10
4.7390437383
 20
11.7469227814
 11
4.7390437383
 21
11.7219227814
  0
LINE
  5
293
100
AcDbEntity
  8
0
100
AcDbLine
 62
7
  6
CONTINUOUS
 10
4.9244363437
 20
11.7219227814
 11
4.9244363437
 21
11.7469227814
  0
LINE
  5
294
100
AcDbEntity
  8
0
100
AcDbLine
 62
7
  6
CONTINUOUS
 10
5.0864970839
 20
11.2906727814
 11
7.0552470839
 21
11.2906727814
  0
LINE
  5
295
100
AcDbEntity
  8
0
100
AcDbLine
 62
7
  6
CONTINUOUS
 10
2.9646220839
 20
13.9094227814
 11
2.9146220839
 21
13.9594227814
  0
LINE
  5
296
100
AcDbEntity
  8
0
100
AcDbLine
 62
7
  6
CONTINUOUS
 10
4.9869363437
 20
11.7469227814
 11
4.9869363437
 21
11.7719227814
  0
LINE
  5
297
100
AcDbEntity
  8
0
100
AcDbLine
 62
7
  6
CONTINUOUS
 10
5.0864970839
 20
11.7519227814
 11
5.0864970839
 21
11.2906727814
  0
LINE
  5
298
100
AcDbEntity
  8
0
100
AcDbLine
 62
7
  6
CONTINUOUS
 10
6.0035076539
 20
11.4574049096
 11
6.0708720839
 21
11.4185120378
  0
LINE
  5
299
100
AcDbEntity
  8
0
100
AcDbLine
 62
7
  6
CONTINUOUS
 10
6.1382365139
 20
11.5351906532
 11
6.0708720839
 21
11.574083525
  0
LINE
  5
29A
100
AcDbEntity
  8
0
100
AcDbLine
 62
7
  6
CONTINUOUS
 10
5.2271220839
 20
11.7719227814
 11
5.2271220839
 21
11.7519227814
  0
LINE
  5
29B
100
AcDbEntity
  8
0
100
AcDbLine
 62
7
  6
CONTINUOUS
 10
4.7390437383
 20
11.7219227814
 11
5.0534010434
 21
11.7219227814
  0
LINE
  5
29C
100
AcDbEntity
  8
0
100
AcDbLine
 62
7
  6
CONTINUOUS
 10
4.9909010434
 20
11.7469227814
 11
4.9244363437
 21
11.7469227814
  0
LINE
  5
29D
100
AcDbEntity
  8
0
100
AcDbLine
 62
7
  6
CONTINUOUS
 10
4.7369363437
 20
11.7469227814
 11
4.7390437383
 21
11.7469227814
  0
LINE
  5
29E
100
AcDbEntity
  8
0
100
AcDbLine
 62
7
  6
CONTINUOUS
 10
7.0552470839
 20
11.7519227814
 11
5.0864970839
 21
11.7519227814
  0
LINE
  5
29F
100
AcDbEntity
  8
0
100
AcDbLine
 62
7
  6
CONTINUOUS
 10
2.9146220839
 20
11.7719227814
 11
9.2271220839
 21
11.7719227814
  0
LINE
  5
2A0
100
AcDbEntity
  8
0
100
AcDbLine
 62
7
  6
CONTINUOUS
 10
5.0119745686
 20
11.7712563922
 11
4.9909010434
 21
11.7469227814
  0
LINE
  5
2A1
100
AcDbEntity
  8
0
100
AcDbLine
 62
7
  6
CONTINUOUS
 10
4.9909010434
 20
11.7219227814
 11
5.0333824015
 21
11.7709760284
  0
LINE
  5
2A2
100
AcDbEntity
  8
0
100
AcDbLine
 62
7
  6
CONTINUOUS
 10
6.0035076539
 20
11.4574049096
 11
6.0035076539
 21
11.5351906532
  0
LINE
  5
2A3
100
AcDbEntity
  8
0
100
AcDbLine
 62
7
  6
CONTINUOUS
 10
5.0967023136
 20
11.7719227814
 11
5.0534010434
 21
11.7219227814
  0
LINE
  5
2A4
100
AcDbEntity
  8
0
100
AcDbLine
 62
7
  6
CONTINUOUS
 10
7.2436086805
 20
12.4906837815
 11
7.7306833923
 21
12.4906837815
  0
LINE
  5
2A5
100
AcDbEntity
  8
0
100
AcDbLine
 62
7
  6
CONTINUOUS
 10
8.8146220712
 20
12.5281925021
 11
8.229723641
 21
12.5281925021
  0
LINE
  5
2A6
100
AcDbEntity
  8
0
100
AcDbLine
 62
7
  6
CONTINUOUS
 10
3.9120205267
 20
12.5281925021
 11
3.3271220966
 21
12.5281925021
  0
LINE
  5
2A7
100
AcDbEntity
  8
0
100
AcDbLine
 62
7
  6
CONTINUOUS
 10
7.645952439
 20
12.6130820386
 11
7.6012776659
 21
12.6130820386
  0
LINE
  5
2A8
100
AcDbEntity
  8
0
100
AcDbLine
 62
7
  6
CONTINUOUS
 10
6.1382365139
 20
11.5351906532
 11
6.1382365139
 21
11.4574049096
  0
LINE
  5
2A9
100
AcDbEntity
  8
0
100
AcDbLine
 62
7
  6
CONTINUOUS
 10
8.5708720839
 20
12.6781727814
 11
8.3208720839
 21
12.6781727814
  0
LINE
  5
2AA
100
AcDbEntity
  8
0
100
AcDbLine
 62
7
  6
CONTINUOUS
 10
3.8208720839
 20
12.6781727814
 11
3.5708720839
 21
12.6781727814
  0
LINE
  5
2AB
100
AcDbEntity
  8
0
100
AcDbLine
 62
7
  6
CONTINUOUS
 10
7.4465980575
 20
12.73937741
 11
7.4912728306
 21
12.73937741
  0
LINE
  5
2AC
100
AcDbEntity
  8
0
100
AcDbLine
 62
7
  6
CONTINUOUS
 10
7.0552470839
 20
11.6136622114
 11
7.0505333031
 21
11.6187964429
  0
LINE
  5
2AD
100
AcDbEntity
  8
0
100
AcDbLine
 62
7
  6
CONTINUOUS
 10
7.0905200623
 20
12.8656727814
 11
7.271417538
 21
12.8656727814
  0
LINE
  5
2AE
100
AcDbEntity
  8
0
100
AcDbLine
 62
7
  6
CONTINUOUS
 10
7.4912728306
 20
12.9919681528
 11
7.4465980575
 21
12.9919681528
  0
LINE
  5
2AF
100
AcDbEntity
  8
0
100
AcDbLine
 62
7
  6
CONTINUOUS
 10
3.5708720839
 20
13.0531727814
 11
3.8208720839
 21
13.0531727814
  0
LINE
  5
2B0
100
AcDbEntity
  8
0
100
AcDbLine
 62
7
  6
CONTINUOUS
 10
8.3208720839
 20
13.0531727814
 11
8.5708720839
 21
13.0531727814
  0
LINE
  5
2B1
100
AcDbEntity
  8
0
100
AcDbLine
 62
7
  6
CONTINUOUS
 10
7.4465980575
 20
12.9919681528
 11
7.6012776659
 21
13.1182635241
  0
LINE
  5
2B2
100
AcDbEntity
  8
0
100
AcDbLine
 62
7
  6
CONTINUOUS
 10
7.4912728306
 20
12.9919681528
 11
7.645952439
 21
13.1182635241
  0
LINE
  5
2B3
100
AcDbEntity
  8
0
100
AcDbLine
 62
7
  6
CONTINUOUS
 10
7.6012776659
 20
13.1182635241
 11
7.645952439
 21
13.1182635241
  0
LINE
  5
2B4
100
AcDbEntity
  8
0
100
AcDbLine
 62
7
  6
CONTINUOUS
 10
8.8146220712
 20
13.2031530606
 11
8.229723641
 21
13.2031530606
  0
LINE
  5
2B5
100
AcDbEntity
  8
0
100
AcDbLine
 62
7
  6
CONTINUOUS
 10
3.3271220966
 20
13.2031530606
 11
3.9120205267
 21
13.2031530606
  0
LINE
  5
2B6
100
AcDbEntity
  8
0
100
AcDbLine
 62
7
  6
CONTINUOUS
 10
7.2436086805
 20
13.2406617812
 11
7.7306833923
 21
13.2406617812
  0
LINE
  5
2B7
100
AcDbEntity
  8
0
100
AcDbLine
 62
7
  6
CONTINUOUS
 10
6.9146220839
 20
11.7519227814
 11
6.9146220839
 21
11.7719227814
  0
LINE
  5
2B8
100
AcDbEntity
  8
0
100
AcDbLine
 62
7
  6
CONTINUOUS
 10
6.0708720839
 20
11.574083525
 11
6.0035076539
 21
11.5351906532
  0
LINE
  5
2B9
100
AcDbEntity
  8
0
100
AcDbLine
 62
7
  6
CONTINUOUS
 10
7.0552470839
 20
11.2906727814
 11
7.0552470839
 21
11.3400477814
  0
LINE
  5
2BA
100
AcDbEntity
  8
0
100
AcDbLine
 62
7
  6
CONTINUOUS
 10
7.0552470839
 20
11.3789333514
 11
7.0552470839
 21
11.6136622114
  0
LINE
  5
2BB
100
AcDbEntity
  8
0
100
AcDbLine
 62
7
  6
CONTINUOUS
 10
7.0552470839
 20
11.6525477814
 11
7.0552470839
 21
11.7519227814
  0
LINE
  5
2BC
100
AcDbEntity
  8
0
100
AcDbLine
 62
7
  6
CONTINUOUS
 10
7.785811384
 20
12.727276389
 11
7.645952439
 21
12.6130820386
  0
LINE
  5
2BD
100
AcDbEntity
  8
0
100
AcDbLine
 62
7
  6
CONTINUOUS
 10
6.0708720839
 20
11.4185120378
 11
6.1382365139
 21
11.4574049096
  0
LINE
  5
2BE
100
AcDbEntity
  8
0
100
AcDbLine
 62
7
  6
CONTINUOUS
 10
7.4465980575
 20
12.73937741
 11
7.6012776659
 21
12.6130820386
  0
LINE
  5
2BF
100
AcDbEntity
  8
0
100
AcDbLine
 62
7
  6
CONTINUOUS
 10
7.645952439
 20
12.6130820386
 11
7.4912728306
 21
12.73937741
  0
LINE
  5
2C0
100
AcDbEntity
  8
0
100
AcDbLine
 62
7
  6
CONTINUOUS
 10
7.4465980575
 20
12.9919681528
 11
7.4465980575
 21
12.73937741
  0
LINE
  5
2C1
100
AcDbEntity
  8
0
100
AcDbLine
 62
7
  6
CONTINUOUS
 10
9.2271220839
 20
13.9594227814
 11
9.1771220839
 21
13.9094227814
  0
LINE
  5
2C2
100
AcDbEntity
  8
0
100
AcDbLine
 62
7
  6
CONTINUOUS
 10
2.9146220839
 20
13.9594227814
 11
9.2271220839
 21
13.9594227814
  0
LINE
  5
2C3
100
AcDbEntity
  8
0
100
AcDbLine
 62
7
  6
CONTINUOUS
 10
7.645952439
 20
13.1182635241
 11
7.7852523633
 21
13.0045256122
  0
LINE
  5
2C4
100
AcDbEntity
  8
0
100
AcDbLine
 62
7
  6
CONTINUOUS
 10
7.4912728306
 20
12.73937741
 11
7.4912728306
 21
12.9919681528
  0
LINE
  5
2C5
100
AcDbEntity
  8
0
100
AcDbLine
 62
7
  6
CONTINUOUS
 10
7.0505352428
 20
11.3738012326
 11
7.0552470839
 21
11.3789333514
  0
LINE
  5
2C6
100
AcDbEntity
  8
0
100
AcDbLine
 62
7
  6
CONTINUOUS
 10
7.0552470839
 20
11.2906727814
 11
7.0052470839
 21
11.2406727814
  0
LINE
  5
2C7
100
AcDbEntity
  8
0
100
AcDbLine
 62
7
  6
CONTINUOUS
 10
9.2271220839
 20
11.7719227814
 11
9.1771220839
 21
11.8219227814
  0
LINE
  5
2C8
100
AcDbEntity
  8
0
100
AcDbLine
 62
7
  6
CONTINUOUS
 10
8.229723641
 20
11.8219227814
 11
8.229723641
 21
12.5281925021
  0
LINE
  5
2C9
100
AcDbEntity
  8
0
100
AcDbLine
 62
7
  6
CONTINUOUS
 10
8.229723641
 20
13.2031530606
 11
8.229723641
 21
13.9094227814
  0
LINE
  5
2CA
100
AcDbEntity
  8
0
100
AcDbLine
 62
7
  6
CONTINUOUS
 10
8.8144843527
 20
12.5531925021
 11
8.8146220585
 21
12.5281925021
  0
LINE
  5
2CB
100
AcDbEntity
  8
0
100
AcDbLine
 62
7
  6
CONTINUOUS
 10
8.8146220585
 20
13.2031530481
 11
8.8144843578
 21
13.1781530606
  0
LINE
  5
2CC
100
AcDbEntity
  8
0
100
AcDbLine
 62
7
  6
CONTINUOUS
 10
9.2271220839
 20
11.7719227814
 11
9.2271220839
 21
13.9594227814
  0
LINE
  5
2CD
100
AcDbEntity
  8
0
100
AcDbLine
 62
7
  6
CONTINUOUS
 10
16.9197302569
 20
3.6481247044
 11
14.7322302569
 21
3.6481247044
  0
LINE
  5
2CE
100
AcDbEntity
  8
0
100
AcDbLine
 62
7
  6
CONTINUOUS
 10
14.2009802569
 20
4.4637497044
 11
14.2509802569
 21
4.4137497044
  0
LINE
  5
2CF
100
AcDbEntity
  8
0
100
AcDbLine
 62
7
  6
CONTINUOUS
 10
14.2009802569
 20
6.3324997044
 11
14.2509802569
 21
6.3824997044
  0
LINE
  5
2D0
100
AcDbEntity
  8
0
100
AcDbLine
 62
7
  6
CONTINUOUS
 10
14.3341077742
 20
6.377787006
 11
14.3392408269
 21
6.3824997044
  0
LINE
  5
2D1
100
AcDbEntity
  8
0
100
AcDbLine
 62
7
  6
CONTINUOUS
 10
14.2009802569
 20
6.33249844
 11
14.2009802569
 21
4.4637509689
  0
LINE
  5
2D2
100
AcDbEntity
  8
0
100
AcDbLine
 62
7
  6
CONTINUOUS
 10
14.2509802569
 20
6.3824997044
 11
14.2509802569
 21
4.4137497044
  0
LINE
  5
2D3
100
AcDbEntity
  8
0
100
AcDbLine
 62
7
  6
CONTINUOUS
 10
14.7122302569
 20
4.4137497044
 11
14.2509802569
 21
4.4137497044
  0
LINE
  5
2D4
100
AcDbEntity
  8
0
100
AcDbLine
 62
7
  6
CONTINUOUS
 10
14.3788195133
 20
5.3981247044
 11
14.4177123851
 21
5.3307602744
  0
LINE
  5
2D5
100
AcDbEntity
  8
0
100
AcDbLine
 62
7
  6
CONTINUOUS
 10
14.4177123851
 20
5.4654891344
 11
14.3788195133
 21
5.3981247044
  0
LINE
  5
2D6
100
AcDbEntity
  8
0
100
AcDbLine
 62
7
  6
CONTINUOUS
 10
15.5733895142
 20
6.9732050595
 11
15.6871274261
 21
7.1125049839
  0
LINE
  5
2D7
100
AcDbEntity
  8
0
100
AcDbLine
 62
7
  6
CONTINUOUS
 10
14.7322302569
 20
4.5543747044
 11
14.7122302569
 21
4.5543747044
  0
LINE
  5
2D8
100
AcDbEntity
  8
0
100
AcDbLine
 62
7
  6
CONTINUOUS
 10
14.5343910005
 20
5.3981247044
 11
14.4954981287
 21
5.4654891344
  0
LINE
  5
2D9
100
AcDbEntity
  8
0
100
AcDbLine
 62
7
  6
CONTINUOUS
 10
14.7122302569
 20
4.4137510557
 11
14.7122302569
 21
6.3824983531
  0
LINE
  5
2DA
100
AcDbEntity
  8
0
100
AcDbLine
 62
7
  6
CONTINUOUS
 10
14.7322302569
 20
3.6481247044
 11
14.7322302569
 21
7.2231176838
  0
LINE
  5
2DB
100
AcDbEntity
  8
0
100
AcDbLine
 62
7
  6
CONTINUOUS
 10
14.4954981287
 20
5.3307602744
 11
14.5343910005
 21
5.3981247044
  0
LINE
  5
2DC
100
AcDbEntity
  8
0
100
AcDbLine
 62
7
  6
CONTINUOUS
 10
16.8697302569
 20
4.5856247044
 11
14.7822302569
 21
4.5856247044
  0
LINE
  5
2DD
100
AcDbEntity
  8
0
100
AcDbLine
 62
7
  6
CONTINUOUS
 10
16.1384605362
 20
4.7106247044
 11
15.5134999777
 21
4.7106247044
  0
LINE
  5
2DE
100
AcDbEntity
  8
0
100
AcDbLine
 62
7
  6
CONTINUOUS
 10
16.0785709997
 20
6.9732050595
 11
15.9522756283
 21
6.8185254512
  0
LINE
  5
2DF
100
AcDbEntity
  8
0
100
AcDbLine
 62
7
  6
CONTINUOUS
 10
16.0785709997
 20
6.9285302864
 11
15.9522756283
 21
6.7738506781
  0
LINE
  5
2E0
100
AcDbEntity
  8
0
100
AcDbLine
 62
7
  6
CONTINUOUS
 10
15.4509912571
 20
6.570861301
 11
15.4509912571
 21
7.0579360129
  0
LINE
  5
2E1
100
AcDbEntity
  8
0
100
AcDbLine
 62
7
  6
CONTINUOUS
 10
15.4884999777
 20
4.5856247044
 11
15.4884999777
 21
4.6856247044
  0
LINE
  5
2E2
100
AcDbEntity
  8
0
100
AcDbLine
 62
7
  6
CONTINUOUS
 10
15.5733895142
 20
6.9732050595
 11
15.5733895142
 21
6.9285302864
  0
LINE
  5
2E3
100
AcDbEntity
  8
0
100
AcDbLine
 62
7
  6
CONTINUOUS
 10
14.4954981287
 20
5.3307602744
 11
14.4177123851
 21
5.3307602744
  0
LINE
  5
2E4
100
AcDbEntity
  8
0
100
AcDbLine
 62
7
  6
CONTINUOUS
 10
14.4177123851
 20
5.4654891344
 11
14.4954981287
 21
5.4654891344
  0
LINE
  5
2E5
100
AcDbEntity
  8
0
100
AcDbLine
 62
7
  6
CONTINUOUS
 10
14.5739696869
 20
6.3824997044
 11
14.5791034639
 21
6.377786341
  0
LINE
  5
2E6
100
AcDbEntity
  8
0
100
AcDbLine
 62
7
  6
CONTINUOUS
 10
15.6996848856
 20
6.8185254512
 11
15.6996848856
 21
6.7738506781
  0
LINE
  5
2E7
100
AcDbEntity
  8
0
100
AcDbLine
 62
7
  6
CONTINUOUS
 10
15.8259802569
 20
6.4177726829
 11
15.8259802569
 21
6.5986701586
  0
LINE
  5
2E8
100
AcDbEntity
  8
0
100
AcDbLine
 62
7
  6
CONTINUOUS
 10
15.9522756283
 20
6.7738506781
 11
15.9522756283
 21
6.8185254512
  0
LINE
  5
2E9
100
AcDbEntity
  8
0
100
AcDbLine
 62
7
  6
CONTINUOUS
 10
16.0785709997
 20
6.9285302864
 11
16.0785709997
 21
6.9732050595
  0
LINE
  5
2EA
100
AcDbEntity
  8
0
100
AcDbLine
 62
7
  6
CONTINUOUS
 10
16.1634605362
 20
4.5856247044
 11
16.1634605362
 21
4.6856247044
  0
LINE
  5
2EB
100
AcDbEntity
  8
0
100
AcDbLine
 62
7
  6
CONTINUOUS
 10
16.2009692568
 20
6.570861301
 11
16.2009692568
 21
7.0579360129
  0
LINE
  5
2EC
100
AcDbEntity
  8
0
100
AcDbLine
 62
7
  6
CONTINUOUS
 10
14.7322302569
 20
6.2418747044
 11
14.7122302569
 21
6.2418747044
  0
LINE
  5
2ED
100
AcDbEntity
  8
0
100
AcDbLine
 62
7
  6
CONTINUOUS
 10
14.7122302569
 20
6.3824997044
 11
14.6128552569
 21
6.3824997044
  0
LINE
  5
2EE
100
AcDbEntity
  8
0
100
AcDbLine
 62
7
  6
CONTINUOUS
 10
14.5739696869
 20
6.3824997044
 11
14.3392408269
 21
6.3824997044
  0
LINE
  5
2EF
100
AcDbEntity
  8
0
100
AcDbLine
 62
7
  6
CONTINUOUS
 10
14.3003552569
 20
6.3824997044
 11
14.2509802569
 21
6.3824997044
  0
LINE
  5
2F0
100
AcDbEntity
  8
0
100
AcDbLine
 62
7
  6
CONTINUOUS
 10
15.5733895142
 20
6.9285302864
 11
15.6996848856
 21
6.7738506781
  0
LINE
  5
2F1
100
AcDbEntity
  8
0
100
AcDbLine
 62
7
  6
CONTINUOUS
 10
15.6996848856
 20
6.8185254512
 11
15.5733895142
 21
6.9732050595
  0
LINE
  5
2F2
100
AcDbEntity
  8
0
100
AcDbLine
 62
7
  6
CONTINUOUS
 10
16.9197302569
 20
3.6481247044
 11
16.9197302569
 21
7.2231235634
  0
LINE
  5
2F3
100
AcDbEntity
  8
0
100
AcDbLine
 62
7
  6
CONTINUOUS
 10
15.6996848856
 20
6.7738506781
 11
15.9522756283
 21
6.7738506781
  0
LINE
  5
2F4
100
AcDbEntity
  8
0
100
AcDbLine
 62
7
  6
CONTINUOUS
 10
15.9522756283
 20
6.8185254512
 11
15.6996848856
 21
6.8185254512
  0
LINE
  5
2F5
100
AcDbEntity
  8
0
100
AcDbLine
 62
7
  6
CONTINUOUS
 10
15.9643766493
 20
7.1130640046
 11
16.0785709997
 21
6.9732050595
  0
LINE
  5
2F6
100
AcDbEntity
  8
0
100
AcDbLine
 62
7
  6
CONTINUOUS
 10
14.7822302569
 20
7.2731247044
 11
16.8697302569
 21
7.2731247044
  0
LINE
  5
2F7
100
AcDbEntity
  8
0
100
AcDbLine
 62
7
  6
CONTINUOUS
 10
12.1648581769
 20
11.0891753868
 11
12.4355828335
 21
10.53749654
  0
LINE
  5
2F8
100
AcDbEntity
  8
0
100
AcDbLine
 62
7
  6
CONTINUOUS
 10
12.4641756035
 20
11.8904975252
 11
12.4946797902
 21
11.8283365284
  0
LINE
  5
2F9
100
AcDbEntity
  8
0
100
AcDbLine
 62
7
  6
CONTINUOUS
 10
12.7126111744
 20
11.7126623084
 11
12.6821069994
 21
11.7748233053
  0
LINE
  5
2FA
100
AcDbEntity
  8
0
100
AcDbLine
 62
7
  6
CONTINUOUS
 10
12.1645925717
 20
11.1086376827
 11
12.6912078794
 21
12.8127654429
  0
LINE
  5
2FB
100
AcDbEntity
  8
0
100
AcDbLine
 62
7
  6
CONTINUOUS
 10
13.0791328487
 20
11.1455477067
 11
13.0034349743
 21
11.9534300141
  0
LINE
  5
2FC
100
AcDbEntity
  8
0
100
AcDbLine
 62
7
  6
CONTINUOUS
 10
13.0295475624
 20
12.2180691514
 11
13.5348610125
 21
13.8532640753
  0
LINE
  5
2FD
100
AcDbEntity
  8
0
100
AcDbLine
 62
7
  6
CONTINUOUS
 10
13.8937512399
 20
11.0790160904
 11
13.7760006957
 21
11.1664843662
  0
LINE
  5
2FE
100
AcDbEntity
  8
0
100
AcDbLine
 62
7
  6
CONTINUOUS
 10
12.4355828335
 20
10.53749654
 11
18.2497803581
 21
10.53749654
  0
LINE
  5
2FF
100
AcDbEntity
  8
0
100
AcDbLine
 62
7
  6
CONTINUOUS
 10
13.604115714
 20
11.9976076106
 11
13.5948545636
 21
11.9621588871
  0
LINE
  5
300
100
AcDbEntity
  8
0
100
AcDbLine
 62
7
  6
CONTINUOUS
 10
13.6142198695
 20
12.0248250399
 11
13.5948545636
 21
11.9621588871
  0
LINE
  5
301
100
AcDbEntity
  8
0
100
AcDbLine
 62
7
  6
CONTINUOUS
 10
13.782344954
 20
11.9008307657
 11
13.7919393589
 21
11.9395657152
  0
LINE
  5
302
100
AcDbEntity
  8
0
100
AcDbLine
 62
7
  6
CONTINUOUS
 10
13.811297574
 20
12.0022340582
 11
13.7919322681
 21
11.9395679054
  0
LINE
  5
303
100
AcDbEntity
  8
0
100
AcDbLine
 62
7
  6
CONTINUOUS
 10
13.7009658876
 20
11.6258191404
 11
13.6816005817
 21
11.5631529876
  0
LINE
  5
304
100
AcDbEntity
  8
0
100
AcDbLine
 62
7
  6
CONTINUOUS
 10
13.8635246092
 20
11.9002815775
 11
13.7518715175
 21
11.5389720405
  0
LINE
  5
305
100
AcDbEntity
  8
0
100
AcDbLine
 62
7
  6
CONTINUOUS
 10
13.9957640637
 20
12.2273501975
 11
13.9763987578
 21
12.1646840447
  0
LINE
  5
306
100
AcDbEntity
  8
0
100
AcDbLine
 62
7
  6
CONTINUOUS
 10
13.7790255781
 20
11.1965891622
 11
13.7888401006
 21
11.2283489687
  0
LINE
  5
307
100
AcDbEntity
  8
0
100
AcDbLine
 62
7
  6
CONTINUOUS
 10
15.6511400109
 20
11.3980009368
 11
15.6787718407
 21
11.3980009368
  0
LINE
  5
308
100
AcDbEntity
  8
0
100
AcDbLine
 62
7
  6
CONTINUOUS
 10
15.6400056939
 20
11.4703411711
 11
15.6676375238
 21
11.4703411711
  0
LINE
  5
309
100
AcDbEntity
  8
0
100
AcDbLine
 62
7
  6
CONTINUOUS
 10
13.5948545636
 20
11.9621588871
 11
13.782344954
 21
11.9008307657
  0
LINE
  5
30A
100
AcDbEntity
  8
0
100
AcDbLine
 62
7
  6
CONTINUOUS
 10
15.7961004062
 20
11.2421311984
 11
15.9835907965
 21
11.180803077
  0
LINE
  5
30B
100
AcDbEntity
  8
0
100
AcDbLine
 62
7
  6
CONTINUOUS
 10
16.0029561024
 20
11.2434692297
 11
15.8229294688
 21
11.3023559558
  0
LINE
  5
30C
100
AcDbEntity
  8
0
100
AcDbLine
 62
7
  6
CONTINUOUS
 10
13.7995456905
 20
11.9642049493
 11
13.6142198695
 21
12.0248250399
  0
LINE
  5
30D
100
AcDbEntity
  8
0
100
AcDbLine
 62
7
  6
CONTINUOUS
 10
15.6299789058
 20
11.3484778388
 11
15.6599425318
 21
11.3370692707
  0
LINE
  5
30E
100
AcDbEntity
  8
0
100
AcDbLine
 62
7
  6
CONTINUOUS
 10
14.370401808
 20
11.9908409844
 11
14.4230339024
 21
11.9603751513
  0
LINE
  5
30F
100
AcDbEntity
  8
0
100
AcDbLine
 62
7
  6
CONTINUOUS
 10
13.8333998742
 20
12.270907467
 11
13.9763987578
 21
12.1646840447
  0
LINE
  5
310
100
AcDbEntity
  8
0
100
AcDbLine
 62
7
  6
CONTINUOUS
 10
15.6260141631
 20
10.9393052911
 11
15.6552885271
 21
10.917559505
  0
LINE
  5
311
100
AcDbEntity
  8
0
100
AcDbLine
 62
7
  6
CONTINUOUS
 10
15.6746538329
 20
10.9802256578
 11
15.6463201206
 21
11.0012727024
  0
LINE
  5
312
100
AcDbEntity
  8
0
100
AcDbLine
 62
7
  6
CONTINUOUS
 10
13.9957640637
 20
12.2273501975
 11
13.8935095991
 21
12.3033075679
  0
LINE
  5
313
100
AcDbEntity
  8
0
100
AcDbLine
 62
7
  6
CONTINUOUS
 10
15.7843167842
 20
10.9797205019
 11
15.6666666738
 21
11.0671141727
  0
LINE
  5
314
100
AcDbEntity
  8
0
100
AcDbLine
 62
7
  6
CONTINUOUS
 10
14.105427015
 20
12.2268450415
 11
13.9624281314
 21
12.3330684638
  0
LINE
  5
315
100
AcDbEntity
  8
0
100
AcDbLine
 62
7
  6
CONTINUOUS
 10
14.389231117
 20
12.0517726506
 11
14.398382373
 21
12.0331243515
  0
LINE
  5
316
100
AcDbEntity
  8
0
100
AcDbLine
 62
7
  6
CONTINUOUS
 10
14.4698437763
 20
12.0635901846
 11
14.4606925203
 21
12.0822384836
  0
LINE
  5
317
100
AcDbEntity
  8
0
100
AcDbLine
 62
7
  6
CONTINUOUS
 10
14.3935094316
 20
12.2840135517
 11
14.33331849
 21
12.4066697946
  0
LINE
  5
318
100
AcDbEntity
  8
0
100
AcDbLine
 62
7
  6
CONTINUOUS
 10
14.4128747375
 20
12.3466797044
 11
14.3827765803
 21
12.4080133001
  0
LINE
  5
319
100
AcDbEntity
  8
0
100
AcDbLine
 62
7
  6
CONTINUOUS
 10
14.4128747375
 20
12.3466797044
 11
14.3935094316
 21
12.2840135517
  0
LINE
  5
31A
100
AcDbEntity
  8
0
100
AcDbLine
 62
7
  6
CONTINUOUS
 10
14.370401808
 20
11.9908409844
 11
14.389231117
 21
12.0517726506
  0
LINE
  5
31B
100
AcDbEntity
  8
0
100
AcDbLine
 62
7
  6
CONTINUOUS
 10
14.3830528482
 20
11.9835179911
 11
14.398382373
 21
12.0331243515
  0
LINE
  5
31C
100
AcDbEntity
  8
0
100
AcDbLine
 62
7
  6
CONTINUOUS
 10
14.5133246147
 20
12.0517726506
 11
14.4944953057
 21
11.9908409844
  0
LINE
  5
31D
100
AcDbEntity
  8
0
100
AcDbLine
 62
7
  6
CONTINUOUS
 10
13.8473949296
 20
11.1292529595
 11
13.8594774008
 21
11.1326276653
  0
LINE
  5
31E
100
AcDbEntity
  8
0
100
AcDbLine
 62
7
  6
CONTINUOUS
 10
13.855853706
 20
11.1369834185
 11
13.852556135
 21
11.1360623874
  0
LINE
  5
31F
100
AcDbEntity
  8
0
100
AcDbLine
 62
7
  6
CONTINUOUS
 10
13.8478296536
 20
11.1481786669
 11
13.8323532545
 21
11.143856017
  0
LINE
  5
320
100
AcDbEntity
  8
0
100
AcDbLine
 62
7
  6
CONTINUOUS
 10
13.6816005817
 20
11.5631529876
 11
13.7593439953
 21
11.5631529876
  0
LINE
  5
321
100
AcDbEntity
  8
0
100
AcDbLine
 62
7
  6
CONTINUOUS
 10
15.8153804517
 20
11.5631529876
 11
15.9971244501
 21
11.5631529876
  0
LINE
  5
322
100
AcDbEntity
  8
0
100
AcDbLine
 62
7
  6
CONTINUOUS
 10
15.9696237155
 20
11.6258191404
 11
15.8347457576
 21
11.6258191404
  0
LINE
  5
323
100
AcDbEntity
  8
0
100
AcDbLine
 62
7
  6
CONTINUOUS
 10
13.7787093012
 20
11.6258191404
 11
13.7009658876
 21
11.6258191404
  0
LINE
  5
324
100
AcDbEntity
  8
0
100
AcDbLine
 62
7
  6
CONTINUOUS
 10
15.9361160767
 20
11.6874749813
 11
15.7543720784
 21
11.6874749813
  0
LINE
  5
325
100
AcDbEntity
  8
0
100
AcDbLine
 62
7
  6
CONTINUOUS
 10
13.7977623971
 20
11.6874749813
 11
13.6205922084
 21
11.6874749813
  0
LINE
  5
326
100
AcDbEntity
  8
0
100
AcDbLine
 62
7
  6
CONTINUOUS
 10
17.7669333673
 20
11.7126623084
 11
17.2282062378
 21
11.7126623084
  0
LINE
  5
327
100
AcDbEntity
  8
0
100
AcDbLine
 62
7
  6
CONTINUOUS
 10
13.0259947003
 20
11.7126623084
 11
12.7126111744
 21
11.7126623084
  0
LINE
  5
328
100
AcDbEntity
  8
0
100
AcDbLine
 62
7
  6
CONTINUOUS
 10
16.0228620948
 20
11.2884690817
 11
15.8353717045
 21
11.3497972032
  0
LINE
  5
329
100
AcDbEntity
  8
0
100
AcDbLine
 62
7
  6
CONTINUOUS
 10
13.8216162522
 20
12.0084967704
 11
13.6341258619
 21
12.0698248919
  0
LINE
  5
32A
100
AcDbEntity
  8
0
100
AcDbLine
 62
7
  6
CONTINUOUS
 10
15.6347650023
 20
11.47233655
 11
15.6400056939
 21
11.4703411711
  0
LINE
  5
32B
100
AcDbEntity
  8
0
100
AcDbLine
 62
7
  6
CONTINUOUS
 10
15.6676375238
 20
11.4703411711
 11
15.6376738978
 21
11.4817497392
  0
LINE
  5
32C
100
AcDbEntity
  8
0
100
AcDbLine
 62
7
  6
CONTINUOUS
 10
14.4698437763
 20
12.0635901846
 11
14.5098248305
 21
12.0404473449
  0
LINE
  5
32D
100
AcDbEntity
  8
0
100
AcDbLine
 62
7
  6
CONTINUOUS
 10
14.5133246147
 20
12.0517726506
 11
14.4606925203
 21
12.0822384836
  0
LINE
  5
32E
100
AcDbEntity
  8
0
100
AcDbLine
 62
7
  6
CONTINUOUS
 10
14.5777216304
 20
12.2840135517
 11
14.5175306888
 21
12.4066697946
  0
LINE
  5
32F
100
AcDbEntity
  8
0
100
AcDbLine
 62
7
  6
CONTINUOUS
 10
15.514947277
 20
13.4965467836
 11
15.6263835821
 21
13.6089944577
  0
LINE
  5
330
100
AcDbEntity
  8
0
100
AcDbLine
 62
7
  6
CONTINUOUS
 10
15.8848167422
 20
13.6562443908
 11
15.8572962275
 21
13.6284741065
  0
LINE
  5
331
100
AcDbEntity
  8
0
100
AcDbLine
 62
7
  6
CONTINUOUS
 10
17.5405997031
 20
11.9078471431
 11
17.3103344546
 21
11.9078471431
  0
LINE
  5
332
100
AcDbEntity
  8
0
100
AcDbLine
 62
7
  6
CONTINUOUS
 10
13.0077060499
 20
11.9078471431
 11
12.9352947331
 21
11.9078471431
  0
LINE
  5
333
100
AcDbEntity
  8
0
100
AcDbLine
 62
7
  6
CONTINUOUS
 10
17.7149260553
 20
11.983885655
 11
17.5202573353
 21
11.983885655
  0
LINE
  5
334
100
AcDbEntity
  8
0
100
AcDbLine
 62
7
  6
CONTINUOUS
 10
15.1313144434
 20
12.2273501975
 11
15.1119491376
 21
12.1646840447
  0
LINE
  5
335
100
AcDbEntity
  8
0
100
AcDbLine
 62
7
  6
CONTINUOUS
 10
14.9606576217
 20
12.3330684638
 11
14.921912507
 21
12.2268450415
  0
LINE
  5
336
100
AcDbEntity
  8
0
100
AcDbLine
 62
7
  6
CONTINUOUS
 10
15.796152515
 20
13.4306129806
 11
15.8236730298
 21
13.4583832649
  0
LINE
  5
337
100
AcDbEntity
  8
0
100
AcDbLine
 62
7
  6
CONTINUOUS
 10
15.6118774611
 20
13.1076463982
 11
15.7233137662
 21
13.2200940723
  0
LINE
  5
338
100
AcDbEntity
  8
0
100
AcDbLine
 62
7
  6
CONTINUOUS
 10
17.4011093259
 20
12.2015947342
 11
17.6313745744
 21
12.2015947342
  0
LINE
  5
339
100
AcDbEntity
  8
0
100
AcDbLine
 62
7
  6
CONTINUOUS
 10
15.6698550588
 20
11.5135888928
 11
15.6439454173
 21
11.5481059512
  0
LINE
  5
33A
100
AcDbEntity
  8
0
100
AcDbLine
 62
7
  6
CONTINUOUS
 10
15.6698536253
 20
11.5135818217
 11
15.6772181909
 21
11.5013442212
  0
LINE
  5
33B
100
AcDbEntity
  8
0
100
AcDbLine
 62
7
  6
CONTINUOUS
 10
15.1476120711
 20
12.2720316961
 11
15.1313144434
 21
12.2273501975
  0
LINE
  5
33C
100
AcDbEntity
  8
0
100
AcDbLine
 62
7
  6
CONTINUOUS
 10
15.1119491376
 20
12.1646840447
 11
15.1506942522
 21
12.270907467
  0
LINE
  5
33D
100
AcDbEntity
  8
0
100
AcDbLine
 62
7
  6
CONTINUOUS
 10
15.9827542839
 20
13.2633023155
 11
15.9552337692
 21
13.2355320312
  0
LINE
  5
33E
100
AcDbEntity
  8
0
100
AcDbLine
 62
7
  6
CONTINUOUS
 10
16.2029792504
 20
13.266082492
 11
16.1754587357
 21
13.2383122077
  0
LINE
  5
33F
100
AcDbEntity
  8
0
100
AcDbLine
 62
7
  6
CONTINUOUS
 10
14.4606925203
 20
12.0822384836
 11
14.389231117
 21
12.0517726506
  0
LINE
  5
340
100
AcDbEntity
  8
0
100
AcDbLine
 62
7
  6
CONTINUOUS
 10
14.398382373
 20
12.0331243515
 11
14.4698437763
 21
12.0635901846
  0
LINE
  5
341
100
AcDbEntity
  8
0
100
AcDbLine
 62
7
  6
CONTINUOUS
 10
12.8394332843
 20
12.3089547416
 11
12.8394677577
 21
12.3089549009
  0
LINE
  5
342
100
AcDbEntity
  8
0
100
AcDbLine
 62
7
  6
CONTINUOUS
 10
12.8394677577
 20
12.3089549009
 11
13.0576333832
 21
12.3089549009
  0
LINE
  5
343
100
AcDbEntity
  8
0
100
AcDbLine
 62
7
  6
CONTINUOUS
 10
17.3028253512
 20
12.3089549009
 11
17.8937355547
 21
12.3089549009
  0
LINE
  5
344
100
AcDbEntity
  8
0
100
AcDbLine
 62
7
  6
CONTINUOUS
 10
17.8937716673
 20
12.3089547316
 11
17.8937355547
 21
12.3089549009
  0
LINE
  5
345
100
AcDbEntity
  8
0
100
AcDbLine
 62
7
  6
CONTINUOUS
 10
15.6188445888
 20
11.4208180731
 11
15.6299789058
 21
11.3484778388
  0
LINE
  5
346
100
AcDbEntity
  8
0
100
AcDbLine
 62
7
  6
CONTINUOUS
 10
15.6400056939
 20
11.4703411711
 11
15.6511400109
 21
11.3980009368
  0
LINE
  5
347
100
AcDbEntity
  8
0
100
AcDbLine
 62
7
  6
CONTINUOUS
 10
15.8572962275
 20
13.6284741065
 11
15.796152515
 21
13.4306129806
  0
LINE
  5
348
100
AcDbEntity
  8
0
100
AcDbLine
 62
7
  6
CONTINUOUS
 10
15.8236730298
 20
13.4583832649
 11
15.8848167422
 21
13.6562443908
  0
LINE
  5
349
100
AcDbEntity
  8
0
100
AcDbLine
 62
7
  6
CONTINUOUS
 10
15.5843290133
 20
11.9634969184
 11
15.5649637074
 21
11.9008307657
  0
LINE
  5
34A
100
AcDbEntity
  8
0
100
AcDbLine
 62
7
  6
CONTINUOUS
 10
16.0987185514
 20
13.0297712501
 11
15.9872822464
 21
12.9173235761
  0
LINE
  5
34B
100
AcDbEntity
  8
0
100
AcDbLine
 62
7
  6
CONTINUOUS
 10
16.2657568475
 20
13.1159011394
 11
16.3771931526
 21
13.2283488135
  0
LINE
  5
34C
100
AcDbEntity
  8
0
100
AcDbLine
 62
7
  6
CONTINUOUS
 10
14.4230339024
 20
11.9603751513
 11
14.4944953057
 21
11.9908409844
  0
LINE
  5
34D
100
AcDbEntity
  8
0
100
AcDbLine
 62
7
  6
CONTINUOUS
 10
15.6787718407
 20
11.3980009368
 11
15.6676375238
 21
11.4703411711
  0
LINE
  5
34E
100
AcDbEntity
  8
0
100
AcDbLine
 62
7
  6
CONTINUOUS
 10
15.6188445888
 20
11.4208180731
 11
15.6376738978
 21
11.4817497392
  0
LINE
  5
34F
100
AcDbEntity
  8
0
100
AcDbLine
 62
7
  6
CONTINUOUS
 10
16.2641229629
 20
13.4639436179
 11
16.2029792504
 21
13.266082492
  0
LINE
  5
350
100
AcDbEntity
  8
0
100
AcDbLine
 62
7
  6
CONTINUOUS
 10
15.6511400109
 20
11.3980009368
 11
15.6353256285
 21
11.3468255766
  0
LINE
  5
351
100
AcDbEntity
  8
0
100
AcDbLine
 62
7
  6
CONTINUOUS
 10
15.6787718407
 20
11.3980009368
 11
15.6599425318
 21
11.3370692707
  0
LINE
  5
352
100
AcDbEntity
  8
0
100
AcDbLine
 62
7
  6
CONTINUOUS
 10
15.5473222556
 20
12.0698248919
 11
15.4200228068
 21
12.0084967704
  0
LINE
  5
353
100
AcDbEntity
  8
0
100
AcDbLine
 62
7
  6
CONTINUOUS
 10
15.6502475646
 20
11.9952540153
 11
15.5843290133
 21
11.9634969184
  0
LINE
  5
354
100
AcDbEntity
  8
0
100
AcDbLine
 62
7
  6
CONTINUOUS
 10
18.4864940112
 20
12.8135366561
 11
17.564436215
 21
12.8135366561
  0
LINE
  5
355
100
AcDbEntity
  8
0
100
AcDbLine
 62
7
  6
CONTINUOUS
 10
13.2135609389
 20
12.8135366561
 11
12.6922533997
 21
12.8135366561
  0
LINE
  5
356
100
AcDbEntity
  8
0
100
AcDbLine
 62
7
  6
CONTINUOUS
 10
15.8353717045
 20
11.3497972032
 11
15.8257772995
 21
11.3110622537
  0
LINE
  5
357
100
AcDbEntity
  8
0
100
AcDbLine
 62
7
  6
CONTINUOUS
 10
15.8347457576
 20
11.6258191404
 11
15.8153804517
 21
11.5631529876
  0
LINE
  5
358
100
AcDbEntity
  8
0
100
AcDbLine
 62
7
  6
CONTINUOUS
 10
15.7445093963
 20
11.3190133149
 11
15.6328563046
 21
10.9577037779
  0
LINE
  5
359
100
AcDbEntity
  8
0
100
AcDbLine
 62
7
  6
CONTINUOUS
 10
15.6746538329
 20
10.9802256578
 11
15.6552885271
 21
10.917559505
  0
LINE
  5
35A
100
AcDbEntity
  8
0
100
AcDbLine
 62
7
  6
CONTINUOUS
 10
15.8375473113
 20
11.3491248898
 11
15.8257843903
 21
11.3110600634
  0
LINE
  5
35B
100
AcDbEntity
  8
0
100
AcDbLine
 62
7
  6
CONTINUOUS
 10
15.5649637074
 20
11.9008307657
 11
15.6922631561
 21
11.9621588871
  0
LINE
  5
35C
100
AcDbEntity
  8
0
100
AcDbLine
 62
7
  6
CONTINUOUS
 10
15.9552337692
 20
13.2355320312
 11
16.1754587357
 21
13.2383122077
  0
LINE
  5
35D
100
AcDbEntity
  8
0
100
AcDbLine
 62
7
  6
CONTINUOUS
 10
16.2029792504
 20
13.266082492
 11
15.9827542839
 21
13.2633023155
  0
LINE
  5
35E
100
AcDbEntity
  8
0
100
AcDbLine
 62
7
  6
CONTINUOUS
 10
16.0136009444
 20
11.2530203582
 11
16.0228620948
 21
11.2884690817
  0
LINE
  5
35F
100
AcDbEntity
  8
0
100
AcDbLine
 62
7
  6
CONTINUOUS
 10
16.0029561024
 20
11.2434692297
 11
15.9835907965
 21
11.180803077
  0
LINE
  5
360
100
AcDbEntity
  8
0
100
AcDbLine
 62
7
  6
CONTINUOUS
 10
15.6698550588
 20
11.3052301171
 11
15.6439454173
 21
11.2707130587
  0
LINE
  5
361
100
AcDbEntity
  8
0
100
AcDbLine
 62
7
  6
CONTINUOUS
 10
15.796152515
 20
13.4306129806
 11
15.9552337692
 21
13.2355320312
  0
LINE
  5
362
100
AcDbEntity
  8
0
100
AcDbLine
 62
7
  6
CONTINUOUS
 10
15.9827542839
 20
13.2633023155
 11
15.8236730298
 21
13.4583832649
  0
LINE
  5
363
100
AcDbEntity
  8
0
100
AcDbLine
 62
7
  6
CONTINUOUS
 10
15.8848167422
 20
13.6562443908
 11
16.0437009425
 21
13.6582501857
  0
LINE
  5
364
100
AcDbEntity
  8
0
100
AcDbLine
 62
7
  6
CONTINUOUS
 10
16.253132038
 20
13.477421762
 11
16.2641229629
 21
13.4639436179
  0
LINE
  5
365
100
AcDbEntity
  8
0
100
AcDbLine
 62
7
  6
CONTINUOUS
 10
17.1977020511
 20
11.7748233053
 11
17.2282062378
 21
11.7126623084
  0
LINE
  5
366
100
AcDbEntity
  8
0
100
AcDbLine
 62
7
  6
CONTINUOUS
 10
17.565278133
 20
12.8131582596
 11
16.8432414168
 21
13.6264840336
  0
LINE
  5
367
100
AcDbEntity
  8
0
100
AcDbLine
 62
7
  6
CONTINUOUS
 10
18.2497803581
 20
10.53749654
 11
17.9790557015
 21
11.0891753868
  0
LINE
  5
368
100
AcDbEntity
  8
0
100
AcDbLine
 62
7
  6
CONTINUOUS
 10
17.7669333673
 20
11.7126623084
 11
17.7364291806
 21
11.7748233053
  0
LINE
  5
369
100
AcDbEntity
  8
0
100
AcDbLine
 62
7
  6
CONTINUOUS
 10
17.0572421231
 20
11.1594222307
 11
17.2282062378
 21
11.7126623084
  0
LINE
  5
36A
100
AcDbEntity
  8
0
100
AcDbLine
 62
7
  6
CONTINUOUS
 10
17.4124745857
 20
12.3089549009
 11
17.5625555732
 21
12.7946171545
  0
LINE
  5
36B
100
AcDbEntity
  8
0
100
AcDbLine
 62
7
  6
CONTINUOUS
 10
18.1177457973
 20
12.1878638537
 11
18.148249984
 21
12.1257028569
  0
LINE
  5
36C
100
AcDbEntity
  8
0
100
AcDbLine
 62
7
  6
CONTINUOUS
 10
18.508575784
 20
12.8027030016
 11
18.7793004406
 21
12.2510241548
  0
LINE
  5
36D
100
AcDbEntity
  8
0
100
AcDbLine
 62
7
  6
CONTINUOUS
 10
18.7793004406
 20
12.2510241548
 11
18.2497803581
 21
10.53749654
  0
CIRCLE
  5
36E
100
AcDbEntity
  8
0
100
AcDbCircle
 62
7
  6
CONTINUOUS
 10
5.7666517509
 20
4.1098743353
 40
0.125
  0
ARC
  5
36F
100
AcDbEntity
  8
0
100
AcDbCircle
 62
7
  6
CONTINUOUS
 10
4.920181536
 20
4.7618055853
 40
0.125
100
AcDbArc
 50
58.9324621112
 51
181.0873123583
  0
ARC
  5
370
100
AcDbEntity
  8
0
100
AcDbCircle
 62
7
  6
CONTINUOUS
 10
4.921431536
 20
4.7596405218
 40
0.125
100
AcDbArc
 50
60.0
 51
360.0
  0
ARC
  5
371
100
AcDbEntity
  8
0
100
AcDbCircle
 62
7
  6
CONTINUOUS
 10
4.921431536
 20
4.7596405218
 40
0.075
100
AcDbArc
 50
10.4059317736
 51
29.5940682268
  0
ARC
  5
372
100
AcDbEntity
  8
0
100
AcDbCircle
 62
7
  6
CONTINUOUS
 10
4.921431536
 20
4.7596405218
 40
0.075
100
AcDbArc
 50
190.4059317733
 51
209.5940682266
  0
ARC
  5
373
100
AcDbEntity
  8
0
100
AcDbCircle
 62
7
  6
CONTINUOUS
 10
4.921431536
 20
4.7596405218
 40
0.070669873
100
AcDbArc
 50
189.8119906829
 51
210.1880093169
  0
ARC
  5
374
100
AcDbEntity
  8
0
100
AcDbCircle
 62
7
  6
CONTINUOUS
 10
4.921431536
 20
4.7596405218
 40
0.070669873
100
AcDbArc
 50
9.8119906832
 51
30.1880093172
  0
CIRCLE
  5
375
100
AcDbEntity
  8
0
100
AcDbCircle
 62
7
  6
CONTINUOUS
 10
5.7666517509
 20
4.1098743353
 40
0.06
  0
ARC
  5
376
100
AcDbEntity
  8
0
100
AcDbCircle
 62
7
  6
CONTINUOUS
 10
3.0241172762
 20
4.5951198968
 40
0.05
100
AcDbArc
 50
90.0
 51
180.0
  0
ARC
  5
377
100
AcDbEntity
  8
0
100
AcDbCircle
 62
7
  6
CONTINUOUS
 10
3.077765719
 20
4.7451198968
 40
0.025
100
AcDbArc
 50
90.0
 51
180.0
  0
ARC
  5
378
100
AcDbEntity
  8
0
100
AcDbCircle
 62
7
  6
CONTINUOUS
 10
6.1303672762
 20
5.4576198968
 40
1.875
100
AcDbArc
 50
15.0
 51
165.0
  0
ARC
  5
379
100
AcDbEntity
  8
0
100
AcDbCircle
 62
7
  6
CONTINUOUS
 10
6.1303672762
 20
5.4576198968
 40
1.26095875
100
AcDbArc
 50
145.4513969665
 51
154.5486030335
  0
ARC
  5
37A
100
AcDbEntity
  8
0
100
AcDbCircle
 62
7
  6
CONTINUOUS
 10
6.1303672762
 20
5.4576198968
 40
1.26095875
100
AcDbArc
 50
115.4513969665
 51
124.5486030335
  0
ARC
  5
37B
100
AcDbEntity
  8
0
100
AcDbCircle
 62
7
  6
CONTINUOUS
 10
6.1303672762
 20
5.4576198968
 40
1.26095875
100
AcDbArc
 50
85.4513969665
 51
94.5486030335
  0
ARC
  5
37C
100
AcDbEntity
  8
0
100
AcDbCircle
 62
7
  6
CONTINUOUS
 10
6.1303672762
 20
5.4576198968
 40
1.26095875
100
AcDbArc
 50
55.4513969665
 51
64.5486030335
  0
ARC
  5
37D
100
AcDbEntity
  8
0
100
AcDbCircle
 62
7
  6
CONTINUOUS
 10
6.1303672762
 20
5.4576198968
 40
1.26095875
100
AcDbArc
 50
25.4513969665
 51
34.5486030335
  0
ARC
  5
37E
100
AcDbEntity
  8
0
100
AcDbCircle
 62
7
  6
CONTINUOUS
 10
6.1303672762
 20
5.4576198968
 40
1.26095875
100
AcDbArc
 50
205.4513969665
 51
207.1594398372
  0
ARC
  5
37F
100
AcDbEntity
  8
0
100
AcDbCircle
 62
7
  6
CONTINUOUS
 10
6.1303672762
 20
5.4576198968
 40
1.26095875
100
AcDbArc
 50
212.8415582263
 51
214.5486030335
  0
ARC
  5
380
100
AcDbEntity
  8
0
100
AcDbCircle
 62
7
  6
CONTINUOUS
 10
6.1303672762
 20
5.4576198968
 40
1.26095875
100
AcDbArc
 50
235.4513969665
 51
244.5486030335
  0
ARC
  5
381
100
AcDbEntity
  8
0
100
AcDbCircle
 62
7
  6
CONTINUOUS
 10
6.1303672762
 20
5.4576198968
 40
1.26095875
100
AcDbArc
 50
265.4513969665
 51
274.5486030335
  0
ARC
  5
382
100
AcDbEntity
  8
0
100
AcDbCircle
 62
7
  6
CONTINUOUS
 10
6.1303672762
 20
5.4576198968
 40
1.26095875
100
AcDbArc
 50
295.4513969665
 51
304.5486030335
  0
ARC
  5
383
100
AcDbEntity
  8
0
100
AcDbCircle
 62
7
  6
CONTINUOUS
 10
6.1303672762
 20
5.4576198968
 40
1.26095875
100
AcDbArc
 50
325.4513969665
 51
334.5486030335
  0
ARC
  5
384
100
AcDbEntity
  8
0
100
AcDbCircle
 62
7
  6
CONTINUOUS
 10
6.1303672762
 20
5.4576198968
 40
1.26095875
100
AcDbArc
 50
175.4513969665
 51
184.5486030335
  0
ARC
  5
385
100
AcDbEntity
  8
0
100
AcDbCircle
 62
7
  6
CONTINUOUS
 10
6.1303672762
 20
5.4576198968
 40
1.26095875
100
AcDbArc
 50
355.4513969665
 51
4.5486030335
  0
ARC
  5
386
100
AcDbEntity
  8
0
100
AcDbCircle
 62
7
  6
CONTINUOUS
 10
6.1303672762
 20
5.4576198968
 40
1.064375
100
AcDbArc
 50
144.6090046025
 51
155.3909953975
  0
ARC
  5
387
100
AcDbEntity
  8
0
100
AcDbCircle
 62
7
  6
CONTINUOUS
 10
6.1303672762
 20
5.4576198968
 40
1.064375
100
AcDbArc
 50
114.6090046025
 51
125.3909953975
  0
ARC
  5
388
100
AcDbEntity
  8
0
100
AcDbCircle
 62
7
  6
CONTINUOUS
 10
6.1303672762
 20
5.4576198968
 40
1.064375
100
AcDbArc
 50
84.6090046025
 51
95.3909953975
  0
ARC
  5
389
100
AcDbEntity
  8
0
100
AcDbCircle
 62
7
  6
CONTINUOUS
 10
6.1303672762
 20
5.4576198968
 40
1.064375
100
AcDbArc
 50
54.6090046025
 51
65.3909953975
  0
ARC
  5
38A
100
AcDbEntity
  8
0
100
AcDbCircle
 62
7
  6
CONTINUOUS
 10
6.1303672762
 20
5.4576198968
 40
1.064375
100
AcDbArc
 50
24.6090046025
 51
35.3909953975
  0
ARC
  5
38B
100
AcDbEntity
  8
0
100
AcDbCircle
 62
7
  6
CONTINUOUS
 10
6.1303672762
 20
5.4576198968
 40
1.064375
100
AcDbArc
 50
204.6090046025
 51
215.3909953975
  0
ARC
  5
38C
100
AcDbEntity
  8
0
100
AcDbCircle
 62
7
  6
CONTINUOUS
 10
6.1303672762
 20
5.4576198968
 40
1.064375
100
AcDbArc
 50
234.6090046025
 51
245.3909953975
  0
ARC
  5
38D
100
AcDbEntity
  8
0
100
AcDbCircle
 62
7
  6
CONTINUOUS
 10
6.1303672762
 20
5.4576198968
 40
1.064375
100
AcDbArc
 50
264.6090046025
 51
275.3909953975
  0
ARC
  5
38E
100
AcDbEntity
  8
0
100
AcDbCircle
 62
7
  6
CONTINUOUS
 10
6.1303672762
 20
5.4576198968
 40
1.064375
100
AcDbArc
 50
294.6090046025
 51
305.3909953975
  0
ARC
  5
38F
100
AcDbEntity
  8
0
100
AcDbCircle
 62
7
  6
CONTINUOUS
 10
6.1303672762
 20
5.4576198968
 40
1.064375
100
AcDbArc
 50
324.6090046025
 51
335.3909953975
  0
ARC
  5
390
100
AcDbEntity
  8
0
100
AcDbCircle
 62
7
  6
CONTINUOUS
 10
6.1303672762
 20
5.4576198968
 40
1.064375
100
AcDbArc
 50
174.6090046025
 51
185.3909953975
  0
ARC
  5
391
100
AcDbEntity
  8
0
100
AcDbCircle
 62
7
  6
CONTINUOUS
 10
6.1303672762
 20
5.4576198968
 40
1.064375
100
AcDbArc
 50
354.6090046025
 51
5.3909953975
  0
CIRCLE
  5
392
100
AcDbEntity
  8
0
100
AcDbCircle
 62
7
  6
CONTINUOUS
 10
6.1303672762
 20
5.4576198968
 40
0.984375
  0
CIRCLE
  5
393
100
AcDbEntity
  8
0
100
AcDbCircle
 62
7
  6
CONTINUOUS
 10
6.1303672762
 20
5.4576198968
 40
0.934375
  0
CIRCLE
  5
394
100
AcDbEntity
  8
0
100
AcDbCircle
 62
7
  6
CONTINUOUS
 10
6.1303672762
 20
5.4576198968
 40
0.59375
  0
CIRCLE
  5
395
100
AcDbEntity
  8
03__ASM_ALL_CURVES
100
AcDbCircle
 62
4
  6
CONTINUOUS
 10
6.1303672762
 20
5.4576198968
 40
0.5905511811
  0
CIRCLE
  5
396
100
AcDbEntity
  8
02__ASM_ALL_AXES
100
AcDbCircle
 62
8
  6
HIDDEN
 10
6.1303672762
 20
5.4576198968
 40
0.5
  0
ARC
  5
397
100
AcDbEntity
  8
0
100
AcDbCircle
 62
7
  6
CONTINUOUS
 10
9.2366172762
 20
4.5951198968
 40
0.05
100
AcDbArc
 50
0.0
 51
90.0
  0
ARC
  5
398
100
AcDbEntity
  8
0
100
AcDbCircle
 62
7
  6
CONTINUOUS
 10
9.1829688333
 20
4.7451198968
 40
0.025
100
AcDbArc
 50
0.0
 51
90.0
  0
ARC
  5
399
100
AcDbEntity
  8
0
100
AcDbCircle
 62
7
  6
CONTINUOUS
 10
8.0155787628
 20
7.4650318476
 40
0.9283106864
100
AcDbArc
 50
242.1741138219
 51
244.0444190019
  0
ARC
  5
39A
100
AcDbEntity
  8
0
100
AcDbCircle
 62
7
  6
CONTINUOUS
 10
8.1377792271
 20
7.3428313833
 40
0.9283106864
100
AcDbArc
 50
205.9555809981
 51
207.8258861781
  0
ARC
  5
39B
100
AcDbEntity
  8
0
100
AcDbCircle
 62
7
  6
CONTINUOUS
 10
7.7704669471
 20
6.6468845265
 40
0.1663246703
100
AcDbArc
 50
239.8072679421
 51
244.5054836335
  0
ARC
  5
39C
100
AcDbEntity
  8
0
100
AcDbCircle
 62
7
  6
CONTINUOUS
 10
7.6203659657
 20
7.2912120631
 40
0.125
100
AcDbArc
 50
236.166351158
 51
341.1717809882
  0
ARC
  5
39D
100
AcDbEntity
  8
0
100
AcDbCircle
 62
7
  6
CONTINUOUS
 10
7.9639594425
 20
6.9476185863
 40
0.125
100
AcDbArc
 50
108.8282190118
 51
213.8336488418
  0
ARC
  5
39E
100
AcDbEntity
  8
0
100
AcDbCircle
 62
7
  6
CONTINUOUS
 10
7.823861407
 20
7.2218247057
 40
0.09
100
AcDbArc
 50
45.0000000003
 51
161.1717809881
  0
ARC
  5
39F
100
AcDbEntity
  8
0
100
AcDbCircle
 62
7
  6
CONTINUOUS
 10
7.8945720851
 20
7.1511140276
 40
0.09
100
AcDbArc
 50
288.8282190118
 51
44.9999999997
  0
ARC
  5
3A0
100
AcDbEntity
  8
0
100
AcDbCircle
 62
7
  6
CONTINUOUS
 10
3.3307705267
 20
12.8656727814
 40
0.3375
100
AcDbArc
 50
90.619388808
 51
269.380611192
  0
ARC
  5
3A1
100
AcDbEntity
  8
0
100
AcDbCircle
 62
7
  6
CONTINUOUS
 10
3.9083720839
 20
12.8656727814
 40
0.3375
100
AcDbArc
 50
270.6193909645
 51
89.3806090355
  0
ARC
  5
3A2
100
AcDbEntity
  8
0
100
AcDbCircle
 62
7
  6
CONTINUOUS
 10
3.5708720839
 20
12.8656727814
 40
0.1875
100
AcDbArc
 50
90.0
 51
270.0
  0
ARC
  5
3A3
100
AcDbEntity
  8
0
100
AcDbCircle
 62
7
  6
CONTINUOUS
 10
3.8208720839
 20
12.8656727814
 40
0.1875
100
AcDbArc
 50
270.0
 51
90.0
  0
ARC
  5
3A4
100
AcDbEntity
  8
0
100
AcDbCircle
 62
7
  6
CONTINUOUS
 10
8.0756036366
 20
11.5021059877
 40
1.0331458546
100
AcDbArc
 50
187.8432991869
 51
189.0246270197
  0
ARC
  5
3A5
100
AcDbEntity
  8
0
100
AcDbCircle
 62
7
  6
CONTINUOUS
 10
8.0663351583
 20
11.4919696244
 40
1.0237604338
100
AcDbArc
 50
170.9758142037
 51
172.1525900422
  0
ARC
  5
3A6
100
AcDbEntity
  8
0
100
AcDbCircle
 62
7
  6
CONTINUOUS
 10
8.0647951798
 20
11.4918851365
 40
1.0222465165
100
AcDbArc
 50
172.1361140155
 51
173.5303457829
  0
ARC
  5
3A7
100
AcDbEntity
  8
0
100
AcDbCircle
 62
7
  6
CONTINUOUS
 10
8.056293238
 20
11.4995431812
 40
1.013666378
100
AcDbArc
 50
186.4215947886
 51
187.8487450781
  0
ARC
  5
3A8
100
AcDbEntity
  8
0
100
AcDbCircle
 62
7
  6
CONTINUOUS
 10
8.0210528279
 20
11.4963014233
 40
0.9782815053
100
AcDbArc
 50
173.4986845586
 51
186.4637629532
  0
CIRCLE
  5
3A9
100
AcDbEntity
  8
0
100
AcDbCircle
 62
7
  6
CONTINUOUS
 10
6.0708720839
 20
11.4962977814
 40
0.15625
  0
CIRCLE
  5
3AA
100
AcDbEntity
  8
0
100
AcDbCircle
 62
7
  6
CONTINUOUS
 10
6.0708720839
 20
11.4962977814
 40
0.11736443
  0
ARC
  5
3AB
100
AcDbEntity
  8
0
100
AcDbCircle
 62
7
  6
CONTINUOUS
 10
8.4293740823
 20
12.4221370618
 40
1.4408408325
100
AcDbArc
 50
145.3829804172
 51
147.4419195832
  0
ARC
  5
3AC
100
AcDbEntity
  8
0
100
AcDbCircle
 62
7
  6
CONTINUOUS
 10
8.3834852999
 20
13.2787344377
 40
1.3857642456
100
AcDbArc
 50
212.5171599339
 51
214.6579400657
  0
ARC
  5
3AD
100
AcDbEntity
  8
0
100
AcDbCircle
 62
7
  6
CONTINUOUS
 10
7.0452404863
 20
12.7323581597
 40
0.848643629
100
AcDbArc
 50
17.8581300344
 51
22.21144491
  0
ARC
  5
3AE
100
AcDbEntity
  8
0
100
AcDbCircle
 62
7
  6
CONTINUOUS
 10
7.0487378077
 20
12.9977079265
 40
0.8449221622
100
AcDbArc
 50
337.7792279495
 51
342.190455753
  0
ARC
  5
3AF
100
AcDbEntity
  8
0
100
AcDbCircle
 62
7
  6
CONTINUOUS
 10
8.810973641
 20
12.8656727814
 40
0.3375
100
AcDbArc
 50
270.619388808
 51
89.3806090355
  0
ARC
  5
3B0
100
AcDbEntity
  8
0
100
AcDbCircle
 62
7
  6
CONTINUOUS
 10
8.2333720839
 20
12.8656727814
 40
0.3375
100
AcDbArc
 50
193.1203543871
 51
269.3806090355
  0
ARC
  5
3B1
100
AcDbEntity
  8
0
100
AcDbCircle
 62
7
  6
CONTINUOUS
 10
8.2333720839
 20
12.8656727814
 40
0.3375
100
AcDbArc
 50
90.6193909645
 51
166.8636466915
  0
ARC
  5
3B2
100
AcDbEntity
  8
0
100
AcDbCircle
 62
7
  6
CONTINUOUS
 10
8.3208720839
 20
12.8656727814
 40
0.1875
100
AcDbArc
 50
90.0
 51
270.0
  0
ARC
  5
3B3
100
AcDbEntity
  8
0
100
AcDbCircle
 62
7
  6
CONTINUOUS
 10
8.5708720839
 20
12.8656727814
 40
0.1875
100
AcDbArc
 50
270.0
 51
90.0
  0
ARC
  5
3B4
100
AcDbEntity
  8
0
100
AcDbCircle
 62
7
  6
CONTINUOUS
 10
7.8031469487
 20
12.8831583478
 40
0.123343387
100
AcDbArc
 50
125.1859142498
 51
128.5926299063
  0
ARC
  5
3B5
100
AcDbEntity
  8
0
100
AcDbCircle
 62
7
  6
CONTINUOUS
 10
7.8030802389
 20
12.8481041213
 40
0.1232368288
100
AcDbArc
 50
231.4075134712
 51
234.9550107029
  0
ARC
  5
3B6
100
AcDbEntity
  8
0
100
AcDbCircle
 62
7
  6
CONTINUOUS
 10
16.2695159765
 20
7.7566267029
 40
1.4408408325
100
AcDbArc
 50
235.3829804171
 51
237.4419195832
  0
ARC
  5
3B7
100
AcDbEntity
  8
0
100
AcDbCircle
 62
7
  6
CONTINUOUS
 10
15.4129186007
 20
7.7107379205
 40
1.3857642455
100
AcDbArc
 50
302.5171599339
 51
304.6579400657
  0
ARC
  5
3B8
100
AcDbEntity
  8
0
100
AcDbCircle
 62
7
  6
CONTINUOUS
 10
14.4521919531
 20
7.3925109966
 40
1.0227066513
100
AcDbArc
 50
276.4562836756
 51
277.8579821283
  0
ARC
  5
3B9
100
AcDbEntity
  8
0
100
AcDbCircle
 62
7
  6
CONTINUOUS
 10
14.4600117308
 20
7.386779037
 40
1.0168909319
100
AcDbArc
 50
260.966929544
 51
262.1635762297
  0
ARC
  5
3BA
100
AcDbEntity
  8
0
100
AcDbCircle
 62
7
  6
CONTINUOUS
 10
14.4534393269
 20
7.3853410877
 40
1.0154335034
100
AcDbArc
 50
277.8435709429
 51
279.0324048665
  0
ARC
  5
3BB
100
AcDbEntity
  8
0
100
AcDbCircle
 62
7
  6
CONTINUOUS
 10
14.45998666
 20
7.3843145265
 40
1.014446066
100
AcDbArc
 50
262.146000373
 51
263.5648308984
  0
ARC
  5
3BC
100
AcDbEntity
  8
0
100
AcDbCircle
 62
7
  6
CONTINUOUS
 10
14.4566063991
 20
7.3483321661
 40
0.9783117955
100
AcDbArc
 50
263.5253632563
 51
276.4903247558
  0
ARC
  5
3BD
100
AcDbEntity
  8
0
100
AcDbCircle
 62
7
  6
CONTINUOUS
 10
15.9592948786
 20
6.3724931069
 40
0.848643629
100
AcDbArc
 50
107.8581300343
 51
112.21144491
  0
ARC
  5
3BE
100
AcDbEntity
  8
0
100
AcDbCircle
 62
7
  6
CONTINUOUS
 10
15.6939451118
 20
6.3759904283
 40
0.8449221622
100
AcDbArc
 50
67.7792279495
 51
72.190455753
  0
CIRCLE
  5
3BF
100
AcDbEntity
  8
0
100
AcDbCircle
 62
7
  6
CONTINUOUS
 10
14.4566052569
 20
5.3981247044
 40
0.15625
  0
ARC
  5
3C0
100
AcDbEntity
  8
0
100
AcDbCircle
 62
7
  6
CONTINUOUS
 10
15.8084946905
 20
7.1303995693
 40
0.123343387
100
AcDbArc
 50
215.1859142498
 51
218.5926299062
  0
ARC
  5
3C1
100
AcDbEntity
  8
0
100
AcDbCircle
 62
7
  6
CONTINUOUS
 10
15.843548917
 20
7.1303328595
 40
0.1232368288
100
AcDbArc
 50
321.4075134713
 51
324.9550107029
  0
CIRCLE
  5
3C2
100
AcDbEntity
  8
0
100
AcDbCircle
 62
7
  6
CONTINUOUS
 10
14.4566052569
 20
5.3981247044
 40
0.11736443
  0
ARC
  5
3C3
100
AcDbEntity
  8
0
100
AcDbCircle
 62
7
  6
CONTINUOUS
 10
16.8697302569
 20
7.2231247044
 40
0.05
100
AcDbArc
 50
0.0
 51
90.0
  0
ARC
  5
3C4
100
AcDbEntity
  8
0
100
AcDbCircle
 62
7
  6
CONTINUOUS
 10
14.7822302569
 20
7.2231247044
 40
0.05
100
AcDbArc
 50
90.0
 51
180.0000000002
  0
ARC
  5
3C5
100
AcDbEntity
  8
0
100
AcDbCircle
 62
7
  6
CONTINUOUS
 10
14.7822302569
 20
4.5356247044
 40
0.05
100
AcDbArc
 50
90.0
 51
180.0
  0
ARC
  5
3C6
100
AcDbEntity
  8
0
100
AcDbCircle
 62
7
  6
CONTINUOUS
 10
16.8697302569
 20
4.5356247044
 40
0.05
100
AcDbArc
 50
0.0
 51
90.0
  0
ARC
  5
3C7
100
AcDbEntity
  8
0
100
AcDbCircle
 62
7
  6
CONTINUOUS
 10
15.5134999777
 20
4.6856247044
 40
0.025
100
AcDbArc
 50
90.0
 51
180.0
  0
ARC
  5
3C8
100
AcDbEntity
  8
0
100
AcDbCircle
 62
7
  6
CONTINUOUS
 10
16.1384605362
 20
4.6856247044
 40
0.025
100
AcDbArc
 50
0.0572076205
 51
90.0
  0
ARC
  5
3C9
100
AcDbEntity
  8
0
100
AcDbCircle
 62
7
  6
CONTINUOUS
 10
14.4401897334
 20
10.3350902978
 40
3.0027293954
100
AcDbArc
 50
59.6323436436
 51
66.5994376227
  0
ARC
  5
3CA
100
AcDbEntity
  8
0
100
AcDbCircle
 62
7
  6
CONTINUOUS
 10
14.3736307229
 20
10.2168609411
 40
2.1961181342
100
AcDbArc
 50
69.2779369562
 51
74.4962134966
  0
ARC
  5
3CB
100
AcDbEntity
  8
0
100
AcDbCircle
 62
7
  6
CONTINUOUS
 10
14.9313037952
 20
14.6125133693
 40
1.9971877539
100
AcDbArc
 50
301.9198676428
 51
302.7767065446
  0
ARC
  5
3CC
100
AcDbEntity
  8
0
100
AcDbCircle
 62
7
  6
CONTINUOUS
 10
14.441148345
 20
10.4355005918
 40
1.8547369401
100
AcDbArc
 50
68.797271592
 51
74.9768788608
  0
ARC
  5
3CD
100
AcDbEntity
  8
0
100
AcDbCircle
 62
7
  6
CONTINUOUS
 10
14.4605394587
 20
10.4982434105
 40
1.8546561301
100
AcDbArc
 50
68.7971583125
 51
74.8757207844
  0
ARC
  5
3CE
100
AcDbEntity
  8
0
100
AcDbCircle
 62
7
  6
CONTINUOUS
 10
16.4332419671
 20
14.493052159
 40
1.6376204199
100
AcDbArc
 50
253.1375801931
 51
254.1975264089
  0
ARC
  5
3CF
100
AcDbEntity
  8
0
100
AcDbCircle
 62
7
  6
CONTINUOUS
 10
14.556259445
 20
10.516081904
 40
1.2932738507
100
AcDbArc
 50
52.7534226333
 51
55.3271620873
  0
ARC
  5
3D0
100
AcDbEntity
  8
0
100
AcDbCircle
 62
7
  6
CONTINUOUS
 10
16.3301204711
 20
13.9784555342
 40
1.1287965152
100
AcDbArc
 50
230.4842020989
 51
231.8439851313
  0
ARC
  5
3D1
100
AcDbEntity
  8
0
100
AcDbCircle
 62
7
  6
CONTINUOUS
 10
16.4418893676
 20
13.5241505363
 40
0.928652498
100
AcDbArc
 50
204.061880811
 51
206.6477272701
  0
ARC
  5
3D2
100
AcDbEntity
  8
0
100
AcDbCircle
 62
7
  6
CONTINUOUS
 10
14.547660833
 20
11.6134481453
 40
0.8355308652
100
AcDbArc
 50
219.5519060104
 51
222.4316096668
  0
ARC
  5
3D3
100
AcDbEntity
  8
0
100
AcDbCircle
 62
7
  6
CONTINUOUS
 10
15.0212640619
 20
11.4550425573
 40
0.8219758808
100
AcDbArc
 50
283.1992461679
 51
286.1060255651
  0
ARC
  5
3D4
100
AcDbEntity
  8
0
100
AcDbCircle
 62
7
  6
CONTINUOUS
 10
14.3367636482
 20
11.5197034535
 40
0.6142609137
100
AcDbArc
 50
206.2172326922
 51
210.8530521677
  0
ARC
  5
3D5
100
AcDbEntity
  8
0
100
AcDbCircle
 62
7
  6
CONTINUOUS
 10
15.6264144275
 20
11.4428508924
 40
0.4260712151
100
AcDbArc
 50
332.0984421509
 51
333.8626457876
  0
ARC
  5
3D6
100
AcDbEntity
  8
0
100
AcDbCircle
 62
7
  6
CONTINUOUS
 10
15.6320643439
 20
11.4400965979
 40
0.419785722
100
AcDbArc
 50
333.8604230768
 51
338.7092497783
  0
ARC
  5
3D7
100
AcDbEntity
  8
0
100
AcDbCircle
 62
7
  6
CONTINUOUS
 10
14.0031225607
 20
11.8741217854
 40
0.4176820198
100
AcDbArc
 50
152.0600651008
 51
162.8035942079
  0
ARC
  5
3D8
100
AcDbEntity
  8
0
100
AcDbCircle
 62
7
  6
CONTINUOUS
 10
15.6145940977
 20
11.3765061835
 40
0.4176820198
100
AcDbArc
 50
332.0600651008
 51
342.8035942079
  0
ARC
  5
3D9
100
AcDbEntity
  8
0
100
AcDbCircle
 62
7
  6
CONTINUOUS
 10
12.8428361071
 20
11.9416901842
 40
0.3672803224
100
AcDbArc
 50
90.5308766876
 51
91.8103411959
  0
ARC
  5
3DA
100
AcDbEntity
  8
0
100
AcDbCircle
 62
7
  6
CONTINUOUS
 10
15.4879771841
 20
11.4156782672
 40
0.3536361196
100
AcDbArc
 50
330.6100845734
 51
342.7923531689
  0
ARC
  5
3DB
100
AcDbEntity
  8
0
100
AcDbCircle
 62
7
  6
CONTINUOUS
 10
14.1297394744
 20
11.8349497017
 40
0.3536361196
100
AcDbArc
 50
150.6100845734
 51
162.7923531689
  0
ARC
  5
3DC
100
AcDbEntity
  8
0
100
AcDbCircle
 62
7
  6
CONTINUOUS
 10
14.1447558538
 20
11.8991928935
 40
0.3490153863
100
AcDbArc
 50
161.3247421565
 51
162.8284500155
  0
ARC
  5
3DD
100
AcDbEntity
  8
0
100
AcDbCircle
 62
7
  6
CONTINUOUS
 10
15.4102396345
 20
11.3970570228
 40
0.2875189419
100
AcDbArc
 50
340.3238444035
 51
342.8511565122
  0
ARC
  5
3DE
100
AcDbEntity
  8
0
100
AcDbCircle
 62
7
  6
CONTINUOUS
 10
12.7163045384
 20
11.9657448613
 40
0.2730962595
100
AcDbArc
 50
159.8111942932
 51
161.0901510469
  0
ARC
  5
3DF
100
AcDbEntity
  8
0
100
AcDbCircle
 62
7
  6
CONTINUOUS
 10
13.9374163857
 20
11.283443102
 40
0.2090383889
100
AcDbArc
 50
257.9429362063
 51
260.4414441226
  0
ARC
  5
3E0
100
AcDbEntity
  8
0
100
AcDbCircle
 62
7
  6
CONTINUOUS
 10
13.9369830104
 20
11.2808968381
 40
0.2064555119
100
AcDbArc
 50
260.4427033366
 51
261.2766942012
  0
ARC
  5
3E1
100
AcDbEntity
  8
0
100
AcDbCircle
 62
7
  6
CONTINUOUS
 10
14.3874544749
 20
11.9667754882
 40
0.0834005315
100
AcDbArc
 50
193.4614556216
 51
198.4867242846
  0
ARC
  5
3E2
100
AcDbEntity
  8
0
100
AcDbCircle
 62
7
  6
CONTINUOUS
 10
14.5185807578
 20
12.0312469333
 40
0.0830050242
100
AcDbArc
 50
31.6021233759
 51
40.961325056
  0
ARC
  5
3E3
100
AcDbEntity
  8
0
100
AcDbCircle
 62
7
  6
CONTINUOUS
 10
13.8916037183
 20
11.1920568736
 40
0.0681355503
100
AcDbArc
 50
222.1696161245
 51
225.8242519828
  0
ARC
  5
3E4
100
AcDbEntity
  8
0
100
AcDbCircle
 62
7
  6
CONTINUOUS
 10
15.6724598134
 20
11.3051754198
 40
0.06240623
100
AcDbArc
 50
218.7915484763
 51
221.3152857718
  0
ARC
  5
3E5
100
AcDbEntity
  8
0
100
AcDbCircle
 62
7
  6
CONTINUOUS
 10
15.6539332784
 20
11.5129684361
 40
0.0551921256
100
AcDbArc
 50
126.9318774384
 51
130.6627297585
  0
ARC
  5
3E6
100
AcDbEntity
  8
0
100
AcDbCircle
 62
7
  6
CONTINUOUS
 10
13.8272974288
 20
11.217112243
 40
0.0421948872
100
AcDbArc
 50
149.3333900921
 51
159.1591170699
  0
ARC
  5
3E7
100
AcDbEntity
  8
0
100
AcDbCircle
 62
7
  6
CONTINUOUS
 10
13.8289036781
 20
11.2158635458
 40
0.0419679629
100
AcDbArc
 50
150.5542289965
 51
159.5785413258
  0
ARC
  5
3E8
100
AcDbEntity
  8
0
100
AcDbCircle
 62
7
  6
CONTINUOUS
 10
13.8261112178
 20
11.2176179253
 40
0.0409064102
100
AcDbArc
 50
159.2299533863
 51
164.4179262102
  0
ARC
  5
3E9
100
AcDbEntity
  8
0
100
AcDbCircle
 62
7
  6
CONTINUOUS
 10
13.8278991195
 20
11.2162794365
 40
0.0408814506
100
AcDbArc
 50
159.6333897073
 51
162.8284479611
  0
ARC
  5
3EA
100
AcDbEntity
  8
0
100
AcDbCircle
 62
7
  6
CONTINUOUS
 10
13.8157536484
 20
11.1771282826
 40
0.0408368109
100
AcDbArc
 50
162.8313585256
 51
167.2807496095
  0
SPLINE
  5
3EB
100
AcDbEntity
  8
0
100
AcDbSpline
 62
7
  6
CONTINUOUS
 70
0
 71
3
 72
10
 73
6
 74
0
 42
0.0000001
 43
0.0000001
 44
0.0000000001
 40
0.0
 40
0.0
 40
0.0
 40
0.0
 40
0.261167293
 40
0.5149611352
 40
1.0
 40
1.0
 40
1.0
 40
1.0
 10
7.1500152546
 20
7.0896223477
 30
0.0
 10
7.1512762917
 20
7.0827578237
 30
0.0
 10
7.1541388057
 20
7.0692825911
 30
0.0
 10
7.1614969237
 20
7.0435883306
 30
0.0
 10
7.1693472868
 20
7.0252738997
 30
0.0
 10
7.1758710728
 20
7.0140731762
 30
0.0
  0
SPLINE
  5
3EC
100
AcDbEntity
  8
0
100
AcDbSpline
 62
7
  6
CONTINUOUS
 70
0
 71
3
 72
12
 73
8
 74
0
 42
0.0000001
 43
0.0000001
 44
0.0000000001
 40
0.0
 40
0.0
 40
0.0
 40
0.0
 40
0.261586553
 40
0.5143960677
 40
0.6378298568
 40
0.7596323422
 40
1.0
 40
1.0
 40
1.0
 40
1.0
 10
7.7901785847
 20
6.811253969
 30
0.0
 10
7.7998296154
 20
6.8086679831
 30
0.0
 10
7.8186264236
 20
6.8028508588
 30
0.0
 10
7.8410767257
 20
6.7932282079
 30
0.0
 10
7.8577330818
 20
6.7840044183
 30
0.0
 10
7.873260716
 20
6.7738390576
 30
0.0
 10
7.8839138298
 20
6.7648845071
 30
0.0
 10
7.8904057854
 20
6.7583925516
 30
0.0
  0
SPLINE
  5
3ED
100
AcDbEntity
  8
0
100
AcDbSpline
 62
7
  6
CONTINUOUS
 70
0
 71
3
 72
12
 73
8
 74
0
 42
0.0000001
 43
0.0000001
 44
0.0000000001
 40
0.0
 40
0.0
 40
0.0
 40
0.0
 40
0.2615783559
 40
0.5143855655
 40
0.6378200463
 40
0.7596268691
 40
1.0
 40
1.0
 40
1.0
 40
1.0
 10
7.9432672028
 20
6.6581653509
 30
0.0
 10
7.940681293
 20
6.6678160976
 30
0.0
 10
7.9348634176
 20
6.6866122845
 30
0.0
 10
7.9252423004
 20
6.7090627366
 30
0.0
 10
7.9160199846
 20
6.7257201543
 30
0.0
 10
7.9058522553
 20
6.7412467887
 30
0.0
 10
7.8968979012
 20
6.7519004357
 30
0.0
 10
7.8904057854
 20
6.7583925516
 30
0.0
  0
SPLINE
  5
3EE
100
AcDbEntity
  8
0
100
AcDbSpline
 62
7
  6
CONTINUOUS
 70
0
 71
3
 72
10
 73
6
 74
0
 42
0.0000001
 43
0.0000001
 44
0.0000000001
 40
0.0
 40
0.0
 40
0.0
 40
0.0
 40
0.487778006
 40
0.7409189442
 40
1.0
 40
1.0
 40
1.0
 40
1.0
 10
7.698876699
 20
6.4967554743
 30
0.0
 10
7.7086408111
 20
6.4920833296
 30
0.0
 10
7.7241276778
 20
6.486313932
 30
0.0
 10
7.7455778624
 20
6.480616085
 30
0.0
 10
7.7567150392
 20
6.4783066611
 30
0.0
 10
7.7623697271
 20
6.4772678752
 30
0.0
  0
SPLINE
  5
3EF
100
AcDbEntity
  8
0
100
AcDbSpline
 62
7
  6
CONTINUOUS
 70
0
 71
3
 72
9
 73
5
 74
0
 42
0.0000001
 43
0.0000001
 44
0.0000000001
 40
0.0
 40
0.0
 40
0.0
 40
0.0
 40
0.2537260698
 40
1.0
 40
1.0
 40
1.0
 40
1.0
 10
7.609281109
 20
6.6303564934
 30
0.0
 10
7.6097302562
 20
6.6279115363
 30
0.0
 10
7.6115961678
 20
6.618293543
 30
0.0
 10
7.6138711927
 20
6.6087518723
 30
0.0
 10
7.6158546203
 20
6.6017144515
 30
0.0
  0
SPLINE
  5
3F0
100
AcDbEntity
  8
0
100
AcDbSpline
 62
7
  6
CONTINUOUS
 70
0
 71
3
 72
9
 73
5
 74
0
 42
0.0000001
 43
0.0000001
 44
0.0000000001
 40
0.0
 40
0.0
 40
0.0
 40
0.0
 40
0.2462811183
 40
1.0
 40
1.0
 40
1.0
 40
1.0
 10
7.274461831
 20
6.9431072409
 30
0.0
 10
7.2767843241
 20
6.9424526691
 30
0.0
 10
7.2862503659
 20
6.9399221653
 30
0.0
 10
7.2958407462
 20
6.9378679913
 30
0.0
 10
7.3031038728
 20
6.9365337296
 30
0.0
  0
LINE
  5
3F1
100
AcDbEntity
  8
0
100
AcDbLine
 62
7
  6
CONTINUOUS
 10
8.873979545
 20
4.7701198968
 11
8.8741172508
 21
4.7451198968
  0
LINE
  5
3F2
100
AcDbEntity
  8
0
100
AcDbLine
 62
7
  6
CONTINUOUS
 10
8.2600828624
 20
4.7538568206
 11
8.2747971073
 21
4.749806287
  0
SPLINE
  5
3F3
100
AcDbEntity
  8
0
100
AcDbSpline
 62
7
  6
CONTINUOUS
 70
0
 71
3
 72
17
 73
13
 74
0
 42
0.0000001
 43
0.0000001
 44
0.0000000001
 40
0.0
 40
0.0
 40
0.0
 40
0.0
 40
0.1249170399
 40
0.2498656519
 40
0.3748416759
 40
0.4998447134
 40
0.6248681274
 40
0.7499173837
 40
0.8124147684
 40
0.874959392
 40
0.9375116706
 40
1.0
 40
1.0
 40
1.0
 40
1.0
 10
8.2747971073
 20
4.749806287
 30
0.0
 10
8.2754093007
 20
4.7496344333
 30
0.0
 10
8.2766733293
 20
4.7494496033
 30
0.0
 10
8.2784970724
 20
4.7488793487
 30
0.0
 10
8.2803390927
 20
4.7483817393
 30
0.0
 10
8.2821732609
 20
4.7478525242
 30
0.0
 10
8.2840067284
 20
4.7473196434
 30
0.0
 10
8.2855288563
 20
4.7468577479
 30
0.0
 10
8.2867407119
 20
4.7464643498
 30
0.0
 10
8.2876344849
 20
4.7461356633
 30
0.0
 10
8.2885500455
 20
4.7458300329
 30
0.0
 10
8.2890302412
 20
4.7453760376
 30
0.0
 10
8.2892188333
 20
4.7451198968
 30
0.0
  0
LINE
  5
3F4
100
AcDbEntity
  8
0
100
AcDbLine
 62
7
  6
CONTINUOUS
 10
3.3867550022
 20
4.7701198968
 11
3.3866173016
 21
4.7451198968
  0
SPLINE
  5
3F5
100
AcDbEntity
  8
0
100
AcDbSpline
 62
7
  6
CONTINUOUS
 70
0
 71
3
 72
16
 73
12
 74
0
 42
0.0000001
 43
0.0000001
 44
0.0000000001
 40
0.0
 40
0.0
 40
0.0
 40
0.0
 40
0.249829483
 40
0.499710122
 40
0.6246771245
 40
0.6871002243
 40
0.7495928977
 40
0.8122651943
 40
0.8747434754
 40
0.9373154021
 40
1.0
 40
1.0
 40
1.0
 40
1.0
 10
3.9811354433
 20
4.7485842428
 30
0.0
 10
3.9803114699
 20
4.7483525596
 30
0.0
 10
3.9786641688
 20
4.7478861378
 30
0.0
 10
3.9766106908
 20
4.7472832662
 30
0.0
 10
3.9751769326
 20
4.7468484506
 30
0.0
 10
3.9743639974
 20
4.7465799788
 30
0.0
 10
3.9737556331
 20
4.7463725126
 30
0.0
 10
3.9731441045
 20
4.7461750644
 30
0.0
 10
3.9725417493
 20
4.7459449323
 30
0.0
 10
3.9719878163
 20
4.745610583
 30
0.0
 10
3.9716643199
 20
4.745324867
 30
0.0
 10
3.971515719
 20
4.7451698197
 30
0.0
  0
LINE
  5
3F6
100
AcDbEntity
  8
0
100
AcDbLine
 62
7
  6
CONTINUOUS
 10
4.00065169
 20
4.7538568206
 11
3.9811354433
 21
4.7485842428
  0
SPLINE
  5
3F7
100
AcDbEntity
  8
0
100
AcDbSpline
 62
7
  6
CONTINUOUS
 70
0
 71
3
 72
10
 73
6
 74
0
 42
0.0000001
 43
0.0000001
 44
0.0000000001
 40
0.0
 40
0.0
 40
0.0
 40
0.0
 40
0.4960558288
 40
0.746702854
 40
1.0
 40
1.0
 40
1.0
 40
1.0
 10
7.431139931
 20
7.2176584059
 30
0.0
 10
7.4254703265
 20
7.2233280104
 30
0.0
 10
7.416274247
 20
7.2312312545
 30
0.0
 10
7.4029717133
 20
7.2404255916
 30
0.0
 10
7.3959691927
 20
7.2446012538
 30
0.0
 10
7.3923903088
 20
7.2465897063
 30
0.0
  0
SPLINE
  5
3F8
100
AcDbEntity
  8
0
100
AcDbSpline
 62
7
  6
CONTINUOUS
 70
0
 71
3
 72
10
 73
6
 74
0
 42
0.0000001
 43
0.0000001
 44
0.0000000001
 40
0.0
 40
0.0
 40
0.0
 40
0.0
 40
0.2429848498
 40
0.6160567497
 40
1.0
 40
1.0
 40
1.0
 40
1.0
 10
7.3923903088
 20
7.2465897063
 30
0.0
 10
7.3877091477
 20
7.2491905918
 30
0.0
 10
7.3755740162
 20
7.255312401
 30
0.0
 10
7.3550687726
 20
7.2634830374
 30
0.0
 10
7.3390861744
 20
7.2683297556
 30
0.0
 10
7.3309127303
 20
7.2705198234
 30
0.0
  0
SPLINE
  5
3F9
100
AcDbEntity
  8
0
100
AcDbSpline
 62
7
  6
CONTINUOUS
 70
0
 71
3
 72
12
 73
8
 74
0
 42
0.0000001
 43
0.0000001
 44
0.0000000001
 40
0.0
 40
0.0
 40
0.0
 40
0.0
 40
0.2615783559
 40
0.5143855655
 40
0.6378200463
 40
0.7596268691
 40
1.0
 40
1.0
 40
1.0
 40
1.0
 10
7.4840013484
 20
7.1174312052
 30
0.0
 10
7.4814154386
 20
7.127081952
 30
0.0
 10
7.4755975632
 20
7.1458781389
 30
0.0
 10
7.465976446
 20
7.168328591
 30
0.0
 10
7.4567541302
 20
7.1849860087
 30
0.0
 10
7.4465864009
 20
7.200512643
 30
0.0
 10
7.4376320468
 20
7.2111662901
 30
0.0
 10
7.431139931
 20
7.2176584059
 30
0.0
  0
SPLINE
  5
3FA
100
AcDbEntity
  8
0
100
AcDbSpline
 62
7
  6
CONTINUOUS
 70
0
 71
3
 72
12
 73
8
 74
0
 42
0.0000001
 43
0.0000001
 44
0.0000000001
 40
0.0
 40
0.0
 40
0.0
 40
0.0
 40
0.2499857905
 40
0.3750200303
 40
0.5000334335
 40
0.7500246169
 40
1.0
 40
1.0
 40
1.0
 40
1.0
 10
7.6607728582
 20
6.9880254788
 30
0.0
 10
7.6478229238
 20
7.0009754131
 30
0.0
 10
7.6275506915
 20
7.0195808506
 30
0.0
 10
7.5991026131
 20
7.0426697689
 30
0.0
 10
7.569778264
 20
7.0646398238
 30
0.0
 10
7.5316803048
 20
7.0901002314
 30
0.0
 10
7.5000342409
 20
7.1085813448
 30
0.0
 10
7.4840013484
 20
7.1174312052
 30
0.0
  0
SPLINE
  5
3FB
100
AcDbEntity
  8
0
100
AcDbSpline
 62
7
  6
CONTINUOUS
 70
0
 71
3
 72
12
 73
8
 74
0
 42
0.0000001
 43
0.0000001
 44
0.0000000001
 40
0.0
 40
0.0
 40
0.0
 40
0.0
 40
0.2499802725
 40
0.375009019
 40
0.5000228135
 40
0.7500189184
 40
1.0
 40
1.0
 40
1.0
 40
1.0
 10
7.6607728582
 20
6.9880254788
 30
0.0
 10
7.6737224991
 20
6.9750758378
 30
0.0
 10
7.6923276878
 20
6.9548044145
 30
0.0
 10
7.7154142446
 20
6.9263554663
 30
0.0
 10
7.7373855459
 20
6.8970321416
 30
0.0
 10
7.7628477632
 20
6.8589343721
 30
0.0
 10
7.7813285276
 20
6.8272872176
 30
0.0
 10
7.7901785847
 20
6.811253969
 30
0.0
  0
SPLINE
  5
3FC
100
AcDbEntity
  8
0
100
AcDbSpline
 62
7
  6
CONTINUOUS
 70
0
 71
3
 72
25
 73
21
 74
0
 42
0.0000001
 43
0.0000001
 44
0.0000000001
 40
0.0
 40
0.0
 40
0.0
 40
0.0
 40
0.0635385122
 40
0.1270663537
 40
0.190313866
 40
0.2532107013
 40
0.3158260592
 40
0.3782170256
 40
0.4404559343
 40
0.4715643949
 40
0.5026560009
 40
0.5647895977
 40
0.6269367896
 40
0.6890961942
 40
0.7202079269
 40
0.7513208272
 40
0.8135000911
 40
0.8756790481
 40
0.9378228835
 40
1.0
 40
1.0
 40
1.0
 40
1.0
 10
7.9250768928
 20
12.8656727814
 30
0.0
 10
7.9250768928
 20
12.8597300452
 30
0.0
 10
7.9244121832
 20
12.8478352469
 30
0.0
 10
7.9214485234
 20
12.8302475241
 30
0.0
 10
7.916516135
 20
12.813165124
 30
0.0
 10
7.9096415833
 20
12.7968580009
 30
0.0
 10
7.9008625412
 20
12.7815801943
 30
0.0
 10
7.8902518195
 20
12.7675870034
 30
0.0
 10
7.8799490841
 20
12.7572203602
 30
0.0
 10
7.8709248448
 20
12.7498571236
 30
0.0
 10
7.8614161408
 20
12.7431483848
 30
0.0
 10
7.8486595009
 20
12.7360723213
 30
0.0
 10
7.8322806111
 20
12.7299121506
 30
0.0
 10
7.8180030799
 20
12.7268754755
 30
0.0
 10
7.8064134781
 20
12.7257609249
 30
0.0
 10
7.7947707497
 20
12.7255199255
 30
0.0
 10
7.7802334925
 20
12.7268923799
 30
0.0
 10
7.7632470342
 20
12.7311349838
 30
0.0
 10
7.7470853454
 20
12.7378600642
 30
0.0
 10
7.7370764622
 20
12.7438708203
 30
0.0
 10
7.7323152528
 20
12.7472099554
 30
0.0
  0
SPLINE
  5
3FD
100
AcDbEntity
  8
0
100
AcDbSpline
 62
7
  6
CONTINUOUS
 70
0
 71
3
 72
24
 73
20
 74
0
 42
0.0000001
 43
0.0000001
 44
0.0000000001
 40
0.0
 40
0.0
 40
0.0
 40
0.0
 40
0.06214571
 40
0.1242646652
 40
0.1864139012
 40
0.2175141695
 40
0.248619183
 40
0.3107913406
 40
0.3729538918
 40
0.4351192637
 40
0.4972702733
 40
0.5594640692
 40
0.6217259155
 40
0.6841429382
 40
0.7467787926
 40
0.8096884575
 40
0.8729387531
 40
0.9364628679
 40
1.0
 40
1.0
 40
1.0
 40
1.0
 10
7.732072615
 20
12.9839652434
 30
0.0
 10
7.7368280299
 20
12.9873177885
 30
0.0
 10
7.7468282302
 20
12.9933567749
 30
0.0
 10
7.7629815467
 20
13.0001218161
 30
0.0
 10
7.7771438057
 20
13.0036967783
 30
0.0
 10
7.7886916107
 20
13.0052545858
 30
0.0
 10
7.800326734
 20
13.0059254055
 30
0.0
 10
7.8149180858
 20
13.0051130514
 30
0.0
 10
7.8320661154
 20
13.0014920613
 30
0.0
 10
7.848482371
 20
12.9953607168
 30
0.0
 10
7.8638157832
 20
12.9868770408
 30
0.0
 10
7.8777862077
 20
12.9762896143
 30
0.0
 10
7.8901697342
 20
12.9638532115
 30
0.0
 10
7.9008084177
 20
12.9498488445
 30
0.0
 10
7.9096088372
 20
12.9345563992
 30
0.0
 10
7.9164985394
 20
12.9182322404
 30
0.0
 10
7.9214415651
 20
12.9011328799
 30
0.0
 10
7.924411162
 20
12.8835278772
 30
0.0
 10
7.9250768928
 20
12.8716214316
 30
0.0
 10
7.9250768928
 20
12.8656727814
 30
0.0
  0
SPLINE
  5
3FE
100
AcDbEntity
  8
0
100
AcDbSpline
 62
7
  6
CONTINUOUS
 70
0
 71
3
 72
11
 73
7
 74
0
 42
0.0000001
 43
0.0000001
 44
0.0000000001
 40
0.0
 40
0.0
 40
0.0
 40
0.0
 40
0.254577763
 40
0.5068905799
 40
0.7557993574
 40
1.0
 40
1.0
 40
1.0
 40
1.0
 10
7.7306833923
 20
13.2406617812
 30
0.0
 10
7.7404642222
 20
13.2254729909
 30
0.0
 10
7.759484891
 20
13.1949337014
 30
0.0
 10
7.7860864561
 20
13.1483435652
 30
0.0
 10
7.8101538147
 20
13.1012146674
 30
0.0
 10
7.8243607872
 20
13.0692109636
 30
0.0
 10
7.8309105931
 20
13.0531672813
 30
0.0
  0
SPLINE
  5
3FF
100
AcDbEntity
  8
0
100
AcDbSpline
 62
7
  6
CONTINUOUS
 70
0
 71
3
 72
11
 73
7
 74
0
 42
0.0000001
 43
0.0000001
 44
0.0000000001
 40
0.0
 40
0.0
 40
0.0
 40
0.0
 40
0.2545843869
 40
0.5069015084
 40
0.7558051121
 40
1.0
 40
1.0
 40
1.0
 40
1.0
 10
7.7306833923
 20
12.4906837815
 30
0.0
 10
7.7404644752
 20
12.5058729646
 30
0.0
 10
7.7594862119
 20
12.5364125158
 30
0.0
 10
7.7860863035
 20
12.5830039559
 30
0.0
 10
7.8101541242
 20
12.6301320445
 30
0.0
 10
7.8243609425
 20
12.6621349797
 30
0.0
 10
7.8309105931
 20
12.6781782814
 30
0.0
  0
SPLINE
  5
400
100
AcDbEntity
  8
0
100
AcDbSpline
 62
7
  6
CONTINUOUS
 70
0
 71
3
 72
9
 73
5
 74
0
 42
0.0000001
 43
0.0000001
 44
0.0000000001
 40
0.0
 40
0.0
 40
0.0
 40
0.0
 40
0.4895192153
 40
1.0
 40
1.0
 40
1.0
 40
1.0
 10
7.0905200623
 20
12.8656727814
 30
0.0
 10
7.0931245039
 20
12.845119282
 30
0.0
 10
7.099885216
 20
12.8032963932
 30
0.0
 10
7.1101577723
 20
12.7621683949
 30
0.0
 10
7.1163758805
 20
12.7414775404
 30
0.0
  0
SPLINE
  5
401
100
AcDbEntity
  8
0
100
AcDbSpline
 62
7
  6
CONTINUOUS
 70
0
 71
3
 72
9
 73
5
 74
0
 42
0.0000001
 43
0.0000001
 44
0.0000000001
 40
0.0
 40
0.0
 40
0.0
 40
0.0
 40
0.5104811582
 40
1.0
 40
1.0
 40
1.0
 40
1.0
 10
7.1163758805
 20
12.9898680224
 30
0.0
 10
7.1101577677
 20
12.9691771528
 30
0.0
 10
7.0998852253
 20
12.9280491513
 30
0.0
 10
7.093124502
 20
12.886226265
 30
0.0
 10
7.0905200623
 20
12.8656727814
 30
0.0
  0
SPLINE
  5
402
100
AcDbEntity
  8
0
100
AcDbSpline
 62
7
  6
CONTINUOUS
 70
0
 71
3
 72
15
 73
11
 74
0
 42
0.0000001
 43
0.0000001
 44
0.0000000001
 40
0.0
 40
0.0
 40
0.0
 40
0.0
 40
0.1354937069
 40
0.2699497245
 40
0.4020761527
 40
0.5309525127
 40
0.6557318145
 40
0.7163908292
 40
0.7758144438
 40
1.0
 40
1.0
 40
1.0
 40
1.0
 10
7.4912728306
 20
12.8656727814
 30
0.0
 10
7.4912728306
 20
12.8561485698
 30
0.0
 10
7.4921517482
 20
12.8371614097
 30
0.0
 10
7.4960727953
 20
12.8091318136
 30
0.0
 10
7.5025440086
 20
12.7820515237
 30
0.0
 10
7.5114535967
 20
12.7563907063
 30
0.0
 10
7.5208692367
 20
12.7363516839
 30
0.0
 10
7.5295067836
 20
12.7214497187
 30
0.0
 10
7.5428480796
 20
12.7012688203
 30
0.0
 10
7.5564060783
 20
12.6861963359
 30
0.0
 10
7.5686126348
 20
12.6762297243
 30
0.0
  0
SPLINE
  5
403
100
AcDbEntity
  8
0
100
AcDbSpline
 62
7
  6
CONTINUOUS
 70
0
 71
3
 72
17
 73
13
 74
0
 42
0.0000001
 43
0.0000001
 44
0.0000000001
 40
0.0
 40
0.0
 40
0.0
 40
0.0
 40
0.1311891354
 40
0.2573247183
 40
0.3188963505
 40
0.3797231314
 40
0.5
 40
0.6202768686
 40
0.6811036495
 40
0.7426752817
 40
0.8688108646
 40
1.0
 40
1.0
 40
1.0
 40
1.0
 10
7.5686126348
 20
12.6762297243
 30
0.0
 10
7.5743227241
 20
12.6715674558
 30
0.0
 10
7.5862093979
 20
12.6632205589
 30
0.0
 10
7.6024189822
 20
12.655373832
 30
0.0
 10
7.615696281
 20
12.6509896385
 30
0.0
 10
7.6289886407
 20
12.6478771268
 30
0.0
 10
7.645952439
 20
12.6462930862
 30
0.0
 10
7.6629162372
 20
12.6478771268
 30
0.0
 10
7.6762085969
 20
12.6509896385
 30
0.0
 10
7.6894858957
 20
12.655373832
 30
0.0
 10
7.70569548
 20
12.6632205589
 30
0.0
 10
7.7175821538
 20
12.6715674558
 30
0.0
 10
7.7232922431
 20
12.6762297243
 30
0.0
  0
SPLINE
  5
404
100
AcDbEntity
  8
0
100
AcDbSpline
 62
7
  6
CONTINUOUS
 70
0
 71
3
 72
9
 73
5
 74
0
 42
0.0000001
 43
0.0000001
 44
0.0000000001
 40
0.0
 40
0.0
 40
0.0
 40
0.0
 40
0.4834645568
 40
1.0
 40
1.0
 40
1.0
 40
1.0
 10
7.7232922431
 20
12.6762297243
 30
0.0
 10
7.7321401614
 20
12.6834540193
 30
0.0
 10
7.7487936326
 20
12.7004783495
 30
0.0
 10
7.7619200364
 20
12.7202824697
 30
0.0
 10
7.7678232194
 20
12.7309637241
 30
0.0
  0
SPLINE
  5
405
100
AcDbEntity
  8
0
100
AcDbSpline
 62
7
  6
CONTINUOUS
 70
0
 71
3
 72
17
 73
13
 74
0
 42
0.0000001
 43
0.0000001
 44
0.0000000001
 40
0.0
 40
0.0
 40
0.0
 40
0.0
 40
0.1311891354
 40
0.2573247183
 40
0.3188963505
 40
0.3797231314
 40
0.5
 40
0.6202768686
 40
0.6811036495
 40
0.7426752817
 40
0.8688108646
 40
1.0
 40
1.0
 40
1.0
 40
1.0
 10
7.7232922431
 20
13.0551158384
 30
0.0
 10
7.7175821538
 20
13.0597781069
 30
0.0
 10
7.70569548
 20
13.0681250038
 30
0.0
 10
7.6894858957
 20
13.0759717307
 30
0.0
 10
7.6762085969
 20
13.0803559243
 30
0.0
 10
7.6629162372
 20
13.0834684359
 30
0.0
 10
7.645952439
 20
13.0850524765
 30
0.0
 10
7.6289886407
 20
13.0834684359
 30
0.0
 10
7.615696281
 20
13.0803559243
 30
0.0
 10
7.6024189822
 20
13.0759717307
 30
0.0
 10
7.5862093979
 20
13.0681250038
 30
0.0
 10
7.5743227241
 20
13.0597781069
 30
0.0
 10
7.5686126348
 20
13.0551158384
 30
0.0
  0
SPLINE
  5
406
100
AcDbEntity
  8
0
100
AcDbSpline
 62
7
  6
CONTINUOUS
 70
0
 71
3
 72
14
 73
10
 74
0
 42
0.0000001
 43
0.0000001
 44
0.0000000001
 40
0.0
 40
0.0
 40
0.0
 40
0.0
 40
0.0977962644
 40
0.1988270381
 40
0.3061709733
 40
0.4226415164
 40
0.5504773622
 40
0.6907738211
 40
1.0
 40
1.0
 40
1.0
 40
1.0
 10
8.1913572916
 20
11.7719227814
 30
0.0
 10
8.1936234088
 20
11.7719227814
 30
0.0
 10
8.1982473726
 20
11.7724626224
 30
0.0
 10
8.2049763866
 20
11.7748831537
 30
0.0
 10
8.2113871433
 20
11.7789360067
 30
0.0
 10
8.2172807693
 20
11.7846387139
 30
0.0
 10
8.2224144162
 20
11.7919902621
 30
0.0
 10
8.2279959673
 20
11.8042058715
 30
0.0
 10
8.229723641
 20
11.8147574486
 30
0.0
 10
8.229723641
 20
11.8219227814
 30
0.0
  0
SPLINE
  5
407
100
AcDbEntity
  8
0
100
AcDbSpline
 62
7
  6
CONTINUOUS
 70
0
 71
3
 72
14
 73
10
 74
0
 42
0.0000001
 43
0.0000001
 44
0.0000000001
 40
0.0
 40
0.0
 40
0.0
 40
0.0
 40
0.0977963434
 40
0.198827159
 40
0.3061710654
 40
0.422641592
 40
0.5504774512
 40
0.6907739763
 40
1.0
 40
1.0
 40
1.0
 40
1.0
 10
8.1913572916
 20
13.9594227814
 30
0.0
 10
8.1936234107
 20
13.9594227814
 30
0.0
 10
8.1982473772
 20
13.958882939
 30
0.0
 10
8.2049763931
 20
13.9564624067
 30
0.0
 10
8.2113871484
 20
13.9524095514
 30
0.0
 10
8.2172807733
 20
13.9467068444
 30
0.0
 10
8.22241442
 20
13.9393552941
 30
0.0
 10
8.2279959685
 20
13.9271396854
 30
0.0
 10
8.229723641
 20
13.9165881106
 30
0.0
 10
8.229723641
 20
13.9094227814
 30
0.0
  0
SPLINE
  5
408
100
AcDbEntity
  8
0
100
AcDbSpline
 62
7
  6
CONTINUOUS
 70
0
 71
3
 72
12
 73
8
 74
0
 42
0.0000001
 43
0.0000001
 44
0.0000000001
 40
0.0
 40
0.0
 40
0.0
 40
0.0
 40
0.260033886
 40
0.3875062306
 40
0.5132166758
 40
0.7596287699
 40
1.0
 40
1.0
 40
1.0
 40
1.0
 10
7.3716447387
 20
13.0531672813
 30
0.0
 10
7.3780390279
 20
13.0688300273
 30
0.0
 10
7.3868803132
 20
13.0924611555
 30
0.0
 10
7.3971606263
 20
13.1242324788
 30
0.0
 10
7.4062549114
 20
13.1554422251
 30
0.0
 10
7.4158019722
 20
13.1941508589
 30
0.0
 10
7.4218470954
 20
13.2252510491
 30
0.0
 10
7.4245061561
 20
13.2406617812
 30
0.0
  0
SPLINE
  5
409
100
AcDbEntity
  8
0
100
AcDbSpline
 62
7
  6
CONTINUOUS
 70
0
 71
3
 72
15
 73
11
 74
0
 42
0.0000001
 43
0.0000001
 44
0.0000000001
 40
0.0
 40
0.0
 40
0.0
 40
0.0
 40
0.1213254813
 40
0.2458153166
 40
0.372361797
 40
0.5
 40
0.627638203
 40
0.7541846834
 40
0.8786745187
 40
1.0
 40
1.0
 40
1.0
 40
1.0
 10
7.3716447387
 20
13.0531672813
 30
0.0
 10
7.3657769899
 20
13.038794291
 30
0.0
 10
7.355446961
 20
13.0090155118
 30
0.0
 10
7.3443499929
 20
12.9626064183
 30
0.0
 10
7.3376207758
 20
12.9145476584
 30
0.0
 10
7.3353707317
 20
12.8656727814
 30
0.0
 10
7.3376207758
 20
12.8167979043
 30
0.0
 10
7.3443499929
 20
12.7687391444
 30
0.0
 10
7.355446961
 20
12.722330051
 30
0.0
 10
7.3657769899
 20
12.6925512718
 30
0.0
 10
7.3716447387
 20
12.6781782814
 30
0.0
  0
SPLINE
  5
40A
100
AcDbEntity
  8
0
100
AcDbSpline
 62
7
  6
CONTINUOUS
 70
0
 71
3
 72
11
 73
7
 74
0
 42
0.0000001
 43
0.0000001
 44
0.0000000001
 40
0.0
 40
0.0
 40
0.0
 40
0.0
 40
0.254577763
 40
0.5068905799
 40
0.7557993574
 40
1.0
 40
1.0
 40
1.0
 40
1.0
 10
7.271417538
 20
12.8656727814
 30
0.0
 10
7.2811983678
 20
12.8808615716
 30
0.0
 10
7.3002190366
 20
12.9114008612
 30
0.0
 10
7.3268206017
 20
12.9579909973
 30
0.0
 10
7.3508879604
 20
13.0051198952
 30
0.0
 10
7.3650949328
 20
13.037123599
 30
0.0
 10
7.3716447387
 20
13.0531672813
 30
0.0
  0
SPLINE
  5
40B
100
AcDbEntity
  8
0
100
AcDbSpline
 62
7
  6
CONTINUOUS
 70
0
 71
3
 72
11
 73
7
 74
0
 42
0.0000001
 43
0.0000001
 44
0.0000000001
 40
0.0
 40
0.0
 40
0.0
 40
0.0
 40
0.2442003527
 40
0.4931093963
 40
0.7454225534
 40
1.0
 40
1.0
 40
1.0
 40
1.0
 10
7.3716447387
 20
12.6781782814
 30
0.0
 10
7.3650949405
 20
12.6942219449
 30
0.0
 10
7.3508883142
 20
12.7262258024
 30
0.0
 10
7.3268205685
 20
12.773354545
 30
0.0
 10
7.3002187256
 20
12.8199445318
 30
0.0
 10
7.2811983558
 20
12.8504840098
 30
0.0
 10
7.271417538
 20
12.8656727814
 30
0.0
  0
SPLINE
  5
40C
100
AcDbEntity
  8
0
100
AcDbSpline
 62
7
  6
CONTINUOUS
 70
0
 71
3
 72
12
 73
8
 74
0
 42
0.0000001
 43
0.0000001
 44
0.0000000001
 40
0.0
 40
0.0
 40
0.0
 40
0.0
 40
0.2403707007
 40
0.486783244
 40
0.6124942755
 40
0.7399667036
 40
1.0
 40
1.0
 40
1.0
 40
1.0
 10
7.4245061561
 20
12.4906837815
 30
0.0
 10
7.4218471013
 20
12.5060944795
 30
0.0
 10
7.4158023696
 20
12.53719474
 30
0.0
 10
7.4062550388
 20
12.5759033555
 30
0.0
 10
7.3971603718
 20
12.6071130635
 30
0.0
 10
7.3868800531
 20
12.638884385
 30
0.0
 10
7.3780390134
 20
12.6625155712
 30
0.0
 10
7.3716447387
 20
12.6781782814
 30
0.0
  0
SPLINE
  5
40D
100
AcDbEntity
  8
0
100
AcDbSpline
 62
7
  6
CONTINUOUS
 70
0
 71
3
 72
9
 73
5
 74
0
 42
0.0000001
 43
0.0000001
 44
0.0000000001
 40
0.0
 40
0.0
 40
0.0
 40
0.0
 40
0.2535394053
 40
1.0
 40
1.0
 40
1.0
 40
1.0
 10
7.8506626154
 20
12.73827209
 30
0.0
 10
7.8493386796
 20
12.7330901861
 30
0.0
 10
7.8437783046
 20
12.7127405126
 30
0.0
 10
7.8368621812
 20
12.6927566355
 30
0.0
 10
7.8309105931
 20
12.6781782814
 30
0.0
  0
SPLINE
  5
40E
100
AcDbEntity
  8
0
100
AcDbSpline
 62
7
  6
CONTINUOUS
 70
0
 71
3
 72
9
 73
5
 74
0
 42
0.0000001
 43
0.0000001
 44
0.0000000001
 40
0.0
 40
0.0
 40
0.0
 40
0.0
 40
0.2463408424
 40
1.0
 40
1.0
 40
1.0
 40
1.0
 10
7.8309105931
 20
13.0531672813
 30
0.0
 10
7.8328573516
 20
13.0483987162
 30
0.0
 10
7.8404130651
 20
13.0289007642
 30
0.0
 10
7.8466053719
 20
13.0088786191
 30
0.0
 10
7.8505237667
 20
12.9936156208
 30
0.0
  0
SPLINE
  5
40F
100
AcDbEntity
  8
0
100
AcDbSpline
 62
7
  6
CONTINUOUS
 70
0
 71
3
 72
17
 73
13
 74
0
 42
0.0000001
 43
0.0000001
 44
0.0000000001
 40
0.0
 40
0.0
 40
0.0
 40
0.0
 40
0.0551918861
 40
0.1106847669
 40
0.1666613533
 40
0.2233003148
 40
0.3392254215
 40
0.4599109181
 40
0.5861655067
 40
0.7183581784
 40
0.8565145575
 40
1.0
 40
1.0
 40
1.0
 40
1.0
 10
7.6012776659
 20
13.2406617812
 30
0.0
 10
7.6070589719
 20
13.2406617812
 30
0.0
 10
7.618660177
 20
13.2401205077
 30
0.0
 10
7.6359727856
 20
13.2377034517
 30
0.0
 10
7.6531446411
 20
13.2336914916
 30
0.0
 10
7.6759013836
 20
13.2261738006
 30
0.0
 10
7.7036984446
 20
13.2127287823
 30
0.0
 10
7.7349157314
 20
13.1907873242
 30
0.0
 10
7.7637925807
 20
13.1633307406
 30
0.0
 10
7.7898466476
 20
13.1308235139
 30
0.0
 10
7.8126454181
 20
13.0938411989
 30
0.0
 10
7.8252297924
 20
13.0670823442
 30
0.0
 10
7.8309105931
 20
13.0531672813
 30
0.0
  0
SPLINE
  5
410
100
AcDbEntity
  8
0
100
AcDbSpline
 62
7
  6
CONTINUOUS
 70
0
 71
3
 72
17
 73
13
 74
0
 42
0.0000001
 43
0.0000001
 44
0.0000000001
 40
0.0
 40
0.0
 40
0.0
 40
0.0
 40
0.1434854425
 40
0.2816418216
 40
0.4138344933
 40
0.5400890819
 40
0.6607745785
 40
0.7766996852
 40
0.8333386467
 40
0.8893152331
 40
0.9448081139
 40
1.0
 40
1.0
 40
1.0
 40
1.0
 10
7.3716447387
 20
13.0531672813
 30
0.0
 10
7.3773255393
 20
13.0670823442
 30
0.0
 10
7.3899099137
 20
13.0938411989
 30
0.0
 10
7.4127086842
 20
13.1308235139
 30
0.0
 10
7.438762751
 20
13.1633307406
 30
0.0
 10
7.4676396003
 20
13.1907873242
 30
0.0
 10
7.4988568871
 20
13.2127287823
 30
0.0
 10
7.5266539481
 20
13.2261738006
 30
0.0
 10
7.5494106906
 20
13.2336914916
 30
0.0
 10
7.5665825461
 20
13.2377034517
 30
0.0
 10
7.5838951547
 20
13.2401205077
 30
0.0
 10
7.5954963598
 20
13.2406617812
 30
0.0
 10
7.6012776659
 20
13.2406617812
 30
0.0
  0
SPLINE
  5
411
100
AcDbEntity
  8
0
100
AcDbSpline
 62
7
  6
CONTINUOUS
 70
0
 71
3
 72
17
 73
13
 74
0
 42
0.0000001
 43
0.0000001
 44
0.0000000001
 40
0.0
 40
0.0
 40
0.0
 40
0.0
 40
0.0551918861
 40
0.1106847669
 40
0.1666613533
 40
0.2233003148
 40
0.3392254215
 40
0.4599109181
 40
0.5861655067
 40
0.7183581784
 40
0.8565145575
 40
1.0
 40
1.0
 40
1.0
 40
1.0
 10
7.6012776659
 20
12.4906837815
 30
0.0
 10
7.5954963598
 20
12.4906837815
 30
0.0
 10
7.5838951547
 20
12.491225055
 30
0.0
 10
7.5665825461
 20
12.493642111
 30
0.0
 10
7.5494106906
 20
12.4976540711
 30
0.0
 10
7.5266539481
 20
12.5051717622
 30
0.0
 10
7.4988568871
 20
12.5186167805
 30
0.0
 10
7.4676396003
 20
12.5405582385
 30
0.0
 10
7.438762751
 20
12.5680148222
 30
0.0
 10
7.4127086842
 20
12.6005220488
 30
0.0
 10
7.3899099137
 20
12.6375043639
 30
0.0
 10
7.3773255393
 20
12.6642632186
 30
0.0
 10
7.3716447387
 20
12.6781782814
 30
0.0
  0
SPLINE
  5
412
100
AcDbEntity
  8
0
100
AcDbSpline
 62
7
  6
CONTINUOUS
 70
0
 71
3
 72
17
 73
13
 74
0
 42
0.0000001
 43
0.0000001
 44
0.0000000001
 40
0.0
 40
0.0
 40
0.0
 40
0.0
 40
0.1434854425
 40
0.2816418216
 40
0.4138344933
 40
0.5400890819
 40
0.6607745785
 40
0.7766996852
 40
0.8333386467
 40
0.8893152331
 40
0.9448081139
 40
1.0
 40
1.0
 40
1.0
 40
1.0
 10
7.8309105931
 20
12.6781782814
 30
0.0
 10
7.8252297924
 20
12.6642632186
 30
0.0
 10
7.8126454181
 20
12.6375043639
 30
0.0
 10
7.7898466476
 20
12.6005220488
 30
0.0
 10
7.7637925807
 20
12.5680148222
 30
0.0
 10
7.7349157314
 20
12.5405582385
 30
0.0
 10
7.7036984446
 20
12.5186167805
 30
0.0
 10
7.6759013836
 20
12.5051717622
 30
0.0
 10
7.6531446411
 20
12.4976540711
 30
0.0
 10
7.6359727856
 20
12.493642111
 30
0.0
 10
7.618660177
 20
12.491225055
 30
0.0
 10
7.6070589719
 20
12.4906837815
 30
0.0
 10
7.6012776659
 20
12.4906837815
 30
0.0
  0
SPLINE
  5
413
100
AcDbEntity
  8
0
100
AcDbSpline
 62
7
  6
CONTINUOUS
 70
0
 71
3
 72
9
 73
5
 74
0
 42
0.0000001
 43
0.0000001
 44
0.0000000001
 40
0.0
 40
0.0
 40
0.0
 40
0.0
 40
0.5165374083
 40
1.0
 40
1.0
 40
1.0
 40
1.0
 10
7.7678281122
 20
13.000372985
 30
0.0
 10
7.7619245469
 20
13.0110560633
 30
0.0
 10
7.7487969956
 20
13.0308635081
 30
0.0
 10
7.7321413831
 20
13.0478905459
 30
0.0
 10
7.7232922431
 20
13.0551158384
 30
0.0
  0
SPLINE
  5
414
100
AcDbEntity
  8
0
100
AcDbSpline
 62
7
  6
CONTINUOUS
 70
0
 71
3
 72
14
 73
10
 74
0
 42
0.0000001
 43
0.0000001
 44
0.0000000001
 40
0.0
 40
0.0
 40
0.0
 40
0.0
 40
0.3092267039
 40
0.4495231013
 40
0.5773588668
 40
0.693829472
 40
0.8011732592
 40
0.9022038463
 40
1.0
 40
1.0
 40
1.0
 40
1.0
 10
3.9120205267
 20
13.9094227814
 30
0.0
 10
3.9120205267
 20
13.9165881263
 30
0.0
 10
3.9137482053
 20
13.9271397145
 30
0.0
 10
3.9193297673
 20
13.9393553288
 30
0.0
 10
3.9244634188
 20
13.9467068712
 30
0.0
 10
3.9303570447
 20
13.9524095733
 30
0.0
 10
3.9367678005
 20
13.9564624151
 30
0.0
 10
3.9434968044
 20
13.9588829429
 30
0.0
 10
3.9481207615
 20
13.9594227814
 30
0.0
 10
3.9503868761
 20
13.9594227814
 30
0.0
  0
SPLINE
  5
415
100
AcDbEntity
  8
0
100
AcDbSpline
 62
7
  6
CONTINUOUS
 70
0
 71
3
 72
14
 73
10
 74
0
 42
0.0000001
 43
0.0000001
 44
0.0000000001
 40
0.0
 40
0.0
 40
0.0
 40
0.0
 40
0.309226704
 40
0.4495231013
 40
0.5773588668
 40
0.693829472
 40
0.8011732592
 40
0.9022038463
 40
1.0
 40
1.0
 40
1.0
 40
1.0
 10
3.9120205267
 20
11.8219227814
 30
0.0
 10
3.9120205267
 20
11.8147574365
 30
0.0
 10
3.9137482053
 20
11.8042058482
 30
0.0
 10
3.9193297673
 20
11.7919902339
 30
0.0
 10
3.9244634188
 20
11.7846386916
 30
0.0
 10
3.9303570447
 20
11.7789359895
 30
0.0
 10
3.9367678005
 20
11.7748831476
 30
0.0
 10
3.9434968044
 20
11.7724626198
 30
0.0
 10
3.9481207615
 20
11.7719227814
 30
0.0
 10
3.9503868761
 20
11.7719227814
 30
0.0
  0
SPLINE
  5
416
100
AcDbEntity
  8
0
100
AcDbSpline
 62
7
  6
CONTINUOUS
 70
0
 71
3
 72
15
 73
11
 74
0
 42
0.0000001
 43
0.0000001
 44
0.0000000001
 40
0.0
 40
0.0
 40
0.0
 40
0.0
 40
0.2241855562
 40
0.2836091708
 40
0.3442681855
 40
0.4690474873
 40
0.5979238473
 40
0.7300502755
 40
0.8645062931
 40
1.0
 40
1.0
 40
1.0
 40
1.0
 10
7.5686126348
 20
13.0551158384
 30
0.0
 10
7.5564060783
 20
13.0451492269
 30
0.0
 10
7.5428480796
 20
13.0300767424
 30
0.0
 10
7.5295067836
 20
13.009895844
 30
0.0
 10
7.5208692367
 20
12.9949938789
 30
0.0
 10
7.5114535967
 20
12.9749548565
 30
0.0
 10
7.5025440086
 20
12.949294039
 30
0.0
 10
7.4960727953
 20
12.9222137491
 30
0.0
 10
7.4921517482
 20
12.894184153
 30
0.0
 10
7.4912728306
 20
12.8751969929
 30
0.0
 10
7.4912728306
 20
12.8656727814
 30
0.0
  0
SPLINE
  5
417
100
AcDbEntity
  8
0
100
AcDbSpline
 62
7
  6
CONTINUOUS
 70
0
 71
3
 72
24
 73
20
 74
0
 42
0.0000001
 43
0.0000001
 44
0.0000000001
 40
0.0
 40
0.0
 40
0.0
 40
0.0
 40
0.06214571
 40
0.1242646652
 40
0.1864139012
 40
0.2175141695
 40
0.248619183
 40
0.3107913406
 40
0.3729538918
 40
0.4351192637
 40
0.4972702733
 40
0.5594640692
 40
0.6217259155
 40
0.6841429382
 40
0.7467787926
 40
0.8096884575
 40
0.8729387531
 40
0.9364628679
 40
1.0
 40
1.0
 40
1.0
 40
1.0
 10
15.7076877949
 20
7.0593252356
 30
0.0
 10
15.7043352498
 20
7.0640806505
 30
0.0
 10
15.6982962634
 20
7.0740808508
 30
0.0
 10
15.6915312222
 20
7.0902341673
 30
0.0
 10
15.68795626
 20
7.1043964263
 30
0.0
 10
15.6863984525
 20
7.1159442313
 30
0.0
 10
15.6857276328
 20
7.1275793546
 30
0.0
 10
15.6865399869
 20
7.1421707064
 30
0.0
 10
15.690160977
 20
7.159318736
 30
0.0
 10
15.6962923215
 20
7.1757349916
 30
0.0
 10
15.7047759975
 20
7.1910684038
 30
0.0
 10
15.715363424
 20
7.2050388283
 30
0.0
 10
15.7277998268
 20
7.2174223548
 30
0.0
 10
15.7418041938
 20
7.2280610383
 30
0.0
 10
15.7570966391
 20
7.2368614578
 30
0.0
 10
15.7734207979
 20
7.24375116
 30
0.0
 10
15.7905201584
 20
7.2486941857
 30
0.0
 10
15.8081251611
 20
7.2516637826
 30
0.0
 10
15.8200316067
 20
7.2523295134
 30
0.0
 10
15.8259802569
 20
7.2523295134
 30
0.0
  0
SPLINE
  5
418
100
AcDbEntity
  8
0
100
AcDbSpline
 62
7
  6
CONTINUOUS
 70
0
 71
3
 72
25
 73
21
 74
0
 42
0.0000001
 43
0.0000001
 44
0.0000000001
 40
0.0
 40
0.0
 40
0.0
 40
0.0
 40
0.0635385122
 40
0.1270663537
 40
0.190313866
 40
0.2532107013
 40
0.3158260592
 40
0.3782170256
 40
0.4404559343
 40
0.4715643949
 40
0.5026560009
 40
0.5647895977
 40
0.6269367896
 40
0.6890961942
 40
0.7202079269
 40
0.7513208272
 40
0.8135000911
 40
0.8756790481
 40
0.9378228835
 40
1.0
 40
1.0
 40
1.0
 40
1.0
 10
15.8259802569
 20
7.2523295134
 30
0.0
 10
15.8319229931
 20
7.2523295134
 30
0.0
 10
15.8438177914
 20
7.2516648038
 30
0.0
 10
15.8614055142
 20
7.2487011439
 30
0.0
 10
15.8784879143
 20
7.2437687556
 30
0.0
 10
15.8947950374
 20
7.2368942039
 30
0.0
 10
15.910072844
 20
7.2281151617
 30
0.0
 10
15.9240660349
 20
7.2175044401
 30
0.0
 10
15.9344326781
 20
7.2072017047
 30
0.0
 10
15.9417959147
 20
7.1981774654
 30
0.0
 10
15.9485046535
 20
7.1886687613
 30
0.0
 10
15.955580717
 20
7.1759121214
 30
0.0
 10
15.9617408877
 20
7.1595332317
 30
0.0
 10
15.9647775628
 20
7.1452557005
 30
0.0
 10
15.9658921134
 20
7.1336660987
 30
0.0
 10
15.9661331128
 20
7.1220233703
 30
0.0
 10
15.9647606584
 20
7.1074861131
 30
0.0
 10
15.9605180545
 20
7.0904996548
 30
0.0
 10
15.9537929741
 20
7.074337966
 30
0.0
 10
15.947782218
 20
7.0643290828
 30
0.0
 10
15.9444430829
 20
7.0595678734
 30
0.0
  0
SPLINE
  5
419
100
AcDbEntity
  8
0
100
AcDbSpline
 62
7
  6
CONTINUOUS
 70
0
 71
3
 72
11
 73
7
 74
0
 42
0.0000001
 43
0.0000001
 44
0.0000000001
 40
0.0
 40
0.0
 40
0.0
 40
0.0
 40
0.2442003527
 40
0.4931093963
 40
0.7454225534
 40
1.0
 40
1.0
 40
1.0
 40
1.0
 10
16.0134747569
 20
7.1581632136
 30
0.0
 10
16.0295184203
 20
7.1516134155
 30
0.0
 10
16.0615222778
 20
7.1374067892
 30
0.0
 10
16.1086510204
 20
7.1133390435
 30
0.0
 10
16.1552410072
 20
7.0867372006
 30
0.0
 10
16.1857804852
 20
7.0677168307
 30
0.0
 10
16.2009692568
 20
7.0579360129
 30
0.0
  0
SPLINE
  5
41A
100
AcDbEntity
  8
0
100
AcDbSpline
 62
7
  6
CONTINUOUS
 70
0
 71
3
 72
11
 73
7
 74
0
 42
0.0000001
 43
0.0000001
 44
0.0000000001
 40
0.0
 40
0.0
 40
0.0
 40
0.0
 40
0.254577763
 40
0.5068905799
 40
0.7557993574
 40
1.0
 40
1.0
 40
1.0
 40
1.0
 10
15.4509912571
 20
7.0579360129
 30
0.0
 10
15.4661800474
 20
7.0677168428
 30
0.0
 10
15.4967193369
 20
7.0867375115
 30
0.0
 10
15.5433094731
 20
7.1133390767
 30
0.0
 10
15.5904383709
 20
7.1374064353
 30
0.0
 10
15.6224420747
 20
7.1516134078
 30
0.0
 10
15.638485757
 20
7.1581632136
 30
0.0
  0
SPLINE
  5
41B
100
AcDbEntity
  8
0
100
AcDbSpline
 62
7
  6
CONTINUOUS
 70
0
 71
3
 72
9
 73
5
 74
0
 42
0.0000001
 43
0.0000001
 44
0.0000000001
 40
0.0
 40
0.0
 40
0.0
 40
0.0
 40
0.4895192153
 40
1.0
 40
1.0
 40
1.0
 40
1.0
 10
15.8259802569
 20
6.4177726829
 30
0.0
 10
15.8465337563
 20
6.4203771245
 30
0.0
 10
15.8883566451
 20
6.4271378366
 30
0.0
 10
15.9294846434
 20
6.4374103928
 30
0.0
 10
15.9501754979
 20
6.4436285011
 30
0.0
  0
SPLINE
  5
41C
100
AcDbEntity
  8
0
100
AcDbSpline
 62
7
  6
CONTINUOUS
 70
0
 71
3
 72
9
 73
5
 74
0
 42
0.0000001
 43
0.0000001
 44
0.0000000001
 40
0.0
 40
0.0
 40
0.0
 40
0.0
 40
0.5104811582
 40
1.0
 40
1.0
 40
1.0
 40
1.0
 10
15.7017850159
 20
6.4436285011
 30
0.0
 10
15.7224758855
 20
6.4374103883
 30
0.0
 10
15.763603887
 20
6.4271378459
 30
0.0
 10
15.8054267733
 20
6.4203771225
 30
0.0
 10
15.8259802569
 20
6.4177726829
 30
0.0
  0
SPLINE
  5
41D
100
AcDbEntity
  8
0
100
AcDbSpline
 62
7
  6
CONTINUOUS
 70
0
 71
3
 72
9
 73
5
 74
0
 42
0.0000001
 43
0.0000001
 44
0.0000000001
 40
0.0
 40
0.0
 40
0.0
 40
0.0
 40
0.4834645568
 40
1.0
 40
1.0
 40
1.0
 40
1.0
 10
16.015423314
 20
7.0505448637
 30
0.0
 10
16.008199019
 20
7.059392782
 30
0.0
 10
15.9911746888
 20
7.0760462532
 30
0.0
 10
15.9713705686
 20
7.089172657
 30
0.0
 10
15.9606893142
 20
7.09507584
 30
0.0
  0
SPLINE
  5
41E
100
AcDbEntity
  8
0
100
AcDbSpline
 62
7
  6
CONTINUOUS
 70
0
 71
3
 72
9
 73
5
 74
0
 42
0.0000001
 43
0.0000001
 44
0.0000000001
 40
0.0
 40
0.0
 40
0.0
 40
0.0
 40
0.5165374083
 40
1.0
 40
1.0
 40
1.0
 40
1.0
 10
15.6912800533
 20
7.0950807328
 30
0.0
 10
15.680596975
 20
7.0891771675
 30
0.0
 10
15.6607895302
 20
7.0760496162
 30
0.0
 10
15.6437624924
 20
7.0593940037
 30
0.0
 10
15.6365371999
 20
7.0505448637
 30
0.0
  0
SPLINE
  5
41F
100
AcDbEntity
  8
0
100
AcDbSpline
 62
7
  6
CONTINUOUS
 70
0
 71
3
 72
17
 73
13
 74
0
 42
0.0000001
 43
0.0000001
 44
0.0000000001
 40
0.0
 40
0.0
 40
0.0
 40
0.0
 40
0.1311891354
 40
0.2573247183
 40
0.3188963505
 40
0.3797231314
 40
0.5
 40
0.6202768686
 40
0.6811036495
 40
0.7426752817
 40
0.8688108646
 40
1.0
 40
1.0
 40
1.0
 40
1.0
 10
15.6365371999
 20
7.0505448637
 30
0.0
 10
15.6318749314
 20
7.0448347743
 30
0.0
 10
15.6235280345
 20
7.0329481006
 30
0.0
 10
15.6156813076
 20
7.0167385163
 30
0.0
 10
15.611297114
 20
7.0034612174
 30
0.0
 10
15.6081846024
 20
6.9901688578
 30
0.0
 10
15.6066005618
 20
6.9732050595
 30
0.0
 10
15.6081846024
 20
6.9562412613
 30
0.0
 10
15.611297114
 20
6.9429489016
 30
0.0
 10
15.6156813076
 20
6.9296716028
 30
0.0
 10
15.6235280345
 20
6.9134620185
 30
0.0
 10
15.6318749314
 20
6.9015753447
 30
0.0
 10
15.6365371999
 20
6.8958652553
 30
0.0
  0
SPLINE
  5
420
100
AcDbEntity
  8
0
100
AcDbSpline
 62
7
  6
CONTINUOUS
 70
0
 71
3
 72
15
 73
11
 74
0
 42
0.0000001
 43
0.0000001
 44
0.0000000001
 40
0.0
 40
0.0
 40
0.0
 40
0.0
 40
0.2241855562
 40
0.2836091708
 40
0.3442681855
 40
0.4690474873
 40
0.5979238473
 40
0.7300502755
 40
0.8645062931
 40
1.0
 40
1.0
 40
1.0
 40
1.0
 10
15.6365371999
 20
6.8958652553
 30
0.0
 10
15.6465038114
 20
6.8836586989
 30
0.0
 10
15.6615762959
 20
6.8701007001
 30
0.0
 10
15.6817571943
 20
6.8567594042
 30
0.0
 10
15.6966591594
 20
6.8481218573
 30
0.0
 10
15.7166981818
 20
6.8387062173
 30
0.0
 10
15.7423589993
 20
6.8297966292
 30
0.0
 10
15.7694392892
 20
6.8233254159
 30
0.0
 10
15.7974688853
 20
6.8194043688
 30
0.0
 10
15.8164560454
 20
6.8185254512
 30
0.0
 10
15.8259802569
 20
6.8185254512
 30
0.0
  0
SPLINE
  5
421
100
AcDbEntity
  8
0
100
AcDbSpline
 62
7
  6
CONTINUOUS
 70
0
 71
3
 72
17
 73
13
 74
0
 42
0.0000001
 43
0.0000001
 44
0.0000000001
 40
0.0
 40
0.0
 40
0.0
 40
0.0
 40
0.1311891354
 40
0.2573247183
 40
0.3188963505
 40
0.3797231314
 40
0.5
 40
0.6202768686
 40
0.6811036495
 40
0.7426752817
 40
0.8688108646
 40
1.0
 40
1.0
 40
1.0
 40
1.0
 10
16.015423314
 20
6.8958652553
 30
0.0
 10
16.0200855825
 20
6.9015753447
 30
0.0
 10
16.0284324794
 20
6.9134620185
 30
0.0
 10
16.0362792063
 20
6.9296716028
 30
0.0
 10
16.0406633998
 20
6.9429489016
 30
0.0
 10
16.0437759115
 20
6.9562412613
 30
0.0
 10
16.0453599521
 20
6.9732050595
 30
0.0
 10
16.0437759115
 20
6.9901688578
 30
0.0
 10
16.0406633998
 20
7.0034612174
 30
0.0
 10
16.0362792063
 20
7.0167385163
 30
0.0
 10
16.0284324794
 20
7.0329481006
 30
0.0
 10
16.0200855825
 20
7.0448347743
 30
0.0
 10
16.015423314
 20
7.0505448637
 30
0.0
  0
SPLINE
  5
422
100
AcDbEntity
  8
0
100
AcDbSpline
 62
7
  6
CONTINUOUS
 70
0
 71
3
 72
11
 73
7
 74
0
 42
0.0000001
 43
0.0000001
 44
0.0000000001
 40
0.0
 40
0.0
 40
0.0
 40
0.0
 40
0.254577763
 40
0.5068905799
 40
0.7557993574
 40
1.0
 40
1.0
 40
1.0
 40
1.0
 10
15.8259802569
 20
6.5986701586
 30
0.0
 10
15.8107914667
 20
6.6084509884
 30
0.0
 10
15.7802521771
 20
6.6274716572
 30
0.0
 10
15.733662041
 20
6.6540732223
 30
0.0
 10
15.6865331431
 20
6.6781405809
 30
0.0
 10
15.6545294393
 20
6.6923475534
 30
0.0
 10
15.638485757
 20
6.6988973593
 30
0.0
  0
SPLINE
  5
423
100
AcDbEntity
  8
0
100
AcDbSpline
 62
7
  6
CONTINUOUS
 70
0
 71
3
 72
11
 73
7
 74
0
 42
0.0000001
 43
0.0000001
 44
0.0000000001
 40
0.0
 40
0.0
 40
0.0
 40
0.0
 40
0.2442003527
 40
0.4931093963
 40
0.7454225534
 40
1.0
 40
1.0
 40
1.0
 40
1.0
 10
16.0134747569
 20
6.6988973593
 30
0.0
 10
15.9974310934
 20
6.6923475611
 30
0.0
 10
15.9654272359
 20
6.6781409348
 30
0.0
 10
15.9182984933
 20
6.6540731891
 30
0.0
 10
15.8717085065
 20
6.6274713462
 30
0.0
 10
15.8411690285
 20
6.6084509764
 30
0.0
 10
15.8259802569
 20
6.5986701586
 30
0.0
  0
SPLINE
  5
424
100
AcDbEntity
  8
0
100
AcDbSpline
 62
7
  6
CONTINUOUS
 70
0
 71
3
 72
12
 73
8
 74
0
 42
0.0000001
 43
0.0000001
 44
0.0000000001
 40
0.0
 40
0.0
 40
0.0
 40
0.0
 40
0.2403707007
 40
0.486783244
 40
0.6124942755
 40
0.7399667036
 40
1.0
 40
1.0
 40
1.0
 40
1.0
 10
16.2009692568
 20
6.7517587767
 30
0.0
 10
16.1855585588
 20
6.7490997219
 30
0.0
 10
16.1544582983
 20
6.7430549902
 30
0.0
 10
16.1157496828
 20
6.7335076593
 30
0.0
 10
16.0845399748
 20
6.7244129924
 30
0.0
 10
16.0527686533
 20
6.7141326737
 30
0.0
 10
16.0291374671
 20
6.7052916339
 30
0.0
 10
16.0134747569
 20
6.6988973593
 30
0.0
  0
SPLINE
  5
425
100
AcDbEntity
  8
0
100
AcDbSpline
 62
7
  6
CONTINUOUS
 70
0
 71
3
 72
9
 73
5
 74
0
 42
0.0000001
 43
0.0000001
 44
0.0000000001
 40
0.0
 40
0.0
 40
0.0
 40
0.0
 40
0.2462625297
 40
1.0
 40
1.0
 40
1.0
 40
1.0
 10
16.0134747569
 20
7.1581632136
 30
0.0
 10
16.0087200099
 20
7.1601043309
 30
0.0
 10
15.9892725172
 20
7.1676409522
 30
0.0
 10
15.969303248
 20
7.1738200829
 30
0.0
 10
15.9540796204
 20
7.1777348572
 30
0.0
  0
SPLINE
  5
426
100
AcDbEntity
  8
0
100
AcDbSpline
 62
7
  6
CONTINUOUS
 70
0
 71
3
 72
9
 73
5
 74
0
 42
0.0000001
 43
0.0000001
 44
0.0000000001
 40
0.0
 40
0.0
 40
0.0
 40
0.0
 40
0.2535784368
 40
1.0
 40
1.0
 40
1.0
 40
1.0
 10
15.6973291065
 20
7.1775926186
 30
0.0
 10
15.6922556346
 20
7.1762816069
 30
0.0
 10
15.672333883
 20
7.1707873445
 30
0.0
 10
15.6527661377
 20
7.1639931546
 30
0.0
 10
15.638485757
 20
7.1581632136
 30
0.0
  0
SPLINE
  5
427
100
AcDbEntity
  8
0
100
AcDbSpline
 62
7
  6
CONTINUOUS
 70
0
 71
3
 72
11
 73
7
 74
0
 42
0.0000001
 43
0.0000001
 44
0.0000000001
 40
0.0
 40
0.0
 40
0.0
 40
0.0
 40
0.2403824878
 40
0.4868098237
 40
0.7399668412
 40
1.0
 40
1.0
 40
1.0
 40
1.0
 10
15.4509912571
 20
6.7517587767
 30
0.0
 10
15.4664022908
 20
6.749099664
 30
0.0
 10
15.4975037782
 20
6.7430548467
 30
0.0
 10
15.5442657712
 20
6.7315222246
 30
0.0
 10
15.5915318213
 20
6.7170014092
 30
0.0
 10
15.6228234819
 20
6.7052914563
 30
0.0
 10
15.638485757
 20
6.6988973593
 30
0.0
  0
SPLINE
  5
428
100
AcDbEntity
  8
0
100
AcDbSpline
 62
7
  6
CONTINUOUS
 70
0
 71
3
 72
11
 73
7
 74
0
 42
0.0000001
 43
0.0000001
 44
0.0000000001
 40
0.0
 40
0.0
 40
0.0
 40
0.0
 40
0.2552781809
 40
0.6333686804
 40
0.8185884279
 40
1.0
 40
1.0
 40
1.0
 40
1.0
 10
15.8259802569
 20
6.6633730218
 30
0.0
 10
15.809649554
 20
6.6633730218
 30
0.0
 10
15.7691192464
 20
6.6652454796
 30
0.0
 10
15.7172338233
 20
6.6737106346
 30
0.0
 10
15.6713105789
 20
6.6865159617
 30
0.0
 10
15.649230172
 20
6.6945109702
 30
0.0
 10
15.638485757
 20
6.6988973593
 30
0.0
  0
SPLINE
  5
429
100
AcDbEntity
  8
0
100
AcDbSpline
 62
7
  6
CONTINUOUS
 70
0
 71
3
 72
11
 73
7
 74
0
 42
0.0000001
 43
0.0000001
 44
0.0000000001
 40
0.0
 40
0.0
 40
0.0
 40
0.0
 40
0.2427372986
 40
0.6176425105
 40
0.8084238241
 40
1.0
 40
1.0
 40
1.0
 40
1.0
 10
16.0134747569
 20
6.6988973593
 30
0.0
 10
15.9990984021
 20
6.693028237
 30
0.0
 10
15.9617023143
 20
6.6800521068
 30
0.0
 10
15.9109135943
 20
6.6692622762
 30
0.0
 10
15.8627057119
 20
6.6642240325
 30
0.0
 10
15.8382356476
 20
6.6633730218
 30
0.0
 10
15.8259802569
 20
6.6633730218
 30
0.0
  0
SPLINE
  5
42A
100
AcDbEntity
  8
0
100
AcDbSpline
 62
7
  6
CONTINUOUS
 70
0
 71
3
 72
17
 73
13
 74
0
 42
0.0000001
 43
0.0000001
 44
0.0000000001
 40
0.0
 40
0.0
 40
0.0
 40
0.0
 40
0.0551918861
 40
0.1106847669
 40
0.1666613533
 40
0.2233003148
 40
0.3392254215
 40
0.4599109181
 40
0.5861655067
 40
0.7183581784
 40
0.8565145575
 40
1.0
 40
1.0
 40
1.0
 40
1.0
 10
16.2009692568
 20
6.9285302864
 30
0.0
 10
16.2009692568
 20
6.9227489804
 30
0.0
 10
16.2004279833
 20
6.9111477753
 30
0.0
 10
16.1980109273
 20
6.8938351667
 30
0.0
 10
16.1939989672
 20
6.8766633112
 30
0.0
 10
16.1864812762
 20
6.8539065687
 30
0.0
 10
16.1730362578
 20
6.8261095077
 30
0.0
 10
16.1510947998
 20
6.7948922209
 30
0.0
 10
16.1236382161
 20
6.7660153716
 30
0.0
 10
16.0911309895
 20
6.7399613047
 30
0.0
 10
16.0541486744
 20
6.7171625342
 30
0.0
 10
16.0273898197
 20
6.7045781599
 30
0.0
 10
16.0134747569
 20
6.6988973593
 30
0.0
  0
SPLINE
  5
42B
100
AcDbEntity
  8
0
100
AcDbSpline
 62
7
  6
CONTINUOUS
 70
0
 71
3
 72
17
 73
13
 74
0
 42
0.0000001
 43
0.0000001
 44
0.0000000001
 40
0.0
 40
0.0
 40
0.0
 40
0.0
 40
0.1434854425
 40
0.2816418216
 40
0.4138344933
 40
0.5400890819
 40
0.6607745785
 40
0.7766996852
 40
0.8333386467
 40
0.8893152331
 40
0.9448081139
 40
1.0
 40
1.0
 40
1.0
 40
1.0
 10
16.0134747569
 20
7.1581632136
 30
0.0
 10
16.0273898197
 20
7.152482413
 30
0.0
 10
16.0541486744
 20
7.1398980386
 30
0.0
 10
16.0911309895
 20
7.1170992681
 30
0.0
 10
16.1236382161
 20
7.0910452013
 30
0.0
 10
16.1510947998
 20
7.062168352
 30
0.0
 10
16.1730362578
 20
7.0309510652
 30
0.0
 10
16.1864812762
 20
7.0031540042
 30
0.0
 10
16.1939989672
 20
6.9803972617
 30
0.0
 10
16.1980109273
 20
6.9632254062
 30
0.0
 10
16.2004279833
 20
6.9459127976
 30
0.0
 10
16.2009692568
 20
6.9343115925
 30
0.0
 10
16.2009692568
 20
6.9285302864
 30
0.0
  0
SPLINE
  5
42C
100
AcDbEntity
  8
0
100
AcDbSpline
 62
7
  6
CONTINUOUS
 70
0
 71
3
 72
17
 73
13
 74
0
 42
0.0000001
 43
0.0000001
 44
0.0000000001
 40
0.0
 40
0.0
 40
0.0
 40
0.0
 40
0.0551918861
 40
0.1106847669
 40
0.1666613533
 40
0.2233003148
 40
0.3392254215
 40
0.4599109181
 40
0.5861655067
 40
0.7183581784
 40
0.8565145575
 40
1.0
 40
1.0
 40
1.0
 40
1.0
 10
15.4509912571
 20
6.9285302864
 30
0.0
 10
15.4509912571
 20
6.9343115925
 30
0.0
 10
15.4515325306
 20
6.9459127976
 30
0.0
 10
15.4539495866
 20
6.9632254062
 30
0.0
 10
15.4579615467
 20
6.9803972617
 30
0.0
 10
15.4654792377
 20
7.0031540042
 30
0.0
 10
15.478924256
 20
7.0309510652
 30
0.0
 10
15.5008657141
 20
7.062168352
 30
0.0
 10
15.5283222977
 20
7.0910452013
 30
0.0
 10
15.5608295244
 20
7.1170992681
 30
0.0
 10
15.5978118394
 20
7.1398980386
 30
0.0
 10
15.6245706941
 20
7.152482413
 30
0.0
 10
15.638485757
 20
7.1581632136
 30
0.0
  0
SPLINE
  5
42D
100
AcDbEntity
  8
0
100
AcDbSpline
 62
7
  6
CONTINUOUS
 70
0
 71
3
 72
17
 73
13
 74
0
 42
0.0000001
 43
0.0000001
 44
0.0000000001
 40
0.0
 40
0.0
 40
0.0
 40
0.0
 40
0.1434854425
 40
0.2816418216
 40
0.4138344933
 40
0.5400890819
 40
0.6607745785
 40
0.7766996852
 40
0.8333386467
 40
0.8893152331
 40
0.9448081139
 40
1.0
 40
1.0
 40
1.0
 40
1.0
 10
15.638485757
 20
6.6988973593
 30
0.0
 10
15.6245706941
 20
6.7045781599
 30
0.0
 10
15.5978118394
 20
6.7171625342
 30
0.0
 10
15.5608295244
 20
6.7399613047
 30
0.0
 10
15.5283222977
 20
6.7660153716
 30
0.0
 10
15.5008657141
 20
6.7948922209
 30
0.0
 10
15.478924256
 20
6.8261095077
 30
0.0
 10
15.4654792377
 20
6.8539065687
 30
0.0
 10
15.4579615467
 20
6.8766633112
 30
0.0
 10
15.4539495866
 20
6.8938351667
 30
0.0
 10
15.4515325306
 20
6.9111477753
 30
0.0
 10
15.4509912571
 20
6.9227489804
 30
0.0
 10
15.4509912571
 20
6.9285302864
 30
0.0
  0
SPLINE
  5
42E
100
AcDbEntity
  8
0
100
AcDbSpline
 62
7
  6
CONTINUOUS
 70
0
 71
3
 72
15
 73
11
 74
0
 42
0.0000001
 43
0.0000001
 44
0.0000000001
 40
0.0
 40
0.0
 40
0.0
 40
0.0
 40
0.1354937069
 40
0.2699497245
 40
0.4020761527
 40
0.5309525127
 40
0.6557318145
 40
0.7163908292
 40
0.7758144438
 40
1.0
 40
1.0
 40
1.0
 40
1.0
 10
15.8259802569
 20
6.8185254512
 30
0.0
 10
15.8355044685
 20
6.8185254512
 30
0.0
 10
15.8544916286
 20
6.8194043688
 30
0.0
 10
15.8825212247
 20
6.8233254159
 30
0.0
 10
15.9096015146
 20
6.8297966292
 30
0.0
 10
15.9352623321
 20
6.8387062173
 30
0.0
 10
15.9553013544
 20
6.8481218573
 30
0.0
 10
15.9702033196
 20
6.8567594042
 30
0.0
 10
15.990384218
 20
6.8701007001
 30
0.0
 10
16.0054567024
 20
6.8836586989
 30
0.0
 10
16.015423314
 20
6.8958652553
 30
0.0
  0
SPLINE
  5
42F
100
AcDbEntity
  8
0
100
AcDbSpline
 62
7
  6
CONTINUOUS
 70
0
 71
3
 72
14
 73
10
 74
0
 42
0.0000001
 43
0.0000001
 44
0.0000000001
 40
0.0
 40
0.0
 40
0.0
 40
0.0
 40
0.1164573106
 40
0.2338088097
 40
0.3529342625
 40
0.4746577446
 40
0.5997251127
 40
0.7287536573
 40
1.0
 40
1.0
 40
1.0
 40
1.0
 10
15.2475380431
 20
11.0338695784
 30
0.0
 10
15.249609459
 20
11.0405729805
 30
0.0
 10
15.2530430953
 20
11.0542675851
 30
0.0
 10
15.2559748865
 20
11.0753662715
 30
0.0
 10
15.2566847889
 20
11.0969739601
 30
0.0
 10
15.2551793714
 20
11.1190030636
 30
0.0
 10
15.2514611986
 20
11.1413729481
 30
0.0
 10
15.2434448687
 20
11.1720241678
 30
0.0
 10
15.2343397566
 20
11.1945011436
 30
0.0
 10
15.2271405601
 20
11.2091715637
 30
0.0
  0
SPLINE
  5
430
100
AcDbEntity
  8
0
100
AcDbSpline
 62
7
  6
CONTINUOUS
 70
0
 71
3
 72
9
 73
5
 74
0
 42
0.0000001
 43
0.0000001
 44
0.0000000001
 40
0.0
 40
0.0
 40
0.0
 40
0.0
 40
0.258842859
 40
1.0
 40
1.0
 40
1.0
 40
1.0
 10
13.9624281314
 20
12.3330684638
 30
0.0
 10
13.9508734614
 20
12.3286626336
 30
0.0
 10
13.9065828112
 20
12.3107535126
 30
0.0
 10
13.8637365015
 20
12.2891682937
 30
0.0
 10
13.8333998742
 20
12.270907467
 30
0.0
  0
SPLINE
  5
431
100
AcDbEntity
  8
0
100
AcDbSpline
 62
7
  6
CONTINUOUS
 70
0
 71
3
 72
9
 73
5
 74
0
 42
0.0000001
 43
0.0000001
 44
0.0000000001
 40
0.0
 40
0.0
 40
0.0
 40
0.0
 40
0.5065718062
 40
1.0
 40
1.0
 40
1.0
 40
1.0
 10
14.5175306888
 20
12.4066697946
 30
0.0
 10
14.4864564366
 20
12.4082953618
 30
0.0
 10
14.4250220765
 20
12.4099597472
 30
0.0
 10
14.3635818929
 20
12.4083386261
 30
0.0
 10
14.33331849
 20
12.4066697946
 30
0.0
  0
SPLINE
  5
432
100
AcDbEntity
  8
0
100
AcDbSpline
 62
7
  6
CONTINUOUS
 70
0
 71
3
 72
9
 73
5
 74
0
 42
0.0000001
 43
0.0000001
 44
0.0000000001
 40
0.0
 40
0.0
 40
0.0
 40
0.0
 40
0.4926908655
 40
1.0
 40
1.0
 40
1.0
 40
1.0
 10
15.6922631561
 20
11.9621588871
 30
0.0
 10
15.6695063403
 20
11.9811873178
 30
0.0
 10
15.6221464067
 20
12.0184247852
 30
0.0
 10
15.572793175
 20
12.0529673215
 30
0.0
 10
15.5473222556
 20
12.0698248919
 30
0.0
  0
SPLINE
  5
433
100
AcDbEntity
  8
0
100
AcDbSpline
 62
7
  6
CONTINUOUS
 70
0
 71
3
 72
24
 73
20
 74
0
 42
0.0000001
 43
0.0000001
 44
0.0000000001
 40
0.0
 40
0.0
 40
0.0
 40
0.0
 40
0.0534653378
 40
0.107094036
 40
0.1341581268
 40
0.1614592755
 40
0.2169753735
 40
0.274132494
 40
0.3332730216
 40
0.3945826376
 40
0.4580904496
 40
0.5236513178
 40
0.5909671408
 40
0.6595975068
 40
0.7289685773
 40
0.7984152386
 40
0.8672465391
 40
0.9347318682
 40
1.0
 40
1.0
 40
1.0
 40
1.0
 10
14.5847303437
 20
12.084848104
 30
0.0
 10
14.5871241846
 20
12.0799717571
 30
0.0
 10
14.5910694003
 20
12.0697607845
 30
0.0
 10
14.5936757098
 20
12.056307154
 30
0.0
 10
14.594342538
 20
12.0453426669
 30
0.0
 10
14.5940496749
 20
12.0341700016
 30
0.0
 10
14.5918549275
 20
12.0200455167
 30
0.0
 10
14.5863871088
 20
12.0033928704
 30
0.0
 10
14.5781995899
 20
11.9872388582
 30
0.0
 10
14.5674612339
 20
11.9718720894
 30
0.0
 10
14.5544098119
 20
11.9575297806
 30
0.0
 10
14.5393060911
 20
11.9444265541
 30
0.0
 10
14.5224589619
 20
11.9327282143
 30
0.0
 10
14.5041909971
 20
11.9225883911
 30
0.0
 10
14.4848590575
 20
11.9141162621
 30
0.0
 10
14.4648248068
 20
11.9074142078
 30
0.0
 10
14.4444622957
 20
11.9025546898
 30
0.0
 10
14.4241670737
 20
11.8996070542
 30
0.0
 10
14.4106717881
 20
11.8989119879
 30
0.0
 10
14.4040403483
 20
11.8989119879
 30
0.0
  0
SPLINE
  5
434
100
AcDbEntity
  8
0
100
AcDbSpline
 62
7
  6
CONTINUOUS
 70
0
 71
3
 72
10
 73
6
 74
0
 42
0.0000001
 43
0.0000001
 44
0.0000000001
 40
0.0
 40
0.0
 40
0.0
 40
0.0
 40
0.2325963058
 40
0.4731924342
 40
1.0
 40
1.0
 40
1.0
 40
1.0
 10
15.6443835297
 20
11.2531618454
 30
0.0
 10
15.6434578283
 20
11.2531620168
 30
0.0
 10
15.6415706221
 20
11.2533297152
 30
0.0
 10
15.6377079483
 20
11.254346679
 30
0.0
 10
15.6349752856
 20
11.2558203842
 30
0.0
 10
15.6332442327
 20
11.2570032953
 30
0.0
  0
SPLINE
  5
435
100
AcDbEntity
  8
0
100
AcDbSpline
 62
7
  6
CONTINUOUS
 70
0
 71
3
 72
9
 73
5
 74
0
 42
0.0000001
 43
0.0000001
 44
0.0000000001
 40
0.0
 40
0.0
 40
0.0
 40
0.0
 40
0.4721351915
 40
1.0
 40
1.0
 40
1.0
 40
1.0
 10
15.6332442327
 20
11.2570032953
 30
0.0
 10
15.6318961145
 20
11.2579245288
 30
0.0
 10
15.629198583
 20
11.260109686
 30
0.0
 10
15.626792857
 20
11.2626038845
 30
0.0
 10
15.6255872413
 20
11.2639746974
 30
0.0
  0
SPLINE
  5
436
100
AcDbEntity
  8
0
100
AcDbSpline
 62
7
  6
CONTINUOUS
 70
0
 71
3
 72
10
 73
6
 74
0
 42
0.0000001
 43
0.0000001
 44
0.0000000001
 40
0.0
 40
0.0
 40
0.0
 40
0.0
 40
0.2218309323
 40
0.4627776409
 40
1.0
 40
1.0
 40
1.0
 40
1.0
 10
15.6238185015
 20
11.2660786127
 30
0.0
 10
15.6226778546
 20
11.2674953642
 30
0.0
 10
15.6204149282
 20
11.2705459192
 30
0.0
 10
15.6159527866
 20
11.2774288919
 30
0.0
 10
15.6129258794
 20
11.2830602958
 30
0.0
 10
15.6109853518
 20
11.2870146753
 30
0.0
  0
SPLINE
  5
437
100
AcDbEntity
  8
0
100
AcDbSpline
 62
7
  6
CONTINUOUS
 70
0
 71
3
 72
23
 73
19
 74
0
 42
0.0000001
 43
0.0000001
 44
0.0000000001
 40
0.0
 40
0.0
 40
0.0
 40
0.0
 40
0.0555747044
 40
0.1137461686
 40
0.1742688802
 40
0.2368389465
 40
0.3011007486
 40
0.3666644206
 40
0.4331100216
 40
0.500001698
 40
0.5668931347
 40
0.6333395634
 40
0.6989034083
 40
0.7631657382
 40
0.8257343034
 40
0.8862578028
 40
0.9444299309
 40
1.0
 40
1.0
 40
1.0
 40
1.0
 10
15.2089524406
 20
10.6547817116
 30
0.0
 10
15.1838654219
 20
10.6488827643
 30
0.0
 10
15.1319632283
 20
10.6390857102
 30
0.0
 10
15.0515487937
 20
10.6303872128
 30
0.0
 10
14.9674764721
 20
10.6273962204
 30
0.0
 10
14.8805787327
 20
10.6301558269
 30
0.0
 10
14.7917063154
 20
10.6386232346
 30
0.0
 10
14.7017362165
 20
10.6527265006
 30
0.0
 10
14.611553875
 20
10.6723190666
 30
0.0
 10
14.5220493743
 20
10.6972094445
 30
0.0
 10
14.434107081
 20
10.7271558195
 30
0.0
 10
14.3485919966
 20
10.7618542589
 30
0.0
 10
14.2663528367
 20
10.8009740329
 30
0.0
 10
14.1881950313
 20
10.8441167762
 30
0.0
 10
14.1148932315
 20
10.8908679417
 30
0.0
 10
14.047164268
 20
10.9407666533
 30
0.0
 10
13.9856799769
 20
10.9933173687
 30
0.0
 10
13.9483526567
 20
11.0306844472
 30
0.0
 10
13.9309695212
 20
11.049707378
 30
0.0
  0
SPLINE
  5
438
100
AcDbEntity
  8
0
100
AcDbSpline
 62
7
  6
CONTINUOUS
 70
0
 71
3
 72
9
 73
5
 74
0
 42
0.0000001
 43
0.0000001
 44
0.0000000001
 40
0.0
 40
0.0
 40
0.0
 40
0.0
 40
0.5143177805
 40
1.0
 40
1.0
 40
1.0
 40
1.0
 10
13.9029768691
 20
11.0803404993
 30
0.0
 10
13.8849583916
 20
11.1000587635
 30
0.0
 10
13.8515759503
 20
11.1399537299
 30
0.0
 10
13.8223558145
 20
11.1830271946
 30
0.0
 10
13.8094296156
 20
11.2046871235
 30
0.0
  0
SPLINE
  5
439
100
AcDbEntity
  8
0
100
AcDbSpline
 62
7
  6
CONTINUOUS
 70
0
 71
3
 72
19
 73
15
 74
0
 42
0.0000001
 43
0.0000001
 44
0.0000000001
 40
0.0
 40
0.0
 40
0.0
 40
0.0
 40
0.0539289532
 40
0.1081142869
 40
0.162806434
 40
0.2182443636
 40
0.27465308
 40
0.3322349401
 40
0.4515388113
 40
0.5773902378
 40
0.7105369935
 40
0.7800063115
 40
0.8514156633
 40
1.0
 40
1.0
 40
1.0
 40
1.0
 10
15.6328552381
 20
10.9577041074
 30
0.0
 10
15.6301747777
 20
10.9490271284
 30
0.0
 10
15.6240611542
 20
10.93185074
 30
0.0
 10
15.6127130166
 20
10.9068598173
 30
0.0
 10
15.5992115946
 20
10.8826708056
 30
0.0
 10
15.5835907909
 20
10.8593434426
 30
0.0
 10
15.5658823575
 20
10.8369352382
 30
0.0
 10
15.5392455205
 20
10.8080150646
 30
0.0
 10
15.5006762573
 20
10.7744021307
 30
0.0
 10
15.4474686305
 20
10.7390903142
 30
0.0
 10
15.3980303965
 20
10.7140146819
 30
0.0
 10
15.3553741415
 20
10.6963720289
 30
0.0
 10
15.3094521547
 20
10.6799770929
 30
0.0
 10
15.273704669
 20
10.6700084111
 30
0.0
 10
15.2493475656
 20
10.6642810711
 30
0.0
  0
SPLINE
  5
43A
100
AcDbEntity
  8
0
100
AcDbSpline
 62
7
  6
CONTINUOUS
 70
0
 71
3
 72
15
 73
11
 74
0
 42
0.0000001
 43
0.0000001
 44
0.0000000001
 40
0.0
 40
0.0
 40
0.0
 40
0.0
 40
0.1164350502
 40
0.2337704129
 40
0.3528732734
 40
0.4745624126
 40
0.5995775622
 40
0.72855604
 40
0.8619336269
 40
1.0
 40
1.0
 40
1.0
 40
1.0
 10
15.7445077693
 20
11.3190138104
 30
0.0
 10
15.7479410722
 20
11.3301279132
 30
0.0
 10
15.7536285063
 20
11.3528346447
 30
0.0
 10
15.7584892743
 20
11.3878152418
 30
0.0
 10
15.7596690429
 20
11.423638821
 30
0.0
 10
15.7571697057
 20
11.4601581711
 30
0.0
 10
15.751010844
 20
11.4972372934
 30
0.0
 10
15.7412086728
 20
11.5347274243
 30
0.0
 10
15.7278289614
 20
11.5724729007
 30
0.0
 10
15.7167629888
 20
11.5972646984
 30
0.0
 10
15.7106864187
 20
11.6096474462
 30
0.0
  0
SPLINE
  5
43B
100
AcDbEntity
  8
0
100
AcDbSpline
 62
7
  6
CONTINUOUS
 70
0
 71
3
 72
9
 73
5
 74
0
 42
0.0000001
 43
0.0000001
 44
0.0000000001
 40
0.0
 40
0.0
 40
0.0
 40
0.0
 40
0.4957995502
 40
1.0
 40
1.0
 40
1.0
 40
1.0
 10
15.6443836347
 20
11.5656556344
 30
0.0
 10
15.6428661613
 20
11.5656572827
 30
0.0
 10
15.6398017954
 20
11.565450277
 30
0.0
 10
15.6367938533
 20
11.5648327607
 30
0.0
 10
15.6353051642
 20
11.5644262762
 30
0.0
  0
SPLINE
  5
43C
100
AcDbEntity
  8
0
100
AcDbSpline
 62
7
  6
CONTINUOUS
 70
0
 71
3
 72
9
 73
5
 74
0
 42
0.0000001
 43
0.0000001
 44
0.0000000001
 40
0.0
 40
0.0
 40
0.0
 40
0.0
 40
0.4831010881
 40
1.0
 40
1.0
 40
1.0
 40
1.0
 10
15.6353051642
 20
11.5644262762
 30
0.0
 10
15.6327643088
 20
11.5637324992
 30
0.0
 10
15.6276526699
 20
11.5617166319
 30
0.0
 10
15.6230233405
 20
11.5587790717
 30
0.0
 10
15.6207702591
 20
11.5570862882
 30
0.0
  0
SPLINE
  5
43D
100
AcDbEntity
  8
0
100
AcDbSpline
 62
7
  6
CONTINUOUS
 70
0
 71
3
 72
20
 73
16
 74
0
 42
0.0000001
 43
0.0000001
 44
0.0000000001
 40
0.0
 40
0.0
 40
0.0
 40
0.0
 40
0.0422507076
 40
0.0886862446
 40
0.1394896597
 40
0.1945985321
 40
0.2537666154
 40
0.3166098539
 40
0.4511275791
 40
0.5930922941
 40
0.7363495129
 40
0.8063997507
 40
0.8742304527
 40
0.9390248972
 40
1.0
 40
1.0
 40
1.0
 40
1.0
 10
15.6179698074
 20
11.5548348843
 30
0.0
 10
15.6152215366
 20
11.5524774757
 30
0.0
 10
15.6099075551
 20
11.5469872889
 30
0.0
 10
15.6029350308
 20
11.5372354016
 30
0.0
 10
15.5967369132
 20
11.5257094636
 30
0.0
 10
15.5914057124
 20
11.5125802734
 30
0.0
 10
15.5870327743
 20
11.4980241271
 30
0.0
 10
15.5824519717
 20
11.4765018965
 30
0.0
 10
15.5795753447
 20
11.4474699234
 30
0.0
 10
15.5801869525
 20
11.4114434041
 30
0.0
 10
15.5836826705
 20
11.3811494828
 30
0.0
 10
15.5880509883
 20
11.3574495481
 30
0.0
 10
15.591957039
 20
11.3405190233
 30
0.0
 10
15.5964174797
 20
11.324532949
 30
0.0
 10
15.5998106851
 20
11.3142968958
 30
0.0
 10
15.6015915704
 20
11.3093842525
 30
0.0
  0
SPLINE
  5
43E
100
AcDbEntity
  8
0
100
AcDbSpline
 62
7
  6
CONTINUOUS
 70
0
 71
3
 72
9
 73
5
 74
0
 42
0.0000001
 43
0.0000001
 44
0.0000000001
 40
0.0
 40
0.0
 40
0.0
 40
0.0
 40
0.5210117946
 40
1.0
 40
1.0
 40
1.0
 40
1.0
 10
15.6015915704
 20
11.3093842525
 30
0.0
 10
15.6030281115
 20
11.3054214965
 30
0.0
 10
15.605955703
 20
11.2978758805
 30
0.0
 10
15.6092781951
 20
11.2904934949
 30
0.0
 10
15.6109853518
 20
11.2870146753
 30
0.0
  0
SPLINE
  5
43F
100
AcDbEntity
  8
0
100
AcDbSpline
 62
7
  6
CONTINUOUS
 70
0
 71
3
 72
9
 73
5
 74
0
 42
0.0000001
 43
0.0000001
 44
0.0000000001
 40
0.0
 40
0.0
 40
0.0
 40
0.0
 40
0.500419464
 40
1.0
 40
1.0
 40
1.0
 40
1.0
 10
16.0036258878
 20
13.5657230236
 30
0.0
 10
16.0035420881
 20
13.5724113042
 30
0.0
 10
16.0043882401
 20
13.585810048
 30
0.0
 10
16.0073140124
 20
13.5989174399
 30
0.0
 10
16.0092855539
 20
13.6052973506
 30
0.0
  0
SPLINE
  5
440
100
AcDbEntity
  8
0
100
AcDbSpline
 62
7
  6
CONTINUOUS
 70
0
 71
3
 72
15
 73
11
 74
0
 42
0.0000001
 43
0.0000001
 44
0.0000000001
 40
0.0
 40
0.0
 40
0.0
 40
0.0
 40
0.1249677185
 40
0.2498872014
 40
0.3747788531
 40
0.4996741054
 40
0.624593863
 40
0.7495790469
 40
0.8747041021
 40
1.0
 40
1.0
 40
1.0
 40
1.0
 10
16.2679598706
 20
13.5081983614
 30
0.0
 10
16.2660214151
 20
13.501925517
 30
0.0
 10
16.261143411
 20
13.4896662035
 30
0.0
 10
16.2509897005
 20
13.4727004796
 30
0.0
 10
16.2382235404
 20
13.4575983126
 30
0.0
 10
16.2231703518
 20
13.4447768811
 30
0.0
 10
16.2062421414
 20
13.4345513357
 30
0.0
 10
16.1878837904
 20
13.4271663521
 30
0.0
 10
16.1685822925
 20
13.4227544425
 30
0.0
 10
16.1553998844
 20
13.4218146279
 30
0.0
 10
16.1488171526
 20
13.4218376279
 30
0.0
  0
SPLINE
  5
441
100
AcDbEntity
  8
0
100
AcDbSpline
 62
7
  6
CONTINUOUS
 70
0
 71
3
 72
32
 73
28
 74
0
 42
0.0000001
 43
0.0000001
 44
0.0000000001
 40
0.0
 40
0.0
 40
0.0
 40
0.0
 40
0.0620101191
 40
0.0930507119
 40
0.1240891557
 40
0.1551253852
 40
0.1861576781
 40
0.2171952976
 40
0.2482436173
 40
0.2793021672
 40
0.3103856673
 40
0.3415023276
 40
0.3726494671
 40
0.435035428
 40
0.4663655553
 40
0.497770663
 40
0.5607413377
 40
0.6239272694
 40
0.6555776159
 40
0.6872135603
 40
0.7188108633
 40
0.7503496719
 40
0.8131371443
 40
0.8756133489
 40
0.9067910995
 40
0.9379323657
 40
1.0
 40
1.0
 40
1.0
 40
1.0
 10
16.0092855539
 20
13.6052973506
 30
0.0
 10
16.0118676174
 20
13.6136529112
 30
0.0
 10
16.0170938295
 20
13.6258329279
 30
0.0
 10
16.0264949697
 20
13.6406221158
 30
0.0
 10
16.0347212334
 20
13.6508943558
 30
0.0
 10
16.0440031768
 20
13.6602179505
 30
0.0
 10
16.054244217
 20
13.6684784217
 30
0.0
 10
16.0653223355
 20
13.675578329
 30
0.0
 10
16.0770968766
 20
13.6814589703
 30
0.0
 10
16.0894386631
 20
13.6860494427
 30
0.0
 10
16.1022019764
 20
13.6893202231
 30
0.0
 10
16.1152466965
 20
13.6912673202
 30
0.0
 10
16.1328310745
 20
13.6920805071
 30
0.0
 10
16.1504794258
 20
13.6902551613
 30
0.0
 10
16.1676140404
 20
13.6859555502
 30
0.0
 10
16.1843558375
 20
13.6800533372
 30
0.0
 10
16.2042233321
 20
13.6698192146
 30
0.0
 10
16.2219999472
 20
13.6562281357
 30
0.0
 10
16.2346541598
 20
13.6436309386
 30
0.0
 10
16.2432893524
 20
13.6333853723
 30
0.0
 10
16.2509885203
 20
13.6224378052
 30
0.0
 10
16.2598884886
 20
13.607047326
 30
0.0
 10
16.2683477752
 20
13.5864741352
 30
0.0
 10
16.2728327475
 20
13.564725946
 30
0.0
 10
16.2738460127
 20
13.5471278843
 30
0.0
 10
16.2731022211
 20
13.5295810931
 30
0.0
 10
16.270544329
 20
13.5165616719
 30
0.0
 10
16.2679598706
 20
13.5081983614
 30
0.0
  0
SPLINE
  5
442
100
AcDbEntity
  8
0
100
AcDbSpline
 62
7
  6
CONTINUOUS
 70
0
 71
3
 72
25
 73
21
 74
0
 42
0.0000001
 43
0.0000001
 44
0.0000000001
 40
0.0
 40
0.0
 40
0.0
 40
0.0
 40
0.0253075426
 40
0.050638284
 40
0.0761049658
 40
0.1018142005
 40
0.1542908986
 40
0.2087910711
 40
0.2657540687
 40
0.3254003289
 40
0.3877184104
 40
0.4525157765
 40
0.5194314885
 40
0.5879911709
 40
0.6576271097
 40
0.7277124556
 40
0.7975888885
 40
0.8666592907
 40
0.9343536138
 40
1.0
 40
1.0
 40
1.0
 40
1.0
 10
17.7508044634
 20
12.1438303481
 30
0.0
 10
17.7523928686
 20
12.1411308967
 30
0.0
 10
17.7553145208
 20
12.1355736005
 30
0.0
 10
17.7588797174
 20
12.1268405944
 30
0.0
 10
17.7616031999
 20
12.1177564506
 30
0.0
 10
17.7641203515
 20
12.1051614566
 30
0.0
 10
17.765077641
 20
12.0886704499
 30
0.0
 10
17.7627245166
 20
12.0684268126
 30
0.0
 10
17.7569715459
 20
12.0479616291
 30
0.0
 10
17.7479337238
 20
12.027668553
 30
0.0
 10
17.735805168
 20
12.0079202815
 30
0.0
 10
17.7208181409
 20
11.9890874377
 30
0.0
 10
17.7032624133
 20
11.9715203604
 30
0.0
 10
17.6834734729
 20
11.9555471775
 30
0.0
 10
17.6618238225
 20
11.9414750073
 30
0.0
 10
17.6387326545
 20
11.9295614086
 30
0.0
 10
17.6146320905
 20
11.9200394717
 30
0.0
 10
17.5899743454
 20
11.9130819526
 30
0.0
 10
17.5652389931
 20
11.9088442701
 30
0.0
 10
17.5487242073
 20
11.9078471431
 30
0.0
 10
17.5405997031
 20
11.9078471431
 30
0.0
  0
SPLINE
  5
443
100
AcDbEntity
  8
0
100
AcDbSpline
 62
7
  6
CONTINUOUS
 70
0
 71
3
 72
19
 73
15
 74
0
 42
0.0000001
 43
0.0000001
 44
0.0000000001
 40
0.0
 40
0.0
 40
0.0
 40
0.0
 40
0.061747075
 40
0.1246239735
 40
0.2527306347
 40
0.317641662
 40
0.3828091119
 40
0.4479845577
 40
0.5129245079
 40
0.6411016929
 40
0.7657388186
 40
0.8263571164
 40
0.8856611778
 40
1.0
 40
1.0
 40
1.0
 40
1.0
 10
12.8312332967
 20
12.3087871877
 30
0.0
 10
12.8215366142
 20
12.3084813298
 30
0.0
 10
12.8019816321
 20
12.307099608
 30
0.0
 10
12.7626600969
 20
12.30138984
 30
0.0
 10
12.7235724683
 20
12.2913240283
 30
0.0
 10
12.6854958301
 20
12.2772721727
 30
0.0
 10
12.6574716455
 20
12.2647313911
 30
0.0
 10
12.6303449916
 20
12.2503439203
 30
0.0
 10
12.5958344772
 20
12.2289432386
 30
0.0
 10
12.5561500669
 20
12.1983765169
 30
0.0
 10
12.5216469909
 20
12.1629695621
 30
0.0
 10
12.498180415
 20
12.1324929972
 30
0.0
 10
12.4781287769
 20
12.1015997754
 30
0.0
 10
12.4661866936
 20
12.076855371
 30
0.0
 10
12.4599871853
 20
12.0599944311
 30
0.0
  0
SPLINE
  5
444
100
AcDbEntity
  8
0
100
AcDbSpline
 62
7
  6
CONTINUOUS
 70
0
 71
3
 72
14
 73
10
 74
0
 42
0.0000001
 43
0.0000001
 44
0.0000000001
 40
0.0
 40
0.0
 40
0.0
 40
0.0
 40
0.2612915596
 40
0.388365791
 40
0.5133569282
 40
0.6365951775
 40
0.758487383
 40
0.8794740096
 40
1.0
 40
1.0
 40
1.0
 40
1.0
 10
12.4579473757
 20
12.0542499086
 30
0.0
 10
12.453202499
 20
12.0403963898
 30
0.0
 10
12.4478082867
 20
12.0191582428
 30
0.0
 10
12.4446416158
 20
11.9905307527
 30
0.0
 10
12.4443425108
 20
11.9694642886
 30
0.0
 10
12.4461111355
 20
11.9487619728
 30
0.0
 10
12.449969123
 20
11.9285705743
 30
0.0
 10
12.4558939508
 20
11.9090469301
 30
0.0
 10
12.4611998976
 20
11.8965613763
 30
0.0
 10
12.4641756035
 20
11.8904975252
 30
0.0
  0
SPLINE
  5
445
100
AcDbEntity
  8
0
100
AcDbSpline
 62
7
  6
CONTINUOUS
 70
0
 71
3
 72
13
 73
9
 74
0
 42
0.0000001
 43
0.0000001
 44
0.0000000001
 40
0.0
 40
0.0
 40
0.0
 40
0.0
 40
0.1179114226
 40
0.2350365624
 40
0.353248473
 40
0.4742281084
 40
0.7279304363
 40
1.0
 40
1.0
 40
1.0
 40
1.0
 10
18.508575784
 20
12.8027030016
 30
0.0
 10
18.5081268248
 20
12.8036178841
 30
0.0
 10
18.5070652368
 20
12.8053655024
 30
0.0
 10
18.5050190314
 20
12.8076531888
 30
0.0
 10
18.5025795218
 20
12.8095578539
 30
0.0
 10
18.4988287191
 20
12.8116107828
 30
0.0
 10
18.4934020841
 20
12.8131967789
 30
0.0
 10
18.4888455401
 20
12.8135367653
 30
0.0
 10
18.4864940517
 20
12.8135367624
 30
0.0
  0
SPLINE
  5
446
100
AcDbEntity
  8
0
100
AcDbSpline
 62
7
  6
CONTINUOUS
 70
0
 71
3
 72
41
 73
37
 74
0
 42
0.0000001
 43
0.0000001
 44
0.0000000001
 40
0.0
 40
0.0
 40
0.0
 40
0.0
 40
0.030242049
 40
0.0615427594
 40
0.0938209235
 40
0.127006191
 40
0.1610214129
 40
0.1957671318
 40
0.2311334708
 40
0.267002825
 40
0.3032524472
 40
0.3397534106
 40
0.3763739835
 40
0.4129809082
 40
0.4494410018
 40
0.4856232911
 40
0.5213995931
 40
0.5566479677
 40
0.5912522153
 40
0.6251065281
 40
0.6581141585
 40
0.6901932403
 40
0.7212749261
 40
0.7513101233
 40
0.7802675691
 40
0.8081406492
 40
0.8349461228
 40
0.8607288023
 40
0.8855621557
 40
0.9095484447
 40
0.9328202391
 40
0.9555277836
 40
0.9667293078
 40
0.9778580714
 40
0.9889395236
 40
1.0
 40
1.0
 40
1.0
 40
1.0
 10
16.8432414168
 20
13.6264840336
 30
0.0
 10
16.8179178717
 20
13.6550093031
 30
0.0
 10
16.7644153601
 20
13.7113351799
 30
0.0
 10
16.6777781261
 20
13.7920361936
 30
0.0
 10
16.5837991504
 20
13.8700060212
 30
0.0
 10
16.4830163681
 20
13.9448412694
 30
0.0
 10
16.3759588805
 20
14.0161591179
 30
0.0
 10
16.2632068235
 20
14.0836048334
 30
0.0
 10
16.145363334
 20
14.1468041696
 30
0.0
 10
16.0230767282
 20
14.2054349537
 30
0.0
 10
15.8970053654
 20
14.2591695592
 30
0.0
 10
15.7678414196
 20
14.307733101
 30
0.0
 10
15.6362838538
 20
14.3508470408
 30
0.0
 10
15.5030553098
 20
14.3882916971
 30
0.0
 10
15.3688776751
 20
14.4198472533
 30
0.0
 10
15.2344853712
 20
14.4453553688
 30
0.0
 10
15.1006050157
 20
14.4646590385
 30
0.0
 10
14.96796447
 20
14.4776647139
 30
0.0
 10
14.8372765904
 20
14.4842803992
 30
0.0
 10
14.7092441703
 20
14.4844775964
 30
0.0
 10
14.5845486618
 20
14.4782280264
 30
0.0
 10
14.4638506959
 20
14.4655646086
 30
0.0
 10
14.3477850647
 20
14.446517824
 30
0.0
 10
14.2369568908
 20
14.4211738948
 30
0.0
 10
14.1319450065
 20
14.3896134207
 30
0.0
 10
14.0332947156
 20
14.3519642298
 30
0.0
 10
13.9415332743
 20
14.308347168
 30
0.0
 10
13.8571577963
 20
14.2589273507
 30
0.0
 10
13.78066688
 20
14.2038698764
 30
0.0
 10
13.712534162
 20
14.1433936587
 30
0.0
 10
13.6532711823
 20
14.0777560345
 30
0.0
 10
13.6114434155
 20
14.0187646567
 30
0.0
 10
13.583041187
 20
13.9695324903
 30
0.0
 10
13.5643087113
 20
13.9317495928
 30
0.0
 10
13.5480924739
 20
13.8930160099
 30
0.0
 10
13.5389798639
 20
13.8665926831
 30
0.0
 10
13.5348610125
 20
13.8532640753
 30
0.0
  0
SPLINE
  5
447
100
AcDbEntity
  8
0
100
AcDbSpline
 62
7
  6
CONTINUOUS
 70
0
 71
3
 72
11
 73
7
 74
0
 42
0.0000001
 43
0.0000001
 44
0.0000000001
 40
0.0
 40
0.0
 40
0.0
 40
0.0
 40
0.2586583687
 40
0.4928899948
 40
0.729993441
 40
1.0
 40
1.0
 40
1.0
 40
1.0
 10
12.6922533304
 20
12.8135367617
 30
0.0
 10
12.6921324073
 20
12.8135367627
 30
0.0
 10
12.6918999029
 20
12.8135121966
 30
0.0
 10
12.691583136
 20
12.8133662404
 30
0.0
 10
12.6913410959
 20
12.8131071776
 30
0.0
 10
12.6912451281
 20
12.812886088
 30
0.0
 10
12.6912078463
 20
12.8127654907
 30
0.0
  0
SPLINE
  5
448
100
AcDbEntity
  8
0
100
AcDbSpline
 62
7
  6
CONTINUOUS
 70
0
 71
3
 72
15
 73
11
 74
0
 42
0.0000001
 43
0.0000001
 44
0.0000000001
 40
0.0
 40
0.0
 40
0.0
 40
0.0
 40
0.113201024
 40
0.2273899305
 40
0.3441631158
 40
0.4648268889
 40
0.5903621592
 40
0.721402466
 40
0.8581406032
 40
1.0
 40
1.0
 40
1.0
 40
1.0
 10
17.1843950273
 20
11.9788747763
 30
0.0
 10
17.1865472584
 20
11.9734982869
 30
0.0
 10
17.191846861
 20
11.9630608613
 30
0.0
 10
17.2025221086
 20
11.9489498177
 30
0.0
 10
17.215748974
 20
11.9366312594
 30
0.0
 10
17.2312643892
 20
11.9262915677
 30
0.0
 10
17.2488155772
 20
11.9181046257
 30
0.0
 10
17.2681069434
 20
11.9121775971
 30
0.0
 10
17.2888098616
 20
11.9086186408
 30
0.0
 10
17.3030770539
 20
11.9078471431
 30
0.0
 10
17.3103344546
 20
11.9078471431
 30
0.0
  0
SPLINE
  5
449
100
AcDbEntity
  8
0
100
AcDbSpline
 62
7
  6
CONTINUOUS
 70
0
 71
3
 72
14
 73
10
 74
0
 42
0.0000001
 43
0.0000001
 44
0.0000000001
 40
0.0
 40
0.0
 40
0.0
 40
0.0
 40
0.2501207386
 40
0.3775905835
 40
0.5052902486
 40
0.6322624404
 40
0.7576455207
 40
0.8805694439
 40
1.0
 40
1.0
 40
1.0
 40
1.0
 10
17.3355236255
 20
11.9082212976
 30
0.0
 10
17.3478568962
 20
11.9199514074
 30
0.0
 10
17.3682945142
 20
11.9358559542
 30
0.0
 10
17.3980772118
 20
11.9530976746
 30
0.0
 10
17.4217004283
 20
11.9640632865
 30
0.0
 10
17.446087096
 20
11.9727804281
 30
0.0
 10
17.4708636495
 20
11.9791276716
 30
0.0
 10
17.4956275175
 20
11.9829820515
 30
0.0
 10
17.5121300823
 20
11.983885655
 30
0.0
 10
17.5202573353
 20
11.983885655
 30
0.0
  0
SPLINE
  5
44A
100
AcDbEntity
  8
0
100
AcDbSpline
 62
7
  6
CONTINUOUS
 70
0
 71
3
 72
16
 73
12
 74
0
 42
0.0000001
 43
0.0000001
 44
0.0000000001
 40
0.0
 40
0.0
 40
0.0
 40
0.0
 40
0.1159013755
 40
0.1742226463
 40
0.2329266604
 40
0.3518879505
 40
0.4737301209
 40
0.5991253614
 40
0.7285372211
 40
0.8622454222
 40
1.0
 40
1.0
 40
1.0
 40
1.0
 10
18.1177457973
 20
12.1878638537
 30
0.0
 10
18.1131841048
 20
12.1971596058
 30
0.0
 10
18.1051397548
 20
12.2105928976
 30
0.0
 10
18.0923405231
 20
12.2270211907
 30
0.0
 10
18.0780702041
 20
12.2425694226
 30
0.0
 10
18.0576799403
 20
12.2600747644
 30
0.0
 10
18.0298581743
 20
12.2774990079
 30
0.0
 10
17.9990437872
 20
12.2912701343
 30
0.0
 10
17.9657059773
 20
12.3012533258
 30
0.0
 10
17.930340565
 20
12.3073688436
 30
0.0
 10
17.9060780993
 20
12.3088403405
 30
0.0
 10
17.8937715391
 20
12.308954734
 30
0.0
  0
SPLINE
  5
44B
100
AcDbEntity
  8
0
100
AcDbSpline
 62
7
  6
CONTINUOUS
 70
0
 71
3
 72
11
 73
7
 74
0
 42
0.0000001
 43
0.0000001
 44
0.0000000001
 40
0.0
 40
0.0
 40
0.0
 40
0.0
 40
0.2466392632
 40
0.4946292707
 40
0.7453278671
 40
1.0
 40
1.0
 40
1.0
 40
1.0
 10
13.0295475624
 20
12.2180691514
 30
0.0
 10
13.0230532271
 20
12.1970534746
 30
0.0
 10
13.0121715506
 20
12.1542110465
 30
0.0
 10
13.0023948055
 20
12.0883540854
 30
0.0
 10
12.9991534261
 20
12.0211405301
 30
0.0
 10
13.0013160993
 20
11.9760436165
 30
0.0
 10
13.0034349743
 20
11.9534300141
 30
0.0
  0
SPLINE
  5
44C
100
AcDbEntity
  8
0
100
AcDbSpline
 62
7
  6
CONTINUOUS
 70
0
 71
3
 72
11
 73
7
 74
0
 42
0.0000001
 43
0.0000001
 44
0.0000000001
 40
0.0
 40
0.0
 40
0.0
 40
0.0
 40
0.2278758191
 40
0.4694486103
 40
0.726997773
 40
1.0
 40
1.0
 40
1.0
 40
1.0
 10
12.1648581769
 20
11.0891753868
 30
0.0
 10
12.1641922167
 20
11.0905324708
 30
0.0
 10
12.1631906231
 20
11.0935209159
 30
0.0
 10
12.1627364941
 20
11.0983550175
 30
0.0
 10
12.1632132475
 20
11.1034784766
 30
0.0
 10
12.1640577831
 20
11.1069073849
 30
0.0
 10
12.1645925239
 20
11.1086376796
 30
0.0
  0
SPLINE
  5
44D
100
AcDbEntity
  8
0
100
AcDbSpline
 62
7
  6
CONTINUOUS
 70
0
 71
3
 72
15
 73
11
 74
0
 42
0.0000001
 43
0.0000001
 44
0.0000000001
 40
0.0
 40
0.0
 40
0.0
 40
0.0
 40
0.1418580654
 40
0.2785937139
 40
0.4096331236
 40
0.5351695358
 40
0.6558354601
 40
0.7726094425
 40
0.8867946873
 40
1.0
 40
1.0
 40
1.0
 40
1.0
 10
12.9352947331
 20
11.9078471431
 30
0.0
 10
12.9280373617
 20
11.9078471431
 30
0.0
 10
12.913770286
 20
11.9086185131
 30
0.0
 10
12.8930674689
 20
11.9121772887
 30
0.0
 10
12.8737760285
 20
11.9181040073
 30
0.0
 10
12.8562244673
 20
11.9262907403
 30
0.0
 10
12.8407089782
 20
11.9366309183
 30
0.0
 10
12.8274820242
 20
11.9489493498
 30
0.0
 10
12.8168054627
 20
11.9630595928
 30
0.0
 10
12.8115059856
 20
11.9734973544
 30
0.0
 10
12.809354313
 20
11.978874337
 30
0.0
  0
SPLINE
  5
44E
100
AcDbEntity
  8
0
100
AcDbSpline
 62
7
  6
CONTINUOUS
 70
0
 71
3
 72
9
 73
5
 74
0
 42
0.0000001
 43
0.0000001
 44
0.0000000001
 40
0.0
 40
0.0
 40
0.0
 40
0.0
 40
0.253209308
 40
1.0
 40
1.0
 40
1.0
 40
1.0
 10
13.0041032962
 20
11.9418548317
 30
0.0
 10
13.0001529063
 20
11.939396571
 30
0.0
 10
12.9847945327
 20
11.9293048273
 30
0.0
 10
12.9704318477
 20
11.9176847285
 30
0.0
 10
12.960488659
 20
11.9082274029
 30
0.0
  0
SPLINE
  5
44F
100
AcDbEntity
  8
0
100
AcDbSpline
 62
7
  6
CONTINUOUS
 70
0
 71
3
 72
21
 73
17
 74
0
 42
0.0000001
 43
0.0000001
 44
0.0000000001
 40
0.0
 40
0.0
 40
0.0
 40
0.0
 40
0.0524423348
 40
0.1099570942
 40
0.1718732095
 40
0.2374717863
 40
0.3059938858
 40
0.3765992297
 40
0.5202912484
 40
0.661080833
 40
0.7281299383
 40
0.7917997186
 40
0.8513574612
 40
0.9061828581
 40
0.9558065976
 40
1.0
 40
1.0
 40
1.0
 40
1.0
 10
15.6772181909
 20
11.5013442212
 30
0.0
 10
15.6787799553
 20
11.49816168
 30
0.0
 10
15.6817017349
 20
11.4913134637
 30
0.0
 10
15.6853842134
 20
11.4802837007
 30
0.0
 10
15.688508323
 20
11.468162626
 30
0.0
 10
15.6910261201
 20
11.4551445936
 30
0.0
 10
15.6928998619
 20
11.44142575
 30
0.0
 10
15.6945089274
 20
11.4223680992
 30
0.0
 10
15.6947667465
 20
11.3983268186
 30
0.0
 10
15.6927521808
 20
11.3746055655
 30
0.0
 10
15.6897336139
 20
11.3564930179
 30
0.0
 10
15.6868809119
 20
11.3439420972
 30
0.0
 10
15.6834490176
 20
11.33239548
 30
0.0
 10
15.6794926846
 20
11.32202442
 30
0.0
 10
15.6750662389
 20
11.312987478
 30
0.0
 10
15.6716482429
 20
11.3076202292
 30
0.0
 10
15.6698548996
 20
11.3052309048
 30
0.0
  0
SPLINE
  5
450
100
AcDbEntity
  8
0
100
AcDbSpline
 62
7
  6
CONTINUOUS
 70
0
 71
3
 72
9
 73
5
 74
0
 42
0.0000001
 43
0.0000001
 44
0.0000000001
 40
0.0
 40
0.0
 40
0.0
 40
0.0
 40
0.2589236185
 40
1.0
 40
1.0
 40
1.0
 40
1.0
 10
15.9361160767
 20
11.6874749813
 30
0.0
 10
15.9423351153
 20
11.6772565274
 30
0.0
 10
15.9655072649
 20
11.6372887377
 30
0.0
 10
15.9851634156
 20
11.595233101
 30
0.0
 10
15.9971244501
 20
11.5631529876
 30
0.0
  0
SPLINE
  5
451
100
AcDbEntity
  8
0
100
AcDbSpline
 62
7
  6
CONTINUOUS
 70
0
 71
3
 72
15
 73
11
 74
0
 42
0.0000001
 43
0.0000001
 44
0.0000000001
 40
0.0
 40
0.0
 40
0.0
 40
0.0
 40
0.1470021551
 40
0.2876516259
 40
0.4210537936
 40
0.5472121929
 40
0.6667308183
 40
0.7808062465
 40
0.8911693244
 40
1.0
 40
1.0
 40
1.0
 40
1.0
 10
14.4040403483
 20
11.8989119879
 30
0.0
 10
14.3983189381
 20
11.8989119879
 30
0.0
 10
14.3871153036
 20
11.8994110342
 30
0.0
 10
14.3708652253
 20
11.9017373086
 30
0.0
 10
14.3557467397
 20
11.9056301832
 30
0.0
 10
14.3419795552
 20
11.9110514355
 30
0.0
 10
14.3297468245
 20
11.9179670857
 30
0.0
 10
14.319208607
 20
11.9263211392
 30
0.0
 10
14.3105255545
 20
11.9360444968
 30
0.0
 10
14.3060573782
 20
11.9433774882
 30
0.0
 10
14.3041907225
 20
11.9471797516
 30
0.0
  0
SPLINE
  5
452
100
AcDbEntity
  8
0
100
AcDbSpline
 62
7
  6
CONTINUOUS
 70
0
 71
3
 72
37
 73
33
 74
0
 42
0.0000001
 43
0.0000001
 44
0.0000000001
 40
0.0
 40
0.0
 40
0.0
 40
0.0
 40
0.02651779
 40
0.0543696102
 40
0.0835398721
 40
0.1139985383
 40
0.1457000518
 40
0.1785722321
 40
0.2473665652
 40
0.2830601839
 40
0.3194176219
 40
0.3562825264
 40
0.3934891359
 40
0.4308687957
 40
0.4682497463
 40
0.5054600897
 40
0.5423314583
 40
0.6143809456
 40
0.6832040043
 40
0.7160936893
 40
0.7478172045
 40
0.7782967606
 40
0.8074789071
 40
0.8353399966
 40
0.8618948149
 40
0.8871938631
 40
0.8994068471
 40
0.9113473662
 40
0.9344807042
 40
0.9568002897
 40
0.9785479118
 40
1.0
 40
1.0
 40
1.0
 40
1.0
 10
15.2271405601
 20
11.2091715637
 30
0.0
 10
15.2220291139
 20
11.2195875959
 30
0.0
 10
15.210459831
 20
11.2404217175
 30
0.0
 10
15.1899198361
 20
11.2707063622
 30
0.0
 10
15.1659049621
 20
11.3005626651
 30
0.0
 10
15.1385914748
 20
11.3297772004
 30
0.0
 10
15.1081654254
 20
11.3581635238
 30
0.0
 10
15.0630372121
 20
11.3952064188
 30
0.0
 10
15.0132327402
 20
11.4291144734
 30
0.0
 10
14.9597232653
 20
11.4597177877
 30
0.0
 10
14.9171856337
 20
11.4812508464
 30
0.0
 10
14.8730375507
 20
11.5009301186
 30
0.0
 10
14.8275780675
 20
11.5186284627
 30
0.0
 10
14.7811140293
 20
11.534214665
 30
0.0
 10
14.7339659976
 20
11.5475948069
 30
0.0
 10
14.6864499469
 20
11.5586671926
 30
0.0
 10
14.6235345007
 20
11.5701710649
 30
0.0
 10
14.5460792006
 20
11.5785521613
 30
0.0
 10
14.4698789094
 20
11.5787508556
 30
0.0
 10
14.4116831279
 20
11.5736787792
 30
0.0
 10
14.3705148997
 20
11.5674447199
 30
0.0
 10
14.3314483416
 20
11.5587697757
 30
0.0
 10
14.2947446878
 20
11.5477120799
 30
0.0
 10
14.2606541744
 20
11.5343325857
 30
0.0
 10
14.22940433
 20
11.5187315929
 30
0.0
 10
14.2056333722
 20
11.5037703819
 30
0.0
 10
14.1883207096
 20
11.4907740383
 30
0.0
 10
14.1724973051
 20
11.4774297589
 30
0.0
 10
14.1547542952
 20
11.4595622337
 30
0.0
 10
14.1368383482
 20
11.4361386184
 30
0.0
 10
14.1226543458
 20
11.4111219856
 30
0.0
 10
14.1157542739
 20
11.393441318
 30
0.0
 10
14.1129831467
 20
11.384473549
 30
0.0
  0
SPLINE
  5
453
100
AcDbEntity
  8
0
100
AcDbSpline
 62
7
  6
CONTINUOUS
 70
0
 71
3
 72
15
 73
11
 74
0
 42
0.0000001
 43
0.0000001
 44
0.0000000001
 40
0.0
 40
0.0
 40
0.0
 40
0.0
 40
0.1380672603
 40
0.2714446829
 40
0.4004219028
 40
0.5254360583
 40
0.6471248949
 40
0.7662279775
 40
0.883563913
 40
1.0
 40
1.0
 40
1.0
 40
1.0
 10
13.7856944951
 20
11.2483379092
 30
0.0
 10
13.779617883
 20
11.2607207427
 30
0.0
 10
13.7685518356
 20
11.2855125974
 30
0.0
 10
13.7551720204
 20
11.323258006
 30
0.0
 10
13.7453700315
 20
11.3607479576
 30
0.0
 10
13.7392111843
 20
11.3978268313
 30
0.0
 10
13.7367116371
 20
11.4343460833
 30
0.0
 10
13.7378914815
 20
11.4701697241
 30
0.0
 10
13.7427519086
 20
11.5051505583
 30
0.0
 10
13.7484392262
 20
11.5278575107
 30
0.0
 10
13.751872584
 20
11.5389717109
 30
0.0
  0
SPLINE
  5
454
100
AcDbEntity
  8
0
100
AcDbSpline
 62
7
  6
CONTINUOUS
 70
0
 71
3
 72
9
 73
5
 74
0
 42
0.0000001
 43
0.0000001
 44
0.0000000001
 40
0.0
 40
0.0
 40
0.0
 40
0.0
 40
0.5105285608
 40
1.0
 40
1.0
 40
1.0
 40
1.0
 10
13.7760006957
 20
11.1664843662
 30
0.0
 10
13.7752936884
 20
11.1697705155
 30
0.0
 10
13.7745229472
 20
11.1763620535
 30
0.0
 10
13.7752093841
 20
11.1829758663
 30
0.0
 10
13.7759189474
 20
11.1861194848
 30
0.0
  0
SPLINE
  5
455
100
AcDbEntity
  8
0
100
AcDbSpline
 62
7
  6
CONTINUOUS
 70
0
 71
3
 72
39
 73
35
 74
0
 42
0.0000001
 43
0.0000001
 44
0.0000000001
 40
0.0
 40
0.0
 40
0.0
 40
0.0
 40
0.0265217521
 40
0.0543709899
 40
0.0835354708
 40
0.1139911098
 40
0.1456939569
 40
0.1785647934
 40
0.2125009597
 40
0.2473824177
 40
0.283075272
 40
0.3194324564
 40
0.3562958095
 40
0.393501226
 40
0.4682375043
 40
0.5422945218
 40
0.6143412271
 40
0.6492372243
 40
0.6831885492
 40
0.7160767605
 40
0.7477989473
 40
0.7782775479
 40
0.8074577554
 40
0.8353185042
 40
0.8618711005
 40
0.88716985
 40
0.9113120843
 40
0.9344450304
 40
0.9456982822
 40
0.9567762084
 40
0.9677106786
 40
0.978535594
 40
0.9892864264
 40
1.0
 40
1.0
 40
1.0
 40
1.0
 10
15.7106864187
 20
11.6096474462
 30
0.0
 10
15.7022105547
 20
11.6269194412
 30
0.0
 10
15.6830307243
 20
11.6614636829
 30
0.0
 10
15.6489774646
 20
11.7116719127
 30
0.0
 10
15.6091628356
 20
11.761162618
 30
0.0
 10
15.5638843317
 20
11.8095984142
 30
0.0
 10
15.5134384807
 20
11.8566553617
 30
0.0
 10
15.4581743099
 20
11.9020314791
 30
0.0
 10
15.3984586123
 20
11.9454097033
 30
0.0
 10
15.3347019648
 20
11.9865023437
 30
0.0
 10
15.2673336041
 20
12.0250274581
 30
0.0
 10
15.196813449
 20
12.0607265148
 30
0.0
 10
15.1236183815
 20
12.0933571748
 30
0.0
 10
15.0229911926
 20
12.1325234778
 30
0.0
 10
14.8938807293
 20
12.1724724766
 30
0.0
 10
14.736829408
 20
12.2052383713
 30
0.0
 10
14.6060391257
 20
12.219393886
 30
0.0
 10
14.5038269694
 20
12.2222413762
 30
0.0
 10
14.4300125046
 20
12.2201757502
 30
0.0
 10
14.3587393364
 20
12.2139627669
 30
0.0
 10
14.2904880772
 20
12.2036254192
 30
0.0
 10
14.2257186085
 20
12.189247972
 30
0.0
 10
14.1648699964
 20
12.1709073429
 30
0.0
 10
14.1083491672
 20
12.1487351296
 30
0.0
 10
14.0565422936
 20
12.1228591023
 30
0.0
 10
14.0097979117
 20
12.0934489226
 30
0.0
 10
13.9684481609
 20
12.0606853717
 30
0.0
 10
13.9384490253
 20
12.0304700789
 30
0.0
 10
13.9175823498
 20
12.0049030129
 30
0.0
 10
13.9035922538
 20
11.9852169885
 30
0.0
 10
13.8911446592
 20
11.9648847828
 30
0.0
 10
13.8802591464
 20
11.9439410105
 30
0.0
 10
13.87095651
 20
11.922423093
 30
0.0
 10
13.8658201332
 20
11.9077067617
 30
0.0
 10
13.8635262362
 20
11.9002810821
 30
0.0
  0
SPLINE
  5
456
100
AcDbEntity
  8
0
100
AcDbSpline
 62
7
  6
CONTINUOUS
 70
0
 71
3
 72
11
 73
7
 74
0
 42
0.0000001
 43
0.0000001
 44
0.0000000001
 40
0.0
 40
0.0
 40
0.0
 40
0.0
 40
0.2431478813
 40
0.4918979234
 40
0.7446425473
 40
1.0
 40
1.0
 40
1.0
 40
1.0
 10
16.3433171748
 20
13.4375205277
 30
0.0
 10
16.3474742396
 20
13.4208416767
 30
0.0
 10
16.3550521705
 20
13.3868877269
 30
0.0
 10
16.3642516691
 20
13.3350420684
 30
0.0
 10
16.3716190971
 20
13.2820364191
 30
0.0
 10
16.3754731207
 20
13.2463189304
 30
0.0
 10
16.3771931526
 20
13.2283488135
 30
0.0
  0
SPLINE
  5
457
100
AcDbEntity
  8
0
100
AcDbSpline
 62
7
  6
CONTINUOUS
 70
0
 71
3
 72
11
 73
7
 74
0
 42
0.0000001
 43
0.0000001
 44
0.0000000001
 40
0.0
 40
0.0
 40
0.0
 40
0.0
 40
0.2378335987
 40
0.4833660782
 40
0.7373982523
 40
1.0
 40
1.0
 40
1.0
 40
1.0
 10
16.2802629685
 20
13.6172491989
 30
0.0
 10
16.2865052352
 20
13.6034779273
 30
0.0
 10
16.2986819565
 20
13.575254204
 30
0.0
 10
16.3154214715
 20
13.5314488761
 30
0.0
 10
16.3305694163
 20
13.4854042723
 30
0.0
 10
16.3392797056
 20
13.4537195409
 30
0.0
 10
16.3433171748
 20
13.4375205277
 30
0.0
  0
SPLINE
  5
458
100
AcDbEntity
  8
0
100
AcDbSpline
 62
7
  6
CONTINUOUS
 70
0
 71
3
 72
12
 73
8
 74
0
 42
0.0000001
 43
0.0000001
 44
0.0000000001
 40
0.0
 40
0.0
 40
0.0
 40
0.0
 40
0.2578251657
 40
0.3848678496
 40
0.5105370928
 40
0.75782064
 40
1.0
 40
1.0
 40
1.0
 40
1.0
 10
16.1071496901
 20
13.7271321315
 30
0.0
 10
16.1228884687
 20
13.7191528812
 30
0.0
 10
16.1460821137
 20
13.706634719
 30
0.0
 10
16.176173804
 20
13.6888695563
 30
0.0
 10
16.2052019994
 20
13.6707416548
 30
0.0
 10
16.2401166053
 20
13.6471901823
 30
0.0
 10
16.267092988
 20
13.6273132298
 30
0.0
 10
16.2802629685
 20
13.6172491989
 30
0.0
  0
SPLINE
  5
459
100
AcDbEntity
  8
0
100
AcDbSpline
 62
7
  6
CONTINUOUS
 70
0
 71
3
 72
11
 73
7
 74
0
 42
0.0000001
 43
0.0000001
 44
0.0000000001
 40
0.0
 40
0.0
 40
0.0
 40
0.0
 40
0.2519890848
 40
0.5033210176
 40
0.7530675404
 40
1.0
 40
1.0
 40
1.0
 40
1.0
 10
15.9048581832
 20
13.807572021
 30
0.0
 10
15.9223180952
 20
13.8020730446
 30
0.0
 10
15.9570431211
 20
13.7906049803
 30
0.0
 10
16.0083760633
 20
13.7716558478
 30
0.0
 10
16.0585390819
 20
13.7507228415
 30
0.0
 10
16.0911503243
 20
13.7352434944
 30
0.0
 10
16.1071496901
 20
13.7271321315
 30
0.0
  0
SPLINE
  5
45A
100
AcDbEntity
  8
0
100
AcDbSpline
 62
7
  6
CONTINUOUS
 70
0
 71
3
 72
9
 73
5
 74
0
 42
0.0000001
 43
0.0000001
 44
0.0000000001
 40
0.0
 40
0.0
 40
0.0
 40
0.0
 40
0.5372616353
 40
1.0
 40
1.0
 40
1.0
 40
1.0
 10
15.7802099969
 20
13.7230047609
 30
0.0
 10
15.802175037
 20
13.73866782
 30
0.0
 10
15.8433690177
 20
13.7673910374
 30
0.0
 10
15.8852977549
 20
13.7950307648
 30
0.0
 10
15.9048581832
 20
13.807572021
 30
0.0
  0
SPLINE
  5
45B
100
AcDbEntity
  8
0
100
AcDbSpline
 62
7
  6
CONTINUOUS
 70
0
 71
3
 72
9
 73
5
 74
0
 42
0.0000001
 43
0.0000001
 44
0.0000000001
 40
0.0
 40
0.0
 40
0.0
 40
0.0
 40
0.5040114567
 40
1.0
 40
1.0
 40
1.0
 40
1.0
 10
15.514947277
 20
13.4965467836
 30
0.0
 10
15.5166557343
 20
13.4722008522
 30
0.0
 10
15.5209242915
 20
13.4239514999
 30
0.0
 10
15.5276266362
 20
13.3759608998
 30
0.0
 10
15.5317442375
 20
13.3522991912
 30
0.0
  0
SPLINE
  5
45C
100
AcDbEntity
  8
0
100
AcDbSpline
 62
7
  6
CONTINUOUS
 70
0
 71
3
 72
9
 73
5
 74
0
 42
0.0000001
 43
0.0000001
 44
0.0000000001
 40
0.0
 40
0.0
 40
0.0
 40
0.0
 40
0.4887761448
 40
1.0
 40
1.0
 40
1.0
 40
1.0
 10
16.1582208601
 20
13.0346878994
 30
0.0
 10
16.1758919619
 20
13.0477180362
 30
0.0
 10
16.2118560865
 20
13.0746341645
 30
0.0
 10
16.247554093
 20
13.1019009033
 30
0.0
 10
16.2657568475
 20
13.1159011394
 30
0.0
  0
SPLINE
  5
45D
100
AcDbEntity
  8
0
100
AcDbSpline
 62
7
  6
CONTINUOUS
 70
0
 71
3
 72
9
 73
5
 74
0
 42
0.0000001
 43
0.0000001
 44
0.0000000001
 40
0.0
 40
0.0
 40
0.0
 40
0.0
 40
0.5197955235
 40
1.0
 40
1.0
 40
1.0
 40
1.0
 10
15.6263835821
 20
13.6089944577
 30
0.0
 10
15.6527781292
 20
13.6290938252
 30
0.0
 10
15.7037278432
 20
13.6675381245
 30
0.0
 10
15.75525559
 20
13.705210013
 30
0.0
 10
15.7802099969
 20
13.7230047609
 30
0.0
  0
SPLINE
  5
45E
100
AcDbEntity
  8
0
100
AcDbSpline
 62
7
  6
CONTINUOUS
 70
0
 71
3
 72
23
 73
19
 74
0
 42
0.0000001
 43
0.0000001
 44
0.0000000001
 40
0.0
 40
0.0
 40
0.0
 40
0.0
 40
0.050420318
 40
0.1019293267
 40
0.1551694058
 40
0.2106039857
 40
0.2685092809
 40
0.328957724
 40
0.3918574882
 40
0.4569555531
 40
0.5238872553
 40
0.5921892831
 40
0.6613378071
 40
0.730756291
 40
0.7998609692
 40
0.8681283188
 40
0.9350446007
 40
1.0
 40
1.0
 40
1.0
 40
1.0
 10
12.809354313
 20
11.978874337
 30
0.0
 10
12.8071283002
 20
11.9844370942
 30
0.0
 10
12.8036653185
 20
11.9961259735
 30
0.0
 10
12.8016269682
 20
12.0145409249
 30
0.0
 10
12.8027492969
 20
12.0336281207
 30
0.0
 10
12.8069708658
 20
12.0530428556
 30
0.0
 10
12.8142223911
 20
12.0724485949
 30
0.0
 10
12.824345897
 20
12.0915238901
 30
0.0
 10
12.8371790297
 20
12.1099367243
 30
0.0
 10
12.8524796119
 20
12.127388175
 30
0.0
 10
12.8699981458
 20
12.1435686394
 30
0.0
 10
12.8894198143
 20
12.1582169736
 30
0.0
 10
12.9104218446
 20
12.1710655263
 30
0.0
 10
12.9326297301
 20
12.1819126734
 30
0.0
 10
12.9556728753
 20
12.1905565797
 30
0.0
 10
12.9791576366
 20
12.1968611223
 30
0.0
 10
13.0026693252
 20
12.2006944624
 30
0.0
 10
13.0183507424
 20
12.2015947342
 30
0.0
 10
13.0260696044
 20
12.2015947342
 30
0.0
  0
SPLINE
  5
45F
100
AcDbEntity
  8
0
100
AcDbSpline
 62
7
  6
CONTINUOUS
 70
0
 71
3
 72
9
 73
5
 74
0
 42
0.0000001
 43
0.0000001
 44
0.0000000001
 40
0.0
 40
0.0
 40
0.0
 40
0.0
 40
0.508661058
 40
1.0
 40
1.0
 40
1.0
 40
1.0
 10
15.4200228068
 20
12.0084967704
 30
0.0
 10
15.445729019
 20
11.9918411133
 30
0.0
 10
15.4952823075
 20
11.9575476465
 30
0.0
 10
15.5424771091
 20
11.9200599171
 30
0.0
 10
15.5649637074
 20
11.9008307657
 30
0.0
  0
SPLINE
  5
460
100
AcDbEntity
  8
0
100
AcDbSpline
 62
7
  6
CONTINUOUS
 70
0
 71
3
 72
18
 73
14
 74
0
 42
0.0000001
 43
0.0000001
 44
0.0000000001
 40
0.0
 40
0.0
 40
0.0
 40
0.0
 40
0.0564285504
 40
0.1130427161
 40
0.1700263797
 40
0.2275527505
 40
0.2857842628
 40
0.3448697116
 40
0.4659944234
 40
0.5917705653
 40
0.7226874834
 40
0.8589145676
 40
1.0
 40
1.0
 40
1.0
 40
1.0
 10
12.4946827505
 20
11.8283379763
 30
0.0
 10
12.4968342833
 20
11.8239521469
 30
0.0
 10
12.5015129077
 20
11.8153413024
 30
0.0
 10
12.5096040694
 20
11.8030257369
 30
0.0
 10
12.5187405901
 20
11.7913427681
 30
0.0
 10
12.5288855879
 20
11.7803340491
 30
0.0
 10
12.5400048184
 20
11.7700400701
 30
0.0
 10
12.5562060109
 20
11.7572205241
 30
0.0
 10
12.5787851217
 20
11.7431736288
 30
0.0
 10
12.6087774678
 20
11.7298887046
 30
0.0
 10
12.641472599
 20
11.7201863724
 30
0.0
 10
12.6763806801
 20
11.7142175069
 30
0.0
 10
12.7003976267
 20
11.7127749218
 30
0.0
 10
12.7126111744
 20
11.7126623084
 30
0.0
  0
SPLINE
  5
461
100
AcDbEntity
  8
0
100
AcDbSpline
 62
7
  6
CONTINUOUS
 70
0
 71
3
 72
15
 73
11
 74
0
 42
0.0000001
 43
0.0000001
 44
0.0000000001
 40
0.0
 40
0.0
 40
0.0
 40
0.0
 40
0.0920920598
 40
0.1987026702
 40
0.3183612795
 40
0.4492452445
 40
0.5886113052
 40
0.7319971918
 40
0.8723274355
 40
1.0
 40
1.0
 40
1.0
 40
1.0
 10
17.0250531524
 20
11.0891753868
 30
0.0
 10
17.0263435382
 20
11.0911721271
 30
0.0
 10
17.0290080807
 20
11.0955578334
 30
0.0
 10
17.0330108948
 20
11.1027373148
 30
0.0
 10
17.0372509753
 20
11.1109261499
 30
0.0
 10
17.0416327513
 20
11.1199893812
 30
0.0
 10
17.0460252283
 20
11.129723737
 30
0.0
 10
17.0502430718
 20
11.1398003144
 30
0.0
 10
17.0540395938
 20
11.1497205359
 30
0.0
 10
17.056269006
 20
11.1562732226
 30
0.0
 10
17.0572421231
 20
11.1594222307
 30
0.0
  0
SPLINE
  5
462
100
AcDbEntity
  8
0
100
AcDbSpline
 62
7
  6
CONTINUOUS
 70
0
 71
3
 72
16
 73
12
 74
0
 42
0.0000001
 43
0.0000001
 44
0.0000000001
 40
0.0
 40
0.0
 40
0.0
 40
0.0
 40
0.0520394086
 40
0.1108470821
 40
0.2416058472
 40
0.3797942661
 40
0.5174316815
 40
0.6502335454
 40
0.7758638916
 40
0.892867935
 40
1.0
 40
1.0
 40
1.0
 40
1.0
 10
17.9790557015
 20
11.0891753868
 30
0.0
 10
17.9783990523
 20
11.0905134973
 30
0.0
 10
17.9769322729
 20
11.0933304196
 30
0.0
 10
17.9735389474
 20
11.0993624306
 30
0.0
 10
17.9686263837
 20
11.1073659621
 30
0.0
 10
17.9622104423
 20
11.1170864264
 30
0.0
 10
17.9555079307
 20
11.1266829205
 30
0.0
 10
17.9488022783
 20
11.1358344835
 30
0.0
 10
17.9422617632
 20
11.1443713081
 30
0.0
 10
17.9359966754
 20
11.1521898131
 30
0.0
 10
17.9318637469
 20
11.1571035276
 30
0.0
 10
17.9298538746
 20
11.1594222307
 30
0.0
  0
SPLINE
  5
463
100
AcDbEntity
  8
0
100
AcDbSpline
 62
7
  6
CONTINUOUS
 70
0
 71
3
 72
14
 73
10
 74
0
 42
0.0000001
 43
0.0000001
 44
0.0000000001
 40
0.0
 40
0.0
 40
0.0
 40
0.0
 40
0.1201321141
 40
0.2446535622
 40
0.3716777622
 40
0.4996241599
 40
0.6272797466
 40
0.7537157933
 40
1.0
 40
1.0
 40
1.0
 40
1.0
 10
13.0791328658
 20
11.1455477036
 30
0.0
 10
13.0793989079
 20
11.1427099308
 30
0.0
 10
13.0804949365
 20
11.1369751614
 30
0.0
 10
13.0834681376
 20
11.1286451606
 30
0.0
 10
13.0875775353
 20
11.1206084958
 30
0.0
 10
13.0926088898
 20
11.11303195
 30
0.0
 10
13.0983806025
 20
11.1060221309
 30
0.0
 10
13.1067785007
 20
11.0976151585
 30
0.0
 10
13.1138819941
 20
11.0922341327
 30
0.0
 10
13.118860726
 20
11.0891753868
 30
0.0
  0
SPLINE
  5
464
100
AcDbEntity
  8
0
100
AcDbSpline
 62
7
  6
CONTINUOUS
 70
0
 71
3
 72
15
 73
11
 74
0
 42
0.0000001
 43
0.0000001
 44
0.0000000001
 40
0.0
 40
0.0
 40
0.0
 40
0.0
 40
0.1182430548
 40
0.2471591426
 40
0.3822053743
 40
0.5190098762
 40
0.6532482615
 40
0.780745406
 40
0.8975323162
 40
1.0
 40
1.0
 40
1.0
 40
1.0
 10
17.7347279449
 20
11.8099467272
 30
0.0
 10
17.7343197652
 20
11.8085959492
 30
0.0
 10
17.7336334586
 20
11.8057212009
 30
0.0
 10
17.7329700839
 20
11.8012036535
 30
0.0
 10
17.7326608107
 20
11.7964259604
 30
0.0
 10
17.7327095604
 20
11.7915754736
 30
0.0
 10
17.7331188271
 20
11.7868323176
 30
0.0
 10
17.7338677498
 20
11.7823714833
 30
0.0
 10
17.7349350579
 20
11.7783672738
 30
0.0
 10
17.7358904084
 20
11.7759210655
 30
0.0
 10
17.7364291689
 20
11.7748233053
 30
0.0
  0
LINE
  5
465
100
AcDbEntity
  8
0
100
AcDbLine
 62
7
  6
CONTINUOUS
 10
17.1685825047
 20
11.7814890819
 11
17.1831016264
 21
11.7781001704
  0
SPLINE
  5
466
100
AcDbEntity
  8
0
100
AcDbSpline
 62
7
  6
CONTINUOUS
 70
0
 71
3
 72
18
 73
14
 74
0
 42
0.0000001
 43
0.0000001
 44
0.0000000001
 40
0.0
 40
0.0
 40
0.0
 40
0.0
 40
0.1231712909
 40
0.2477870758
 40
0.37254734
 40
0.497494643
 40
0.6226375788
 40
0.6853118659
 40
0.7480940773
 40
0.8109951867
 40
0.874126628
 40
0.9376149255
 40
1.0
 40
1.0
 40
1.0
 40
1.0
 10
17.1831016264
 20
11.7781001704
 30
0.0
 10
17.183703064
 20
11.7779691367
 30
0.0
 10
17.1849315399
 20
11.7777992557
 30
0.0
 10
17.1867471053
 20
11.7773834487
 30
0.0
 10
17.188581283
 20
11.7770160415
 30
0.0
 10
17.1904159728
 20
11.7766375006
 30
0.0
 10
17.1919479734
 20
11.7763276319
 30
0.0
 10
17.1931745569
 20
11.7760747235
 30
0.0
 10
17.1940963278
 20
11.7758841889
 30
0.0
 10
17.1950192034
 20
11.775686409
 30
0.0
 10
17.1959406552
 20
11.7754703825
 30
0.0
 10
17.1968666466
 20
11.7752706136
 30
0.0
 10
17.1974394368
 20
11.7749913324
 30
0.0
 10
17.1977020511
 20
11.7748233053
 30
0.0
  0
SPLINE
  5
467
100
AcDbEntity
  8
0
100
AcDbSpline
 62
7
  6
CONTINUOUS
 70
0
 71
3
 72
10
 73
6
 74
0
 42
0.0000001
 43
0.0000001
 44
0.0000000001
 40
0.0
 40
0.0
 40
0.0
 40
0.0
 40
0.2495265884
 40
0.4998325579
 40
1.0
 40
1.0
 40
1.0
 40
1.0
 10
17.2333127876
 20
12.2994951501
 30
0.0
 10
17.2388988048
 20
12.3012461183
 30
0.0
 10
17.2502825968
 20
12.3041535374
 30
0.0
 10
17.2734483165
 20
12.3079701816
 30
0.0
 10
17.2910914989
 20
12.3089546916
 30
0.0
 10
17.3028256677
 20
12.3089559598
 30
0.0
  0
SPLINE
  5
468
100
AcDbEntity
  8
0
100
AcDbSpline
 62
7
  6
CONTINUOUS
 70
0
 71
3
 72
14
 73
10
 74
0
 42
0.0000001
 43
0.0000001
 44
0.0000000001
 40
0.0
 40
0.0
 40
0.0
 40
0.0
 40
0.1164573106
 40
0.2338088097
 40
0.3529342625
 40
0.4746577446
 40
0.5997251127
 40
0.7287536573
 40
1.0
 40
1.0
 40
1.0
 40
1.0
 10
14.1129831467
 20
11.384473549
 30
0.0
 10
14.1109117308
 20
11.3777701468
 30
0.0
 10
14.1074780945
 20
11.3640755423
 30
0.0
 10
14.1045463033
 20
11.3429768559
 30
0.0
 10
14.1038364009
 20
11.3213691673
 30
0.0
 10
14.1053418184
 20
11.2993400637
 30
0.0
 10
14.1090599912
 20
11.2769701793
 30
0.0
 10
14.1170763211
 20
11.2463189596
 30
0.0
 10
14.1261814332
 20
11.2238419838
 30
0.0
 10
14.1333806297
 20
11.2091715637
 30
0.0
  0
SPLINE
  5
469
100
AcDbEntity
  8
0
100
AcDbSpline
 62
7
  6
CONTINUOUS
 70
0
 71
3
 72
13
 73
9
 74
0
 42
0.0000001
 43
0.0000001
 44
0.0000000001
 40
0.0
 40
0.0
 40
0.0
 40
0.0
 40
0.1151744249
 40
0.235720508
 40
0.3599701255
 40
0.4866248796
 40
0.7432448096
 40
1.0
 40
1.0
 40
1.0
 40
1.0
 10
12.1645925239
 20
11.1086376796
 30
0.0
 10
12.1653604958
 20
11.111122655
 30
0.0
 10
12.1673568102
 20
11.1160809731
 30
0.0
 10
12.1713034349
 20
11.1232037699
 30
0.0
 10
12.1760786203
 20
11.1301148043
 30
0.0
 10
12.183359557
 20
11.1389793956
 30
0.0
 10
12.1937186004
 20
11.1491234724
 30
0.0
 10
12.2029531994
 20
11.1561833635
 30
0.0
 10
12.2077624494
 20
11.1594222307
 30
0.0
  0
SPLINE
  5
46A
100
AcDbEntity
  8
0
100
AcDbSpline
 62
7
  6
CONTINUOUS
 70
0
 71
3
 72
21
 73
17
 74
0
 42
0.0000001
 43
0.0000001
 44
0.0000000001
 40
0.0
 40
0.0
 40
0.0
 40
0.0
 40
0.136630775
 40
0.1974804962
 40
0.2540486752
 40
0.3072016224
 40
0.3580860324
 40
0.4080289996
 40
0.4584444063
 40
0.5107174504
 40
0.5660577997
 40
0.6254316791
 40
0.6895755838
 40
0.7589969016
 40
0.8338926853
 40
1.0
 40
1.0
 40
1.0
 40
1.0
 10
15.6698548996
 20
11.3052309048
 30
0.0
 10
15.6680573837
 20
11.3028360214
 30
0.0
 10
15.6651776885
 20
11.2995531712
 30
0.0
 10
15.6608201063
 20
11.2960677121
 30
0.0
 10
15.6576045118
 20
11.2941354319
 30
0.0
 10
15.6543293296
 20
11.2928037691
 30
0.0
 10
15.6510142043
 20
11.2920828958
 30
0.0
 10
15.6476820841
 20
11.291980353
 30
0.0
 10
15.644358564
 20
11.2924993914
 30
0.0
 10
15.6410696115
 20
11.2936366114
 30
0.0
 10
15.6378335966
 20
11.2953749367
 30
0.0
 10
15.6346639898
 20
11.2976999068
 30
0.0
 10
15.6315740828
 20
11.3005993173
 30
0.0
 10
15.6285792619
 20
11.3040588797
 30
0.0
 10
15.6245908022
 20
11.3095781885
 30
0.0
 10
15.6220020027
 20
11.3142066613
 30
0.0
 10
15.6203982387
 20
11.3174747887
 30
0.0
  0
SPLINE
  5
46B
100
AcDbEntity
  8
0
100
AcDbSpline
 62
7
  6
CONTINUOUS
 70
0
 71
3
 72
14
 73
10
 74
0
 42
0.0000001
 43
0.0000001
 44
0.0000000001
 40
0.0
 40
0.0
 40
0.0
 40
0.0
 40
0.0861367633
 40
0.1780083493
 40
0.2800448322
 40
0.3951062706
 40
0.5248604063
 40
0.6696234537
 40
1.0
 40
1.0
 40
1.0
 40
1.0
 10
17.8937357074
 20
12.30895425
 30
0.0
 10
17.8933647151
 20
12.3089544567
 30
0.0
 10
17.8925940485
 20
12.3088409722
 30
0.0
 10
17.8914824915
 20
12.3083427246
 30
0.0
 10
17.8904116634
 20
12.3075380588
 30
0.0
 10
17.8893887033
 20
12.306441185
 30
0.0
 10
17.8884237965
 20
12.305063101
 30
0.0
 10
17.8871721988
 20
12.302774053
 30
0.0
 10
17.8864384401
 20
12.3008520077
 30
0.0
 10
17.8860098543
 20
12.2994951501
 30
0.0
  0
SPLINE
  5
46C
100
AcDbEntity
  8
0
100
AcDbSpline
 62
7
  6
CONTINUOUS
 70
0
 71
3
 72
16
 73
12
 74
0
 42
0.0000001
 43
0.0000001
 44
0.0000000001
 40
0.0
 40
0.0
 40
0.0
 40
0.0
 40
0.1101204243
 40
0.1673514613
 40
0.2259869781
 40
0.3471876389
 40
0.4731077005
 40
0.6027044032
 40
0.7346687499
 40
0.8676499227
 40
1.0
 40
1.0
 40
1.0
 40
1.0
 10
16.9608489537
 20
12.0425796728
 30
0.0
 10
16.9643841957
 20
12.0564405972
 30
0.0
 10
16.9716014343
 20
12.0770777656
 30
0.0
 10
16.9843857089
 20
12.1035211822
 30
0.0
 10
16.9997820924
 20
12.1302210605
 30
0.0
 10
17.0232115296
 20
12.1624518826
 30
0.0
 10
17.056864702
 20
12.1981430984
 30
0.0
 10
17.0955932018
 20
12.2304708177
 30
0.0
 10
17.1384990103
 20
12.2587001796
 30
0.0
 10
17.1845787731
 20
12.2821609856
 30
0.0
 10
17.2169075606
 20
12.2943528403
 30
0.0
 10
17.2333127876
 20
12.2994951501
 30
0.0
  0
SPLINE
  5
46D
100
AcDbEntity
  8
0
100
AcDbSpline
 62
7
  6
CONTINUOUS
 70
0
 71
3
 72
11
 73
7
 74
0
 42
0.0000001
 43
0.0000001
 44
0.0000000001
 40
0.0
 40
0.0
 40
0.0
 40
0.0
 40
0.2635211299
 40
0.5166886449
 40
0.7610879352
 40
1.0
 40
1.0
 40
1.0
 40
1.0
 10
17.1830229539
 20
12.0547209387
 30
0.0
 10
17.1810191255
 20
12.0482365476
 30
0.0
 10
17.177997006
 20
12.0352161564
 30
0.0
 10
17.1766162922
 20
12.0155750246
 30
0.0
 10
17.1785753766
 20
11.9966114578
 30
0.0
 10
17.182108309
 20
11.9845872283
 30
0.0
 10
17.1843950273
 20
11.9788747763
 30
0.0
  0
SPLINE
  5
46E
100
AcDbEntity
  8
0
100
AcDbSpline
 62
7
  6
CONTINUOUS
 70
0
 71
3
 72
18
 73
14
 74
0
 42
0.0000001
 43
0.0000001
 44
0.0000000001
 40
0.0
 40
0.0
 40
0.0
 40
0.0
 40
0.0613992273
 40
0.1242952579
 40
0.2531906947
 40
0.3844827023
 40
0.4503732176
 40
0.5159893549
 40
0.5810296604
 40
0.6452123411
 40
0.7698790846
 40
0.8885040239
 40
1.0
 40
1.0
 40
1.0
 40
1.0
 10
17.4011093259
 20
12.2015947342
 30
0.0
 10
17.3953962529
 20
12.2015947342
 30
0.0
 10
17.383825681
 20
12.2011017507
 30
0.0
 10
17.3604212318
 20
12.1982455203
 30
0.0
 10
17.3310798698
 20
12.1911745033
 30
0.0
 10
17.302805009
 20
12.1798776834
 30
0.0
 10
17.2811648986
 20
12.1684549583
 30
0.0
 10
17.2656212543
 20
12.1587884775
 30
0.0
 10
17.2509447476
 20
12.1481164614
 30
0.0
 10
17.2328931401
 20
12.1328525328
 30
0.0
 10
17.2131637211
 20
12.1119545677
 30
0.0
 10
17.1946524953
 20
12.0844390886
 30
0.0
 10
17.1860859899
 20
12.0646329268
 30
0.0
 10
17.1830229539
 20
12.0547209387
 30
0.0
  0
SPLINE
  5
46F
100
AcDbEntity
  8
0
100
AcDbSpline
 62
7
  6
CONTINUOUS
 70
0
 71
3
 72
9
 73
5
 74
0
 42
0.0000001
 43
0.0000001
 44
0.0000000001
 40
0.0
 40
0.0
 40
0.0
 40
0.0
 40
0.2631681578
 40
1.0
 40
1.0
 40
1.0
 40
1.0
 10
15.6439448479
 20
11.5481031346
 30
0.0
 10
15.6433825997
 20
11.5488526574
 30
0.0
 10
15.6411946662
 20
11.5516610683
 30
0.0
 10
15.6387883691
 20
11.5543046015
 30
0.0
 10
15.6368786286
 20
11.5561032003
 30
0.0
  0
SPLINE
  5
470
100
AcDbEntity
  8
0
100
AcDbSpline
 62
7
  6
CONTINUOUS
 70
0
 71
3
 72
9
 73
5
 74
0
 42
0.0000001
 43
0.0000001
 44
0.0000000001
 40
0.0
 40
0.0
 40
0.0
 40
0.0
 40
0.2633851696
 40
1.0
 40
1.0
 40
1.0
 40
1.0
 10
15.6368786286
 20
11.5561032003
 30
0.0
 10
15.6362648326
 20
11.5566812751
 30
0.0
 10
15.6338808549
 20
11.5588172123
 30
0.0
 10
15.6312672311
 20
11.5607065999
 30
0.0
 10
15.629223187
 20
11.561882363
 30
0.0
  0
SPLINE
  5
471
100
AcDbEntity
  8
0
100
AcDbSpline
 62
7
  6
CONTINUOUS
 70
0
 71
3
 72
9
 73
5
 74
0
 42
0.0000001
 43
0.0000001
 44
0.0000000001
 40
0.0
 40
0.0
 40
0.0
 40
0.0
 40
0.2399107608
 40
1.0
 40
1.0
 40
1.0
 40
1.0
 10
13.9763987578
 20
12.1646840447
 30
0.0
 10
13.986112969
 20
12.1707745795
 30
0.0
 10
14.0273563973
 20
12.194955838
 30
0.0
 10
14.0712967389
 20
12.2144083309
 30
0.0
 10
14.105427015
 20
12.2268450415
 30
0.0
  0
SPLINE
  5
472
100
AcDbEntity
  8
0
100
AcDbSpline
 62
7
  6
CONTINUOUS
 70
0
 71
3
 72
23
 73
19
 74
0
 42
0.0000001
 43
0.0000001
 44
0.0000000001
 40
0.0
 40
0.0
 40
0.0
 40
0.0
 40
0.050457939
 40
0.1017379718
 40
0.1279431124
 40
0.154613055
 40
0.209549542
 40
0.2669478406
 40
0.3269536256
 40
0.3895188093
 40
0.4544224162
 40
0.5213112625
 40
0.5897190538
 40
0.7287276322
 40
0.7982921025
 40
0.8670508302
 40
0.9344848666
 40
1.0
 40
1.0
 40
1.0
 40
1.0
 10
18.1482483923
 20
12.1257020827
 30
0.0
 10
18.153075003
 20
12.1158639161
 30
0.0
 10
18.1609628758
 20
12.0950645053
 30
0.0
 10
18.1658761523
 20
12.0675581276
 30
0.0
 10
18.166922185
 20
12.0449384775
 30
0.0
 10
18.1660137317
 20
12.0215166189
 30
0.0
 10
18.1610999885
 20
11.991591404
 30
0.0
 10
18.1495318476
 20
11.9558648241
 30
0.0
 10
18.1324754707
 20
11.9205715063
 30
0.0
 10
18.1102428072
 20
11.8863442994
 30
0.0
 10
18.0832550175
 20
11.8537754164
 30
0.0
 10
18.0519850452
 20
11.8234432027
 30
0.0
 10
18.0051289401
 20
11.7865275236
 30
0.0
 10
17.9524774816
 20
11.7564939298
 30
0.0
 10
17.8963416399
 20
11.7344760332
 30
0.0
 10
17.8532605953
 20
11.7223058109
 30
0.0
 10
17.8100394033
 20
11.7147350298
 30
0.0
 10
17.7811612363
 20
11.7127927515
 30
0.0
 10
17.766933379
 20
11.7126623084
 30
0.0
  0
SPLINE
  5
473
100
AcDbEntity
  8
0
100
AcDbSpline
 62
7
  6
CONTINUOUS
 70
0
 71
3
 72
9
 73
5
 74
0
 42
0.0000001
 43
0.0000001
 44
0.0000000001
 40
0.0
 40
0.0
 40
0.0
 40
0.0
 40
0.255419418
 40
1.0
 40
1.0
 40
1.0
 40
1.0
 10
14.0584626148
 20
12.2617316626
 30
0.0
 10
14.0529694016
 20
12.2591027526
 30
0.0
 10
14.0316015731
 20
12.2485240822
 30
0.0
 10
14.0108050372
 20
12.2367804611
 30
0.0
 10
13.9957640637
 20
12.2273501975
 30
0.0
  0
SPLINE
  5
474
100
AcDbEntity
  8
0
100
AcDbSpline
 62
7
  6
CONTINUOUS
 70
0
 71
3
 72
11
 73
7
 74
0
 42
0.0000001
 43
0.0000001
 44
0.0000000001
 40
0.0
 40
0.0
 40
0.0
 40
0.0
 40
0.1596860423
 40
0.3722500537
 40
0.6500731337
 40
1.0
 40
1.0
 40
1.0
 40
1.0
 10
17.5652781175
 20
12.8131582231
 30
0.0
 10
17.5654319347
 20
12.8129849227
 30
0.0
 10
17.5656861732
 20
12.8124921126
 30
0.0
 10
17.5658807688
 20
12.8115649569
 30
0.0
 10
17.5659440869
 20
12.8103435901
 30
0.0
 10
17.5658967536
 20
12.8094328116
 30
0.0
 10
17.5658542761
 20
12.8089268202
 30
0.0
  0
SPLINE
  5
475
100
AcDbEntity
  8
0
100
AcDbSpline
 62
7
  6
CONTINUOUS
 70
0
 71
3
 72
11
 73
7
 74
0
 42
0.0000001
 43
0.0000001
 44
0.0000000001
 40
0.0
 40
0.0
 40
0.0
 40
0.0
 40
0.1836554035
 40
0.4127865559
 40
0.6862418762
 40
1.0
 40
1.0
 40
1.0
 40
1.0
 10
17.5658542761
 20
12.8089268202
 30
0.0
 10
17.565778957
 20
12.8080296197
 30
0.0
 10
17.565496849
 20
12.8060228308
 30
0.0
 10
17.5648153918
 20
12.8027271405
 30
0.0
 10
17.5638225212
 20
12.798848935
 30
0.0
 10
17.5630097153
 20
12.7960867589
 30
0.0
 10
17.5625555732
 20
12.7946171545
 30
0.0
  0
SPLINE
  5
476
100
AcDbEntity
  8
0
100
AcDbSpline
 62
7
  6
CONTINUOUS
 70
0
 71
3
 72
13
 73
9
 74
0
 42
0.0000001
 43
0.0000001
 44
0.0000000001
 40
0.0
 40
0.0
 40
0.0
 40
0.0
 40
0.1128250051
 40
0.2304787316
 40
0.3522032421
 40
0.4772945094
 40
0.7350832745
 40
1.0
 40
1.0
 40
1.0
 40
1.0
 10
18.4864940517
 20
12.8135367624
 30
0.0
 10
18.4844102799
 20
12.8135367598
 30
0.0
 10
18.4801511709
 20
12.8132513727
 30
0.0
 10
18.4737334405
 20
12.8121383554
 30
0.0
 10
18.4672185715
 20
12.8104148697
 30
0.0
 10
18.4584054974
 20
12.8073633311
 30
0.0
 10
18.4475130164
 20
12.8023397078
 30
0.0
 10
18.439225569
 20
12.7973502448
 30
0.0
 10
18.4351673248
 20
12.7946171545
 30
0.0
  0
SPLINE
  5
477
100
AcDbEntity
  8
0
100
AcDbSpline
 62
7
  6
CONTINUOUS
 70
0
 71
3
 72
15
 73
11
 74
0
 42
0.0000001
 43
0.0000001
 44
0.0000000001
 40
0.0
 40
0.0
 40
0.0
 40
0.0
 40
0.1128684023
 40
0.2283269169
 40
0.347009707
 40
0.4694207258
 40
0.5959034059
 40
0.7266484915
 40
0.8614949938
 40
1.0
 40
1.0
 40
1.0
 40
1.0
 10
14.5812621887
 20
12.085660831
 30
0.0
 10
14.5787857951
 20
12.0885174417
 30
0.0
 10
14.5733828478
 20
12.0939662015
 30
0.0
 10
14.5642004157
 20
12.1011377617
 30
0.0
 10
14.5539492232
 20
12.1073193462
 30
0.0
 10
14.5427288216
 20
12.112447655
 30
0.0
 10
14.5306471483
 20
12.1164858536
 30
0.0
 10
14.5178172681
 20
12.1193854203
 30
0.0
 10
14.5043769919
 20
12.1211289707
 30
0.0
 10
14.4952157091
 20
12.1215094466
 30
0.0
 10
14.4905764246
 20
12.1215094466
 30
0.0
  0
SPLINE
  5
478
100
AcDbEntity
  8
0
100
AcDbSpline
 62
7
  6
CONTINUOUS
 70
0
 71
3
 72
24
 73
20
 74
0
 42
0.0000001
 43
0.0000001
 44
0.0000000001
 40
0.0
 40
0.0
 40
0.0
 40
0.0
 40
0.0235175726
 40
0.0472932615
 40
0.0961177615
 40
0.1474760724
 40
0.2019565224
 40
0.2597800374
 40
0.3208606068
 40
0.3848695709
 40
0.4513099046
 40
0.5195859607
 40
0.589073862
 40
0.6591528464
 40
0.7292260124
 40
0.7987547311
 40
0.8673124204
 40
0.9345419103
 40
1.0
 40
1.0
 40
1.0
 40
1.0
 10
14.3041907225
 20
11.9471797516
 30
0.0
 10
14.3031472644
 20
11.9493052117
 30
0.0
 10
14.3012642971
 20
11.9536893684
 30
0.0
 10
14.2983499394
 20
11.9629310039
 30
0.0
 10
14.2963642744
 20
11.9753337721
 30
0.0
 10
14.2966682254
 20
11.9909729897
 30
0.0
 10
14.2995766968
 20
12.0072535712
 30
0.0
 10
14.3050172015
 20
12.0238929634
 30
0.0
 10
14.3128731965
 20
12.0405960279
 30
0.0
 10
14.3230049134
 20
12.0570472686
 30
0.0
 10
14.3352342245
 20
12.0729264709
 30
0.0
 10
14.3493683115
 20
12.0879030202
 30
0.0
 10
14.3651730171
 20
12.101669247
 30
0.0
 10
14.3824043313
 20
12.1139183021
 30
0.0
 10
14.4007784695
 20
12.1243883793
 30
0.0
 10
14.4200085662
 20
12.1328199996
 30
0.0
 10
14.4397741813
 20
12.1390232881
 30
0.0
 10
14.4597240239
 20
12.1428126295
 30
0.0
 10
14.4730956664
 20
12.1437016471
 30
0.0
 10
14.4796860744
 20
12.1437016471
 30
0.0
  0
SPLINE
  5
479
100
AcDbEntity
  8
0
100
AcDbSpline
 62
7
  6
CONTINUOUS
 70
0
 71
3
 72
9
 73
5
 74
0
 42
0.0000001
 43
0.0000001
 44
0.0000000001
 40
0.0
 40
0.0
 40
0.0
 40
0.0
 40
0.2396925842
 40
1.0
 40
1.0
 40
1.0
 40
1.0
 10
15.6315172332
 20
11.2583783211
 30
0.0
 10
15.6320435229
 20
11.2587365609
 30
0.0
 10
15.6342015339
 20
11.2602863004
 30
0.0
 10
15.6362078095
 20
11.2620428369
 30
0.0
 10
15.6376491273
 20
11.2634573182
 30
0.0
  0
SPLINE
  5
47A
100
AcDbEntity
  8
0
100
AcDbSpline
 62
7
  6
CONTINUOUS
 70
0
 71
3
 72
9
 73
5
 74
0
 42
0.0000001
 43
0.0000001
 44
0.0000000001
 40
0.0
 40
0.0
 40
0.0
 40
0.0
 40
0.2386863122
 40
1.0
 40
1.0
 40
1.0
 40
1.0
 10
15.6376491273
 20
11.2634573182
 30
0.0
 10
15.6381950032
 20
11.2639930302
 30
0.0
 10
15.640433153
 20
11.2662871148
 30
0.0
 10
15.6424807731
 20
11.2687635531
 30
0.0
 10
15.6439450851
 20
11.2707147027
 30
0.0
  0
SPLINE
  5
47B
100
AcDbEntity
  8
0
100
AcDbSpline
 62
7
  6
CONTINUOUS
 70
0
 71
3
 72
16
 73
12
 74
0
 42
0.0000001
 43
0.0000001
 44
0.0000000001
 40
0.0
 40
0.0
 40
0.0
 40
0.0
 40
0.3576696787
 40
0.5138620922
 40
0.6529213568
 40
0.7731072985
 40
0.8722445126
 40
0.9132491616
 40
0.9481949116
 40
0.9770171348
 40
1.0
 40
1.0
 40
1.0
 40
1.0
 10
12.7130758995
 20
12.7946171545
 30
0.0
 10
12.7108564764
 20
12.7971776074
 30
0.0
 10
12.7076089502
 20
12.8008070856
 30
0.0
 10
12.7033084852
 20
12.8052540689
 30
0.0
 10
12.7004817646
 20
12.8079942368
 30
0.0
 10
12.6979421791
 20
12.8102490278
 30
0.0
 10
12.6959950689
 20
12.8117690187
 30
0.0
 10
12.6946021914
 20
12.8126716587
 30
0.0
 10
12.6937265415
 20
12.8131430895
 30
0.0
 10
12.6929605091
 20
12.813445374
 30
0.0
 10
12.6924710644
 20
12.81353676
 30
0.0
 10
12.6922533304
 20
12.8135367617
 30
0.0
  0
SPLINE
  5
47C
100
AcDbEntity
  8
0
100
AcDbSpline
 62
7
  6
CONTINUOUS
 70
0
 71
3
 72
9
 73
5
 74
0
 42
0.0000001
 43
0.0000001
 44
0.0000000001
 40
0.0
 40
0.0
 40
0.0
 40
0.0
 40
0.2544459678
 40
1.0
 40
1.0
 40
1.0
 40
1.0
 10
14.5458781294
 20
12.3489975879
 30
0.0
 10
14.5345979753
 20
12.349319742
 30
0.0
 10
14.4902536689
 20
12.3500900617
 30
0.0
 10
14.4458690513
 20
12.3488488526
 30
0.0
 10
14.4128747375
 20
12.3466797044
 30
0.0
  0
SPLINE
  5
47D
100
AcDbEntity
  8
0
100
AcDbSpline
 62
7
  6
CONTINUOUS
 70
0
 71
3
 72
9
 73
5
 74
0
 42
0.0000001
 43
0.0000001
 44
0.0000000001
 40
0.0
 40
0.0
 40
0.0
 40
0.0
 40
0.4922118878
 40
1.0
 40
1.0
 40
1.0
 40
1.0
 10
14.3935094316
 20
12.2840135517
 30
0.0
 10
14.4236833614
 20
12.2859972791
 30
0.0
 10
14.485139018
 20
12.2879128264
 30
0.0
 10
14.5465849588
 20
12.2859364965
 30
0.0
 10
14.5777216304
 20
12.2840135517
 30
0.0
  0
SPLINE
  5
47E
100
AcDbEntity
  8
0
100
AcDbSpline
 62
7
  6
CONTINUOUS
 70
0
 71
3
 72
15
 73
11
 74
0
 42
0.0000001
 43
0.0000001
 44
0.0000000001
 40
0.0
 40
0.0
 40
0.0
 40
0.0
 40
0.1185517496
 40
0.2476312149
 40
0.3827245392
 40
0.5194824056
 40
0.6536077942
 40
0.7809601509
 40
0.8976117958
 40
1.0
 40
1.0
 40
1.0
 40
1.0
 10
12.6806594532
 20
11.8099467272
 30
0.0
 10
12.6802331923
 20
11.8085972503
 30
0.0
 10
12.6795124004
 20
11.8057240241
 30
0.0
 10
12.6788026206
 20
11.8012057881
 30
0.0
 10
12.6784497605
 20
11.7964276322
 30
0.0
 10
12.6784599508
 20
11.7915766906
 30
0.0
 10
12.6788377866
 20
11.7868330146
 30
0.0
 10
12.6795635221
 20
11.7823715458
 30
0.0
 10
12.6806169797
 20
11.7783666228
 30
0.0
 10
12.6815686056
 20
11.7759205789
 30
0.0
 10
12.6821070111
 20
11.7748233053
 30
0.0
  0
SPLINE
  5
47F
100
AcDbEntity
  8
0
100
AcDbSpline
 62
7
  6
CONTINUOUS
 70
0
 71
3
 72
14
 73
10
 74
0
 42
0.0000001
 43
0.0000001
 44
0.0000000001
 40
0.0
 40
0.0
 40
0.0
 40
0.0
 40
0.3316063259
 40
0.4767062939
 40
0.6065819122
 40
0.7215224111
 40
0.8232050391
 40
0.9145276786
 40
1.0
 40
1.0
 40
1.0
 40
1.0
 10
12.8319413626
 20
12.2994951501
 30
0.0
 10
12.8323494669
 20
12.3008456787
 30
0.0
 10
12.8330521733
 20
12.3027596213
 30
0.0
 10
12.8342606956
 20
12.305043868
 30
0.0
 10
12.8351946203
 20
12.3064201036
 30
0.0
 10
12.836187379
 20
12.3075178252
 30
0.0
 10
12.8372294283
 20
12.3083261406
 30
0.0
 10
12.8383144096
 20
12.308831114
 30
0.0
 10
12.839069499
 20
12.3089509768
 30
0.0
 10
12.8394331334
 20
12.3089541264
 30
0.0
  0
SPLINE
  5
480
100
AcDbEntity
  8
0
100
AcDbSpline
 62
7
  6
CONTINUOUS
 70
0
 71
3
 72
9
 73
5
 74
0
 42
0.0000001
 43
0.0000001
 44
0.0000000001
 40
0.0
 40
0.0
 40
0.0
 40
0.0
 40
0.5160771615
 40
1.0
 40
1.0
 40
1.0
 40
1.0
 10
13.9034264104
 20
11.0814013095
 30
0.0
 10
13.8866728314
 20
11.1017112598
 30
0.0
 10
13.8561407836
 20
11.1427167587
 30
0.0
 10
13.830520284
 20
11.1870084931
 30
0.0
 10
13.8196442286
 20
11.2091715637
 30
0.0
  0
SPLINE
  5
481
100
AcDbEntity
  8
0
100
AcDbSpline
 62
7
  6
CONTINUOUS
 70
0
 71
3
 72
26
 73
22
 74
0
 42
0.0000001
 43
0.0000001
 44
0.0000000001
 40
0.0
 40
0.0
 40
0.0
 40
0.0
 40
0.0230103691
 40
0.0461114455
 40
0.0693922768
 40
0.0929383407
 40
0.1168309724
 40
0.141145436
 40
0.1912743535
 40
0.2438050796
 40
0.2990584303
 40
0.3572352401
 40
0.4184208354
 40
0.4826056367
 40
0.5496914038
 40
0.6195114436
 40
0.6918347909
 40
0.7663831412
 40
0.8428338298
 40
0.9208331898
 40
1.0
 40
1.0
 40
1.0
 40
1.0
 10
13.751872584
 20
11.5389717109
 30
0.0
 10
13.7543124266
 20
11.5468697805
 30
0.0
 10
13.7598139712
 20
11.5625153053
 30
0.0
 10
13.769872693
 20
11.5853497544
 30
0.0
 10
13.7817195438
 20
11.6075291896
 30
0.0
 10
13.7953292382
 20
11.6290085744
 30
0.0
 10
13.8106786147
 20
11.6497452561
 30
0.0
 10
13.8336502221
 20
11.6766151822
 30
0.0
 10
13.8667718808
 20
11.7081835982
 30
0.0
 10
13.9124584125
 20
11.7420256875
 30
0.0
 10
13.9641215827
 20
11.77200925
 30
0.0
 10
14.0213604249
 20
11.7979070923
 30
0.0
 10
14.0837314314
 20
11.8195530701
 30
0.0
 10
14.1507631688
 20
11.8367794538
 30
0.0
 10
14.2219425875
 20
11.8494755433
 30
0.0
 10
14.2967291376
 20
11.8575353327
 30
0.0
 10
14.374550831
 20
11.8609129432
 30
0.0
 10
14.4548121887
 20
11.8595707637
 30
0.0
 10
14.5368993099
 20
11.8535325788
 30
0.0
 10
14.6201782241
 20
11.8428331457
 30
0.0
 10
14.6757547734
 20
11.8327115504
 30
0.0
 10
14.7035959554
 20
11.8269051976
 30
0.0
  0
SPLINE
  5
482
100
AcDbEntity
  8
0
100
AcDbSpline
 62
7
  6
CONTINUOUS
 70
0
 71
3
 72
15
 73
11
 74
0
 42
0.0000001
 43
0.0000001
 44
0.0000000001
 40
0.0
 40
0.0
 40
0.0
 40
0.0
 40
0.1271071862
 40
0.2547856766
 40
0.3824392542
 40
0.5094744991
 40
0.6353032505
 40
0.7593579437
 40
0.8810924847
 40
1.0
 40
1.0
 40
1.0
 40
1.0
 10
14.7035959554
 20
11.8269051976
 30
0.0
 10
14.7302358455
 20
11.8213493775
 30
0.0
 10
14.7833717523
 20
11.8089060429
 30
0.0
 10
14.8621394599
 20
11.7864437076
 30
0.0
 10
14.9397338242
 20
11.7602551755
 30
0.0
 10
15.0156183727
 20
11.7305307839
 30
0.0
 10
15.0892668447
 20
11.6974693671
 30
0.0
 10
15.1601721556
 20
11.6613035098
 30
0.0
 10
15.2278415327
 20
11.622283012
 30
0.0
 10
15.2710549289
 20
11.5941735499
 30
0.0
 10
15.2919896275
 20
11.5796881993
 30
0.0
  0
SPLINE
  5
483
100
AcDbEntity
  8
0
100
AcDbSpline
 62
7
  6
CONTINUOUS
 70
0
 71
3
 72
14
 73
10
 74
0
 42
0.0000001
 43
0.0000001
 44
0.0000000001
 40
0.0
 40
0.0
 40
0.0
 40
0.0
 40
0.1388633464
 40
0.2740899614
 40
0.4054471615
 40
0.5327663499
 40
0.7748093187
 40
0.8895359297
 40
1.0
 40
1.0
 40
1.0
 40
1.0
 10
15.339008835
 20
11.5455772393
 30
0.0
 10
15.3536798513
 20
11.5344129498
 30
0.0
 10
15.3821518728
 20
11.5117279102
 30
0.0
 10
15.4226344312
 20
11.4762212644
 30
0.0
 10
15.4601942931
 20
11.439795284
 30
0.0
 10
15.5053996656
 20
11.3910291316
 30
0.0
 10
15.5451326493
 20
11.3402691857
 30
0.0
 10
15.5783586937
 20
11.2878425759
 30
0.0
 10
15.5925725569
 20
11.2615035745
 30
0.0
 10
15.599033327
 20
11.2483379092
 30
0.0
  0
SPLINE
  5
484
100
AcDbEntity
  8
0
100
AcDbSpline
 62
7
  6
CONTINUOUS
 70
0
 71
3
 72
28
 73
24
 74
0
 42
0.0000001
 43
0.0000001
 44
0.0000000001
 40
0.0
 40
0.0
 40
0.0
 40
0.0
 40
0.0645838717
 40
0.0955215723
 40
0.1254474598
 40
0.1823824378
 40
0.2096883286
 40
0.2363852437
 40
0.2626563066
 40
0.288717236
 40
0.3147976193
 40
0.3411242371
 40
0.3952343431
 40
0.4524811603
 40
0.4825589256
 40
0.5136227255
 40
0.5785511329
 40
0.6468277023
 40
0.7175388026
 40
0.789503094
 40
0.861400128
 40
0.9320029302
 40
1.0
 40
1.0
 40
1.0
 40
1.0
 10
14.4702731874
 20
12.1132415337
 30
0.0
 10
14.4771424969
 20
12.1132415337
 30
0.0
 10
14.4873380432
 20
12.1124109674
 30
0.0
 10
14.5003711142
 20
12.10946795
 30
0.0
 10
14.5122689182
 20
12.1054937666
 30
0.0
 10
14.5231541217
 20
12.0998350049
 30
0.0
 10
14.5324704656
 20
12.0925514423
 30
0.0
 10
14.5384989753
 20
12.0864706888
 30
0.0
 10
14.5435938645
 20
12.0797531977
 30
0.0
 10
14.5476973617
 20
12.0724628484
 30
0.0
 10
14.5507772234
 20
12.0646775279
 30
0.0
 10
14.5534943633
 20
12.0536477222
 30
0.0
 10
14.5541162605
 20
12.0388458235
 30
0.0
 10
14.5511236486
 20
12.0239702188
 30
0.0
 10
14.5467648763
 20
12.0121390068
 30
0.0
 10
14.5409006166
 20
12.000058208
 30
0.0
 10
14.5310943682
 20
11.9854792592
 30
0.0
 10
14.5161459849
 20
11.9696464417
 30
0.0
 10
14.4984062078
 20
11.9557764532
 30
0.0
 10
14.4785426273
 20
11.9443858697
 30
0.0
 10
14.4572873179
 20
11.9358937601
 30
0.0
 10
14.4354475326
 20
11.9306339141
 30
0.0
 10
14.4206855815
 20
11.9293721012
 30
0.0
 10
14.4134532353
 20
11.9293721012
 30
0.0
  0
SPLINE
  5
485
100
AcDbEntity
  8
0
100
AcDbSpline
 62
7
  6
CONTINUOUS
 70
0
 71
3
 72
28
 73
24
 74
0
 42
0.0000001
 43
0.0000001
 44
0.0000000001
 40
0.0
 40
0.0
 40
0.0
 40
0.0
 40
0.0645838717
 40
0.0955215723
 40
0.1254474598
 40
0.1823824378
 40
0.2096883286
 40
0.2363852437
 40
0.2626563066
 40
0.288717236
 40
0.3147976193
 40
0.3411242371
 40
0.3952343431
 40
0.4524811603
 40
0.4825589256
 40
0.5136227255
 40
0.5785511329
 40
0.6468277023
 40
0.7175388026
 40
0.789503094
 40
0.861400128
 40
0.9320029302
 40
1.0
 40
1.0
 40
1.0
 40
1.0
 10
14.4134532353
 20
11.9293721012
 30
0.0
 10
14.4065839258
 20
11.9293721012
 30
0.0
 10
14.3963883795
 20
11.9302026675
 30
0.0
 10
14.3833553085
 20
11.933145685
 30
0.0
 10
14.3714575045
 20
11.9371198683
 30
0.0
 10
14.360572301
 20
11.9427786301
 30
0.0
 10
14.3512559571
 20
11.9500621926
 30
0.0
 10
14.3452274474
 20
11.9561429461
 30
0.0
 10
14.3401325582
 20
11.9628604373
 30
0.0
 10
14.336029061
 20
11.9701507865
 30
0.0
 10
14.3329491993
 20
11.9779361071
 30
0.0
 10
14.3302320594
 20
11.9889659128
 30
0.0
 10
14.3296101622
 20
12.0037678115
 30
0.0
 10
14.3326027741
 20
12.0186434161
 30
0.0
 10
14.3369615464
 20
12.0304746282
 30
0.0
 10
14.3428258061
 20
12.042555427
 30
0.0
 10
14.3526320545
 20
12.0571343758
 30
0.0
 10
14.3675804378
 20
12.0729671933
 30
0.0
 10
14.3853202149
 20
12.0868371817
 30
0.0
 10
14.4051837954
 20
12.0982277652
 30
0.0
 10
14.4264391048
 20
12.1067198749
 30
0.0
 10
14.4482788901
 20
12.1119797208
 30
0.0
 10
14.4630408412
 20
12.1132415337
 30
0.0
 10
14.4702731874
 20
12.1132415337
 30
0.0
  0
SPLINE
  5
486
100
AcDbEntity
  8
0
100
AcDbSpline
 62
7
  6
CONTINUOUS
 70
0
 71
3
 72
9
 73
5
 74
0
 42
0.0000001
 43
0.0000001
 44
0.0000000001
 40
0.0
 40
0.0
 40
0.0
 40
0.0
 40
0.2451438495
 40
1.0
 40
1.0
 40
1.0
 40
1.0
 10
15.5843290133
 20
11.9634969184
 30
0.0
 10
15.5765615929
 20
11.9701391371
 30
0.0
 10
15.5445370533
 20
11.9968358926
 30
0.0
 10
15.5112081561
 20
12.0219599026
 30
0.0
 10
15.4854655069
 20
12.0400623305
 30
0.0
  0
SPLINE
  5
487
100
AcDbEntity
  8
0
100
AcDbSpline
 62
7
  6
CONTINUOUS
 70
0
 71
3
 72
32
 73
28
 74
0
 42
0.0000001
 43
0.0000001
 44
0.0000000001
 40
0.0
 40
0.0
 40
0.0
 40
0.0
 40
0.0305585638
 40
0.0634047891
 40
0.1350901412
 40
0.2132602296
 40
0.2959009248
 40
0.3806883377
 40
0.4651890325
 40
0.5469865109
 40
0.6238086288
 40
0.659718946
 40
0.6936695158
 40
0.7254717488
 40
0.7549883781
 40
0.7821430007
 40
0.8069080534
 40
0.8293510355
 40
0.8496666511
 40
0.8681808013
 40
0.8853994362
 40
0.9019998499
 40
0.9187452085
 40
0.9363842477
 40
0.9555338967
 40
0.9766438105
 40
1.0
 40
1.0
 40
1.0
 40
1.0
 10
15.6203982387
 20
11.3174747887
 30
0.0
 10
15.6192573448
 20
11.3197996861
 30
0.0
 10
15.6170776261
 20
11.3247168259
 30
0.0
 10
15.6131107454
 20
11.3354621711
 30
0.0
 10
15.6090027485
 20
11.3504218445
 30
0.0
 10
15.6055109371
 20
11.3698346406
 30
0.0
 10
15.6034413019
 20
11.390565269
 30
0.0
 10
15.6028605897
 20
11.4119253722
 30
0.0
 10
15.6037934154
 20
11.4332024449
 30
0.0
 10
15.6062091949
 20
11.4536828951
 30
0.0
 10
15.6094499129
 20
11.4698712729
 30
0.0
 10
15.6127707203
 20
11.4818553445
 30
0.0
 10
15.6155061754
 20
11.4900299869
 30
0.0
 10
15.6185220288
 20
11.4975252666
 30
0.0
 10
15.6217945325
 20
11.5042787925
 30
0.0
 10
15.6252929493
 20
11.5102378367
 30
0.0
 10
15.6289932506
 20
11.5153533808
 30
0.0
 10
15.6328717248
 20
11.5195818618
 30
0.0
 10
15.636899724
 20
11.5228917465
 30
0.0
 10
15.6410581206
 20
11.5252460382
 30
0.0
 10
15.6453198552
 20
11.5265990518
 30
0.0
 10
15.6496335783
 20
11.5269235073
 30
0.0
 10
15.6539349756
 20
11.5262053569
 30
0.0
 10
15.6581597489
 20
11.5244621005
 30
0.0
 10
15.6622727115
 20
11.5217402772
 30
0.0
 10
15.6662494066
 20
11.5180728606
 30
0.0
 10
15.6686665097
 20
11.5151685205
 30
0.0
 10
15.6698542989
 20
11.5135851538
 30
0.0
  0
SPLINE
  5
488
100
AcDbEntity
  8
0
100
AcDbSpline
 62
7
  6
CONTINUOUS
 70
0
 71
3
 72
9
 73
5
 74
0
 42
0.0000001
 43
0.0000001
 44
0.0000000001
 40
0.0
 40
0.0
 40
0.0
 40
0.0
 40
0.2551454107
 40
1.0
 40
1.0
 40
1.0
 40
1.0
 10
15.8088257003
 20
11.6874747328
 30
0.0
 10
15.8113277583
 20
11.6823642869
 30
0.0
 10
15.8208562051
 20
11.662200506
 30
0.0
 10
15.8292456869
 20
11.6414933895
 30
0.0
 10
15.8347457576
 20
11.6258191404
 30
0.0
  0
SPLINE
  5
489
100
AcDbEntity
  8
0
100
AcDbSpline
 62
7
  6
CONTINUOUS
 70
0
 71
3
 72
9
 73
5
 74
0
 42
0.0000001
 43
0.0000001
 44
0.0000000001
 40
0.0
 40
0.0
 40
0.0
 40
0.0
 40
0.2400091102
 40
1.0
 40
1.0
 40
1.0
 40
1.0
 10
15.8153804517
 20
11.5631529876
 30
0.0
 10
15.8117076015
 20
11.5736199747
 30
0.0
 10
15.795022246
 20
11.6167426122
 30
0.0
 10
15.7731069553
 20
11.6577634415
 30
0.0
 10
15.7543720784
 20
11.6874749813
 30
0.0
  0
SPLINE
  5
48A
100
AcDbEntity
  8
0
100
AcDbSpline
 62
7
  6
CONTINUOUS
 70
0
 71
3
 72
9
 73
5
 74
0
 42
0.0000001
 43
0.0000001
 44
0.0000000001
 40
0.0
 40
0.0
 40
0.0
 40
0.0
 40
0.258842859
 40
1.0
 40
1.0
 40
1.0
 40
1.0
 10
15.6552885271
 20
10.917559505
 30
0.0
 10
15.666843197
 20
10.9219653352
 30
0.0
 10
15.7111338472
 20
10.9398744562
 30
0.0
 10
15.7539801569
 20
10.9614596752
 30
0.0
 10
15.7843167842
 20
10.9797205019
 30
0.0
  0
SPLINE
  5
48B
100
AcDbEntity
  8
0
100
AcDbSpline
 62
7
  6
CONTINUOUS
 70
0
 71
3
 72
9
 73
5
 74
0
 42
0.0000001
 43
0.0000001
 44
0.0000000001
 40
0.0
 40
0.0
 40
0.0
 40
0.0
 40
0.2457161058
 40
1.0
 40
1.0
 40
1.0
 40
1.0
 10
13.6670519144
 20
11.6874748044
 30
0.0
 10
13.6695954368
 20
11.6823017213
 30
0.0
 10
13.6801953687
 20
11.6613713735
 30
0.0
 10
13.691766011
 20
11.640935386
 30
0.0
 10
13.7009658876
 20
11.6258191404
 30
0.0
  0
SPLINE
  5
48C
100
AcDbEntity
  8
0
100
AcDbSpline
 62
7
  6
CONTINUOUS
 70
0
 71
3
 72
9
 73
5
 74
0
 42
0.0000001
 43
0.0000001
 44
0.0000000001
 40
0.0
 40
0.0
 40
0.0
 40
0.0
 40
0.2589236185
 40
1.0
 40
1.0
 40
1.0
 40
1.0
 10
13.6816005817
 20
11.5631529876
 30
0.0
 10
13.6753815431
 20
11.5733714415
 30
0.0
 10
13.6522093935
 20
11.6133392312
 30
0.0
 10
13.6325532428
 20
11.6553948678
 30
0.0
 10
13.6205922084
 20
11.6874749813
 30
0.0
  0
SPLINE
  5
48D
100
AcDbEntity
  8
0
100
AcDbSpline
 62
7
  6
CONTINUOUS
 70
0
 71
3
 72
15
 73
11
 74
0
 42
0.0000001
 43
0.0000001
 44
0.0000000001
 40
0.0
 40
0.0
 40
0.0
 40
0.0
 40
0.1363271406
 40
0.2692372137
 40
0.3984127768
 40
0.5240306143
 40
0.6464819078
 40
0.7662409311
 40
0.8838491195
 40
1.0
 40
1.0
 40
1.0
 40
1.0
 10
14.4796860744
 20
12.1437016471
 30
0.0
 10
14.485449067
 20
12.1437016471
 30
0.0
 10
14.4968429546
 20
12.1430376565
 30
0.0
 10
14.5134557133
 20
12.1400200562
 30
0.0
 10
14.5291142255
 20
12.1350191572
 30
0.0
 10
14.5435633406
 20
12.128152652
 30
0.0
 10
14.5565760322
 20
12.1195443476
 30
0.0
 10
14.5679537223
 20
12.1093643842
 30
0.0
 10
14.5775034876
 20
12.0977971499
 30
0.0
 10
14.5825666062
 20
12.0892557212
 30
0.0
 10
14.5847303437
 20
12.084848104
 30
0.0
  0
SPLINE
  5
48E
100
AcDbEntity
  8
0
100
AcDbSpline
 62
7
  6
CONTINUOUS
 70
0
 71
3
 72
15
 73
11
 74
0
 42
0.0000001
 43
0.0000001
 44
0.0000000001
 40
0.0
 40
0.0
 40
0.0
 40
0.0
 40
0.1405238122
 40
0.27659798
 40
0.4076823168
 40
0.5337870549
 40
0.6553080064
 40
0.772894635
 40
0.8874191732
 40
1.0
 40
1.0
 40
1.0
 40
1.0
 10
17.6313745744
 20
12.2015947342
 30
0.0
 10
17.6378730262
 20
12.2015947342
 30
0.0
 10
17.6506743147
 20
12.2009743762
 30
0.0
 10
17.6693456644
 20
12.1981231331
 30
0.0
 10
17.6869439345
 20
12.1933745301
 30
0.0
 10
17.7032226463
 20
12.1867925778
 30
0.0
 10
17.7179702552
 20
12.1784568042
 30
0.0
 10
17.7309900795
 20
12.1684666413
 30
0.0
 10
17.7421056885
 20
12.1569595132
 30
0.0
 10
17.7481641852
 20
12.148317429
 30
0.0
 10
17.7508044634
 20
12.1438303481
 30
0.0
  0
SPLINE
  5
48F
100
AcDbEntity
  8
0
100
AcDbSpline
 62
7
  6
CONTINUOUS
 70
0
 71
3
 72
22
 73
18
 74
0
 42
0.0000001
 43
0.0000001
 44
0.0000000001
 40
0.0
 40
0.0
 40
0.0
 40
0.0
 40
0.0642533673
 40
0.1303801975
 40
0.1978293781
 40
0.2661367874
 40
0.3348430277
 40
0.4034362887
 40
0.4713910823
 40
0.5382258212
 40
0.6034998066
 40
0.6668512168
 40
0.7865715512
 40
0.8429687839
 40
0.8971132341
 40
0.9493021818
 40
1.0
 40
1.0
 40
1.0
 40
1.0
 10
14.4905764246
 20
12.1215094466
 30
0.0
 10
14.4844717041
 20
12.1215094466
 30
0.0
 10
14.4720765654
 20
12.1208336319
 30
0.0
 10
14.4534749611
 20
12.1179500549
 30
0.0
 10
14.4348614337
 20
12.1132011846
 30
0.0
 10
14.4165349989
 20
12.1066774605
 30
0.0
 10
14.3987782674
 20
12.0984711439
 30
0.0
 10
14.381858496
 20
12.0887214171
 30
0.0
 10
14.3660458653
 20
12.0775665279
 30
0.0
 10
14.3515825871
 20
12.0651901335
 30
0.0
 10
14.3386949187
 20
12.0517705716
 30
0.0
 10
14.324164557
 20
12.0331486134
 30
0.0
 10
14.3131075591
 20
12.0129683347
 30
0.0
 10
14.3065156145
 20
11.9920478269
 30
0.0
 10
14.3039646611
 20
11.9767407633
 30
0.0
 10
14.3037602036
 20
11.9617645627
 30
0.0
 10
14.3052234322
 20
11.9520449373
 30
0.0
 10
14.3063452275
 20
11.9473605807
 30
0.0
  0
SPLINE
  5
490
100
AcDbEntity
  8
0
100
AcDbSpline
 62
7
  6
CONTINUOUS
 70
0
 71
3
 72
9
 73
5
 74
0
 42
0.0000001
 43
0.0000001
 44
0.0000000001
 40
0.0
 40
0.0
 40
0.0
 40
0.0
 40
0.480835608
 40
1.0
 40
1.0
 40
1.0
 40
1.0
 10
15.6866310778
 20
11.5318043346
 30
0.0
 10
15.6884185201
 20
11.5281619103
 30
0.0
 10
15.6917078629
 20
11.5203734749
 30
0.0
 10
15.694277528
 20
11.512325196
 30
0.0
 10
15.6954511088
 20
11.5081045307
 30
0.0
  0
SPLINE
  5
491
100
AcDbEntity
  8
0
100
AcDbSpline
 62
7
  6
CONTINUOUS
 70
0
 71
3
 72
15
 73
11
 74
0
 42
0.0000001
 43
0.0000001
 44
0.0000000001
 40
0.0
 40
0.0
 40
0.0
 40
0.0
 40
0.1127213824
 40
0.2345939566
 40
0.3632767855
 40
0.4958957434
 40
0.6292685254
 40
0.7600218877
 40
0.8847047169
 40
1.0
 40
1.0
 40
1.0
 40
1.0
 10
15.6954511088
 20
11.5081045307
 30
0.0
 10
15.6974470595
 20
11.500926295
 30
0.0
 10
15.7006375467
 20
11.4857128804
 30
0.0
 10
15.7032577356
 20
11.4618169651
 30
0.0
 10
15.7039806442
 20
11.4364765569
 30
0.0
 10
15.7029507673
 20
11.4103929039
 30
0.0
 10
15.7003554256
 20
11.3842837855
 30
0.0
 10
15.6964168874
 20
11.358875456
 30
0.0
 10
15.6913717901
 20
11.3348848815
 30
0.0
 10
15.6872260546
 20
11.3195615865
 30
0.0
 10
15.6849760605
 20
11.3122806216
 30
0.0
  0
SPLINE
  5
492
100
AcDbEntity
  8
0
100
AcDbSpline
 62
7
  6
CONTINUOUS
 70
0
 71
3
 72
14
 73
10
 74
0
 42
0.0000001
 43
0.0000001
 44
0.0000000001
 40
0.0
 40
0.0
 40
0.0
 40
0.0
 40
0.3178357607
 40
0.4600556705
 40
0.5906623209
 40
0.7095932985
 40
0.8169934343
 40
0.9134167616
 40
1.0
 40
1.0
 40
1.0
 40
1.0
 10
15.680970561
 20
11.3002484107
 30
0.0
 10
15.6791111582
 20
11.2950706174
 30
0.0
 10
15.6761781894
 20
11.2876540471
 30
0.0
 10
15.6717385312
 20
11.2784400053
 30
0.0
 10
15.6684532183
 20
11.2725028566
 30
0.0
 10
15.6650972156
 20
11.2673086253
 30
0.0
 10
15.6616740479
 20
11.2628825854
 30
0.0
 10
15.65818641
 20
11.2592478781
 30
0.0
 10
15.6556955281
 20
11.2572672411
 30
0.0
 10
15.654444926
 20
11.256441347
 30
0.0
  0
SPLINE
  5
493
100
AcDbEntity
  8
0
100
AcDbSpline
 62
7
  6
CONTINUOUS
 70
0
 71
3
 72
10
 73
6
 74
0
 42
0.0000001
 43
0.0000001
 44
0.0000000001
 40
0.0
 40
0.0
 40
0.0
 40
0.0
 40
0.5194796731
 40
0.7620450688
 40
1.0
 40
1.0
 40
1.0
 40
1.0
 10
15.654444926
 20
11.256441347
 30
0.0
 10
15.6528964906
 20
11.2554187646
 30
0.0
 10
15.6504336356
 20
11.2541573913
 30
0.0
 10
15.6469534579
 20
11.2533013208
 30
0.0
 10
15.6452335226
 20
11.253161688
 30
0.0
 10
15.6443835297
 20
11.2531618454
 30
0.0
  0
SPLINE
  5
494
100
AcDbEntity
  8
0
100
AcDbSpline
 62
7
  6
CONTINUOUS
 70
0
 71
3
 72
9
 73
5
 74
0
 42
0.0000001
 43
0.0000001
 44
0.0000000001
 40
0.0
 40
0.0
 40
0.0
 40
0.0
 40
0.2542022917
 40
1.0
 40
1.0
 40
1.0
 40
1.0
 10
13.8196442286
 20
11.2091715637
 30
0.0
 10
13.8177867138
 20
11.212956781
 30
0.0
 10
13.8106544981
 20
11.2279323277
 30
0.0
 10
13.8042350968
 20
11.2432494991
 30
0.0
 10
13.7999035726
 20
11.2548368278
 30
0.0
  0
SPLINE
  5
495
100
AcDbEntity
  8
0
100
AcDbSpline
 62
7
  6
CONTINUOUS
 70
0
 71
3
 72
44
 73
40
 74
0
 42
0.0000001
 43
0.0000001
 44
0.0000000001
 40
0.0
 40
0.0
 40
0.0
 40
0.0
 40
0.0250436231
 40
0.0488921012
 40
0.0604641413
 40
0.0718529422
 40
0.0831055515
 40
0.0942711675
 40
0.1054005388
 40
0.1165455038
 40
0.127757968
 40
0.1390881095
 40
0.1505836987
 40
0.1622893471
 40
0.1864694386
 40
0.2119079999
 40
0.2387876087
 40
0.2672164796
 40
0.2972315961
 40
0.3288136299
 40
0.3618897704
 40
0.396348293
 40
0.432040352
 40
0.468790879
 40
0.5064011706
 40
0.5446560764
 40
0.5833278041
 40
0.6221809408
 40
0.6609766018
 40
0.699477329
 40
0.7374504814
 40
0.7746733553
 40
0.8109380428
 40
0.8460576802
 40
0.8798687384
 40
0.9122358011
 40
0.9430718209
 40
0.9723337557
 40
1.0
 40
1.0
 40
1.0
 40
1.0
 10
13.7999035726
 20
11.2548368278
 30
0.0
 10
13.7931793433
 20
11.2728249193
 30
0.0
 10
13.7821647981
 20
11.3087897211
 30
0.0
 10
13.7748589449
 20
11.3547541278
 30
0.0
 10
13.7733292949
 20
11.3906476029
 30
0.0
 10
13.7742775979
 20
11.4168945746
 30
0.0
 10
13.777312177
 20
11.4426690573
 30
0.0
 10
13.7824205419
 20
11.4679117155
 30
0.0
 10
13.7895918151
 20
11.4925620049
 30
0.0
 10
13.7988160108
 20
11.5165582927
 30
0.0
 10
13.810067644
 20
11.5398437841
 30
0.0
 10
13.8233150141
 20
11.5623656695
 30
0.0
 10
13.8385292579
 20
11.5840718627
 30
0.0
 10
13.8616351365
 20
11.6121502227
 30
0.0
 10
13.8955183326
 20
11.6450088778
 30
0.0
 10
13.942869318
 20
11.6798934904
 30
0.0
 10
13.9968982925
 20
11.7104151158
 30
0.0
 10
14.0571086215
 20
11.7363043941
 30
0.0
 10
14.1229500966
 20
11.7573705656
 30
0.0
 10
14.1938355053
 20
11.7734193661
 30
0.0
 10
14.2691246478
 20
11.7843320931
 30
0.0
 10
14.3481410056
 20
11.7900010475
 30
0.0
 10
14.4301706094
 20
11.7903878122
 30
0.0
 10
14.514470867
 20
11.7854846064
 30
0.0
 10
14.6002772957
 20
11.7753374047
 30
0.0
 10
14.6868111908
 20
11.7600422305
 30
0.0
 10
14.7732844223
 20
11.7397305491
 30
0.0
 10
14.8589130871
 20
11.7145978545
 30
0.0
 10
14.9429144464
 20
11.6848600635
 30
0.0
 10
15.0245288932
 20
11.6508009448
 30
0.0
 10
15.1030086559
 20
11.6127175117
 30
0.0
 10
15.1776453861
 20
11.5709675326
 30
0.0
 10
15.2477578178
 20
11.5259210482
 30
0.0
 10
15.3127118813
 20
11.4779882509
 30
0.0
 10
15.3719190178
 20
11.4276031289
 30
0.0
 10
15.4248436186
 20
11.3752157989
 30
0.0
 10
15.4710144806
 20
11.3212853089
 30
0.0
 10
15.5099820802
 20
11.2662975634
 30
0.0
 10
15.5315308985
 20
11.228216837
 30
0.0
 10
15.5408769612
 20
11.2091715637
 30
0.0
  0
SPLINE
  5
496
100
AcDbEntity
  8
0
100
AcDbSpline
 62
7
  6
CONTINUOUS
 70
0
 71
3
 72
24
 73
20
 74
0
 42
0.0000001
 43
0.0000001
 44
0.0000000001
 40
0.0
 40
0.0
 40
0.0
 40
0.0
 40
0.0663231092
 40
0.1299111719
 40
0.1910051176
 40
0.2500055794
 40
0.3074332464
 40
0.3638791184
 40
0.4199758491
 40
0.4763777613
 40
0.533724594
 40
0.5926070068
 40
0.6535333202
 40
0.7169197274
 40
0.7496488778
 40
0.7831028583
 40
0.8522618635
 40
0.9245476359
 40
1.0
 40
1.0
 40
1.0
 40
1.0
 10
15.5408769612
 20
11.2091715637
 30
0.0
 10
15.5479114558
 20
11.1948367708
 30
0.0
 10
15.5604537316
 20
11.1661253638
 30
0.0
 10
15.5746593623
 20
11.1223066141
 30
0.0
 10
15.5837238532
 20
11.0789276497
 30
0.0
 10
15.5875752552
 20
11.0362592498
 30
0.0
 10
15.5861782205
 20
10.9945503747
 30
0.0
 10
15.5795247528
 20
10.954054476
 30
0.0
 10
15.5676604593
 20
10.9150231254
 30
0.0
 10
15.5506387395
 20
10.8777130287
 30
0.0
 10
15.5285951855
 20
10.8423464551
 30
0.0
 10
15.5016598209
 20
10.8091428176
 30
0.0
 10
15.470021972
 20
10.7782821964
 30
0.0
 10
15.4402110779
 20
10.7549086654
 30
0.0
 10
15.4143027301
 20
10.7375168938
 30
0.0
 10
15.3864080506
 20
10.720653911
 30
0.0
 10
15.3489059463
 20
10.7013746927
 30
0.0
 10
15.3005923708
 20
10.6814246756
 30
0.0
 10
15.2667448255
 20
10.670372059
 30
0.0
 10
15.2492930705
 20
10.6653292423
 30
0.0
  0
SPLINE
  5
497
100
AcDbEntity
  8
0
100
AcDbSpline
 62
7
  6
CONTINUOUS
 70
0
 71
3
 72
37
 73
33
 74
0
 42
0.0000001
 43
0.0000001
 44
0.0000000001
 40
0.0
 40
0.0
 40
0.0
 40
0.0
 40
0.02651779
 40
0.0543696102
 40
0.0835398721
 40
0.1139985383
 40
0.1457000518
 40
0.1785722321
 40
0.2473665652
 40
0.2830601839
 40
0.3194176219
 40
0.3562825264
 40
0.3934891359
 40
0.4308687957
 40
0.4682497463
 40
0.5054600897
 40
0.5423314583
 40
0.6143809456
 40
0.6832040043
 40
0.7160936893
 40
0.7478172045
 40
0.7782967606
 40
0.8074789071
 40
0.8353399966
 40
0.8618948149
 40
0.8871938631
 40
0.8994068471
 40
0.9113473662
 40
0.9344807042
 40
0.9568002897
 40
0.9785479118
 40
1.0
 40
1.0
 40
1.0
 40
1.0
 10
14.1333806297
 20
11.2091715637
 30
0.0
 10
14.1384920759
 20
11.1987555315
 30
0.0
 10
14.1500613588
 20
11.1779214099
 30
0.0
 10
14.1706013537
 20
11.1476367651
 30
0.0
 10
14.1946162277
 20
11.1177804623
 30
0.0
 10
14.221929715
 20
11.088565927
 30
0.0
 10
14.2523557644
 20
11.0601796035
 30
0.0
 10
14.2974839777
 20
11.0231367086
 30
0.0
 10
14.3472884496
 20
10.989228654
 30
0.0
 10
14.4007979245
 20
10.9586253397
 30
0.0
 10
14.4433355561
 20
10.937092281
 30
0.0
 10
14.4874836391
 20
10.9174130088
 30
0.0
 10
14.5329431223
 20
10.8997146647
 30
0.0
 10
14.5794071605
 20
10.8841284624
 30
0.0
 10
14.6265551922
 20
10.8707483205
 30
0.0
 10
14.6740712429
 20
10.8596759348
 30
0.0
 10
14.7369866891
 20
10.8481720625
 30
0.0
 10
14.8144419892
 20
10.8397909661
 30
0.0
 10
14.8906422804
 20
10.8395922718
 30
0.0
 10
14.9488380619
 20
10.8446643482
 30
0.0
 10
14.9900062901
 20
10.8508984075
 30
0.0
 10
15.0290728482
 20
10.8595733517
 30
0.0
 10
15.065776502
 20
10.8706310475
 30
0.0
 10
15.0998670154
 20
10.8840105417
 30
0.0
 10
15.1311168598
 20
10.8996115345
 30
0.0
 10
15.1548878176
 20
10.9145727455
 30
0.0
 10
15.1722004802
 20
10.9275690891
 30
0.0
 10
15.1880238847
 20
10.9409133685
 30
0.0
 10
15.2057668946
 20
10.9587808937
 30
0.0
 10
15.2236828416
 20
10.982204509
 30
0.0
 10
15.237866844
 20
11.0072211418
 30
0.0
 10
15.2447669159
 20
11.0249018094
 30
0.0
 10
15.2475380431
 20
11.0338695784
 30
0.0
  0
SPLINE
  5
498
100
AcDbEntity
  8
0
100
AcDbSpline
 62
7
  6
CONTINUOUS
 70
0
 71
3
 72
15
 73
11
 74
0
 42
0.0000001
 43
0.0000001
 44
0.0000000001
 40
0.0
 40
0.0
 40
0.0
 40
0.0
 40
0.1380672603
 40
0.2714446829
 40
0.4004219028
 40
0.5254360583
 40
0.6471248949
 40
0.7662279775
 40
0.883563913
 40
1.0
 40
1.0
 40
1.0
 40
1.0
 10
15.599033327
 20
11.2483379092
 30
0.0
 10
15.6051099391
 20
11.2359550757
 30
0.0
 10
15.6161759865
 20
11.211163221
 30
0.0
 10
15.6295558017
 20
11.1734178123
 30
0.0
 10
15.6393577906
 20
11.1359278607
 30
0.0
 10
15.6455166379
 20
11.0988489871
 30
0.0
 10
15.648016185
 20
11.0623297351
 30
0.0
 10
15.6468363407
 20
11.0265060943
 30
0.0
 10
15.6419759135
 20
10.9915252601
 30
0.0
 10
15.636288596
 20
10.9688183076
 30
0.0
 10
15.6328552381
 20
10.9577041074
 30
0.0
  0
SPLINE
  5
499
100
AcDbEntity
  8
0
100
AcDbSpline
 62
7
  6
CONTINUOUS
 70
0
 71
3
 72
9
 73
5
 74
0
 42
0.0000001
 43
0.0000001
 44
0.0000000001
 40
0.0
 40
0.0
 40
0.0
 40
0.0
 40
0.4801692374
 40
1.0
 40
1.0
 40
1.0
 40
1.0
 10
13.8323532545
 20
11.143856017
 30
0.0
 10
13.8343931383
 20
11.1411819397
 30
0.0
 10
13.8391126887
 20
11.1359657979
 30
0.0
 10
13.8444828799
 20
11.1314387429
 30
0.0
 10
13.8473949296
 20
11.1292529595
 30
0.0
  0
LINE
  5
49A
100
AcDbEntity
  8
0
100
AcDbLine
 62
7
  6
CONTINUOUS
 10
13.8473949296
 20
11.1292529595
 11
13.852556135
 21
11.1360623874
  0
SPLINE
  5
49B
100
AcDbEntity
  8
0
100
AcDbSpline
 62
7
  6
CONTINUOUS
 70
0
 71
3
 72
9
 73
5
 74
0
 42
0.0000001
 43
0.0000001
 44
0.0000000001
 40
0.0
 40
0.0
 40
0.0
 40
0.0
 40
0.2430143609
 40
1.0
 40
1.0
 40
1.0
 40
1.0
 10
13.8441226705
 20
11.1431896728
 30
0.0
 10
13.8447639331
 20
11.1425655736
 30
0.0
 10
13.8474502866
 20
11.1400465103
 30
0.0
 10
13.8503147337
 20
11.1377193661
 30
0.0
 10
13.852556135
 20
11.1360623874
 30
0.0
  0
SPLINE
  5
49C
100
AcDbEntity
  8
0
100
AcDbSpline
 62
7
  6
CONTINUOUS
 70
0
 71
3
 72
11
 73
7
 74
0
 42
0.0000001
 43
0.0000001
 44
0.0000000001
 40
0.0
 40
0.0
 40
0.0
 40
0.0
 40
0.2900487661
 40
0.5510160782
 40
0.7854753214
 40
1.0
 40
1.0
 40
1.0
 40
1.0
 10
15.6866310778
 20
11.5318043346
 30
0.0
 10
15.6846638248
 20
11.5358131748
 30
0.0
 10
15.6804459001
 20
11.5432110849
 30
0.0
 10
15.6728467186
 20
11.552698179
 30
0.0
 10
15.6644110379
 20
11.5597750044
 30
0.0
 10
15.6581356622
 20
11.5628814717
 30
0.0
 10
15.6550001407
 20
11.5639191617
 30
0.0
  0
SPLINE
  5
49D
100
AcDbEntity
  8
0
100
AcDbSpline
 62
7
  6
CONTINUOUS
 70
0
 71
3
 72
9
 73
5
 74
0
 42
0.0000001
 43
0.0000001
 44
0.0000000001
 40
0.0
 40
0.0
 40
0.0
 40
0.0
 40
0.5031619128
 40
1.0
 40
1.0
 40
1.0
 40
1.0
 10
15.6550001407
 20
11.5639191617
 30
0.0
 10
15.653281755
 20
11.5644878554
 30
0.0
 10
15.6497738955
 20
11.5653579038
 30
0.0
 10
15.6461709294
 20
11.565653693
 30
0.0
 10
15.6443836347
 20
11.5656556344
 30
0.0
  0
SPLINE
  5
49E
100
AcDbEntity
  8
0
100
AcDbSpline
 62
7
  6
CONTINUOUS
 70
0
 71
3
 72
11
 73
7
 74
0
 42
0.0000001
 43
0.0000001
 44
0.0000000001
 40
0.0
 40
0.0
 40
0.0
 40
0.0
 40
0.2329765986
 40
0.4733128015
 40
0.727489928
 40
1.0
 40
1.0
 40
1.0
 40
1.0
 10
13.7767365233
 20
11.1891827037
 30
0.0
 10
13.777635079
 20
11.1920907743
 30
0.0
 10
13.7801373349
 20
11.1978108436
 30
0.0
 10
13.7857741079
 20
11.2055450471
 30
0.0
 10
13.7931947295
 20
11.2123627712
 30
0.0
 10
13.7990121876
 20
11.2161007293
 30
0.0
 10
13.8021380782
 20
11.2178048206
 30
0.0
  0
SPLINE
  5
49F
100
AcDbEntity
  8
0
100
AcDbSpline
 62
7
  6
CONTINUOUS
 70
0
 71
3
 72
9
 73
5
 74
0
 42
0.0000001
 43
0.0000001
 44
0.0000000001
 40
0.0
 40
0.0
 40
0.0
 40
0.0
 40
0.2544111281
 40
1.0
 40
1.0
 40
1.0
 40
1.0
 10
15.6746538329
 20
10.9802256578
 30
0.0
 10
15.6806065895
 20
10.9824954617
 30
0.0
 10
15.7039119325
 20
10.9916579538
 30
0.0
 10
15.7268359681
 20
11.0017972254
 30
0.0
 10
15.7436385674
 20
11.0099375156
 30
0.0
  0
SPLINE
  5
4A0
100
AcDbEntity
  8
0
100
AcDbSpline
 62
7
  6
CONTINUOUS
 70
0
 71
3
 72
9
 73
5
 74
0
 42
0.0000001
 43
0.0000001
 44
0.0000000001
 40
0.0
 40
0.0
 40
0.0
 40
0.0
 40
0.2553104419
 40
1.0
 40
1.0
 40
1.0
 40
1.0
 10
16.0387519543
 20
13.6532115854
 30
0.0
 10
16.0350801145
 20
13.653986005
 30
0.0
 10
16.0206228976
 20
13.6566432126
 30
0.0
 10
16.005873987
 20
13.6577726486
 30
0.0
 10
15.9949292255
 20
13.6576344791
 30
0.0
  0
SPLINE
  5
4A1
100
AcDbEntity
  8
0
100
AcDbSpline
 62
7
  6
CONTINUOUS
 70
0
 71
3
 72
16
 73
12
 74
0
 42
0.0000001
 43
0.0000001
 44
0.0000000001
 40
0.0
 40
0.0
 40
0.0
 40
0.0
 40
0.1324971412
 40
0.2611379362
 40
0.3241671661
 40
0.3864556047
 40
0.5092507674
 40
0.6307514571
 40
0.7522109422
 40
0.8749701849
 40
1.0
 40
1.0
 40
1.0
 40
1.0
 10
16.0928667672
 20
13.2646924037
 30
0.0
 10
16.1010483865
 20
13.2647956906
 30
0.0
 10
16.1171832612
 20
13.2660778688
 30
0.0
 10
16.1367822189
 20
13.2705220786
 30
0.0
 10
16.1515883921
 20
13.2757368886
 30
0.0
 10
16.1656119214
 20
13.2819424675
 30
0.0
 10
16.1819630468
 20
13.2916654396
 30
0.0
 10
16.1992937794
 20
13.306309621
 30
0.0
 10
16.2139415449
 20
13.323640729
 30
0.0
 10
16.2256316999
 20
13.343331991
 30
0.0
 10
16.2312714628
 20
13.3576361248
 30
0.0
 10
16.2335511066
 20
13.3650130549
 30
0.0
  0
SPLINE
  5
4A2
100
AcDbEntity
  8
0
100
AcDbSpline
 62
7
  6
CONTINUOUS
 70
0
 71
3
 72
14
 73
10
 74
0
 42
0.0000001
 43
0.0000001
 44
0.0000000001
 40
0.0
 40
0.0
 40
0.0
 40
0.0
 40
0.1302005712
 40
0.2605329267
 40
0.5174212053
 40
0.6428798826
 40
0.7653761527
 40
0.8845452409
 40
1.0
 40
1.0
 40
1.0
 40
1.0
 10
15.9032136568
 20
13.3608427902
 30
0.0
 10
15.9092337087
 20
13.3534604154
 30
0.0
 10
15.9220602955
 20
13.3393023837
 30
0.0
 10
15.9502361317
 20
13.313955583
 30
0.0
 10
15.9819190298
 20
13.293256023
 30
0.0
 10
16.0157659117
 20
13.278322408
 30
0.0
 10
16.0414700219
 20
13.2703084478
 30
0.0
 10
16.0672234897
 20
13.2655531088
 30
0.0
 10
16.0844204986
 20
13.2645857758
 30
0.0
 10
16.0928667672
 20
13.2646924037
 30
0.0
  0
SPLINE
  5
4A3
100
AcDbEntity
  8
0
100
AcDbSpline
 62
7
  6
CONTINUOUS
 70
0
 71
3
 72
15
 73
11
 74
0
 42
0.0000001
 43
0.0000001
 44
0.0000000001
 40
0.0
 40
0.0
 40
0.0
 40
0.0
 40
0.1129531978
 40
0.2294698078
 40
0.3496878673
 40
0.4736956513
 40
0.60125187
 40
0.731912929
 40
0.8651418248
 40
1.0
 40
1.0
 40
1.0
 40
1.0
 10
15.854244886
 20
13.5573138279
 30
0.0
 10
15.8519049822
 20
13.5497418964
 30
0.0
 10
15.8483454857
 20
13.5339672749
 30
0.0
 10
15.8464340858
 20
13.509430666
 30
0.0
 10
15.8479076708
 20
13.4840880191
 30
0.0
 10
15.8527280788
 20
13.4583847973
 30
0.0
 10
15.8607956638
 20
13.4327452284
 30
0.0
 10
15.8719819203
 20
13.407598307
 30
0.0
 10
15.8860904796
 20
13.3833796368
 30
0.0
 10
15.8972338053
 20
13.3681758673
 30
0.0
 10
15.9032136568
 20
13.3608427902
 30
0.0
  0
SPLINE
  5
4A4
100
AcDbEntity
  8
0
100
AcDbSpline
 62
7
  6
CONTINUOUS
 70
0
 71
3
 72
16
 73
12
 74
0
 42
0.0000001
 43
0.0000001
 44
0.0000000001
 40
0.0
 40
0.0
 40
0.0
 40
0.0
 40
0.1324971412
 40
0.2611379362
 40
0.3241671661
 40
0.3864556047
 40
0.5092507674
 40
0.6307514571
 40
0.7522109422
 40
0.8749701849
 40
1.0
 40
1.0
 40
1.0
 40
1.0
 10
15.9949292255
 20
13.6576344791
 30
0.0
 10
15.9867476061
 20
13.6575311922
 30
0.0
 10
15.9706127314
 20
13.656249014
 30
0.0
 10
15.9510137737
 20
13.6518048041
 30
0.0
 10
15.9362076005
 20
13.6465899942
 30
0.0
 10
15.9221840712
 20
13.6403844153
 30
0.0
 10
15.9058329459
 20
13.6306614432
 30
0.0
 10
15.8885022132
 20
13.6160172618
 30
0.0
 10
15.8738544478
 20
13.5986861538
 30
0.0
 10
15.8621642927
 20
13.5789948918
 30
0.0
 10
15.8565245298
 20
13.564690758
 30
0.0
 10
15.854244886
 20
13.5573138279
 30
0.0
  0
SPLINE
  5
4A5
100
AcDbEntity
  8
0
100
AcDbSpline
 62
7
  6
CONTINUOUS
 70
0
 71
3
 72
11
 73
7
 74
0
 42
0.0000001
 43
0.0000001
 44
0.0000000001
 40
0.0
 40
0.0
 40
0.0
 40
0.0
 40
0.239316353
 40
0.4855985883
 40
0.7390804952
 40
1.0
 40
1.0
 40
1.0
 40
1.0
 10
16.2335511066
 20
13.3650130549
 30
0.0
 10
16.2357108277
 20
13.3720019147
 30
0.0
 10
16.2390764818
 20
13.3865153237
 30
0.0
 10
16.2412059516
 20
13.4090666336
 30
0.0
 10
16.2404442209
 20
13.4323626614
 30
0.0
 10
16.2380578355
 20
13.44794529
 30
0.0
 10
16.23641454
 20
13.4557494315
 30
0.0
  0
SPLINE
  5
4A6
100
AcDbEntity
  8
0
100
AcDbSpline
 62
7
  6
CONTINUOUS
 70
0
 71
3
 72
9
 73
5
 74
0
 42
0.0000001
 43
0.0000001
 44
0.0000000001
 40
0.0
 40
0.0
 40
0.0
 40
0.0
 40
0.4627381132
 40
1.0
 40
1.0
 40
1.0
 40
1.0
 10
16.3771931526
 20
13.2283488135
 30
0.0
 10
16.3576327348
 20
13.2158075641
 30
0.0
 10
16.3157039931
 20
13.1881678435
 30
0.0
 10
16.2745100167
 20
13.1594446198
 30
0.0
 10
16.2525449663
 20
13.1437815533
 30
0.0
  0
SPLINE
  5
4A7
100
AcDbEntity
  8
0
100
AcDbSpline
 62
7
  6
CONTINUOUS
 70
0
 71
3
 72
9
 73
5
 74
0
 42
0.0000001
 43
0.0000001
 44
0.0000000001
 40
0.0
 40
0.0
 40
0.0
 40
0.0
 40
0.248385512
 40
1.0
 40
1.0
 40
1.0
 40
1.0
 10
13.7867082227
 20
11.2286059982
 30
0.0
 10
13.7864948457
 20
11.2278408541
 30
0.0
 10
13.7857251987
 20
11.2247359732
 30
0.0
 10
13.7853194479
 20
11.2215422836
 30
0.0
 10
13.7852148503
 20
11.2191408894
 30
0.0
  0
SPLINE
  5
4A8
100
AcDbEntity
  8
0
100
AcDbSpline
 62
7
  6
CONTINUOUS
 70
0
 71
3
 72
16
 73
12
 74
0
 42
0.0000001
 43
0.0000001
 44
0.0000000001
 40
0.0
 40
0.0
 40
0.0
 40
0.0
 40
0.1180296023
 40
0.1770630404
 40
0.2362266856
 40
0.3554532504
 40
0.4769973199
 40
0.6017472047
 40
0.7303253564
 40
0.8631339588
 40
1.0
 40
1.0
 40
1.0
 40
1.0
 10
15.7802099969
 20
13.7230047609
 30
0.0
 10
15.7697412459
 20
13.7155395951
 30
0.0
 10
15.7549264588
 20
13.7030062502
 30
0.0
 10
15.7374868746
 20
13.6840538131
 30
0.0
 10
15.7216015708
 20
13.6636079775
 30
0.0
 10
15.7048312756
 20
13.6353816755
 30
0.0
 10
15.6901844391
 20
13.5981824529
 30
0.0
 10
15.6811474357
 20
13.558202171
 30
0.0
 10
15.6778774877
 20
13.5161250685
 30
0.0
 10
15.6804103884
 20
13.4726948444
 30
0.0
 10
15.6858319557
 20
13.4437330005
 30
0.0
 10
15.6894377884
 20
13.4292657865
 30
0.0
  0
SPLINE
  5
4A9
100
AcDbEntity
  8
0
100
AcDbSpline
 62
7
  6
CONTINUOUS
 70
0
 71
3
 72
16
 73
12
 74
0
 42
0.0000001
 43
0.0000001
 44
0.0000000001
 40
0.0
 40
0.0
 40
0.0
 40
0.0
 40
0.1135599301
 40
0.1712249983
 40
0.2295521902
 40
0.348488687
 40
0.4711061625
 40
0.5976810368
 40
0.728219255
 40
0.8625492507
 40
1.0
 40
1.0
 40
1.0
 40
1.0
 10
16.2525449663
 20
13.1437815533
 30
0.0
 10
16.2419644452
 20
13.1362366854
 30
0.0
 10
16.2250205595
 20
13.1261733719
 30
0.0
 10
16.2009857508
 20
13.1155280055
 30
0.0
 10
16.1756038366
 20
13.1065908419
 30
0.0
 10
16.1420042325
 20
13.0989622243
 30
0.0
 10
16.0998763844
 20
13.0956311061
 30
0.0
 10
16.0563659407
 20
13.0980634783
 30
0.0
 10
16.0122052678
 20
13.1062257608
 30
0.0
 10
15.9681601081
 20
13.1199638154
 30
0.0
 10
15.9396343391
 20
13.1325417229
 30
0.0
 10
15.9256052731
 20
13.1396541827
 30
0.0
  0
SPLINE
  5
4AA
100
AcDbEntity
  8
0
100
AcDbSpline
 62
7
  6
CONTINUOUS
 70
0
 71
3
 72
15
 73
11
 74
0
 42
0.0000001
 43
0.0000001
 44
0.0000000001
 40
0.0
 40
0.0
 40
0.0
 40
0.0
 40
0.1249559032
 40
0.2516101525
 40
0.3790021085
 40
0.5063781047
 40
0.6329053921
 40
0.7577903503
 40
0.8804024576
 40
1.0
 40
1.0
 40
1.0
 40
1.0
 10
15.9256052731
 20
13.1396541827
 30
0.0
 10
15.9113126151
 20
13.1469002784
 30
0.0
 10
15.8833144678
 20
13.1630854741
 30
0.0
 10
15.843945887
 20
13.191729975
 30
0.0
 10
15.807508493
 20
13.2244944348
 30
0.0
 10
15.7746326076
 20
13.260806509
 30
0.0
 10
15.7458537726
 20
13.300048528
 30
0.0
 10
15.7216684554
 20
13.3415783201
 30
0.0
 10
15.7025041529
 20
13.3846773845
 30
0.0
 10
15.6931470265
 20
13.4143836925
 30
0.0
 10
15.6894377884
 20
13.4292657865
 30
0.0
  0
SPLINE
  5
4AB
100
AcDbEntity
  8
0
100
AcDbSpline
 62
7
  6
CONTINUOUS
 70
0
 71
3
 72
16
 73
12
 74
0
 42
0.0000001
 43
0.0000001
 44
0.0000000001
 40
0.0
 40
0.0
 40
0.0
 40
0.0
 40
0.1135599301
 40
0.1712249983
 40
0.2295521902
 40
0.348488687
 40
0.4711061625
 40
0.5976810368
 40
0.728219255
 40
0.8625492507
 40
1.0
 40
1.0
 40
1.0
 40
1.0
 10
15.7802099969
 20
13.7230047609
 30
0.0
 10
15.790790518
 20
13.7305496288
 30
0.0
 10
15.8077344037
 20
13.7406129423
 30
0.0
 10
15.8317692124
 20
13.7512583088
 30
0.0
 10
15.8571511265
 20
13.7601954723
 30
0.0
 10
15.8907507307
 20
13.7678240899
 30
0.0
 10
15.9328785788
 20
13.7711552082
 30
0.0
 10
15.9763890224
 20
13.7687228359
 30
0.0
 10
16.0205496954
 20
13.7605605534
 30
0.0
 10
16.0645948551
 20
13.7468224988
 30
0.0
 10
16.0931206241
 20
13.7342445913
 30
0.0
 10
16.1071496901
 20
13.7271321315
 30
0.0
  0
SPLINE
  5
4AC
100
AcDbEntity
  8
0
100
AcDbSpline
 62
7
  6
CONTINUOUS
 70
0
 71
3
 72
9
 73
5
 74
0
 42
0.0000001
 43
0.0000001
 44
0.0000000001
 40
0.0
 40
0.0
 40
0.0
 40
0.0
 40
0.2474779905
 40
1.0
 40
1.0
 40
1.0
 40
1.0
 10
16.1071496901
 20
13.7271321315
 30
0.0
 10
16.1135861878
 20
13.7238689541
 30
0.0
 10
16.1392634812
 20
13.7100384219
 30
0.0
 10
16.1635908091
 20
13.6937150407
 30
0.0
 10
16.1809141785
 20
13.6802459713
 30
0.0
  0
SPLINE
  5
4AD
100
AcDbEntity
  8
0
100
AcDbSpline
 62
7
  6
CONTINUOUS
 70
0
 71
3
 72
10
 73
6
 74
0
 42
0.0000001
 43
0.0000001
 44
0.0000000001
 40
0.0
 40
0.0
 40
0.0
 40
0.0
 40
0.5088033573
 40
0.7573451644
 40
1.0
 40
1.0
 40
1.0
 40
1.0
 10
16.2638271075
 20
13.5974856675
 30
0.0
 10
16.2825827489
 20
13.5734571565
 30
0.0
 10
16.3071375876
 20
13.5348156519
 30
0.0
 10
16.3310246814
 20
13.4797939365
 30
0.0
 10
16.3398014575
 20
13.4516261834
 30
0.0
 10
16.3433171748
 20
13.4375205277
 30
0.0
  0
SPLINE
  5
4AE
100
AcDbEntity
  8
0
100
AcDbSpline
 62
7
  6
CONTINUOUS
 70
0
 71
3
 72
11
 73
7
 74
0
 42
0.0000001
 43
0.0000001
 44
0.0000000001
 40
0.0
 40
0.0
 40
0.0
 40
0.0
 40
0.2617563958
 40
0.5155996147
 40
0.7614924921
 40
1.0
 40
1.0
 40
1.0
 40
1.0
 10
16.3433171748
 20
13.4375205277
 30
0.0
 10
16.3469239
 20
13.4230497327
 30
0.0
 10
16.352348063
 20
13.3940903133
 30
0.0
 10
16.3548773615
 20
13.3506560802
 30
0.0
 10
16.3516042907
 20
13.3085909514
 30
0.0
 10
16.3454996486
 20
13.2815518742
 30
0.0
 10
16.3414875623
 20
13.2685687582
 30
0.0
  0
SPLINE
  5
4AF
100
AcDbEntity
  8
0
100
AcDbSpline
 62
7
  6
CONTINUOUS
 70
0
 71
3
 72
11
 73
7
 74
0
 42
0.0000001
 43
0.0000001
 44
0.0000000001
 40
0.0
 40
0.0
 40
0.0
 40
0.0
 40
0.2548359482
 40
0.5048951045
 40
0.7524436108
 40
1.0
 40
1.0
 40
1.0
 40
1.0
 10
16.3414875623
 20
13.2685687582
 30
0.0
 10
16.3375787494
 20
13.2559198351
 30
0.0
 10
16.3279148161
 20
13.2313994544
 30
0.0
 10
16.3078691626
 20
13.1976425563
 30
0.0
 10
16.2827653497
 20
13.167945022
 30
0.0
 10
16.2630162501
 20
13.1512485253
 30
0.0
 10
16.2525449663
 20
13.1437815533
 30
0.0
  0
SPLINE
  5
4B0
100
AcDbEntity
  8
0
100
AcDbSpline
 62
7
  6
CONTINUOUS
 70
0
 71
3
 72
9
 73
5
 74
0
 42
0.0000001
 43
0.0000001
 44
0.0000000001
 40
0.0
 40
0.0
 40
0.0
 40
0.0
 40
0.5198048342
 40
1.0
 40
1.0
 40
1.0
 40
1.0
 10
16.0987185514
 20
13.0297712501
 30
0.0
 10
16.1251135711
 20
13.0498709776
 30
0.0
 10
16.1760633984
 20
13.0883151246
 30
0.0
 10
16.2275910434
 20
13.1259871506
 30
0.0
 10
16.2525449663
 20
13.1437815533
 30
0.0
  0
SPLINE
  5
4B1
100
AcDbEntity
  8
0
100
AcDbSpline
 62
7
  6
CONTINUOUS
 70
0
 71
3
 72
11
 73
7
 74
0
 42
0.0000001
 43
0.0000001
 44
0.0000000001
 40
0.0
 40
0.0
 40
0.0
 40
0.0
 40
0.262602459
 40
0.5166338006
 40
0.7621656879
 40
1.0
 40
1.0
 40
1.0
 40
1.0
 10
15.6894377884
 20
13.4292657865
 30
0.0
 10
15.6854003083
 20
13.4454648435
 30
0.0
 10
15.6766903236
 20
13.4771496517
 30
0.0
 10
15.661542074
 20
13.5231941204
 30
0.0
 10
15.644802279
 20
13.5669992801
 30
0.0
 10
15.6326258676
 20
13.5952231448
 30
0.0
 10
15.6263835821
 20
13.6089944577
 30
0.0
  0
SPLINE
  5
4B2
100
AcDbEntity
  8
0
100
AcDbSpline
 62
7
  6
CONTINUOUS
 70
0
 71
3
 72
11
 73
7
 74
0
 42
0.0000001
 43
0.0000001
 44
0.0000000001
 40
0.0
 40
0.0
 40
0.0
 40
0.0
 40
0.2553577975
 40
0.5081020412
 40
0.7568517528
 40
1.0
 40
1.0
 40
1.0
 40
1.0
 10
15.7233137662
 20
13.2200940723
 30
0.0
 10
15.7215937321
 20
13.2380642133
 30
0.0
 10
15.7177399896
 20
13.2737817296
 30
0.0
 10
15.7103723153
 20
13.3267873268
 30
0.0
 10
15.7011724928
 20
13.3786328929
 30
0.0
 10
15.6935948594
 20
13.4125869105
 30
0.0
 10
15.6894377884
 20
13.4292657865
 30
0.0
  0
SPLINE
  5
4B3
100
AcDbEntity
  8
0
100
AcDbSpline
 62
7
  6
CONTINUOUS
 70
0
 71
3
 72
11
 73
7
 74
0
 42
0.0000001
 43
0.0000001
 44
0.0000000001
 40
0.0
 40
0.0
 40
0.0
 40
0.0
 40
0.257823566
 40
0.5105160378
 40
0.7578115695
 40
1.0
 40
1.0
 40
1.0
 40
1.0
 10
15.9256052731
 20
13.1396541827
 30
0.0
 10
15.9413436457
 20
13.1316751382
 30
0.0
 10
15.9721080617
 20
13.1150731215
 30
0.0
 10
16.0164480429
 20
13.08812828
 30
0.0
 10
16.0585713424
 20
13.059713364
 30
0.0
 10
16.0855483357
 20
13.0398354608
 30
0.0
 10
16.0987185514
 20
13.0297712501
 30
0.0
  0
SPLINE
  5
4B4
100
AcDbEntity
  8
0
100
AcDbSpline
 62
7
  6
CONTINUOUS
 70
0
 71
3
 72
11
 73
7
 74
0
 42
0.0000001
 43
0.0000001
 44
0.0000000001
 40
0.0
 40
0.0
 40
0.0
 40
0.0
 40
0.2469325261
 40
0.4966791106
 40
0.7480109829
 40
1.0
 40
1.0
 40
1.0
 40
1.0
 10
15.9256052731
 20
13.1396541827
 30
0.0
 10
15.909605903
 20
13.1477655478
 30
0.0
 10
15.8769946478
 20
13.1632448891
 30
0.0
 10
15.8268316308
 20
13.1841779118
 30
0.0
 10
15.7754986891
 20
13.2031270321
 30
0.0
 10
15.7407736735
 20
13.2145950973
 30
0.0
 10
15.7233137662
 20
13.2200940723
 30
0.0
  0
ELLIPSE
  5
4B5
100
AcDbEntity
  8
0
100
AcDbEllipse
 62
7
  6
CONTINUOUS
 10
6.0708720839
 20
12.1156947817
 30
0.0
 11
-1.5210790972
 21
3.2056605528
 31
0.0
 40
0.3419987131
 41
-1.6025659581
 42
-1.5377676791
  0
ELLIPSE
  5
4B6
100
AcDbEntity
  8
0
100
AcDbEllipse
 62
7
  6
CONTINUOUS
 10
6.0708720839
 20
13.615650781
 30
0.0
 11
1.5210790972
 21
3.2056605528
 31
0.0
 40
0.3419987131
 41
-1.6038249745
 42
-1.5390266955
  0
ELLIPSE
  5
4B7
100
AcDbEntity
  8
0
100
AcDbEllipse
 62
7
  6
CONTINUOUS
 10
15.0760022573
 20
5.3981247044
 30
0.0
 11
3.2056605528
 21
-1.5210790972
 31
0.0
 40
0.3419987131
 41
1.5377676791
 42
1.6025659581
  0
ELLIPSE
  5
4B8
100
AcDbEntity
  8
0
100
AcDbEllipse
 62
7
  6
CONTINUOUS
 10
16.5759582566
 20
5.3981247044
 30
0.0
 11
3.2056605528
 21
1.5210790972
 31
0.0
 40
0.3419987131
 41
1.5390266955
 42
1.6038249745
  0
ELLIPSE
  5
4B9
100
AcDbEntity
  8
0
100
AcDbEllipse
 62
7
  6
CONTINUOUS
 10
15.8259802569
 20
4.5720085302
 30
0.0
 11
0.0
 21
1.2595671476
 31
0.0
 40
0.2679491924
 41
-1.4735039035
 42
1.4735039035
  0
ELLIPSE
  5
4BA
100
AcDbEntity
  8
0
100
AcDbEllipse
 62
7
  6
CONTINUOUS
 10
14.8920739534
 20
11.8945998431
 30
0.0
 11
-0.6737671746
 21
3.4624257064
 31
0.0
 40
0.2766889488
 41
-1.2555026009
 42
-1.1907043218
  0
ELLIPSE
  5
4BB
100
AcDbEntity
  8
0
100
AcDbEllipse
 62
7
  6
CONTINUOUS
 10
14.8920739534
 20
11.8945998431
 30
0.0
 11
2.5438995131
 21
1.9013807336
 31
0.0
 40
0.0578005151
 41
1.0071893493
 42
1.0719876284
  0
ELLIPSE
  5
4BC
100
AcDbEntity
  8
0
100
AcDbEllipse
 62
7
  6
CONTINUOUS
 10
17.3174127898
 20
11.968555743
 30
0.0
 11
-0.6762931077
 21
0.8126843598
 31
0.0
 40
0.2216133796
 41
-1.3302371938
 42
1.7032526248
  0
ENDSEC
  0
SECTION
  2
OBJECTS
  0
DICTIONARY
  5
C
100
AcDbDictionary
280
0
281
1
  3
ACAD_GROUP
350
D
  3
ACAD_MLINESTYLE
350
17
  3
ACAD_LAYOUT
350
1A
  3
ACAD_PLOTSETTINGS
350
19
  3
ACAD_PLOTSTYLENAME
350
E
  0
DICTIONARY
  5
D
102
{ACAD_REACTORS
330
C
102
}
100
AcDbDictionary
280
0
281
1
  0
ACDBDICTIONARYWDFLT
  5
E
102
{ACAD_REACTORS
330
C
102
}
100
AcDbDictionary
281
1
  3
Normal
350
F
100
AcDbDictionaryWithDefault
340
F
  0
DICTIONARY
  5
17
102
{ACAD_REACTORS
330
C
102
}
100
AcDbDictionary
280
0
281
1
  3
Standard
350
18
  0
DICTIONARY
  5
19
102
{ACAD_REACTORS
330
C
102
}
100
AcDbDictionary
281
1
  0
DICTIONARY
  5
1A
102
{ACAD_REACTORS
330
C
102
}
100
AcDbDictionary
281
1
  3
Model
350
4BD
  3
Layout1
350
4BE
  0
ACDBPLACEHOLDER
  5
F
102
{ACAD_REACTORS
330
E
102
}
  0
MLINESTYLE
  5
18
102
{ACAD_REACTORS
330
17
102
}
100
AcDbMlineStyle
  2
STANDARD
 70
0
  3

 62
256
 51
90.0
 52
90.0
 71
2
 49
0.5
 62
256
  6
BYLAYER
 49
-0.5
 62
256
  6
BYLAYER
  0
LAYOUT
  5
4BD
102
{ACAD_REACTORS
330
1A
102
}
100
AcDbPlotSettings
  1

  2
none_device
  4
ANSI_C_(22.00_x_17.00_Inches)
  6

 40
0.0
 41
0.0
 42
0.0
 43
0.0
 44
558.8
 45
431.8
 46
0.0
 47
0.0
 48
0.0
 49
0.0
140
0.0
141
0.0
142
1.0
143
1.0
 70
1024
 72
0
 73
0
 74
0
  7

 75
0
147
1.0
148
0.0
149
0.0
100
AcDbLayout
  1
Model
 70
0
 71
0
 10
0.0
 20
0.0
 11
22.0
 21
17.0
 12
0.0
 22
0.0
 32
0.0
 14
0.0
 24
0.0
 34
0.0
 15
0.0
 25
0.0
 35
0.0
146
0.0
 13
0.0
 23
0.0
 33
0.0
 16
1.0
 26
0.0
 36
0.0
 17
0.0
 27
1.0
 37
0.0
 76
0
330
23D
345
0
346
0
  0
LAYOUT
  5
4BE
102
{ACAD_REACTORS
330
1A
102
}
100
AcDbPlotSettings
  1

  2
none_device
  4
ANSI_C_(22.00_x_17.00_Inches)
  6

 40
0.0
 41
0.0
 42
0.0
 43
0.0
 44
558.8
 45
431.8
 46
0.0
 47
0.0
 48
0.0
 49
0.0
140
0.0
141
0.0
142
1.0
143
1.0
 70
0
 72
0
 73
0
 74
0
  7

 75
0
147
1.0
148
0.0
149
0.0
100
AcDbLayout
  1
Layout1
 70
0
 71
1
 10
0.0
 20
0.0
 11
22.0
 21
17.0
 12
0.0
 22
0.0
 32
0.0
 14
0.0
 24
0.0
 34
0.0
 15
0.0
 25
0.0
 35
0.0
146
0.0
 13
0.0
 23
0.0
 33
0.0
 16
1.0
 26
0.0
 36
0.0
 17
0.0
 27
1.0
 37
0.0
 76
0
330
23E
345
0
346
0
  0
ENDSEC
  0
EOF