999
DXF file: _cgs_temp_output.dxf
999
Pro/ENGINEER 2015110 by Parametric Technology Corporation
  0
SECTION
  2
HEADER
  9
$ACADVER
  1
AC1021
  9
$DWGCODEPAGE
  3
ANSI_1252
  9
$EXTMAX
 10
22.0
 20
17.0
 30
0.0
  9
$EXTMIN
 10
0.0
 20
0.0
 30
0.0
  9
$LIMMIN
 10
0.0
 20
0.0
  9
$LIMMAX
 10
22.0
 20
17.0
  9
$VIEWCTR
 10
11.0
 20
8.5
  9
$VIEWSIZE
 40
17.0
  9
$CLAYER
  8
0
  9
$LTSCALE
 40
1.21
  9
$CELTYPE
  6
BYLAYER
  9
$DIMSCALE
 40
1.0
  9
$DIMASZ
 40
0.1875
  9
$DIMEXO
 40
0.0625
  9
$DIMDLI
 40
0.836
  9
$DIMEXE
 40
0.125
  9
$DIMCEN
 40
0.198
  9
$DIMLFAC
 40
1.0
  9
$DIMBLK
  1
_CLOSED
  9
$DIMALT
 70
0
  9
$DIMALTF
 40
25.4
  9
$DIMTXT
 40
0.15625
  9
$DIMTOL
 70
0
  9
$DIMLIM
 70
0
  9
$DIMTFAC
 40
1.0
  9
$DIMGAP
 40
0.09
  9
$DIMDSEP
 70
46
  9
$AUNITS
 70
0
  9
$PDMODE
 70
3
  9
$PDSIZE
 40
0.3125
  9
$HANDSEED
  5
33A
  9
$TILEMODE
 70
1
  9
$MEASUREMENT
 70
0
  9
$INSUNITS
 70
1
  0
ENDSEC
  0
SECTION
  2
CLASSES
  0
CLASS
  1
ACDBDICTIONARYWDFLT
  2
AcDbDictionaryWithDefault
  3
AutoCAD 2000
 90
0
 91
1
280
0
281
0
  0
CLASS
  1
ACDBPLACEHOLDER
  2
AcDbPlaceHolder
  3
AutoCAD 2000
 90
0
 91
1
280
0
281
0
  0
CLASS
  1
LAYOUT
  2
AcDbLayout
  3
AutoCAD 2000
 90
0
 91
0
280
0
281
0
  0
ENDSEC
  0
SECTION
  2
TABLES
  0
TABLE
  2
VPORT
  5
8
100
AcDbSymbolTable
 70
2
  0
VPORT
  5
1F4
100
AcDbSymbolTableRecord
100
AcDbViewportTableRecord
  2
*ACTIVE
 70
0
 10
0.0
 20
0.0
 11
1.0
 21
1.0
 12
11.0
 22
8.5
 13
0.0
 23
0.0
 14
1.0
 24
1.0
 15
0.0
 25
0.0
 16
0.0
 26
0.0
 36
1.0
 17
0.0
 27
0.0
 37
0.0
 40
17.0
 41
1.2941176471
 42
50.0
 43
0.0
 44
0.0
 50
0.0
 51
0.0
 71
0
 72
100
 73
1
 74
1
 75
0
 76
0
 77
0
 78
0
  0
ENDTAB
  0
TABLE
  2
LTYPE
  5
5
100
AcDbSymbolTable
 70
6
  0
LTYPE
  5
14
100
AcDbSymbolTableRecord
100
AcDbLinetypeTableRecord
  2
BYBLOCK
 70
0
  3

 72
65
 73
0
 40
0.0
  0
LTYPE
  5
15
100
AcDbSymbolTableRecord
100
AcDbLinetypeTableRecord
  2
BYLAYER
 70
0
  3

 72
65
 73
0
 40
0.0
  0
LTYPE
  5
16
100
AcDbSymbolTableRecord
100
AcDbLinetypeTableRecord
  2
CONTINUOUS
 70
64
  3
Solid line
 72
65
 73
0
 40
0.0
  0
LTYPE
  5
1F5
100
AcDbSymbolTableRecord
100
AcDbLinetypeTableRecord
  2
CENTER
 70
64
  3
____ _ ____ _ ____ _ ____ _ ____ _ ____ _ ____
 72
65
 73
4
 40
0.6
 49
0.375
 74
0
 49
-0.075
 74
0
 49
0.075
 74
0
 49
-0.075
 74
0
  0
LTYPE
  5
1F6
100
AcDbSymbolTableRecord
100
AcDbLinetypeTableRecord
  2
HIDDEN
 70
64
  3
- - - - - - - - - - - - - - - - - - - -
 72
65
 73
2
 40
0.2
 49
0.1
 74
0
 49
-0.1
 74
0
  0
LTYPE
  5
1F7
100
AcDbSymbolTableRecord
100
AcDbLinetypeTableRecord
  2
PHANTOM
 70
64
  3
_____ _ _ _____ _ _ _____ _ _ _____
 72
65
 73
6
 40
0.8
 49
0.45
 74
0
 49
-0.05
 74
0
 49
0.1
 74
0
 49
-0.05
 74
0
 49
0.1
 74
0
 49
-0.05
 74
0
  0
LTYPE
  5
1F8
100
AcDbSymbolTableRecord
100
AcDbLinetypeTableRecord
  2
DOT
 70
64
  3
. . . . . . . . . . . . . . . . . . . .
 72
65
 73
2
 40
0.2
 49
0.1
 74
0
 49
-0.1
 74
0
  0
LTYPE
  5
1F9
100
AcDbSymbolTableRecord
100
AcDbLinetypeTableRecord
  2
DASHED
 70
64
  3
- - - - - - - - - - - - - - - - - - - -
 72
65
 73
2
 40
0.2
 49
0.1
 74
0
 49
-0.1
 74
0
  0
ENDTAB
  0
TABLE
  2
LAYER
  5
2
100
AcDbSymbolTable
 70
36
  0
LAYER
  5
10
100
AcDbSymbolTableRecord
100
AcDbLayerTableRecord
  2
0
 70
0
 62
7
  6
CONTINUOUS
370
-3
390
F
  0
LAYER
  5
1FA
100
AcDbSymbolTableRecord
100
AcDbLayerTableRecord
  2
DEFAULT_1
 70
0
 62
7
  6
CENTER
370
-3
390
F
  0
LAYER
  5
1FB
100
AcDbSymbolTableRecord
100
AcDbLayerTableRecord
  2
DEFAULT_2
 70
0
 62
8
  6
HIDDEN
370
-3
390
F
  0
LAYER
  5
1FC
100
AcDbSymbolTableRecord
100
AcDbLayerTableRecord
  2
DEFAULT_3
 70
0
 62
7
  6
PHANTOM
370
-3
390
F
  0
LAYER
  5
1FD
100
AcDbSymbolTableRecord
100
AcDbLayerTableRecord
  2
01_ALL_DTM_PLN
 70
0
 62
7
  6
CONTINUOUS
370
-3
390
F
  0
LAYER
  5
1FE
100
AcDbSymbolTableRecord
100
AcDbLayerTableRecord
  2
01__ASM_ALL_DTM_PLN
 70
0
 62
7
  6
CONTINUOUS
370
-3
390
F
  0
LAYER
  5
1FF
100
AcDbSymbolTableRecord
100
AcDbLayerTableRecord
  2
01__ASM_DEF_DTM_PLN
 70
0
 62
7
  6
CONTINUOUS
370
-3
390
F
  0
LAYER
  5
200
100
AcDbSymbolTableRecord
100
AcDbLayerTableRecord
  2
01___PRT_ALL_DTM_PLN
 70
0
 62
7
  6
CONTINUOUS
370
-3
390
F
  0
LAYER
  5
201
100
AcDbSymbolTableRecord
100
AcDbLayerTableRecord
  2
01___PRT_DEF_DTM_PLN
 70
0
 62
7
  6
CONTINUOUS
370
-3
390
F
  0
LAYER
  5
202
100
AcDbSymbolTableRecord
100
AcDbLayerTableRecord
  2
02_ALL_AXES
 70
0
 62
7
  6
CONTINUOUS
370
-3
390
F
  0
LAYER
  5
203
100
AcDbSymbolTableRecord
100
AcDbLayerTableRecord
  2
02__ASM_ALL_AXES
 70
0
 62
7
  6
CONTINUOUS
370
-3
390
F
  0
LAYER
  5
204
100
AcDbSymbolTableRecord
100
AcDbLayerTableRecord
  2
02___PRT_ALL_AXES
 70
0
 62
7
  6
CONTINUOUS
370
-3
390
F
  0
LAYER
  5
205
100
AcDbSymbolTableRecord
100
AcDbLayerTableRecord
  2
03_ALL_CURVES
 70
0
 62
7
  6
CONTINUOUS
370
-3
390
F
  0
LAYER
  5
206
100
AcDbSymbolTableRecord
100
AcDbLayerTableRecord
  2
03__ASM_ALL_CURVES
 70
0
 62
7
  6
CONTINUOUS
370
-3
390
F
  0
LAYER
  5
207
100
AcDbSymbolTableRecord
100
AcDbLayerTableRecord
  2
03___PRT_ALL_CURVES
 70
0
 62
7
  6
CONTINUOUS
370
-3
390
F
  0
LAYER
  5
208
100
AcDbSymbolTableRecord
100
AcDbLayerTableRecord
  2
04_ALL_DTM_PNT
 70
0
 62
7
  6
CONTINUOUS
370
-3
390
F
  0
LAYER
  5
209
100
AcDbSymbolTableRecord
100
AcDbLayerTableRecord
  2
04__ASM_ALL_DTM_PNT
 70
0
 62
7
  6
CONTINUOUS
370
-3
390
F
  0
LAYER
  5
20A
100
AcDbSymbolTableRecord
100
AcDbLayerTableRecord
  2
04___PRT_ALL_DTM_PNT
 70
0
 62
7
  6
CONTINUOUS
370
-3
390
F
  0
LAYER
  5
20B
100
AcDbSymbolTableRecord
100
AcDbLayerTableRecord
  2
05_ALL_DTM_CSYS
 70
0
 62
7
  6
CONTINUOUS
370
-3
390
F
  0
LAYER
  5
20C
100
AcDbSymbolTableRecord
100
AcDbLayerTableRecord
  2
05__ASM_ALL_DTM_CSYS
 70
0
 62
7
  6
CONTINUOUS
370
-3
390
F
  0
LAYER
  5
20D
100
AcDbSymbolTableRecord
100
AcDbLayerTableRecord
  2
05__ASM_DEF_DTM_CSYS
 70
0
 62
7
  6
CONTINUOUS
370
-3
390
F
  0
LAYER
  5
20E
100
AcDbSymbolTableRecord
100
AcDbLayerTableRecord
  2
05___PRT_ALL_DTM_CSYS
 70
0
 62
7
  6
CONTINUOUS
370
-3
390
F
  0
LAYER
  5
20F
100
AcDbSymbolTableRecord
100
AcDbLayerTableRecord
  2
05___PRT_DEF_DTM_CSYS
 70
0
 62
7
  6
CONTINUOUS
370
-3
390
F
  0
LAYER
  5
210
100
AcDbSymbolTableRecord
100
AcDbLayerTableRecord
  2
06_ALL_SURFS
 70
0
 62
7
  6
CONTINUOUS
370
-3
390
F
  0
LAYER
  5
211
100
AcDbSymbolTableRecord
100
AcDbLayerTableRecord
  2
06__ASM_ALL_SURFS
 70
0
 62
7
  6
CONTINUOUS
370
-3
390
F
  0
LAYER
  5
212
100
AcDbSymbolTableRecord
100
AcDbLayerTableRecord
  2
06___PRT_ALL_SURFS
 70
0
 62
7
  6
CONTINUOUS
370
-3
390
F
  0
LAYER
  5
213
100
AcDbSymbolTableRecord
100
AcDbLayerTableRecord
  2
07__ASM_ALL_SKELETONS
 70
0
 62
7
  6
CONTINUOUS
370
-3
390
F
  0
LAYER
  5
214
100
AcDbSymbolTableRecord
100
AcDbLayerTableRecord
  2
LAYER_AXIS
 70
0
 62
7
  6
CONTINUOUS
370
-3
390
F
  0
LAYER
  5
215
100
AcDbSymbolTableRecord
100
AcDbLayerTableRecord
  2
LAYER_CHAMFER_FEAT
 70
0
 62
7
  6
CONTINUOUS
370
-3
390
F
  0
LAYER
  5
216
100
AcDbSymbolTableRecord
100
AcDbLayerTableRecord
  2
LAYER_CUT_FEAT
 70
0
 62
7
  6
CONTINUOUS
370
-3
390
F
  0
LAYER
  5
217
100
AcDbSymbolTableRecord
100
AcDbLayerTableRecord
  2
LAYER_DATUM
 70
0
 62
7
  6
CONTINUOUS
370
-3
390
F
  0
LAYER
  5
218
100
AcDbSymbolTableRecord
100
AcDbLayerTableRecord
  2
LAYER_DIM
 70
0
 62
7
  6
CONTINUOUS
370
-3
390
F
  0
LAYER
  5
219
100
AcDbSymbolTableRecord
100
AcDbLayerTableRecord
  2
LAYER_FEATURE
 70
0
 62
7
  6
CONTINUOUS
370
-3
390
F
  0
LAYER
  5
21A
100
AcDbSymbolTableRecord
100
AcDbLayerTableRecord
  2
LAYER_GEOM_FEAT
 70
0
 62
7
  6
CONTINUOUS
370
-3
390
F
  0
LAYER
  5
21B
100
AcDbSymbolTableRecord
100
AcDbLayerTableRecord
  2
LAYER_NOGEOM_FEAT
 70
0
 62
7
  6
CONTINUOUS
370
-3
390
F
  0
LAYER
  5
21C
100
AcDbSymbolTableRecord
100
AcDbLayerTableRecord
  2
LAYER_PARAMETER_DIM
 70
0
 62
7
  6
CONTINUOUS
370
-3
390
F
  0
LAYER
  5
21D
100
AcDbSymbolTableRecord
100
AcDbLayerTableRecord
  2
LAYER_PROTRUSION_FEAT
 70
0
 62
7
  6
CONTINUOUS
370
-3
390
F
  0
LAYER
  5
21E
100
AcDbSymbolTableRecord
100
AcDbLayerTableRecord
  2
LAYER_QUILT
 70
0
 62
7
  6
CONTINUOUS
370
-3
390
F
  0
LAYER
  5
21F
100
AcDbSymbolTableRecord
100
AcDbLayerTableRecord
  2
LAYER_ROUND_FEAT
 70
0
 62
7
  6
CONTINUOUS
370
-3
390
F
  0
ENDTAB
  0
TABLE
  2
STYLE
  5
3
100
AcDbSymbolTable
 70
1
  0
STYLE
  5
11
100
AcDbSymbolTableRecord
100
AcDbTextStyleTableRecord
  2
STANDARD
 70
0
 40
0.0
 41
0.8
 50
0.0
 71
0
 42
0.2
  3
txt
  4

  0
STYLE
  5
220
100
AcDbSymbolTableRecord
100
AcDbTextStyleTableRecord
  2
TEXTSTYLE_1
 70
0
 40
0.0
 41
0.8
 50
0.0
 71
0
 42
0.2
  3
gdt
  4

  0
ENDTAB
  0
TABLE
  2
VIEW
  5
6
100
AcDbSymbolTable
 70
0
  0
ENDTAB
  0
TABLE
  2
UCS
  5
7
100
AcDbSymbolTable
 70
0
  0
ENDTAB
  0
TABLE
  2
APPID
  5
9
100
AcDbSymbolTable
 70
1
  0
APPID
  5
221
100
AcDbSymbolTableRecord
100
AcDbRegAppTableRecord
  2
ACAD
 70
0
  0
ENDTAB
  0
TABLE
  2
BLOCK_RECORD
  5
1
100
AcDbSymbolTable
 70
0
  0
BLOCK_RECORD
  5
222
100
AcDbSymbolTableRecord
100
AcDbBlockTableRecord
  2
*Model_Space
  0
BLOCK_RECORD
  5
223
100
AcDbSymbolTableRecord
100
AcDbBlockTableRecord
  2
*Paper_Space
  0
ENDTAB
  0
TABLE
  2
DIMSTYLE
  5
A
100
AcDbSymbolTable
 70
1
100
AcDbDimStyleTable
 71
0
  0
DIMSTYLE
105
224
100
AcDbSymbolTableRecord
100
AcDbDimStyleTableRecord
  2
STANDARD
 70
0
  3

  4

 40
1.0
 41
0.1875
 42
0.0625
 43
0.38
 44
0.125
 45
0.0
 46
0.0
 47
0.0001
 48
0.0001
140
0.15625
141
0.09
142
0.0
143
25.4
144
1.0
145
0.0
146
1.0
147
0.09
 71
0.0
 72
0.0
 73
1
 74
1
 75
0
 76
0
 77
0
 78
4
170
0
171
2
172
0
173
0
174
0
175
0
176
0
177
0
178
0
270
2
271
4
272
4
273
2
274
2
275
0
280
0
281
0
282
0
283
1
284
4
285
0
286
0
287
3
288
0
340
11
278
46
  0
ENDTAB
  0
ENDSEC
  0
SECTION
  2
BLOCKS
  0
BLOCK
  5
20
100
AcDbEntity
  8
0
100
AcDbBlockBegin
  2
*Model_Space
 70
0
 10
0.0
 20
0.0
 30
0.0
  3
*Model_Space
  1

  0
ENDBLK
  5
21
100
AcDbEntity
  8
0
100
AcDbBlockEnd
  0
BLOCK
  5
1C
100
AcDbEntity
  8
0
100
AcDbBlockBegin
  2
*Paper_Space
 70
0
 10
0.0
 20
0.0
 30
0.0
  3
*Paper_Space
  1

  0
ENDBLK
  5
1D
100
AcDbEntity
  8
0
100
AcDbBlockEnd
  0
ENDSEC
  0
SECTION
  2
ENTITIES
  0
MTEXT
  5
225
100
AcDbEntity
  8
0
100
AcDbMText
 62
7
  6
CONTINUOUS
  7
STANDARD
 71
1
 72
1
 10
15.9560215477
 20
0.9479130325
 30
0.0
 11
1.0
 21
0.0
 31
0.0
 44
0.9
  1
SCALE: 1:1.000
 40
0.3
 41
3.36
  0
LINE
  5
226
100
AcDbEntity
  8
0
100
AcDbLine
 62
7
  6
CONTINUOUS
 10
0.0
 20
0.0
 11
0.0
 21
17.0
  0
LINE
  5
227
100
AcDbEntity
  8
0
100
AcDbLine
 62
7
  6
CONTINUOUS
 10
0.0
 20
0.0
 11
22.0
 21
0.0
  0
LINE
  5
228
100
AcDbEntity
  8
0
100
AcDbLine
 62
7
  6
CONTINUOUS
 10
0.0
 20
17.0
 11
22.0
 21
17.0
  0
LINE
  5
229
100
AcDbEntity
  8
0
100
AcDbLine
 62
7
  6
CONTINUOUS
 10
22.0
 20
0.0
 11
22.0
 21
17.0
  0
LINE
  5
22A
100
AcDbEntity
  8
LAYER_FEATURE
100
AcDbLine
 62
7
  6
CONTINUOUS
 10
6.0647672762
 20
6.0671198968
 11
6.060192462
 21
6.0625450826
  0
LINE
  5
22B
100
AcDbEntity
  8
LAYER_FEATURE
100
AcDbLine
 62
7
  6
CONTINUOUS
 10
6.6773672762
 20
5.4545198968
 11
6.6728451558
 21
5.4499977764
  0
LINE
  5
22C
100
AcDbEntity
  8
LAYER_FEATURE
100
AcDbLine
 62
7
  6
CONTINUOUS
 10
6.1959672762
 20
6.0671198968
 11
6.2005420903
 21
6.0625450826
  0
LINE
  5
22D
100
AcDbEntity
  8
LAYER_FEATURE
100
AcDbLine
 62
7
  6
CONTINUOUS
 10
6.6773672762
 20
5.5857198968
 11
6.6728451558
 21
5.5902420171
  0
LINE
  5
22E
100
AcDbEntity
  8
LAYER_FEATURE
100
AcDbLine
 62
7
  6
CONTINUOUS
 10
6.6773672762
 20
5.5857198968
 11
6.6773672762
 21
5.4545198968
  0
LINE
  5
22F
100
AcDbEntity
  8
LAYER_FEATURE
100
AcDbLine
 62
7
  6
CONTINUOUS
 10
6.0647672762
 20
6.0671198968
 11
6.1959672762
 21
6.0671198968
  0
LINE
  5
230
100
AcDbEntity
  8
LAYER_FEATURE
100
AcDbLine
 62
7
  6
CONTINUOUS
 10
5.1643720839
 20
12.4900477814
 11
5.1643720839
 21
12.5300477814
  0
LINE
  5
231
100
AcDbEntity
  8
LAYER_FEATURE
100
AcDbLine
 62
7
  6
CONTINUOUS
 10
5.1643720839
 20
13.0130477814
 11
5.1643720839
 21
13.0530477814
  0
LINE
  5
232
100
AcDbEntity
  8
0
100
AcDbLine
 62
7
  6
CONTINUOUS
 10
5.2850584918
 20
12.9865477814
 11
5.2850584918
 21
12.5565477814
  0
LINE
  5
233
100
AcDbEntity
  8
0
100
AcDbLine
 62
7
  6
CONTINUOUS
 10
5.2931779622
 20
12.9865477814
 11
5.2931779622
 21
12.5565477814
  0
LINE
  5
234
100
AcDbEntity
  8
0
100
AcDbLine
 62
7
  6
CONTINUOUS
 10
5.3447600211
 20
12.9865477814
 11
5.3447600211
 21
12.5565477814
  0
LINE
  5
235
100
AcDbEntity
  8
0
100
AcDbLine
 62
7
  6
CONTINUOUS
 10
5.4404583631
 20
12.9865477814
 11
5.4404583631
 21
12.5565477814
  0
LINE
  5
236
100
AcDbEntity
  8
02___PRT_ALL_AXES
100
AcDbLine
 62
7
  6
CONTINUOUS
 10
5.5238720839
 20
12.1470477814
 11
5.5238720839
 21
12.4900477814
  0
LINE
  5
237
100
AcDbEntity
  8
0
100
AcDbLine
 62
7
  6
CONTINUOUS
 10
5.5742599094
 20
12.9865477814
 11
5.5742599094
 21
12.5565477814
  0
LINE
  5
238
100
AcDbEntity
  8
02___PRT_ALL_AXES
100
AcDbLine
 62
7
  6
CONTINUOUS
 10
5.5238720921
 20
12.1470477814
 11
6.6178720756
 21
12.1470477814
  0
LINE
  5
239
100
AcDbEntity
  8
0
100
AcDbLine
 62
7
  6
CONTINUOUS
 10
5.7377574168
 20
12.9865477814
 11
5.7377574168
 21
12.5565477814
  0
LINE
  5
23A
100
AcDbEntity
  8
LAYER_FEATURE
100
AcDbLine
 62
7
  6
CONTINUOUS
 10
5.1643720839
 20
12.5300477814
 11
5.2057797105
 21
12.5465485649
  0
LINE
  5
23B
100
AcDbEntity
  8
LAYER_CUT_FEAT
100
AcDbLine
 62
7
  6
CONTINUOUS
 10
6.0472007228
 20
12.2775477814
 11
6.0945434449
 21
12.2775477814
  0
LINE
  5
23C
100
AcDbEntity
  8
LAYER_CUT_FEAT
100
AcDbLine
 62
7
  6
CONTINUOUS
 10
6.0945434449
 20
12.3595477814
 11
6.0472007228
 21
12.3595477814
  0
LINE
  5
23D
100
AcDbEntity
  8
LAYER_CUT_FEAT
100
AcDbLine
 62
7
  6
CONTINUOUS
 10
6.0235293618
 20
12.3185477814
 11
6.0472007228
 21
12.2775477814
  0
LINE
  5
23E
100
AcDbEntity
  8
LAYER_FEATURE
100
AcDbLine
 62
7
  6
CONTINUOUS
 10
5.1643720839
 20
12.4900477814
 11
6.9773720839
 21
12.4900477814
  0
LINE
  5
23F
100
AcDbEntity
  8
LAYER_FEATURE
100
AcDbLine
 62
7
  6
CONTINUOUS
 10
5.1643720839
 20
12.5300477814
 11
6.9773720839
 21
12.5300477814
  0
LINE
  5
240
100
AcDbEntity
  8
LAYER_CUT_FEAT
100
AcDbLine
 62
7
  6
CONTINUOUS
 10
6.1182148059
 20
12.3185477814
 11
6.0945434449
 21
12.3595477814
  0
LINE
  5
241
100
AcDbEntity
  8
LAYER_FEATURE
100
AcDbLine
 62
7
  6
CONTINUOUS
 10
6.9359644573
 20
12.9965469978
 11
6.9773720839
 21
13.0130477814
  0
LINE
  5
242
100
AcDbEntity
  8
LAYER_FEATURE
100
AcDbLine
 62
7
  6
CONTINUOUS
 10
6.8838607088
 20
12.5565477814
 11
5.2578834589
 21
12.5565477814
  0
LINE
  5
243
100
AcDbEntity
  8
LAYER_FEATURE
100
AcDbLine
 62
7
  6
CONTINUOUS
 10
5.2057797105
 20
12.9965469978
 11
5.1643720839
 21
13.0130477814
  0
LINE
  5
244
100
AcDbEntity
  8
LAYER_CUT_FEAT
100
AcDbLine
 62
7
  6
CONTINUOUS
 10
6.0472007228
 20
12.3595477814
 11
6.0235293618
 21
12.3185477814
  0
LINE
  5
245
100
AcDbEntity
  8
LAYER_CUT_FEAT
100
AcDbLine
 62
7
  6
CONTINUOUS
 10
6.0945434449
 20
12.2775477814
 11
6.1182148059
 21
12.3185477814
  0
LINE
  5
246
100
AcDbEntity
  8
LAYER_FEATURE
100
AcDbLine
 62
7
  6
CONTINUOUS
 10
6.9773720839
 20
12.5300477814
 11
6.9359644573
 21
12.5465485649
  0
LINE
  5
247
100
AcDbEntity
  8
LAYER_FEATURE
100
AcDbLine
 62
7
  6
CONTINUOUS
 10
6.6158981818
 20
12.3861216834
 11
6.6178720839
 21
12.3841477814
  0
LINE
  5
248
100
AcDbEntity
  8
LAYER_CUT_FEAT
100
AcDbLine
 62
7
  6
CONTINUOUS
 10
6.4039867509
 20
12.9865477814
 11
6.4039867509
 21
12.5565477814
  0
LINE
  5
249
100
AcDbEntity
  8
LAYER_FEATURE
100
AcDbLine
 62
7
  6
CONTINUOUS
 10
6.8838607088
 20
12.9865477814
 11
5.2578834589
 21
12.9865477814
  0
LINE
  5
24A
100
AcDbEntity
  8
LAYER_FEATURE
100
AcDbLine
 62
7
  6
CONTINUOUS
 10
5.1643720839
 20
13.0130477814
 11
6.9773720839
 21
13.0130477814
  0
LINE
  5
24B
100
AcDbEntity
  8
LAYER_FEATURE
100
AcDbLine
 62
7
  6
CONTINUOUS
 10
5.1643720839
 20
13.0530477814
 11
6.9773720839
 21
13.0530477814
  0
LINE
  5
24C
100
AcDbEntity
  8
LAYER_CUT_FEAT
100
AcDbLine
 62
7
  6
CONTINUOUS
 10
6.5674842583
 20
12.9865477814
 11
6.5674842583
 21
12.5565477814
  0
LINE
  5
24D
100
AcDbEntity
  8
02___PRT_ALL_AXES
100
AcDbLine
 62
7
  6
CONTINUOUS
 10
6.6178720839
 20
12.1470477814
 11
6.6178720839
 21
12.2365477814
  0
LINE
  5
24E
100
AcDbEntity
  8
LAYER_FEATURE
100
AcDbLine
 62
7
  6
CONTINUOUS
 10
6.6178720839
 20
12.2529477814
 11
6.6178720839
 21
12.3841477814
  0
LINE
  5
24F
100
AcDbEntity
  8
02___PRT_ALL_AXES
100
AcDbLine
 62
7
  6
CONTINUOUS
 10
6.6178720839
 20
12.4005477814
 11
6.6178720839
 21
12.4900477814
  0
LINE
  5
250
100
AcDbEntity
  8
LAYER_CUT_FEAT
100
AcDbLine
 62
7
  6
CONTINUOUS
 10
6.7012858046
 20
12.9865477814
 11
6.7012858046
 21
12.5565477814
  0
LINE
  5
251
100
AcDbEntity
  8
LAYER_FEATURE
100
AcDbLine
 62
7
  6
CONTINUOUS
 10
6.6158981816
 20
12.2509738791
 11
6.6178720839
 21
12.2529477814
  0
LINE
  5
252
100
AcDbEntity
  8
LAYER_CUT_FEAT
100
AcDbLine
 62
7
  6
CONTINUOUS
 10
6.7969841466
 20
12.9865477814
 11
6.7969841466
 21
12.5565477814
  0
LINE
  5
253
100
AcDbEntity
  8
LAYER_CUT_FEAT
100
AcDbLine
 62
7
  6
CONTINUOUS
 10
6.8485662055
 20
12.9865477814
 11
6.8485662055
 21
12.5565477814
  0
LINE
  5
254
100
AcDbEntity
  8
LAYER_CUT_FEAT
100
AcDbLine
 62
7
  6
CONTINUOUS
 10
6.8566856759
 20
12.9865477814
 11
6.8566856759
 21
12.5565477814
  0
LINE
  5
255
100
AcDbEntity
  8
LAYER_FEATURE
100
AcDbLine
 62
7
  6
CONTINUOUS
 10
6.9773720839
 20
12.4900477814
 11
6.9773720839
 21
12.5300477814
  0
LINE
  5
256
100
AcDbEntity
  8
LAYER_FEATURE
100
AcDbLine
 62
7
  6
CONTINUOUS
 10
6.9773720839
 20
13.0130477814
 11
6.9773720839
 21
13.0530477814
  0
LINE
  5
257
100
AcDbEntity
  8
LAYER_FEATURE
100
AcDbLine
 62
7
  6
CONTINUOUS
 10
16.0133552569
 20
4.5541247044
 11
15.9733552569
 21
4.5541247044
  0
LINE
  5
258
100
AcDbEntity
  8
LAYER_FEATURE
100
AcDbLine
 62
7
  6
CONTINUOUS
 10
15.4903552569
 20
4.5541247044
 11
15.4503552569
 21
4.5541247044
  0
LINE
  5
259
100
AcDbEntity
  8
02___PRT_ALL_AXES
100
AcDbLine
 62
7
  6
CONTINUOUS
 10
15.5168552569
 20
4.6746247044
 11
15.9468552569
 21
4.6746247044
  0
LINE
  5
25A
100
AcDbEntity
  8
LAYER_CUT_FEAT
100
AcDbLine
 62
7
  6
CONTINUOUS
 10
15.9468552569
 20
4.6914630149
 11
15.5168552569
 21
4.6914630149
  0
LINE
  5
25B
100
AcDbEntity
  8
LAYER_CUT_FEAT
100
AcDbLine
 62
7
  6
CONTINUOUS
 10
15.9468552569
 20
4.7544911613
 11
15.5168552569
 21
4.7544911613
  0
LINE
  5
25C
100
AcDbEntity
  8
LAYER_FEATURE
100
AcDbLine
 62
7
  6
CONTINUOUS
 10
15.2112814831
 20
6.0056509306
 11
15.2132552569
 21
6.0076247044
  0
LINE
  5
25D
100
AcDbEntity
  8
LAYER_CUT_FEAT
100
AcDbLine
 62
7
  6
CONTINUOUS
 10
15.9468552569
 20
4.8603802669
 11
15.5168552569
 21
4.8603802669
  0
LINE
  5
25E
100
AcDbEntity
  8
02___PRT_ALL_AXES
100
AcDbLine
 62
7
  6
CONTINUOUS
 10
15.4503552569
 20
4.9136247044
 11
15.1073552569
 21
4.9136247044
  0
LINE
  5
25F
100
AcDbEntity
  8
02___PRT_ALL_AXES
100
AcDbLine
 62
7
  6
CONTINUOUS
 10
15.1073552569
 20
6.0076247044
 11
15.1073552569
 21
4.9136247044
  0
LINE
  5
260
100
AcDbEntity
  8
LAYER_CUT_FEAT
100
AcDbLine
 62
7
  6
CONTINUOUS
 10
15.9468552569
 20
5.0024769298
 11
15.5168552569
 21
5.0024769298
  0
LINE
  5
261
100
AcDbEntity
  8
LAYER_CUT_FEAT
100
AcDbLine
 62
7
  6
CONTINUOUS
 10
15.2378552569
 20
5.4842960655
 11
15.2378552569
 21
5.4369533434
  0
LINE
  5
262
100
AcDbEntity
  8
LAYER_CUT_FEAT
100
AcDbLine
 62
7
  6
CONTINUOUS
 10
15.9468552569
 20
5.1718526941
 11
15.5168552569
 21
5.1718526941
  0
LINE
  5
263
100
AcDbEntity
  8
LAYER_CUT_FEAT
100
AcDbLine
 62
7
  6
CONTINUOUS
 10
15.3198552569
 20
5.4369533434
 11
15.3198552569
 21
5.4842960655
  0
LINE
  5
264
100
AcDbEntity
  8
LAYER_CUT_FEAT
100
AcDbLine
 62
7
  6
CONTINUOUS
 10
15.2788552569
 20
5.5079674265
 11
15.2378552569
 21
5.4842960655
  0
LINE
  5
265
100
AcDbEntity
  8
LAYER_CUT_FEAT
100
AcDbLine
 62
7
  6
CONTINUOUS
 10
15.2378552569
 20
5.4369533434
 11
15.2788552569
 21
5.4132819824
  0
LINE
  5
266
100
AcDbEntity
  8
LAYER_FEATURE
100
AcDbLine
 62
7
  6
CONTINUOUS
 10
15.4503552569
 20
6.3671247044
 11
15.4503552569
 21
4.5541247044
  0
LINE
  5
267
100
AcDbEntity
  8
LAYER_FEATURE
100
AcDbLine
 62
7
  6
CONTINUOUS
 10
15.4903552569
 20
6.3671247044
 11
15.4903552569
 21
4.5541247044
  0
LINE
  5
268
100
AcDbEntity
  8
LAYER_CUT_FEAT
100
AcDbLine
 62
7
  6
CONTINUOUS
 10
15.2788552569
 20
5.4132819824
 11
15.3198552569
 21
5.4369533434
  0
LINE
  5
269
100
AcDbEntity
  8
LAYER_CUT_FEAT
100
AcDbLine
 62
7
  6
CONTINUOUS
 10
15.3198552569
 20
5.4842960655
 11
15.2788552569
 21
5.5079674265
  0
LINE
  5
26A
100
AcDbEntity
  8
LAYER_FEATURE
100
AcDbLine
 62
7
  6
CONTINUOUS
 10
15.5168552569
 20
4.6476360267
 11
15.5168552569
 21
6.2736133821
  0
LINE
  5
26B
100
AcDbEntity
  8
LAYER_FEATURE
100
AcDbLine
 62
7
  6
CONTINUOUS
 10
15.9733552569
 20
6.3671247044
 11
15.9568544734
 21
6.3257170778
  0
LINE
  5
26C
100
AcDbEntity
  8
LAYER_FEATURE
100
AcDbLine
 62
7
  6
CONTINUOUS
 10
15.9733552569
 20
4.5541247044
 11
15.9568544734
 21
4.5955323311
  0
LINE
  5
26D
100
AcDbEntity
  8
LAYER_FEATURE
100
AcDbLine
 62
7
  6
CONTINUOUS
 10
15.5068560405
 20
4.5955323311
 11
15.4903552569
 21
4.5541247044
  0
LINE
  5
26E
100
AcDbEntity
  8
LAYER_FEATURE
100
AcDbLine
 62
7
  6
CONTINUOUS
 10
15.3464290305
 20
6.0056509309
 11
15.3444552569
 21
6.0076247044
  0
LINE
  5
26F
100
AcDbEntity
  8
LAYER_FEATURE
100
AcDbLine
 62
7
  6
CONTINUOUS
 10
15.5068560405
 20
6.3257170778
 11
15.4903552569
 21
6.3671247044
  0
LINE
  5
270
100
AcDbEntity
  8
LAYER_FEATURE
100
AcDbLine
 62
7
  6
CONTINUOUS
 10
15.9468552569
 20
4.6476360267
 11
15.9468552569
 21
6.2736133821
  0
LINE
  5
271
100
AcDbEntity
  8
LAYER_FEATURE
100
AcDbLine
 62
7
  6
CONTINUOUS
 10
15.9733552569
 20
6.3671247044
 11
15.9733552569
 21
4.5541247044
  0
LINE
  5
272
100
AcDbEntity
  8
LAYER_CUT_FEAT
100
AcDbLine
 62
7
  6
CONTINUOUS
 10
15.9468552569
 20
5.8368620939
 11
15.5168552569
 21
5.8368620939
  0
LINE
  5
273
100
AcDbEntity
  8
LAYER_FEATURE
100
AcDbLine
 62
7
  6
CONTINUOUS
 10
16.0133552569
 20
6.3671247044
 11
16.0133552569
 21
4.5541247044
  0
LINE
  5
274
100
AcDbEntity
  8
LAYER_CUT_FEAT
100
AcDbLine
 62
7
  6
CONTINUOUS
 10
15.9468552569
 20
5.9938360944
 11
15.5168552569
 21
5.9938360944
  0
LINE
  5
275
100
AcDbEntity
  8
02___PRT_ALL_AXES
100
AcDbLine
 62
7
  6
CONTINUOUS
 10
15.4503552569
 20
6.0076247044
 11
15.3608552569
 21
6.0076247044
  0
LINE
  5
276
100
AcDbEntity
  8
02___PRT_ALL_AXES
100
AcDbLine
 62
7
  6
CONTINUOUS
 10
15.1968552569
 20
6.0076247044
 11
15.1073552569
 21
6.0076247044
  0
LINE
  5
277
100
AcDbEntity
  8
LAYER_FEATURE
100
AcDbLine
 62
7
  6
CONTINUOUS
 10
15.2132553099
 20
6.0076247044
 11
15.344455204
 21
6.0076247044
  0
LINE
  5
278
100
AcDbEntity
  8
LAYER_CUT_FEAT
100
AcDbLine
 62
7
  6
CONTINUOUS
 10
15.9468552569
 20
6.1188144705
 11
15.5168552569
 21
6.1188144705
  0
LINE
  5
279
100
AcDbEntity
  8
LAYER_CUT_FEAT
100
AcDbLine
 62
7
  6
CONTINUOUS
 10
15.9468552569
 20
6.2039443712
 11
15.5168552569
 21
6.2039443712
  0
LINE
  5
27A
100
AcDbEntity
  8
0
100
AcDbLine
 62
7
  6
CONTINUOUS
 10
15.9468552569
 20
6.2438767718
 11
15.5168552569
 21
6.2438767718
  0
LINE
  5
27B
100
AcDbEntity
  8
LAYER_FEATURE
100
AcDbLine
 62
7
  6
CONTINUOUS
 10
16.0133552569
 20
6.3671247044
 11
15.9733552569
 21
6.3671247044
  0
LINE
  5
27C
100
AcDbEntity
  8
LAYER_FEATURE
100
AcDbLine
 62
7
  6
CONTINUOUS
 10
15.4903552569
 20
6.3671247044
 11
15.4503552569
 21
6.3671247044
  0
LINE
  5
27D
100
AcDbEntity
  8
LAYER_FEATURE
100
AcDbLine
 62
7
  6
CONTINUOUS
 10
14.5368818031
 20
12.5805463833
 11
14.5465644561
 21
12.6118794597
  0
LINE
  5
27E
100
AcDbEntity
  8
LAYER_FEATURE
100
AcDbLine
 62
7
  6
CONTINUOUS
 10
14.6634824903
 20
12.990226357
 11
14.6731651432
 21
13.0215594334
  0
LINE
  5
27F
100
AcDbEntity
  8
0
100
AcDbLine
 62
7
  6
CONTINUOUS
 10
14.7704169743
 20
12.9278666611
 11
14.738106749
 21
12.8233107338
  0
LINE
  5
280
100
AcDbEntity
  8
0
100
AcDbLine
 62
7
  6
CONTINUOUS
 10
14.800930852
 20
12.9957343014
 11
14.7494065712
 21
12.8290016676
  0
LINE
  5
281
100
AcDbEntity
  8
0
100
AcDbLine
 62
7
  6
CONTINUOUS
 10
14.8825891657
 20
13.0804676163
 11
14.8133608124
 21
12.8564445828
  0
LINE
  5
282
100
AcDbEntity
  8
0
100
AcDbLine
 62
7
  6
CONTINUOUS
 10
15.0030559127
 20
13.1418547498
 11
14.9244389934
 21
12.8874503058
  0
LINE
  5
283
100
AcDbEntity
  8
LAYER_CUT_FEAT
100
AcDbLine
 62
7
  6
CONTINUOUS
 10
14.8058327708
 20
12.4974342482
 11
14.8122475283
 21
12.5181924113
  0
LINE
  5
284
100
AcDbEntity
  8
02___PRT_ALL_AXES
100
AcDbLine
 62
7
  6
CONTINUOUS
 10
14.7973268477
 20
12.2057238232
 11
14.8803555966
 21
12.4744049532
  0
LINE
  5
285
100
AcDbEntity
  8
0
100
AcDbLine
 62
7
  6
CONTINUOUS
 10
15.1547617242
 20
13.1760385224
 11
15.0713068457
 21
12.9059784368
  0
LINE
  5
286
100
AcDbEntity
  8
0
100
AcDbLine
 62
7
  6
CONTINUOUS
 10
15.3281743661
 20
13.1808710421
 11
15.2423884545
 21
12.9032677306
  0
LINE
  5
287
100
AcDbEntity
  8
LAYER_FEATURE
100
AcDbLine
 62
7
  6
CONTINUOUS
 10
15.5041527703
 20
13.1454271528
 11
15.5135992854
 21
13.1584320425
  0
LINE
  5
288
100
AcDbEntity
  8
LAYER_FEATURE
100
AcDbLine
 62
7
  6
CONTINUOUS
 10
15.6845773749
 20
13.0981441538
 11
15.6998229781
 21
13.1080838818
  0
LINE
  5
289
100
AcDbEntity
  8
LAYER_FEATURE
100
AcDbLine
 62
7
  6
CONTINUOUS
 10
15.8548593266
 20
13.0259590561
 11
15.8749460805
 21
13.0322090727
  0
LINE
  5
28A
100
AcDbEntity
  8
LAYER_CUT_FEAT
100
AcDbLine
 62
7
  6
CONTINUOUS
 10
15.8797183
 20
12.1491353681
 11
15.8540331391
 21
12.1491353681
  0
LINE
  5
28B
100
AcDbEntity
  8
LAYER_CUT_FEAT
100
AcDbLine
 62
7
  6
CONTINUOUS
 10
15.8824222631
 20
12.1959661254
 11
15.8501408676
 21
12.1959661254
  0
LINE
  5
28C
100
AcDbEntity
  8
LAYER_CUT_FEAT
100
AcDbLine
 62
7
  6
CONTINUOUS
 10
15.1509929883
 20
12.5185847287
 11
15.1667534299
 21
12.4864683254
  0
LINE
  5
28D
100
AcDbEntity
  8
LAYER_CUT_FEAT
100
AcDbLine
 62
7
  6
CONTINUOUS
 10
15.1827204749
 20
12.550701132
 11
15.2077339079
 21
12.4997291146
  0
LINE
  5
28E
100
AcDbEntity
  8
LAYER_CUT_FEAT
100
AcDbLine
 62
7
  6
CONTINUOUS
 10
15.1509929883
 20
12.5185847287
 11
15.1628710363
 21
12.4864683254
  0
LINE
  5
28F
100
AcDbEntity
  8
LAYER_CUT_FEAT
100
AcDbLine
 62
7
  6
CONTINUOUS
 10
15.1827204749
 20
12.550701132
 11
15.1509929883
 21
12.5185847287
  0
LINE
  5
290
100
AcDbEntity
  8
LAYER_CUT_FEAT
100
AcDbLine
 62
7
  6
CONTINUOUS
 10
15.2077339079
 20
12.4997291146
 11
15.1946337015
 21
12.4864683254
  0
LINE
  5
291
100
AcDbEntity
  8
LAYER_CUT_FEAT
100
AcDbLine
 62
7
  6
CONTINUOUS
 10
15.206476571
 20
12.4864683254
 11
15.2382040576
 21
12.5185847287
  0
LINE
  5
292
100
AcDbEntity
  8
LAYER_CUT_FEAT
100
AcDbLine
 62
7
  6
CONTINUOUS
 10
15.2382040576
 20
12.5185847287
 11
15.2263260095
 21
12.550701132
  0
LINE
  5
293
100
AcDbEntity
  8
LAYER_CUT_FEAT
100
AcDbLine
 62
7
  6
CONTINUOUS
 10
15.1628710363
 20
12.4864683254
 11
15.206476571
 21
12.4864683254
  0
LINE
  5
294
100
AcDbEntity
  8
LAYER_CUT_FEAT
100
AcDbLine
 62
7
  6
CONTINUOUS
 10
15.2195767774
 20
12.4997291146
 11
15.2077339079
 21
12.4997291146
  0
LINE
  5
295
100
AcDbEntity
  8
LAYER_CUT_FEAT
100
AcDbLine
 62
7
  6
CONTINUOUS
 10
15.2263260095
 20
12.550701132
 11
15.1827204749
 21
12.550701132
  0
LINE
  5
296
100
AcDbEntity
  8
LAYER_FEATURE
100
AcDbLine
 62
7
  6
CONTINUOUS
 10
15.863672149
 20
12.252874623
 11
15.876077397
 21
12.2380125136
  0
LINE
  5
297
100
AcDbEntity
  8
LAYER_CUT_FEAT
100
AcDbLine
 62
7
  6
CONTINUOUS
 10
15.8481313123
 20
12.1611620267
 11
15.8625728246
 21
12.1317333188
  0
LINE
  5
298
100
AcDbEntity
  8
LAYER_CUT_FEAT
100
AcDbLine
 62
7
  6
CONTINUOUS
 10
15.8824222631
 20
12.1959661254
 11
15.8679807508
 21
12.2253948333
  0
LINE
  5
299
100
AcDbEntity
  8
LAYER_FEATURE
100
AcDbLine
 62
7
  6
CONTINUOUS
 10
15.7994147226
 20
13.0687220675
 11
15.7994716259
 21
13.0527343039
  0
LINE
  5
29A
100
AcDbEntity
  8
LAYER_CUT_FEAT
100
AcDbLine
 62
7
  6
CONTINUOUS
 10
15.9638791013
 20
12.9815624276
 11
15.8781717056
 21
12.7042131932
  0
LINE
  5
29B
100
AcDbEntity
  8
LAYER_CUT_FEAT
100
AcDbLine
 62
7
  6
CONTINUOUS
 10
15.8508352754
 20
12.207992784
 11
15.8481313123
 21
12.1611620267
  0
LINE
  5
29C
100
AcDbEntity
  8
LAYER_FEATURE
100
AcDbLine
 62
7
  6
CONTINUOUS
 10
16.0042991842
 20
12.9334075147
 11
16.0279649641
 21
12.9355751085
  0
LINE
  5
29D
100
AcDbEntity
  8
LAYER_FEATURE
100
AcDbLine
 62
7
  6
CONTINUOUS
 10
16.1235070916
 20
12.8263048834
 11
16.1492648898
 21
12.8242538565
  0
LINE
  5
29E
100
AcDbEntity
  8
LAYER_FEATURE
100
AcDbLine
 62
7
  6
CONTINUOUS
 10
16.2049927778
 20
12.7113808145
 11
16.2312241369
 21
12.7052400404
  0
LINE
  5
29F
100
AcDbEntity
  8
LAYER_FEATURE
100
AcDbLine
 62
7
  6
CONTINUOUS
 10
14.8471108913
 20
13.0322090727
 11
14.8662652581
 21
13.0276434321
  0
LINE
  5
2A0
100
AcDbEntity
  8
LAYER_FEATURE
100
AcDbLine
 62
7
  6
CONTINUOUS
 10
16.2517836521
 20
12.5926553094
 11
16.2686929046
 21
12.5860117359
  0
LINE
  5
2A1
100
AcDbEntity
  8
LAYER_FEATURE
100
AcDbLine
 62
7
  6
CONTINUOUS
 10
14.9477660972
 20
13.1080838818
 11
14.9727671204
 21
13.0981441538
  0
LINE
  5
2A2
100
AcDbEntity
  8
LAYER_FEATURE
100
AcDbLine
 62
7
  6
CONTINUOUS
 10
15.0845752126
 20
13.1584320425
 11
15.1067854735
 21
13.1454271528
  0
LINE
  5
2A3
100
AcDbEntity
  8
LAYER_FEATURE
100
AcDbLine
 62
7
  6
CONTINUOUS
 10
15.2489420176
 20
13.1800899946
 11
15.2669659638
 21
13.1648370883
  0
LINE
  5
2A4
100
AcDbEntity
  8
LAYER_FEATURE
100
AcDbLine
 62
7
  6
CONTINUOUS
 10
15.4305387414
 20
13.1716968893
 11
15.443243862
 21
13.1551543627
  0
LINE
  5
2A5
100
AcDbEntity
  8
LAYER_FEATURE
100
AcDbLine
 62
7
  6
CONTINUOUS
 10
15.6179549938
 20
13.1337800965
 11
15.6245429795
 21
13.1169873772
  0
LINE
  5
2A6
100
AcDbEntity
  8
LAYER_CUT_FEAT
100
AcDbLine
 62
7
  6
CONTINUOUS
 10
15.8797183
 20
12.1491353681
 11
15.8824222631
 21
12.1959661254
  0
LINE
  5
2A7
100
AcDbEntity
  8
LAYER_CUT_FEAT
100
AcDbLine
 62
7
  6
CONTINUOUS
 10
16.102448133
 20
12.8788070371
 11
16.0191706375
 21
12.6093209628
  0
LINE
  5
2A8
100
AcDbEntity
  8
LAYER_CUT_FEAT
100
AcDbLine
 62
7
  6
CONTINUOUS
 10
15.8679807508
 20
12.2253948333
 11
15.8508352754
 21
12.207992784
  0
LINE
  5
2A9
100
AcDbEntity
  8
02___PRT_ALL_AXES
100
AcDbLine
 62
7
  6
CONTINUOUS
 10
15.8425572513
 20
11.8827231989
 11
15.9255860002
 21
12.1514043289
  0
LINE
  5
2AA
100
AcDbEntity
  8
LAYER_FEATURE
100
AcDbLine
 62
7
  6
CONTINUOUS
 10
15.863672149
 20
12.1042535291
 11
15.876077397
 21
12.1191156385
  0
LINE
  5
2AB
100
AcDbEntity
  8
LAYER_CUT_FEAT
100
AcDbLine
 62
7
  6
CONTINUOUS
 10
15.8625728246
 20
12.1317333188
 11
15.8797183
 21
12.1491353681
  0
LINE
  5
2AC
100
AcDbEntity
  8
LAYER_CUT_FEAT
100
AcDbLine
 62
7
  6
CONTINUOUS
 10
16.0001088261
 20
12.1283750339
 11
16.0065235837
 21
12.149133197
  0
LINE
  5
2AD
100
AcDbEntity
  8
LAYER_CUT_FEAT
100
AcDbLine
 62
7
  6
CONTINUOUS
 10
16.2060589378
 20
12.76448607
 11
16.1278445742
 21
12.5113842968
  0
LINE
  5
2AE
100
AcDbEntity
  8
LAYER_FEATURE
100
AcDbLine
 62
7
  6
CONTINUOUS
 10
15.2912273323
 20
13.1562233385
 11
15.3091149147
 21
13.1562233385
  0
LINE
  5
2AF
100
AcDbEntity
  8
LAYER_FEATURE
100
AcDbLine
 62
7
  6
CONTINUOUS
 10
15.4652189918
 20
13.1434487238
 11
15.4840178678
 21
13.1404465256
  0
LINE
  5
2B0
100
AcDbEntity
  8
LAYER_FEATURE
100
AcDbLine
 62
7
  6
CONTINUOUS
 10
15.6428510923
 20
13.1029253576
 11
15.6613800594
 21
13.0971096004
  0
LINE
  5
2B1
100
AcDbEntity
  8
LAYER_FEATURE
100
AcDbLine
 62
7
  6
CONTINUOUS
 10
15.8129623557
 20
13.0371994719
 11
15.8300571707
 21
13.0289355812
  0
LINE
  5
2B2
100
AcDbEntity
  8
LAYER_FEATURE
100
AcDbLine
 62
7
  6
CONTINUOUS
 10
15.9648640657
 20
12.950400866
 11
15.9794505985
 21
12.9402080923
  0
LINE
  5
2B3
100
AcDbEntity
  8
LAYER_CUT_FEAT
100
AcDbLine
 62
7
  6
CONTINUOUS
 10
16.2682012677
 20
12.6457827332
 11
16.199735268
 21
12.4242266768
  0
LINE
  5
2B4
100
AcDbEntity
  8
LAYER_FEATURE
100
AcDbLine
 62
7
  6
CONTINUOUS
 10
15.1318086497
 20
13.1404465256
 11
15.1445060747
 21
13.1428512287
  0
LINE
  5
2B5
100
AcDbEntity
  8
LAYER_FEATURE
100
AcDbLine
 62
7
  6
CONTINUOUS
 10
16.0919795278
 20
12.8449306181
 11
16.1001734043
 21
12.8365022083
  0
LINE
  5
2B6
100
AcDbEntity
  8
LAYER_CUT_FEAT
100
AcDbLine
 62
7
  6
CONTINUOUS
 10
16.2849704917
 20
12.5301555938
 11
16.2349605218
 21
12.3683232721
  0
LINE
  5
2B7
100
AcDbEntity
  8
LAYER_CUT_FEAT
100
AcDbLine
 62
7
  6
CONTINUOUS
 10
16.2699499753
 20
12.4574249934
 11
16.2396786642
 21
12.3594669948
  0
LINE
  5
2B8
100
AcDbEntity
  8
LAYER_FEATURE
100
AcDbLine
 62
7
  6
CONTINUOUS
 10
16.2690597938
 20
12.0452628988
 11
16.2787424467
 21
12.0765959752
  0
LINE
  5
2B9
100
AcDbEntity
  8
LAYER_FEATURE
100
AcDbLine
 62
7
  6
CONTINUOUS
 10
16.3956604809
 20
12.4549428725
 11
16.4053431338
 21
12.4862759489
  0
CIRCLE
  5
2BA
100
AcDbEntity
  8
LAYER_FEATURE
100
AcDbCircle
 62
7
  6
CONTINUOUS
 10
6.1303672762
 20
5.5201198968
 40
0.9065
  0
CIRCLE
  5
2BB
100
AcDbEntity
  8
LAYER_FEATURE
100
AcDbCircle
 62
7
  6
CONTINUOUS
 10
6.1303672762
 20
5.5201198968
 40
0.84
  0
CIRCLE
  5
2BC
100
AcDbEntity
  8
LAYER_CUT_FEAT
100
AcDbCircle
 62
7
  6
CONTINUOUS
 10
6.1303672762
 20
5.5201198968
 40
0.625
  0
CIRCLE
  5
2BD
100
AcDbEntity
  8
02___PRT_ALL_AXES
100
AcDbCircle
 62
7
  6
CONTINUOUS
 10
6.1303672762
 20
5.5201198968
 40
0.547
  0
CIRCLE
  5
2BE
100
AcDbEntity
  8
LAYER_CHAMFER_FEAT
100
AcDbCircle
 62
7
  6
CONTINUOUS
 10
6.1303672762
 20
5.5201198968
 40
0.14375
  0
CIRCLE
  5
2BF
100
AcDbEntity
  8
LAYER_CHAMFER_FEAT
100
AcDbCircle
 62
7
  6
CONTINUOUS
 10
6.1303672762
 20
5.5201198968
 40
0.125
  0
ARC
  5
2C0
100
AcDbEntity
  8
LAYER_FEATURE
100
AcDbCircle
 62
7
  6
CONTINUOUS
 10
6.8838607616
 20
12.4157977814
 40
0.14075
100
AcDbArc
 50
68.2729040641
 51
90.0
  0
ARC
  5
2C1
100
AcDbEntity
  8
LAYER_FEATURE
100
AcDbCircle
 62
7
  6
CONTINUOUS
 10
5.2578834062
 20
12.4157977814
 40
0.14075
100
AcDbArc
 50
90.0
 51
111.7270959359
  0
ARC
  5
2C2
100
AcDbEntity
  8
LAYER_FEATURE
100
AcDbCircle
 62
7
  6
CONTINUOUS
 10
6.8838607616
 20
13.1272977814
 40
0.14075
100
AcDbArc
 50
270.0
 51
291.7270959359
  0
ARC
  5
2C3
100
AcDbEntity
  8
LAYER_FEATURE
100
AcDbCircle
 62
7
  6
CONTINUOUS
 10
5.2578834062
 20
13.1272977814
 40
0.14075
100
AcDbArc
 50
248.2729040641
 51
270.0
  0
CIRCLE
  5
2C4
100
AcDbEntity
  8
02___PRT_ALL_AXES
100
AcDbCircle
 62
7
  6
CONTINUOUS
 10
6.0708720839
 20
12.3185477814
 40
0.082
  0
CIRCLE
  5
2C5
100
AcDbEntity
  8
LAYER_FEATURE
100
AcDbCircle
 62
7
  6
CONTINUOUS
 10
6.0708720839
 20
12.3185477814
 40
0.0656
  0
ARC
  5
2C6
100
AcDbEntity
  8
LAYER_FEATURE
100
AcDbCircle
 62
7
  6
CONTINUOUS
 10
15.3761052569
 20
4.6476360267
 40
0.14075
100
AcDbArc
 50
338.2729040641
 51
360.0
  0
ARC
  5
2C7
100
AcDbEntity
  8
LAYER_FEATURE
100
AcDbCircle
 62
7
  6
CONTINUOUS
 10
15.3761052569
 20
6.2736133821
 40
0.14075
100
AcDbArc
 50
0.0
 51
21.7270959359
  0
ARC
  5
2C8
100
AcDbEntity
  8
LAYER_FEATURE
100
AcDbCircle
 62
7
  6
CONTINUOUS
 10
16.0876052569
 20
4.6476360267
 40
0.14075
100
AcDbArc
 50
180.0
 51
201.7270959359
  0
ARC
  5
2C9
100
AcDbEntity
  8
LAYER_FEATURE
100
AcDbCircle
 62
7
  6
CONTINUOUS
 10
16.0876052569
 20
6.2736133821
 40
0.14075
100
AcDbArc
 50
158.2729040641
 51
180.0
  0
CIRCLE
  5
2CA
100
AcDbEntity
  8
02___PRT_ALL_AXES
100
AcDbCircle
 62
7
  6
CONTINUOUS
 10
15.2788552569
 20
5.4606247044
 40
0.082
  0
CIRCLE
  5
2CB
100
AcDbEntity
  8
LAYER_FEATURE
100
AcDbCircle
 62
7
  6
CONTINUOUS
 10
15.2788552569
 20
5.4606247044
 40
0.0656
  0
ARC
  5
2CC
100
AcDbEntity
  8
LAYER_FEATURE
100
AcDbCircle
 62
7
  6
CONTINUOUS
 10
15.2556529117
 20
11.8390125358
 40
1.3533279645
100
AcDbArc
 50
75.3604773319
 51
78.0568888801
  0
ARC
  5
2CD
100
AcDbEntity
  8
LAYER_FEATURE
100
AcDbCircle
 62
7
  6
CONTINUOUS
 10
15.2591676422
 20
11.8434462532
 40
1.348041081
100
AcDbArc
 50
67.0827682181
 51
69.7862265131
  0
ARC
  5
2CE
100
AcDbEntity
  8
LAYER_FEATURE
100
AcDbCircle
 62
7
  6
CONTINUOUS
 10
15.2786119456
 20
11.9943554497
 40
1.1961764929
100
AcDbArc
 50
83.8578172054
 51
86.7855511255
  0
ARC
  5
2CF
100
AcDbEntity
  8
LAYER_FEATURE
100
AcDbCircle
 62
7
  6
CONTINUOUS
 10
15.3328933723
 20
11.9918203035
 40
1.1822289906
100
AcDbArc
 50
58.3007621002
 51
61.25148252
  0
ARC
  5
2D0
100
AcDbEntity
  8
LAYER_FEATURE
100
AcDbCircle
 62
7
  6
CONTINUOUS
 10
15.2774047487
 20
12.2580502518
 40
0.9321984966
100
AcDbArc
 50
93.3561634196
 51
96.8134759481
  0
ARC
  5
2D1
100
AcDbEntity
  8
LAYER_FEATURE
100
AcDbCircle
 62
7
  6
CONTINUOUS
 10
15.4870883727
 20
12.2104656546
 40
0.9143902661
100
AcDbArc
 50
48.1594692174
 51
51.6615367022
  0
ARC
  5
2D2
100
AcDbEntity
  8
LAYER_FEATURE
100
AcDbCircle
 62
7
  6
CONTINUOUS
 10
15.2243385359
 20
12.5372268414
 40
0.6475641945
100
AcDbArc
 50
104.8902346489
 51
109.2983272318
  0
ARC
  5
2D3
100
AcDbEntity
  8
LAYER_FEATURE
100
AcDbCircle
 62
7
  6
CONTINUOUS
 10
15.6898156679
 20
12.4073890714
 40
0.6312943364
100
AcDbArc
 50
35.4760526569
 51
39.9595843811
  0
ARC
  5
2D4
100
AcDbEntity
  8
LAYER_FEATURE
100
AcDbCircle
 62
7
  6
CONTINUOUS
 10
15.131460119
 20
12.744765165
 40
0.4195655679
100
AcDbArc
 50
119.9064983369
 51
125.7942591444
  0
ARC
  5
2D5
100
AcDbEntity
  8
LAYER_FEATURE
100
AcDbCircle
 62
7
  6
CONTINUOUS
 10
15.8810097502
 20
12.5204724902
 40
0.4085288618
100
AcDbArc
 50
18.6814250891
 51
24.6747989882
  0
ARC
  5
2D6
100
AcDbEntity
  8
LAYER_CUT_FEAT
100
AcDbCircle
 62
7
  6
CONTINUOUS
 10
15.1558695686
 20
12.4741496639
 40
0.3659957293
100
AcDbArc
 50
206.1399558473
 51
206.800816776
  0
ARC
  5
2D7
100
AcDbEntity
  8
LAYER_FEATURE
100
AcDbCircle
 62
7
  6
CONTINUOUS
 10
15.0450762562
 20
12.8424851339
 40
0.2885341968
100
AcDbArc
 50
139.9026022096
 51
147.4605111359
  0
ARC
  5
2D8
100
AcDbEntity
  8
LAYER_FEATURE
100
AcDbCircle
 62
7
  6
CONTINUOUS
 10
16.0019051451
 20
12.5483408425
 40
0.2838745577
100
AcDbArc
 50
356.7117002974
 51
4.3521337261
  0
SPLINE
  5
2D9
100
AcDbEntity
  8
02___PRT_ALL_AXES
100
AcDbSpline
 62
7
  6
CONTINUOUS
 70
0
 71
3
 72
19
 73
15
 74
0
 42
0.0000001
 43
0.0000001
 44
0.0000000001
 40
0.0
 40
0.0
 40
0.0
 40
0.0
 40
0.0383800633
 40
0.1471060764
 40
0.2228300917
 40
0.3091079695
 40
0.4026848157
 40
0.5000000006
 40
0.5973151854
 40
0.6908920315
 40
0.7771699092
 40
0.8528939237
 40
0.961619937
 40
1.0
 40
1.0
 40
1.0
 40
1.0
 10
6.6178720839
 20
12.2365477814
 30
0.0
 10
6.6175598644
 20
12.2386304164
 30
0.0
 10
6.6164067938
 20
12.2466196738
 30
0.0
 10
6.6149160764
 20
12.2587577136
 30
0.0
 10
6.6135060042
 20
12.2735468108
 30
0.0
 10
6.6125122281
 20
12.2875370077
 30
0.0
 10
6.61184613
 20
12.3027330059
 30
0.0
 10
6.611611782
 20
12.3185477815
 30
0.0
 10
6.61184613
 20
12.334362557
 30
0.0
 10
6.6125122281
 20
12.3495585552
 30
0.0
 10
6.6135060042
 20
12.363548752
 30
0.0
 10
6.6149160764
 20
12.3783378492
 30
0.0
 10
6.6164067939
 20
12.390475889
 30
0.0
 10
6.6175598644
 20
12.3984651464
 30
0.0
 10
6.6178720839
 20
12.4005477814
 30
0.0
  0
SPLINE
  5
2DA
100
AcDbEntity
  8
02___PRT_ALL_AXES
100
AcDbSpline
 62
7
  6
CONTINUOUS
 70
0
 71
3
 72
19
 73
15
 74
0
 42
0.0000001
 43
0.0000001
 44
0.0000000001
 40
0.0
 40
0.0
 40
0.0
 40
0.0
 40
0.0383800529
 40
0.1471060795
 40
0.2228300772
 40
0.3091079832
 40
0.4026848251
 40
0.5000000004
 40
0.5973151758
 40
0.6908920174
 40
0.7771699235
 40
0.8528939212
 40
0.9616199474
 40
1.0
 40
1.0
 40
1.0
 40
1.0
 10
15.3608552569
 20
6.0076247044
 30
0.0
 10
15.3587726225
 20
6.0073124851
 30
0.0
 10
15.3507833648
 20
6.0061594149
 30
0.0
 10
15.3386453258
 20
6.0046686983
 30
0.0
 10
15.3238562276
 20
6.0032586222
 30
0.0
 10
15.3098660301
 20
6.0022648491
 30
0.0
 10
15.2946700311
 20
6.0015987522
 30
0.0
 10
15.2788552569
 20
6.0013644009
 30
0.0
 10
15.2630404826
 20
6.0015987522
 30
0.0
 10
15.2478444837
 20
6.0022648491
 30
0.0
 10
15.2338542862
 20
6.0032586222
 30
0.0
 10
15.219065188
 20
6.0046686983
 30
0.0
 10
15.206927149
 20
6.0061594149
 30
0.0
 10
15.1989378914
 20
6.0073124851
 30
0.0
 10
15.1968552569
 20
6.0076247044
 30
0.0
  0
SPLINE
  5
2DB
100
AcDbEntity
  8
02___PRT_ALL_AXES
100
AcDbSpline
 62
7
  6
CONTINUOUS
 70
0
 71
3
 72
44
 73
40
 74
0
 42
0.0000001
 43
0.0000001
 44
0.0000000001
 40
0.0
 40
0.0
 40
0.0
 40
0.0
 40
0.0137282264
 40
0.0279396393
 40
0.0426165854
 40
0.0577428033
 40
0.0892706502
 40
0.1223675769
 40
0.1568623456
 40
0.1925729029
 40
0.2293097264
 40
0.2668785425
 40
0.3050826086
 40
0.3437246493
 40
0.3826084599
 40
0.421540267
 40
0.4603299944
 40
0.49879248
 40
0.5367487236
 40
0.5740273022
 40
0.610465894
 40
0.6459130874
 40
0.6802302623
 40
0.7132937981
 40
0.7449972796
 40
0.7752540431
 40
0.8039997709
 40
0.8311955485
 40
0.8568312651
 40
0.880929773
 40
0.9035517691
 40
0.9248014736
 40
0.9448324514
 40
0.9544599195
 40
0.963865293
 40
0.9730830752
 40
0.9821508807
 40
0.9911090271
 40
1.0
 40
1.0
 40
1.0
 40
1.0
 10
15.8454273492
 20
12.1143312695
 30
0.0
 10
15.8450991425
 20
12.1150000844
 30
0.0
 10
15.8444480938
 20
12.1163696125
 30
0.0
 10
15.8435028759
 20
12.1184805497
 30
0.0
 10
15.8425734015
 20
12.1206810705
 30
0.0
 10
15.8413402526
 20
12.1237727198
 30
0.0
 10
15.8398533718
 20
12.1278383589
 30
0.0
 10
15.8381817932
 20
12.1329520812
 30
0.0
 10
15.8366130844
 20
12.1383351242
 30
0.0
 10
15.8351614517
 20
12.1439551073
 30
0.0
 10
15.8338411711
 20
12.1497785616
 30
0.0
 10
15.8326663987
 20
12.1557710627
 30
0.0
 10
15.8316509766
 20
12.1618974669
 30
0.0
 10
15.8308082309
 20
12.1681220661
 30
0.0
 10
15.8301507622
 20
12.1744087232
 30
0.0
 10
15.8296902213
 20
12.1807209806
 30
0.0
 10
15.8294370757
 20
12.1870221648
 30
0.0
 10
15.829400363
 20
12.1932754976
 30
0.0
 10
15.8295874404
 20
12.1994442314
 30
0.0
 10
15.8300037357
 20
12.2054918171
 30
0.0
 10
15.8306525129
 20
12.2113821173
 30
0.0
 10
15.831534666
 20
12.2170796583
 30
0.0
 10
15.8326485564
 20
12.2225499246
 30
0.0
 10
15.8339899068
 20
12.2277596715
 30
0.0
 10
15.8355517696
 20
12.2326772515
 30
0.0
 10
15.8373245686
 20
12.2372729194
 30
0.0
 10
15.8392962311
 20
12.2415191066
 30
0.0
 10
15.8414523829
 20
12.2453906301
 30
0.0
 10
15.8437766508
 20
12.2488648327
 30
0.0
 10
15.8462509069
 20
12.2519215817
 30
0.0
 10
15.8488558714
 20
12.2545432721
 30
0.0
 10
15.8515704924
 20
12.2567142414
 30
0.0
 10
15.8539382449
 20
12.2581556717
 30
0.0
 10
15.8558583749
 20
12.2590579619
 30
0.0
 10
15.8572917756
 20
12.2596060501
 30
0.0
 10
15.8587340732
 20
12.2600333657
 30
0.0
 10
15.8601822407
 20
12.2603392113
 30
0.0
 10
15.8616329654
 20
12.2605230304
 30
0.0
 10
15.8626020888
 20
12.2605640709
 30
0.0
 10
15.8630845854
 20
12.2605640739
 30
0.0
  0
SPLINE
  5
2DC
100
AcDbEntity
  8
02___PRT_ALL_AXES
100
AcDbSpline
 62
7
  6
CONTINUOUS
 70
0
 71
3
 72
23
 73
19
 74
0
 42
0.0000001
 43
0.0000001
 44
0.0000000001
 40
0.0
 40
0.0
 40
0.0
 40
0.0
 40
0.0741539548
 40
0.1467655446
 40
0.2177328989
 40
0.2869836214
 40
0.3544687189
 40
0.4201704263
 40
0.4841031102
 40
0.5463161148
 40
0.6068955335
 40
0.6659651122
 40
0.7236861829
 40
0.7802561301
 40
0.835905122
 40
0.8908910344
 40
0.9454924516
 40
1.0
 40
1.0
 40
1.0
 40
1.0
 10
15.1747490844
 20
12.4543519221
 30
0.0
 10
15.1732299182
 20
12.4543519221
 30
0.0
 10
15.1702226741
 20
12.4544198569
 30
0.0
 10
15.1657713342
 20
12.4547323539
 30
0.0
 10
15.161440533
 20
12.4552537359
 30
0.0
 10
15.1572462323
 20
12.4559827228
 30
0.0
 10
15.1532034291
 20
12.4569176173
 30
0.0
 10
15.1493264093
 20
12.4580561992
 30
0.0
 10
15.1456286081
 20
12.4593958096
 30
0.0
 10
15.1421226326
 20
12.460933326
 30
0.0
 10
15.1388202566
 20
12.4626651726
 30
0.0
 10
15.1357324342
 20
12.4645873
 30
0.0
 10
15.1328693217
 20
12.466695154
 30
0.0
 10
15.130240285
 20
12.4689836383
 30
0.0
 10
15.1278539148
 20
12.4714470169
 30
0.0
 10
15.1257179346
 20
12.4740789985
 30
0.0
 10
15.1238394058
 20
12.4768721665
 30
0.0
 10
15.1227632929
 20
12.4788354892
 30
0.0
 10
15.1222713469
 20
12.4798379646
 30
0.0
  0
SPLINE
  5
2DD
100
AcDbEntity
  8
LAYER_CUT_FEAT
100
AcDbSpline
 62
7
  6
CONTINUOUS
 70
0
 71
3
 72
22
 73
18
 74
0
 42
0.0000001
 43
0.0000001
 44
0.0000000001
 40
0.0
 40
0.0
 40
0.0
 40
0.0
 40
0.1381197804
 40
0.2053664349
 40
0.2714549095
 40
0.3364371394
 40
0.400372579
 40
0.4633278449
 40
0.5253764087
 40
0.5865986111
 40
0.6470813103
 40
0.7069174443
 40
0.7662055009
 40
0.8250488566
 40
0.8835549595
 40
0.9418344164
 40
1.0
 40
1.0
 40
1.0
 40
1.0
 10
14.8273076772
 20
12.3129046411
 30
0.0
 10
14.8234470497
 20
12.3207717728
 30
0.0
 10
14.8181274085
 20
12.3326849924
 30
0.0
 10
14.8120601911
 20
12.3488077422
 30
0.0
 10
14.8081149894
 20
12.3607600961
 30
0.0
 10
14.8047391281
 20
12.3726672245
 30
0.0
 10
14.8019357951
 20
12.384518085
 30
0.0
 10
14.7997078298
 20
12.3963012552
 30
0.0
 10
14.7980575046
 20
12.4080054781
 30
0.0
 10
14.7969865344
 20
12.4196195075
 30
0.0
 10
14.7964960701
 20
12.4311321692
 30
0.0
 10
14.7965867145
 20
12.4425323533
 30
0.0
 10
14.7972585149
 20
12.4538090385
 30
0.0
 10
14.7985109017
 20
12.4649512597
 30
0.0
 10
14.8003427745
 20
12.4759483003
 30
0.0
 10
14.8027522958
 20
12.4867890506
 30
0.0
 10
14.8047431801
 20
12.493908307
 30
0.0
 10
14.8058327749
 20
12.497434247
 30
0.0
  0
SPLINE
  5
2DE
100
AcDbEntity
  8
LAYER_CHAMFER_FEAT
100
AcDbSpline
 62
7
  6
CONTINUOUS
 70
0
 71
3
 72
21
 73
17
 74
0
 42
0.0000001
 43
0.0000001
 44
0.0000000001
 40
0.0
 40
0.0
 40
0.0
 40
0.0
 40
0.1460256408
 40
0.2163702475
 40
0.2849455742
 40
0.4168973465
 40
0.4804403875
 40
0.5424557166
 40
0.6030489525
 40
0.6623443729
 40
0.7204847319
 40
0.777630655
 40
0.8339588851
 40
0.8896603391
 40
0.9449373184
 40
1.0
 40
1.0
 40
1.0
 40
1.0
 10
15.2466202131
 20
12.1311480343
 30
0.0
 10
15.2439790199
 20
12.1303350568
 30
0.0
 10
15.2401105758
 20
12.1289721513
 30
0.0
 10
15.235158612
 20
12.1268331862
 30
0.0
 10
15.2305540294
 20
12.1245771658
 30
0.0
 10
15.2262327908
 20
12.122044662
 30
0.0
 10
15.2222499031
 20
12.1192326893
 30
0.0
 10
15.219494305
 20
12.1170343564
 30
0.0
 10
15.2169386229
 20
12.11472469
 30
0.0
 10
15.2145877323
 20
12.1123079217
 30
0.0
 10
15.2124463023
 20
12.1097885953
 30
0.0
 10
15.2105185375
 20
12.1071714972
 30
0.0
 10
15.2088083214
 20
12.1044616235
 30
0.0
 10
15.2073190856
 20
12.1016641348
 30
0.0
 10
15.2060538697
 20
12.0987847202
 30
0.0
 10
15.2053608556
 20
12.0968123975
 30
0.0
 10
15.2050531913
 20
12.0958168109
 30
0.0
  0
SPLINE
  5
2DF
100
AcDbEntity
  8
LAYER_CHAMFER_FEAT
100
AcDbSpline
 62
7
  6
CONTINUOUS
 70
0
 71
3
 72
21
 73
17
 74
0
 42
0.0000001
 43
0.0000001
 44
0.0000000001
 40
0.0
 40
0.0
 40
0.0
 40
0.0
 40
0.145939217
 40
0.2162486599
 40
0.2847947765
 40
0.4167086695
 40
0.4802432047
 40
0.5422573934
 40
0.6028565234
 40
0.6621646216
 40
0.7203240989
 40
0.7774947176
 40
0.8338524627
 40
0.8895872404
 40
0.9449001007
 40
1.0
 40
1.0
 40
1.0
 40
1.0
 10
15.4296669663
 20
12.0744438933
 30
0.0
 10
15.4313759939
 20
12.072288854
 30
0.0
 10
15.433782293
 20
12.0689911756
 30
0.0
 10
15.4366408861
 20
12.0644463627
 30
0.0
 10
15.4391490647
 20
12.0600006249
 30
0.0
 10
15.4412695877
 20
12.0554874383
 30
0.0
 10
15.4429557257
 20
12.0509351918
 30
0.0
 10
15.4439804639
 20
12.0475776643
 30
0.0
 10
15.444778823
 20
12.0442410271
 30
0.0
 10
15.4453492072
 20
12.0409314689
 30
0.0
 10
15.4456904024
 20
12.0376553139
 30
0.0
 10
15.4458015685
 20
12.0344188102
 30
0.0
 10
15.4456823882
 20
12.0312282153
 30
0.0
 10
15.4453329596
 20
12.0280896517
 30
0.0
 10
15.444753893
 20
12.0250094793
 30
0.0
 10
15.4442149966
 20
12.0229971185
 30
0.0
 10
15.4439083949
 20
12.0220049703
 30
0.0
  0
SPLINE
  5
2E0
100
AcDbEntity
  8
LAYER_FEATURE
100
AcDbSpline
 62
7
  6
CONTINUOUS
 70
0
 71
3
 72
34
 73
30
 74
0
 42
0.0000001
 43
0.0000001
 44
0.0000000001
 40
0.0
 40
0.0
 40
0.0
 40
0.0
 40
0.0202795182
 40
0.0417779245
 40
0.0645062224
 40
0.0884593734
 40
0.11361859
 40
0.1399532938
 40
0.1674229023
 40
0.1959781244
 40
0.2255619232
 40
0.2561105986
 40
0.287554653
 40
0.3198194088
 40
0.3528256313
 40
0.386490239
 40
0.4207268151
 40
0.4554460442
 40
0.5259595735
 40
0.5972828181
 40
0.6686477673
 40
0.7392856343
 40
0.8084412619
 40
0.8422370556
 40
0.8753930125
 40
0.9078251367
 40
0.9394527287
 40
0.9702027607
 40
1.0
 40
1.0
 40
1.0
 40
1.0
 10
15.876077397
 20
12.2380125136
 30
0.0
 10
15.8765258875
 20
12.2374751986
 30
0.0
 10
15.8774088736
 20
12.2363336451
 30
0.0
 10
15.8786561371
 20
12.2344880693
 30
0.0
 10
15.879860809
 20
12.2324654185
 30
0.0
 10
15.881019088
 20
12.2302721163
 30
0.0
 10
15.882127413
 20
12.2279149803
 30
0.0
 10
15.883182318
 20
12.2254014183
 30
0.0
 10
15.8841804835
 20
12.2227393295
 30
0.0
 10
15.8851187445
 20
12.2199371019
 30
0.0
 10
15.8859941336
 20
12.2170035881
 30
0.0
 10
15.8868038732
 20
12.2139480678
 30
0.0
 10
15.8875453813
 20
12.2107802128
 30
0.0
 10
15.8882162926
 20
12.2075100619
 30
0.0
 10
15.8888144782
 20
12.2041479868
 30
0.0
 10
15.8893380274
 20
12.2007046598
 30
0.0
 10
15.8897852739
 20
12.1971909885
 30
0.0
 10
15.8902804468
 20
12.1924027463
 30
0.0
 10
15.8906976181
 20
12.1863214118
 30
0.0
 10
15.890876015
 20
12.1789631971
 30
0.0
 10
15.8907324295
 20
12.1715998142
 30
0.0
 10
15.8902686932
 20
12.1643246614
 30
0.0
 10
15.889615564
 20
12.1583669652
 30
0.0
 10
15.8889341802
 20
12.1537188567
 30
0.0
 10
15.8883519875
 20
12.1503382667
 30
0.0
 10
15.8876966417
 20
12.1470473536
 30
0.0
 10
15.8869702169
 20
12.143856454
 30
0.0
 10
15.8861750299
 20
12.1407758217
 30
0.0
 10
15.8855911584
 20
12.1387689906
 30
0.0
 10
15.8852875341
 20
12.1377864621
 30
0.0
  0
SPLINE
  5
2E1
100
AcDbEntity
  8
LAYER_FEATURE
100
AcDbSpline
 62
7
  6
CONTINUOUS
 70
0
 71
3
 72
15
 73
11
 74
0
 42
0.0000001
 43
0.0000001
 44
0.0000000001
 40
0.0
 40
0.0
 40
0.0
 40
0.0
 40
0.1030415714
 40
0.2124415823
 40
0.3282548779
 40
0.4504494651
 40
0.5789186576
 40
0.7134883268
 40
0.8539463761
 40
1.0
 40
1.0
 40
1.0
 40
1.0
 10
15.8760773969
 20
12.1191156392
 30
0.0
 10
15.8765383857
 20
12.1196679311
 30
0.0
 10
15.8774455289
 20
12.1208431996
 30
0.0
 10
15.8787246873
 20
12.1227463803
 30
0.0
 10
15.8799586983
 20
12.1248359436
 30
0.0
 10
15.8811434605
 20
12.1271048984
 30
0.0
 10
15.8822751155
 20
12.1295457929
 30
0.0
 10
15.8833499755
 20
12.1321506033
 30
0.0
 10
15.8843643897
 20
12.1349105927
 30
0.0
 10
15.8849864717
 20
12.1368122236
 30
0.0
 10
15.8852875341
 20
12.1377864621
 30
0.0
  0
SPLINE
  5
2E2
100
AcDbEntity
  8
02___PRT_ALL_AXES
100
AcDbSpline
 62
7
  6
CONTINUOUS
 70
0
 71
3
 72
23
 73
19
 74
0
 42
0.0000001
 43
0.0000001
 44
0.0000000001
 40
0.0
 40
0.0
 40
0.0
 40
0.0
 40
0.0423768343
 40
0.0856094743
 40
0.1303287032
 40
0.1770945517
 40
0.2263845639
 40
0.2785894357
 40
0.3340190892
 40
0.3929106446
 40
0.4554373455
 40
0.5217197706
 40
0.5918315813
 40
0.6658085687
 40
0.7436506644
 40
0.8253343429
 40
0.9108142077
 40
1.0
 40
1.0
 40
1.0
 40
1.0
 10
15.8630845854
 20
12.0965640782
 30
0.0
 10
15.862714739
 20
12.0965640749
 30
0.0
 10
15.8619667185
 20
12.0966132106
 30
0.0
 10
15.8608477097
 20
12.0968322077
 30
0.0
 10
15.8597268199
 20
12.0971959379
 30
0.0
 10
15.8586052604
 20
12.0977030737
 30
0.0
 10
15.8574837169
 20
12.0983522606
 30
0.0
 10
15.8563628422
 20
12.0991420299
 30
0.0
 10
15.855243321
 20
12.1000708939
 30
0.0
 10
15.8541259516
 20
12.1011372379
 30
0.0
 10
15.8530116508
 20
12.1023392709
 30
0.0
 10
15.8519015092
 20
12.103675014
 30
0.0
 10
15.8507967189
 20
12.1051422348
 30
0.0
 10
15.8496986422
 20
12.106738455
 30
0.0
 10
15.8486087104
 20
12.1084609407
 30
0.0
 10
15.8475284717
 20
12.1103067716
 30
0.0
 10
15.8464596501
 20
12.1122726307
 30
0.0
 10
15.8457702564
 20
12.1136324981
 30
0.0
 10
15.8454273492
 20
12.1143312695
 30
0.0
  0
SPLINE
  5
2E3
100
AcDbEntity
  8
LAYER_FEATURE
100
AcDbSpline
 62
7
  6
CONTINUOUS
 70
0
 71
3
 72
39
 73
35
 74
0
 42
0.0000001
 43
0.0000001
 44
0.0000000001
 40
0.0
 40
0.0
 40
0.0
 40
0.0
 40
0.0250970117
 40
0.0502472711
 40
0.0755034697
 40
0.100917204
 40
0.1265384722
 40
0.152415221
 40
0.1785929518
 40
0.2051143931
 40
0.2320192395
 40
0.2593439578
 40
0.2871216624
 40
0.3153820446
 40
0.3441513532
 40
0.3734524163
 40
0.4033046947
 40
0.4337243673
 40
0.4647244382
 40
0.4963148566
 40
0.528502645
 40
0.5612920326
 40
0.5946845886
 40
0.6286793645
 40
0.6632730302
 40
0.6984600063
 40
0.7342325921
 40
0.7705810858
 40
0.8074939046
 40
0.8449577022
 40
0.8829574778
 40
0.9214766806
 40
0.9604973084
 40
1.0
 40
1.0
 40
1.0
 40
1.0
 10
14.536881808
 20
12.5805463818
 30
0.0
 10
14.5352364303
 20
12.5752219292
 30
0.0
 10
14.5322416281
 20
12.5644665354
 30
0.0
 10
14.5286566384
 20
12.5480799324
 30
0.0
 10
14.5259802218
 20
12.5314489753
 30
0.0
 10
14.5242152892
 20
12.5145918979
 30
0.0
 10
14.5233634821
 20
12.4975262956
 30
0.0
 10
14.5234255204
 20
12.4802701671
 30
0.0
 10
14.5244011231
 20
12.4628415983
 30
0.0
 10
14.5262890475
 20
12.4452588193
 30
0.0
 10
14.5290870928
 20
12.4275401646
 30
0.0
 10
14.5327921082
 20
12.4097040616
 30
0.0
 10
14.5374000172
 20
12.3917690159
 30
0.0
 10
14.542905827
 20
12.3737535991
 30
0.0
 10
14.5493036377
 20
12.355676437
 30
0.0
 10
14.5565866526
 20
12.337556199
 30
0.0
 10
14.5647471754
 20
12.319411582
 30
0.0
 10
14.5737766231
 20
12.3012612983
 30
0.0
 10
14.5836655379
 20
12.283124062
 30
0.0
 10
14.5944035934
 20
12.2650185723
 30
0.0
 10
14.6059796037
 20
12.2469634988
 30
0.0
 10
14.6183815296
 20
12.2289774637
 30
0.0
 10
14.6315964825
 20
12.2110790199
 30
0.0
 10
14.6456107444
 20
12.1932866372
 30
0.0
 10
14.6604097791
 20
12.1756186829
 30
0.0
 10
14.675978246
 20
12.1580934025
 30
0.0
 10
14.6923000141
 20
12.1407289027
 30
0.0
 10
14.709358172
 20
12.1235431276
 30
0.0
 10
14.7271350447
 20
12.1065538414
 30
0.0
 10
14.7456122198
 20
12.0897786099
 30
0.0
 10
14.7647705497
 20
12.073234791
 30
0.0
 10
14.7845902289
 20
12.0569394759
 30
0.0
 10
14.8050505917
 20
12.0409096284
 30
0.0
 10
14.8190208582
 20
12.0304730959
 30
0.0
 10
14.8261062249
 20
12.025301956
 30
0.0
  0
SPLINE
  5
2E4
100
AcDbEntity
  8
LAYER_FEATURE
100
AcDbSpline
 62
7
  6
CONTINUOUS
 70
0
 71
3
 72
21
 73
17
 74
0
 42
0.0000001
 43
0.0000001
 44
0.0000000001
 40
0.0
 40
0.0
 40
0.0
 40
0.0
 40
0.0596101899
 40
0.1192934646
 40
0.1791224619
 40
0.2391689488
 40
0.2995034004
 40
0.3601945919
 40
0.421309269
 40
0.4829117817
 40
0.545063811
 40
0.6078241442
 40
0.671248406
 40
0.735388958
 40
0.865990477
 40
1.0
 40
1.0
 40
1.0
 40
1.0
 10
14.6634824952
 20
12.9902263555
 30
0.0
 10
14.6622324969
 20
12.9861813535
 30
0.0
 10
14.659903731
 20
12.9780318355
 30
0.0
 10
14.6569329147
 20
12.9656578531
 30
0.0
 10
14.654485121
 20
12.9531380883
 30
0.0
 10
14.6525619115
 20
12.9404804072
 30
0.0
 10
14.6511644117
 20
12.9276923886
 30
0.0
 10
14.6502933957
 20
12.9147817879
 30
0.0
 10
14.6499493773
 20
12.9017563925
 30
0.0
 10
14.6501324991
 20
12.8886240655
 30
0.0
 10
14.6508425826
 20
12.8753927049
 30
0.0
 10
14.6520791695
 20
12.8620703156
 30
0.0
 10
14.6538414624
 20
12.8486647429
 30
0.0
 10
14.6569087319
 20
12.8305834762
 30
0.0
 10
14.6620790717
 20
12.8077925063
 30
0.0
 10
14.6675033824
 20
12.7897816597
 30
0.0
 10
14.6705423396
 20
12.7807619967
 30
0.0
  0
SPLINE
  5
2E5
100
AcDbEntity
  8
LAYER_FEATURE
100
AcDbSpline
 62
7
  6
CONTINUOUS
 70
0
 71
3
 72
39
 73
35
 74
0
 42
0.0000001
 43
0.0000001
 44
0.0000000001
 40
0.0
 40
0.0
 40
0.0
 40
0.0
 40
0.0250960086
 40
0.0502452783
 40
0.0755005137
 40
0.1009133246
 40
0.1265337215
 40
0.1524096615
 40
0.1785866548
 40
0.2051074369
 40
0.2320117095
 40
0.2593359474
 40
0.2871132681
 40
0.3153733639
 40
0.3441424833
 40
0.3734434527
 40
0.4032957342
 40
0.4337155058
 40
0.4647157664
 40
0.4963064587
 40
0.5284945981
 40
0.5612844076
 40
0.5946774538
 40
0.6286727801
 40
0.6632670464
 40
0.6984546628
 40
0.7342279187
 40
0.7705771053
 40
0.8074906316
 40
0.8449551446
 40
0.8829556134
 40
0.9214755238
 40
0.9604967816
 40
1.0
 40
1.0
 40
1.0
 40
1.0
 10
16.2690597888
 20
12.0452629003
 30
0.0
 10
16.2674141677
 20
12.0399376602
 30
0.0
 10
16.2638183811
 20
12.0293662526
 30
0.0
 10
16.2575323836
 20
12.0138117382
 30
0.0
 10
16.2503580986
 20
11.9985681571
 30
0.0
 10
16.2423034103
 20
11.9836522157
 30
0.0
 10
16.2333768916
 20
11.9690793761
 30
0.0
 10
16.2235881112
 20
11.9548649104
 30
0.0
 10
16.2129475119
 20
11.9410235981
 30
0.0
 10
16.2014664133
 20
11.927569794
 30
0.0
 10
16.1891569817
 20
11.9145173996
 30
0.0
 10
16.1760322144
 20
11.9018798635
 30
0.0
 10
16.1621059272
 20
11.8896701682
 30
0.0
 10
16.1473927301
 20
11.8779008342
 30
0.0
 10
16.1319080122
 20
11.8665839151
 30
0.0
 10
16.1156679285
 20
11.8557309916
 30
0.0
 10
16.0986893863
 20
11.8453531681
 30
0.0
 10
16.0809900363
 20
11.8354610584
 30
0.0
 10
16.0625882574
 20
11.8260647785
 30
0.0
 10
16.0435031371
 20
11.8171739439
 30
0.0
 10
16.023754456
 20
11.808797659
 30
0.0
 10
16.0033626708
 20
11.8009445085
 30
0.0
 10
15.9823488973
 20
11.7936225486
 30
0.0
 10
15.9607348944
 20
11.7868392897
 30
0.0
 10
15.9385430393
 20
11.7806016955
 30
0.0
 10
15.9157963053
 20
11.7749161755
 30
0.0
 10
15.8925182393
 20
11.7697885767
 30
0.0
 10
15.8687329389
 20
11.7652241781
 30
0.0
 10
15.8444650301
 20
11.7612276783
 30
0.0
 10
15.8197396419
 20
11.7578031917
 30
0.0
 10
15.7945823839
 20
11.75495424
 30
0.0
 10
15.7690192755
 20
11.7526837672
 30
0.0
 10
15.7430769753
 20
11.7509941098
 30
0.0
 10
15.7256507166
 20
11.7502604089
 30
0.0
 10
15.7168814268
 20
11.7499890517
 30
0.0
  0
SPLINE
  5
2E6
100
AcDbEntity
  8
LAYER_FEATURE
100
AcDbSpline
 62
7
  6
CONTINUOUS
 70
0
 71
3
 72
21
 73
17
 74
0
 42
0.0000001
 43
0.0000001
 44
0.0000000001
 40
0.0
 40
0.0
 40
0.0
 40
0.0
 40
0.0596105004
 40
0.1192940764
 40
0.1791233612
 40
0.2391701072
 40
0.299504786
 40
0.3601961687
 40
0.4213109809
 40
0.4829135839
 40
0.5450656423
 40
0.6078259316
 40
0.6712500939
 40
0.7353904613
 40
0.8659913958
 40
1.0
 40
1.0
 40
1.0
 40
1.0
 10
16.395660476
 20
12.4549428741
 30
0.0
 10
16.3944105534
 20
12.4508981168
 30
0.0
 10
16.3917357569
 20
12.4428560682
 30
0.0
 10
16.3872079302
 20
12.4309640411
 30
0.0
 10
16.3821660527
 20
12.4192467112
 30
0.0
 10
16.3766133194
 20
12.4077114339
 30
0.0
 10
16.3705530554
 20
12.3963651079
 30
0.0
 10
16.3639889847
 20
12.3852145808
 30
0.0
 10
16.3569251115
 20
12.3742665484
 30
0.0
 10
16.3493657135
 20
12.3635276076
 30
0.0
 10
16.3413154133
 20
12.3530041652
 30
0.0
 10
16.3327791142
 20
12.3427025608
 30
0.0
 10
16.3237618684
 20
12.3326288489
 30
0.0
 10
16.3110296532
 20
12.319430949
 30
0.0
 10
16.2939043721
 20
12.3035310109
 30
0.0
 10
16.2792659581
 20
12.2917208462
 30
0.0
 10
16.2716689244
 20
12.2859883499
 30
0.0
  0
SPLINE
  5
2E7
100
AcDbEntity
  8
LAYER_CUT_FEAT
100
AcDbSpline
 62
7
  6
CONTINUOUS
 70
0
 71
3
 72
22
 73
18
 74
0
 42
0.0000001
 43
0.0000001
 44
0.0000000001
 40
0.0
 40
0.0
 40
0.0
 40
0.0
 40
0.05802442
 40
0.1161668788
 40
0.1745442349
 40
0.2332710169
 40
0.2924583447
 40
0.3522129668
 40
0.4126364133
 40
0.4738242652
 40
0.5358655832
 40
0.5988424978
 40
0.6628299148
 40
0.7278953129
 40
0.7940986902
 40
0.8614926145
 40
1.0
 40
1.0
 40
1.0
 40
1.0
 10
16.000108822
 20
12.1283750351
 30
0.0
 10
15.9989980616
 20
12.1247806032
 30
0.0
 10
15.9965753681
 20
12.1176441764
 30
0.0
 10
15.9923516113
 20
12.1071391327
 30
0.0
 10
15.9875407056
 20
12.0968390829
 30
0.0
 10
15.9821477164
 20
12.0867548408
 30
0.0
 10
15.9761781472
 20
12.0768964188
 30
0.0
 10
15.9696381212
 20
12.0672737198
 30
0.0
 10
15.9625343091
 20
12.0578963431
 30
0.0
 10
15.9548739528
 20
12.0487736142
 30
0.0
 10
15.9466648387
 20
12.0399145655
 30
0.0
 10
15.9379152794
 20
12.0313279543
 30
0.0
 10
15.9286340689
 20
12.0230222381
 30
0.0
 10
15.9188306322
 20
12.0150056402
 30
0.0
 10
15.9085144678
 20
12.007285818
 30
0.0
 10
15.8939593764
 20
11.9973090962
 30
0.0
 10
15.8824954888
 20
11.9904332405
 30
0.0
 10
15.8746306255
 20
11.9860982419
 30
0.0
  0
SPLINE
  5
2E8
100
AcDbEntity
  8
02___PRT_ALL_AXES
100
AcDbSpline
 62
7
  6
CONTINUOUS
 70
0
 71
3
 72
38
 73
34
 74
0
 42
0.0000001
 43
0.0000001
 44
0.0000000001
 40
0.0
 40
0.0
 40
0.0
 40
0.0
 40
0.0266746547
 40
0.0533313799
 40
0.0800364895
 40
0.1068575186
 40
0.1338619835
 40
0.1611159521
 40
0.1886824927
 40
0.2166201642
 40
0.2449814712
 40
0.2738115645
 40
0.3031470474
 40
0.3330151119
 40
0.3634328984
 40
0.3944071302
 40
0.4579694263
 40
0.4905488178
 40
0.5236081226
 40
0.5571039139
 40
0.5909840589
 40
0.6251883107
 40
0.6596490319
 40
0.6942918915
 40
0.7290367445
 40
0.763798543
 40
0.7984884059
 40
0.8330148724
 40
0.8672852099
 40
0.9012070934
 40
0.9346901018
 40
0.9676479882
 40
1.0
 40
1.0
 40
1.0
 40
1.0
 10
15.2694993376
 20
12.5520869686
 30
0.0
 10
15.2701260065
 20
12.5508099574
 30
0.0
 10
15.2712674113
 20
12.5482002747
 30
0.0
 10
15.2726274371
 20
12.544149027
 30
0.0
 10
15.2736259946
 20
12.5399855173
 30
0.0
 10
15.2742565115
 20
12.5357319973
 30
0.0
 10
15.2745145265
 20
12.5314104777
 30
0.0
 10
15.2743974949
 20
12.527043195
 30
0.0
 10
15.273904956
 20
12.5226522673
 30
0.0
 10
15.273038565
 20
12.5182595617
 30
0.0
 10
15.2718021213
 20
12.5138864971
 30
0.0
 10
15.270201551
 20
12.5095538853
 30
0.0
 10
15.2682448392
 20
12.5052817518
 30
0.0
 10
15.2659420129
 20
12.5010892906
 30
0.0
 10
15.2633047519
 20
12.4969944441
 30
0.0
 10
15.2593277082
 20
12.4916430714
 30
0.0
 10
15.254763154
 20
12.486603816
 30
0.0
 10
15.2497084831
 20
12.481918123
 30
0.0
 10
15.2456334322
 20
12.4785457393
 30
0.0
 10
15.2413270305
 20
12.4753571631
 30
0.0
 10
15.2368101062
 20
12.4723626808
 30
0.0
 10
15.2321047132
 20
12.4695720774
 30
0.0
 10
15.2272335671
 20
12.466994162
 30
0.0
 10
15.222220096
 20
12.4646369639
 30
0.0
 10
15.2170883306
 20
12.4625077335
 30
0.0
 10
15.2118628321
 20
12.4606129812
 30
0.0
 10
15.2065685994
 20
12.4589584902
 30
0.0
 10
15.2012309693
 20
12.457549322
 30
0.0
 10
15.1958754851
 20
12.456389807
 30
0.0
 10
15.190527788
 20
12.4554835377
 30
0.0
 10
15.1852133644
 20
12.4548333384
 30
0.0
 10
15.1799576971
 20
12.4544412706
 30
0.0
 10
15.1764743303
 20
12.4543519221
 30
0.0
 10
15.1747490844
 20
12.4543519221
 30
0.0
  0
SPLINE
  5
2E9
100
AcDbEntity
  8
02___PRT_ALL_AXES
100
AcDbSpline
 62
7
  6
CONTINUOUS
 70
0
 71
3
 72
56
 73
52
 74
0
 42
0.0000001
 43
0.0000001
 44
0.0000000001
 40
0.0
 40
0.0
 40
0.0
 40
0.0
 40
0.0106256372
 40
0.0212739184
 40
0.03196725
 40
0.0427275709
 40
0.0535761375
 40
0.0645333303
 40
0.0756184857
 40
0.0868497562
 40
0.0982439997
 40
0.1098166984
 40
0.1215819045
 40
0.1335522105
 40
0.1457387414
 40
0.1581511642
 40
0.170797713
 40
0.1836852246
 40
0.1968191841
 40
0.2102037754
 40
0.223841937
 40
0.2377354192
 40
0.251884843
 40
0.2662897585
 40
0.2809487026
 40
0.2958592555
 40
0.3110180959
 40
0.3264210533
 40
0.3420631594
 40
0.3579386962
 40
0.3740412428
 40
0.3903637197
 40
0.4068984317
 40
0.4236371083
 40
0.4405709432
 40
0.4576906322
 40
0.4924461503
 40
0.5278226277
 40
0.5637311966
 40
0.6000782074
 40
0.6367661816
 40
0.6736947281
 40
0.7107614342
 40
0.7478627378
 40
0.7848947906
 40
0.821754318
 40
0.8583394847
 40
0.8945507717
 40
0.9302918757
 40
0.9654706408
 40
1.0
 40
1.0
 40
1.0
 40
1.0
 10
14.7973268477
 20
12.2057238232
 30
0.0
 10
14.7963317888
 20
12.202503811
 30
0.0
 10
14.7945210511
 20
12.1959992226
 30
0.0
 10
14.7923548175
 20
12.1860887204
 30
0.0
 10
14.7907392826
 20
12.1760301618
 30
0.0
 10
14.7896762115
 20
12.1658346244
 30
0.0
 10
14.789166599
 20
12.1555127977
 30
0.0
 10
14.7892108765
 20
12.1450756166
 30
0.0
 10
14.7898088652
 20
12.1345340693
 30
0.0
 10
14.790959799
 20
12.1238992312
 30
0.0
 10
14.7926623287
 20
12.1131822405
 30
0.0
 10
14.7949145321
 20
12.102394292
 30
0.0
 10
14.7977139214
 20
12.091546628
 30
0.0
 10
14.8010574502
 20
12.0806505305
 30
0.0
 10
14.8049415191
 20
12.0697173146
 30
0.0
 10
14.8093619812
 20
12.0587583204
 30
0.0
 10
14.8143141464
 20
12.0477849058
 30
0.0
 10
14.8197927856
 20
12.0368084379
 30
0.0
 10
14.8257921353
 20
12.0258402838
 30
0.0
 10
14.8323059026
 20
12.0148918019
 30
0.0
 10
14.8393272706
 20
12.0039743311
 30
0.0
 10
14.8468489033
 20
11.9930991808
 30
0.0
 10
14.8548629522
 20
11.9822776196
 30
0.0
 10
14.8633610628
 20
11.9715208646
 30
0.0
 10
14.8723343816
 20
11.9608400695
 30
0.0
 10
14.8817735647
 20
11.9502463129
 30
0.0
 10
14.8916687862
 20
11.9397505875
 30
0.0
 10
14.9020097485
 20
11.9293637877
 30
0.0
 10
14.9127856916
 20
11.9190966985
 30
0.0
 10
14.9239854038
 20
11.9089599838
 30
0.0
 10
14.9355972336
 20
11.898964175
 30
0.0
 10
14.9476090991
 20
11.8891196607
 30
0.0
 10
14.9600085073
 20
11.8794366695
 30
0.0
 10
14.972782541
 20
11.8699252832
 30
0.0
 10
14.9859179724
 20
11.8605953358
 30
0.0
 10
15.0039853445
 20
11.8483494485
 30
0.0
 10
15.027391573
 20
11.8335666513
 30
0.0
 10
15.0565538308
 20
11.8167911115
 30
0.0
 10
15.0868103688
 20
11.8009602962
 30
0.0
 10
15.1180351952
 20
11.7861401257
 30
0.0
 10
15.1500987589
 20
11.7723920714
 30
0.0
 10
15.1828678627
 20
11.7597732459
 30
0.0
 10
15.2162063961
 20
11.7483360605
 30
0.0
 10
15.2499758622
 20
11.7381280298
 30
0.0
 10
15.2840359749
 20
11.7291915617
 30
0.0
 10
15.3182452392
 20
11.7215637775
 30
0.0
 10
15.3524615785
 20
11.7152763605
 30
0.0
 10
15.3865428314
 20
11.7103554273
 30
0.0
 10
15.4203477324
 20
11.7068214182
 30
0.0
 10
15.4537351199
 20
11.7046890276
 30
0.0
 10
15.4758478772
 20
11.7042028584
 30
0.0
 10
15.4867999506
 20
11.7042028584
 30
0.0
  0
SPLINE
  5
2EA
100
AcDbEntity
  8
02___PRT_ALL_AXES
100
AcDbSpline
 62
7
  6
CONTINUOUS
 70
0
 71
3
 72
39
 73
35
 74
0
 42
0.0000001
 43
0.0000001
 44
0.0000000001
 40
0.0
 40
0.0
 40
0.0
 40
0.0
 40
0.0248034971
 40
0.0496643332
 40
0.0746391944
 40
0.099783485
 40
0.1251507431
 40
0.1507921175
 40
0.1767559203
 40
0.2030872603
 40
0.2298277626
 40
0.2570153682
 40
0.2846842105
 40
0.3128645572
 40
0.34158281
 40
0.3708615539
 40
0.4007196419
 40
0.4311723094
 40
0.4622313082
 40
0.4939050529
 40
0.5261987792
 40
0.5591147049
 40
0.5926521905
 40
0.6268078995
 40
0.6615759521
 40
0.6969480773
 40
0.732913759
 40
0.7694603758
 40
0.8065733341
 40
0.8442361961
 40
0.882430795
 40
0.9211373868
 40
0.9603346182
 40
1.0
 40
1.0
 40
1.0
 40
1.0
 10
15.8425572513
 20
11.8827231989
 30
0.0
 10
15.8415207469
 20
11.8793690688
 30
0.0
 10
15.8392473619
 20
11.872712412
 30
0.0
 10
15.8352507958
 20
11.8629271118
 30
0.0
 10
15.8306705666
 20
11.8533472185
 30
0.0
 10
15.825512174
 20
11.8439841805
 30
0.0
 10
15.8197816152
 20
11.8348485758
 30
0.0
 10
15.8134855937
 20
11.8259508349
 30
0.0
 10
15.8066314397
 20
11.8173010304
 30
0.0
 10
15.7992271073
 20
11.8089089238
 30
0.0
 10
15.7912811523
 20
11.8007839471
 30
0.0
 10
15.7828027182
 20
11.7929352034
 30
0.0
 10
15.7738015227
 20
11.7853714641
 30
0.0
 10
15.7642878472
 20
11.7781011656
 30
0.0
 10
15.7542725261
 20
11.7711324058
 30
0.0
 10
15.7437669361
 20
11.7644729416
 30
0.0
 10
15.7327829859
 20
11.758130184
 30
0.0
 10
15.7213331061
 20
11.7521111926
 30
0.0
 10
15.709430239
 20
11.7464226698
 30
0.0
 10
15.6970878274
 20
11.7410709527
 30
0.0
 10
15.6843198016
 20
11.7360620078
 30
0.0
 10
15.6711405659
 20
11.7314014241
 30
0.0
 10
15.6575649841
 20
11.7270944067
 30
0.0
 10
15.643608365
 20
11.7231457701
 30
0.0
 10
15.6292864466
 20
11.7195599308
 30
0.0
 10
15.6146153791
 20
11.7163409023
 30
0.0
 10
15.5996117072
 20
11.7134922902
 30
0.0
 10
15.5842923518
 20
11.7110172873
 30
0.0
 10
15.5686745923
 20
11.7089186693
 30
0.0
 10
15.5527760446
 20
11.7071987908
 30
0.0
 10
15.5366146503
 20
11.7058595796
 30
0.0
 10
15.5202086251
 20
11.704902541
 30
0.0
 10
15.5035765802
 20
11.7043287427
 30
0.0
 10
15.4924140991
 20
11.7042028584
 30
0.0
 10
15.4867999506
 20
11.7042028584
 30
0.0
  0
SPLINE
  5
2EB
100
AcDbEntity
  8
LAYER_CHAMFER_FEAT
100
AcDbSpline
 62
7
  6
CONTINUOUS
 70
0
 71
3
 72
11
 73
7
 74
0
 42
0.0000001
 43
0.0000001
 44
0.0000000001
 40
0.0
 40
0.0
 40
0.0
 40
0.0
 40
0.261777405
 40
0.5161275258
 40
0.7623843939
 40
1.0
 40
1.0
 40
1.0
 40
1.0
 10
15.2760922812
 20
12.133579944
 30
0.0
 10
15.2727951652
 20
12.133579944
 30
0.0
 10
15.2662930717
 20
12.1334162695
 30
0.0
 10
15.256715894
 20
12.1326583419
 30
0.0
 10
15.2474988631
 20
12.1313956422
 30
0.0
 10
15.2415179522
 20
12.1301996167
 30
0.0
 10
15.2386046376
 20
12.1295144729
 30
0.0
  0
SPLINE
  5
2EC
100
AcDbEntity
  8
LAYER_CHAMFER_FEAT
100
AcDbSpline
 62
7
  6
CONTINUOUS
 70
0
 71
3
 72
23
 73
19
 74
0
 42
0.0000001
 43
0.0000001
 44
0.0000000001
 40
0.0
 40
0.0
 40
0.0
 40
0.0
 40
0.0614590498
 40
0.1243125221
 40
0.1883141377
 40
0.2531994671
 40
0.3186929633
 40
0.3845108469
 40
0.450365127
 40
0.5159673459
 40
0.5810323193
 40
0.6452819436
 40
0.7084491009
 40
0.7702816988
 40
0.8305469448
 40
0.8890359569
 40
0.9455688029
 40
1.0
 40
1.0
 40
1.0
 40
1.0
 10
15.2760922812
 20
12.133579944
 30
0.0
 10
15.2797031
 20
12.133579944
 30
0.0
 10
15.2870079755
 20
12.1333785635
 30
0.0
 10
15.29804137
 20
12.1325011352
 30
0.0
 10
15.3092172233
 20
12.1310503465
 30
0.0
 10
15.3204626212
 20
12.1290355868
 30
0.0
 10
15.331704648
 20
12.1264699497
 30
0.0
 10
15.3428702693
 20
12.1233700961
 30
0.0
 10
15.3538869687
 20
12.1197561665
 30
0.0
 10
15.3646831845
 20
12.1156516352
 30
0.0
 10
15.3751887968
 20
12.1110831538
 30
0.0
 10
15.3853355941
 20
12.1060803808
 30
0.0
 10
15.3950577246
 20
12.1006757832
 30
0.0
 10
15.4042921389
 20
12.0949043789
 30
0.0
 10
15.4129789429
 20
12.0888035549
 30
0.0
 10
15.421061998
 20
12.082412565
 30
0.0
 10
15.4284885308
 20
12.0757730827
 30
0.0
 10
15.4330603834
 20
12.0711171927
 30
0.0
 10
15.4352176207
 20
12.0687564668
 30
0.0
  0
SPLINE
  5
2ED
100
AcDbEntity
  8
LAYER_FEATURE
100
AcDbSpline
 62
7
  6
CONTINUOUS
 70
0
 71
3
 72
39
 73
35
 74
0
 42
0.0000001
 43
0.0000001
 44
0.0000000001
 40
0.0
 40
0.0
 40
0.0
 40
0.0
 40
0.0396652045
 40
0.0788627045
 40
0.1175691695
 40
0.1557638119
 40
0.1934266617
 40
0.2305396245
 40
0.2670862422
 40
0.3030519235
 40
0.3384240472
 40
0.3731920982
 40
0.407347807
 40
0.4408852942
 40
0.4738012217
 40
0.5060949489
 40
0.5377686923
 40
0.5688276893
 40
0.5992803563
 40
0.6291384448
 40
0.6584171896
 40
0.6871354435
 40
0.7153157905
 40
0.7429846322
 40
0.7701722372
 40
0.7969127389
 40
0.8232440788
 40
0.8492078819
 40
0.8748492571
 40
0.9002165157
 40
0.9253608063
 40
0.9503356672
 40
0.975196503
 40
1.0
 40
1.0
 40
1.0
 40
1.0
 10
15.1361329993
 20
12.9077271537
 30
0.0
 10
15.1268291549
 20
12.9077271537
 30
0.0
 10
15.1083304333
 20
12.9075185287
 30
0.0
 10
15.0807674635
 20
12.9065676325
 30
0.0
 10
15.0535790082
 20
12.9049815912
 30
0.0
 10
15.0267960247
 20
12.9027622312
 30
0.0
 10
15.0004486064
 20
12.8999120081
 30
0.0
 10
14.9745665254
 20
12.8964341374
 30
0.0
 10
14.9491789635
 20
12.8923325114
 30
0.0
 10
14.9243145608
 20
12.8876117301
 30
0.0
 10
14.9000013579
 20
12.8822770859
 30
0.0
 10
14.8762667722
 20
12.8763345553
 30
0.0
 10
14.8531375673
 20
12.8697907909
 30
0.0
 10
14.830639824
 20
12.8626531121
 30
0.0
 10
14.8087989134
 20
12.8549294962
 30
0.0
 10
14.7876394696
 20
12.8466285674
 30
0.0
 10
14.7671853648
 20
12.8377595864
 30
0.0
 10
14.747459683
 20
12.8283324437
 30
0.0
 10
14.7284847002
 20
12.8183576431
 30
0.0
 10
14.7102818644
 20
12.8078462914
 30
0.0
 10
14.6928717765
 20
12.7968100874
 30
0.0
 10
14.6762741726
 20
12.7852613121
 30
0.0
 10
14.6605079074
 20
12.7732128194
 30
0.0
 10
14.6455909366
 20
12.7606780291
 30
0.0
 10
14.6315402971
 20
12.7476709239
 30
0.0
 10
14.6183720931
 20
12.7342060397
 30
0.0
 10
14.6061014767
 20
12.7202984627
 30
0.0
 10
14.5947426266
 20
12.7059638237
 30
0.0
 10
14.584308724
 20
12.6912183001
 30
0.0
 10
14.5748119184
 20
12.6760785831
 30
0.0
 10
14.5662633222
 20
12.6605619572
 30
0.0
 10
14.5586728715
 20
12.644685954
 30
0.0
 10
14.5520496813
 20
12.6284695458
 30
0.0
 10
14.5482821759
 20
12.6174379942
 30
0.0
 10
14.546564461
 20
12.6118794582
 30
0.0
  0
SPLINE
  5
2EE
100
AcDbEntity
  8
LAYER_FEATURE
100
AcDbSpline
 62
7
  6
CONTINUOUS
 70
0
 71
3
 72
39
 73
35
 74
0
 42
0.0000001
 43
0.0000001
 44
0.0000000001
 40
0.0
 40
0.0
 40
0.0
 40
0.0
 40
0.0396652045
 40
0.0788627045
 40
0.1175691695
 40
0.1557638119
 40
0.1934266617
 40
0.2305396245
 40
0.2670862422
 40
0.3030519235
 40
0.3384240472
 40
0.3731920982
 40
0.407347807
 40
0.4408852942
 40
0.4738012217
 40
0.5060949489
 40
0.5377686923
 40
0.5688276893
 40
0.5992803563
 40
0.6291384448
 40
0.6584171896
 40
0.6871354435
 40
0.7153157905
 40
0.7429846322
 40
0.7701722372
 40
0.7969127389
 40
0.8232440788
 40
0.8492078819
 40
0.8748492571
 40
0.9002165157
 40
0.9253608063
 40
0.9503356672
 40
0.975196503
 40
1.0
 40
1.0
 40
1.0
 40
1.0
 10
15.2627336864
 20
13.3174071274
 30
0.0
 10
15.2534298421
 20
13.3174071274
 30
0.0
 10
15.2349311205
 20
13.3171985024
 30
0.0
 10
15.2073681507
 20
13.3162476063
 30
0.0
 10
15.1801796953
 20
13.314661565
 30
0.0
 10
15.1533967119
 20
13.312442205
 30
0.0
 10
15.1270492936
 20
13.3095919819
 30
0.0
 10
15.1011672125
 20
13.3061141112
 30
0.0
 10
15.0757796507
 20
13.3020124851
 30
0.0
 10
15.0509152479
 20
13.2972917039
 30
0.0
 10
15.026602045
 20
13.2919570596
 30
0.0
 10
15.0028674594
 20
13.286014529
 30
0.0
 10
14.9797382544
 20
13.2794707646
 30
0.0
 10
14.9572405112
 20
13.2723330859
 30
0.0
 10
14.9353996005
 20
13.26460947
 30
0.0
 10
14.9142401568
 20
13.2563085411
 30
0.0
 10
14.8937860519
 20
13.2474395601
 30
0.0
 10
14.8740603702
 20
13.2380124174
 30
0.0
 10
14.8550853874
 20
13.2280376169
 30
0.0
 10
14.8368825516
 20
13.2175262652
 30
0.0
 10
14.8194724636
 20
13.2064900611
 30
0.0
 10
14.8028748598
 20
13.1949412858
 30
0.0
 10
14.7871085946
 20
13.1828927931
 30
0.0
 10
14.7721916238
 20
13.1703580029
 30
0.0
 10
14.7581409843
 20
13.1573508977
 30
0.0
 10
14.7449727802
 20
13.1438860134
 30
0.0
 10
14.7327021639
 20
13.1299784364
 30
0.0
 10
14.7213433137
 20
13.1156437975
 30
0.0
 10
14.7109094112
 20
13.1008982738
 30
0.0
 10
14.7014126055
 20
13.0857585568
 30
0.0
 10
14.6928640093
 20
13.0702419309
 30
0.0
 10
14.6852735587
 20
13.0543659278
 30
0.0
 10
14.6786503684
 20
13.0381495196
 30
0.0
 10
14.674882863
 20
13.0271179679
 30
0.0
 10
14.6731651481
 20
13.0215594319
 30
0.0
  0
SPLINE
  5
2EF
100
AcDbEntity
  8
LAYER_FEATURE
100
AcDbSpline
 62
7
  6
CONTINUOUS
 70
0
 71
3
 72
68
 73
64
 74
0
 42
0.0000001
 43
0.0000001
 44
0.0000000001
 40
0.0
 40
0.0
 40
0.0
 40
0.0
 40
0.0171788537
 40
0.0345306493
 40
0.0520446784
 40
0.069710489
 40
0.0875169164
 40
0.1054526098
 40
0.1235058943
 40
0.141664841
 40
0.1599172928
 40
0.1782508912
 40
0.1966531056
 40
0.2151112603
 40
0.2521425355
 40
0.2892430599
 40
0.3263089876
 40
0.3447973805
 40
0.363238365
 40
0.3816191842
 40
0.3999272074
 40
0.4181499576
 40
0.4362751398
 40
0.4542906695
 40
0.4721847017
 40
0.4899456595
 40
0.5075622643
 40
0.5250235667
 40
0.5423189792
 40
0.5594383084
 40
0.5763717881
 40
0.5931101137
 40
0.6096444786
 40
0.6259666121
 40
0.6420688199
 40
0.6579440233
 40
0.6735858016
 40
0.6889884364
 40
0.7041469583
 40
0.7190571972
 40
0.7337158328
 40
0.7481204459
 40
0.7622695735
 40
0.7761627646
 40
0.7898006393
 40
0.8031849488
 40
0.8163186321
 40
0.8292058734
 40
0.8418521573
 40
0.8542643197
 40
0.8664505941
 40
0.8784206484
 40
0.8901856074
 40
0.9017580635
 40
0.9131520681
 40
0.9243831024
 40
0.9354680247
 40
0.9464249873
 40
0.9572733262
 40
0.9680334213
 40
0.9787265285
 40
0.989374586
 40
1.0
 40
1.0
 40
1.0
 40
1.0
 10
15.1361329993
 20
12.9077271537
 30
0.0
 10
15.1451630795
 20
12.9077271537
 30
0.0
 10
15.1633147265
 20
12.9075284585
 30
0.0
 10
15.1906597387
 20
12.9066456029
 30
0.0
 10
15.2182359831
 20
12.9051772572
 30
0.0
 10
15.2460144763
 20
12.903125005
 30
0.0
 10
15.2739664526
 20
12.9004909473
 30
0.0
 10
15.3020627685
 20
12.8972778413
 30
0.0
 10
15.330274198
 20
12.8934890252
 30
0.0
 10
15.3585713718
 20
12.8891284481
 30
0.0
 10
15.3869248462
 20
12.8842006489
 30
0.0
 10
15.4153050735
 20
12.8787107619
 30
0.0
 10
15.4436826428
 20
12.8726644812
 30
0.0
 10
15.4815147712
 20
12.8638603361
 30
0.0
 10
15.5286032256
 20
12.8515055386
 30
0.0
 10
15.5845660526
 20
12.8345887758
 30
0.0
 10
15.6306461901
 20
12.8187804633
 30
0.0
 10
15.6670729687
 20
12.8051383313
 30
0.0
 10
15.6941068246
 20
12.7944349182
 30
0.0
 10
15.7208475978
 20
12.7832629017
 30
0.0
 10
15.7472675726
 20
12.7716338545
 30
0.0
 10
15.7733392143
 20
12.7595598936
 30
0.0
 10
15.7990353935
 20
12.7470535825
 30
0.0
 10
15.8243293633
 20
12.7341279419
 30
0.0
 10
15.8491947984
 20
12.7207964244
 30
0.0
 10
15.8736058189
 20
12.7070729039
 30
0.0
 10
15.897537018
 20
12.6929716603
 30
0.0
 10
15.9209634883
 20
12.6785073636
 30
0.0
 10
15.9438608525
 20
12.6636950651
 30
0.0
 10
15.9662052849
 20
12.6485501755
 30
0.0
 10
15.9879735357
 20
12.6330884482
 30
0.0
 10
16.0091429541
 20
12.6173259631
 30
0.0
 10
16.0296915122
 20
12.6012791092
 30
0.0
 10
16.0495978293
 20
12.5849645685
 30
0.0
 10
16.0688411978
 20
12.5683993015
 30
0.0
 10
16.0874015987
 20
12.5516005232
 30
0.0
 10
16.1052597221
 20
12.5345856864
 30
0.0
 10
16.1223969865
 20
12.5173724629
 30
0.0
 10
16.1387955568
 20
12.4999787236
 30
0.0
 10
16.1544383682
 20
12.4824225244
 30
0.0
 10
16.1693091405
 20
12.4647220836
 30
0.0
 10
16.1833923902
 20
12.4468957614
 30
0.0
 10
16.1966734449
 20
12.4289620419
 30
0.0
 10
16.2091384564
 20
12.410939513
 30
0.0
 10
16.2207744145
 20
12.392846848
 30
0.0
 10
16.2315691652
 20
12.374702791
 30
0.0
 10
16.2415114135
 20
12.3565261335
 30
0.0
 10
16.2505907317
 20
12.3383356983
 30
0.0
 10
16.2587975678
 20
12.3201503236
 30
0.0
 10
16.2661232521
 20
12.3019888461
 30
0.0
 10
16.272560011
 20
12.2838700883
 30
0.0
 10
16.2781009759
 20
12.2658128445
 30
0.0
 10
16.2827401836
 20
12.2478358657
 30
0.0
 10
16.2864725851
 20
12.2299578489
 30
0.0
 10
16.2892940558
 20
12.2121974247
 30
0.0
 10
16.2912014054
 20
12.1945731454
 30
0.0
 10
16.292192402
 20
12.1771034699
 30
0.0
 10
16.2922657789
 20
12.1598067523
 30
0.0
 10
16.2914212403
 20
12.142701202
 30
0.0
 10
16.2896595
 20
12.1258049407
 30
0.0
 10
16.2869822021
 20
12.1091356838
 30
0.0
 10
16.2833922713
 20
12.0927117897
 30
0.0
 10
16.2803914724
 20
12.0819322499
 30
0.0
 10
16.2787424418
 20
12.0765959767
 30
0.0
  0
SPLINE
  5
2F0
100
AcDbEntity
  8
LAYER_FEATURE
100
AcDbSpline
 62
7
  6
CONTINUOUS
 70
0
 71
3
 72
68
 73
64
 74
0
 42
0.0000001
 43
0.0000001
 44
0.0000000001
 40
0.0
 40
0.0
 40
0.0
 40
0.0
 40
0.0171788537
 40
0.0345306493
 40
0.0520446784
 40
0.069710489
 40
0.0875169164
 40
0.1054526098
 40
0.1235058943
 40
0.141664841
 40
0.1599172928
 40
0.1782508912
 40
0.1966531056
 40
0.2151112603
 40
0.2521425355
 40
0.2892430599
 40
0.3263089876
 40
0.3447973805
 40
0.363238365
 40
0.3816191842
 40
0.3999272074
 40
0.4181499576
 40
0.4362751398
 40
0.4542906695
 40
0.4721847017
 40
0.4899456595
 40
0.5075622643
 40
0.5250235667
 40
0.5423189792
 40
0.5594383084
 40
0.5763717881
 40
0.5931101137
 40
0.6096444786
 40
0.6259666121
 40
0.6420688199
 40
0.6579440233
 40
0.6735858016
 40
0.6889884364
 40
0.7041469583
 40
0.7190571972
 40
0.7337158328
 40
0.7481204459
 40
0.7622695735
 40
0.7761627646
 40
0.7898006393
 40
0.8031849488
 40
0.8163186321
 40
0.8292058734
 40
0.8418521573
 40
0.8542643197
 40
0.8664505941
 40
0.8784206484
 40
0.8901856074
 40
0.9017580635
 40
0.9131520681
 40
0.9243831024
 40
0.9354680247
 40
0.9464249873
 40
0.9572733262
 40
0.9680334213
 40
0.9787265285
 40
0.989374586
 40
1.0
 40
1.0
 40
1.0
 40
1.0
 10
15.2627336864
 20
13.3174071274
 30
0.0
 10
15.2717637666
 20
13.3174071274
 30
0.0
 10
15.2899154137
 20
13.3172084322
 30
0.0
 10
15.3172604258
 20
13.3163255767
 30
0.0
 10
15.3448366702
 20
13.3148572309
 30
0.0
 10
15.3726151634
 20
13.3128049788
 30
0.0
 10
15.4005671398
 20
13.310170921
 30
0.0
 10
15.4286634557
 20
13.306957815
 30
0.0
 10
15.4568748851
 20
13.3031689989
 30
0.0
 10
15.485172059
 20
13.2988084218
 30
0.0
 10
15.5135255333
 20
13.2938806226
 30
0.0
 10
15.5419057607
 20
13.2883907357
 30
0.0
 10
15.57028333
 20
13.2823444549
 30
0.0
 10
15.6081154584
 20
13.2735403098
 30
0.0
 10
15.6552039128
 20
13.2611855123
 30
0.0
 10
15.7111667397
 20
13.2442687495
 30
0.0
 10
15.7572468772
 20
13.228460437
 30
0.0
 10
15.7936736559
 20
13.214818305
 30
0.0
 10
15.8207075118
 20
13.204114892
 30
0.0
 10
15.847448285
 20
13.1929428755
 30
0.0
 10
15.8738682597
 20
13.1813138283
 30
0.0
 10
15.8999399014
 20
13.1692398673
 30
0.0
 10
15.9256360807
 20
13.1567335563
 30
0.0
 10
15.9509300505
 20
13.1438079156
 30
0.0
 10
15.9757954855
 20
13.1304763982
 30
0.0
 10
16.000206506
 20
13.1167528777
 30
0.0
 10
16.0241377051
 20
13.102651634
 30
0.0
 10
16.0475641755
 20
13.0881873373
 30
0.0
 10
16.0704615396
 20
13.0733750388
 30
0.0
 10
16.0928059721
 20
13.0582301492
 30
0.0
 10
16.1145742228
 20
13.0427684219
 30
0.0
 10
16.1357436413
 20
13.0270059369
 30
0.0
 10
16.1562921993
 20
13.0109590829
 30
0.0
 10
16.1761985164
 20
12.9946445422
 30
0.0
 10
16.1954418849
 20
12.9780792752
 30
0.0
 10
16.2140022858
 20
12.961280497
 30
0.0
 10
16.2318604093
 20
12.9442656601
 30
0.0
 10
16.2489976736
 20
12.9270524366
 30
0.0
 10
16.2653962439
 20
12.9096586974
 30
0.0
 10
16.2810390553
 20
12.8921024981
 30
0.0
 10
16.2959098277
 20
12.8744020573
 30
0.0
 10
16.3099930774
 20
12.8565757352
 30
0.0
 10
16.323274132
 20
12.8386420156
 30
0.0
 10
16.3357391436
 20
12.8206194867
 30
0.0
 10
16.3473751016
 20
12.8025268218
 30
0.0
 10
16.3581698524
 20
12.7843827647
 30
0.0
 10
16.3681121007
 20
12.7662061072
 30
0.0
 10
16.3771914188
 20
12.748015672
 30
0.0
 10
16.385398255
 20
12.7298302973
 30
0.0
 10
16.3927239393
 20
12.7116688198
 30
0.0
 10
16.3991606981
 20
12.693550062
 30
0.0
 10
16.4047016631
 20
12.6754928182
 30
0.0
 10
16.4093408707
 20
12.6575158395
 30
0.0
 10
16.4130732722
 20
12.6396378226
 30
0.0
 10
16.415894743
 20
12.6218773985
 30
0.0
 10
16.4178020926
 20
12.6042531191
 30
0.0
 10
16.4187930891
 20
12.5867834436
 30
0.0
 10
16.4188664661
 20
12.569486726
 30
0.0
 10
16.4180219274
 20
12.5523811758
 30
0.0
 10
16.4162601871
 20
12.5354849144
 30
0.0
 10
16.4135828892
 20
12.5188156576
 30
0.0
 10
16.4099929584
 20
12.5023917635
 30
0.0
 10
16.4069921595
 20
12.4916122236
 30
0.0
 10
16.4053431289
 20
12.4862759504
 30
0.0
  0
SPLINE
  5
2F1
100
AcDbEntity
  8
02___PRT_ALL_AXES
100
AcDbSpline
 62
7
  6
CONTINUOUS
 70
0
 71
3
 72
56
 73
52
 74
0
 42
0.0000001
 43
0.0000001
 44
0.0000000001
 40
0.0
 40
0.0
 40
0.0
 40
0.0
 40
0.0345293592
 40
0.0697081243
 40
0.1054492283
 40
0.1416605153
 40
0.178245682
 40
0.2151052094
 40
0.2521372622
 40
0.2892385658
 40
0.3263052719
 40
0.3632338184
 40
0.3999217926
 40
0.4362688034
 40
0.4721773723
 40
0.5075538497
 40
0.5423093678
 40
0.5594290568
 40
0.5763628917
 40
0.5931015683
 40
0.6096362803
 40
0.6259587572
 40
0.6420613038
 40
0.6579368406
 40
0.6735789467
 40
0.6889819041
 40
0.7041407445
 40
0.7190512974
 40
0.7337102415
 40
0.748115157
 40
0.7622645808
 40
0.776158063
 40
0.7897962246
 40
0.8031808159
 40
0.8163147754
 40
0.829202287
 40
0.8418488358
 40
0.8542612586
 40
0.8664477895
 40
0.8784180955
 40
0.8901833016
 40
0.9017560003
 40
0.9131502438
 40
0.9243815143
 40
0.9354666697
 40
0.9464238625
 40
0.9572724291
 40
0.96803275
 40
0.9787260816
 40
0.9893743628
 40
1.0
 40
1.0
 40
1.0
 40
1.0
 10
15.1530841485
 20
12.3842441637
 30
0.0
 10
15.1640362218
 20
12.3842441637
 30
0.0
 10
15.1861489791
 20
12.3837579945
 30
0.0
 10
15.2195363667
 20
12.3816256039
 30
0.0
 10
15.2533412677
 20
12.3780915948
 30
0.0
 10
15.2874225205
 20
12.3731706616
 30
0.0
 10
15.3216388598
 20
12.3668832446
 30
0.0
 10
15.3558481241
 20
12.3592554604
 30
0.0
 10
15.3899082368
 20
12.3503189923
 30
0.0
 10
15.4236777029
 20
12.3401109616
 30
0.0
 10
15.4570162364
 20
12.3286737762
 30
0.0
 10
15.4897853401
 20
12.3160549507
 30
0.0
 10
15.5218489039
 20
12.3023068964
 30
0.0
 10
15.5530737302
 20
12.2874867259
 30
0.0
 10
15.5833302682
 20
12.2716559106
 30
0.0
 10
15.612492526
 20
12.2548803708
 30
0.0
 10
15.6358987545
 20
12.2400975736
 30
0.0
 10
15.6539661266
 20
12.2278516863
 30
0.0
 10
15.6671015581
 20
12.2185217389
 30
0.0
 10
15.6798755917
 20
12.2090103526
 30
0.0
 10
15.692275
 20
12.1993273614
 30
0.0
 10
15.7042868654
 20
12.1894828471
 30
0.0
 10
15.7158986953
 20
12.1794870383
 30
0.0
 10
15.7270984075
 20
12.1693503236
 30
0.0
 10
15.7378743505
 20
12.1590832344
 30
0.0
 10
15.7482153128
 20
12.1486964346
 30
0.0
 10
15.7581105344
 20
12.1382007092
 30
0.0
 10
15.7675497174
 20
12.1276069526
 30
0.0
 10
15.7765230362
 20
12.1169261575
 30
0.0
 10
15.7850211468
 20
12.1061694025
 30
0.0
 10
15.7930351957
 20
12.0953478413
 30
0.0
 10
15.8005568284
 20
12.084472691
 30
0.0
 10
15.8075781964
 20
12.0735552202
 30
0.0
 10
15.8140919637
 20
12.0626067383
 30
0.0
 10
15.8200913134
 20
12.0516385842
 30
0.0
 10
15.8255699526
 20
12.0406621163
 30
0.0
 10
15.8305221178
 20
12.0296887017
 30
0.0
 10
15.8349425799
 20
12.0187297075
 30
0.0
 10
15.8388266489
 20
12.0077964915
 30
0.0
 10
15.8421701776
 20
11.9969003941
 30
0.0
 10
15.844969567
 20
11.98605273
 30
0.0
 10
15.8472217703
 20
11.9752647816
 30
0.0
 10
15.8489243
 20
11.9645477909
 30
0.0
 10
15.8500752338
 20
11.9539129528
 30
0.0
 10
15.8506732225
 20
11.9433714055
 30
0.0
 10
15.8507175
 20
11.9329342244
 30
0.0
 10
15.8502078875
 20
11.9226123977
 30
0.0
 10
15.8491448164
 20
11.9124168603
 30
0.0
 10
15.8475292815
 20
11.9023583017
 30
0.0
 10
15.8453630479
 20
11.8924477994
 30
0.0
 10
15.8435523102
 20
11.8859432111
 30
0.0
 10
15.8425572513
 20
11.8827231989
 30
0.0
  0
SPLINE
  5
2F2
100
AcDbEntity
  8
LAYER_CHAMFER_FEAT
100
AcDbSpline
 62
7
  6
CONTINUOUS
 70
0
 71
3
 72
41
 73
37
 74
0
 42
0.0000001
 43
0.0000001
 44
0.0000000001
 40
0.0
 40
0.0
 40
0.0
 40
0.0
 40
0.0357356798
 40
0.0703750899
 40
0.1039087901
 40
0.136341877
 40
0.1676954304
 40
0.1829810928
 40
0.1980128834
 40
0.2273415315
 40
0.2557632295
 40
0.2833751247
 40
0.3102943797
 40
0.3366569529
 40
0.3626151745
 40
0.3883340484
 40
0.4139864144
 40
0.4397473365
 40
0.4657882611
 40
0.4922715441
 40
0.5193458619
 40
0.5471428179
 40
0.5757748211
 40
0.5904363158
 40
0.6053394664
 40
0.6358981726
 40
0.66750886
 40
0.7002057032
 40
0.7340058015
 40
0.7689106116
 40
0.8049074142
 40
0.8419706224
 40
0.8800633728
 40
0.919137892
 40
0.9591387936
 40
1.0
 40
1.0
 40
1.0
 40
1.0
 10
15.4352176207
 20
12.0687564668
 30
0.0
 10
15.4367070742
 20
12.0671265156
 30
0.0
 10
15.4395612274
 20
12.0638430721
 30
0.0
 10
15.4435097012
 20
12.0587766797
 30
0.0
 10
15.4470470268
 20
12.0536607118
 30
0.0
 10
15.4501610993
 20
12.0485122983
 30
0.0
 10
15.4524136759
 20
12.0441723569
 30
0.0
 10
15.45398837
 20
12.0407016973
 30
0.0
 10
15.4553891338
 20
12.0372922357
 30
0.0
 10
15.4568660426
 20
12.0330396415
 30
0.0
 10
15.4581956788
 20
12.0279297131
 30
0.0
 10
15.4590631141
 20
12.0228716622
 30
0.0
 10
15.4594646901
 20
12.0178826386
 30
0.0
 10
15.4593983701
 20
12.0129796291
 30
0.0
 10
15.4588637744
 20
12.008179654
 30
0.0
 10
15.4578623292
 20
12.0034995995
 30
0.0
 10
15.4563973497
 20
11.9989560636
 30
0.0
 10
15.4544740582
 20
11.9945651414
 30
0.0
 10
15.4520995061
 20
11.9903422205
 30
0.0
 10
15.449282447
 20
11.9863018408
 30
0.0
 10
15.4460331022
 20
11.9824575818
 30
0.0
 10
15.4423632266
 20
11.9788222274
 30
0.0
 10
15.4389916789
 20
11.9759988349
 30
0.0
 10
15.4361042676
 20
11.9738546289
 30
0.0
 10
15.4330392255
 20
11.9717543082
 30
0.0
 10
15.4289637355
 20
11.9692825445
 30
0.0
 10
15.4237514739
 20
11.9665921953
 30
0.0
 10
15.418194165
 20
11.9641614293
 30
0.0
 10
15.412310469
 20
11.9619981605
 30
0.0
 10
15.4061198525
 20
11.9601093088
 30
0.0
 10
15.3996428545
 20
11.9585009893
 30
0.0
 10
15.392900932
 20
11.957178405
 30
0.0
 10
15.3859164703
 20
11.9561458798
 30
0.0
 10
15.3787125601
 20
11.9554067444
 30
0.0
 10
15.3713133131
 20
11.954963462
 30
0.0
 10
15.3663164955
 20
11.9548670781
 30
0.0
 10
15.3637918178
 20
11.9548670781
 30
0.0
  0
SPLINE
  5
2F3
100
AcDbEntity
  8
LAYER_FEATURE
100
AcDbSpline
 62
7
  6
CONTINUOUS
 70
0
 71
3
 72
15
 73
11
 74
0
 42
0.0000001
 43
0.0000001
 44
0.0000000001
 40
0.0
 40
0.0
 40
0.0
 40
0.0
 40
0.1190329209
 40
0.2390307016
 40
0.3604179226
 40
0.4835811893
 40
0.6088614073
 40
0.7365455278
 40
0.8668682068
 40
1.0
 40
1.0
 40
1.0
 40
1.0
 10
15.124299111
 20
12.47619059
 30
0.0
 10
15.1238453948
 20
12.4774096065
 30
0.0
 10
15.1230451234
 20
12.4799003651
 30
0.0
 10
15.1221795315
 20
12.483747515
 30
0.0
 10
15.1216484899
 20
12.4877006147
 30
0.0
 10
15.1214542163
 20
12.4917419788
 30
0.0
 10
15.1215972569
 20
12.4958540986
 30
0.0
 10
15.1220767253
 20
12.5000192274
 30
0.0
 10
15.1228902372
 20
12.5042191256
 30
0.0
 10
15.1236446885
 20
12.5070003996
 30
0.0
 10
15.124074208
 20
12.5083903252
 30
0.0
  0
SPLINE
  5
2F4
100
AcDbEntity
  8
02___PRT_ALL_AXES
100
AcDbSpline
 62
7
  6
CONTINUOUS
 70
0
 71
3
 72
35
 73
31
 74
0
 42
0.0000001
 43
0.0000001
 44
0.0000000001
 40
0.0
 40
0.0
 40
0.0
 40
0.0
 40
0.0236064154
 40
0.047460627
 40
0.071704276
 40
0.0964633082
 40
0.1218442412
 40
0.1479318829
 40
0.1747884045
 40
0.2024536301
 40
0.230946104
 40
0.2602648821
 40
0.2903916035
 40
0.3212928545
 40
0.3529225479
 40
0.3852242715
 40
0.418133553
 40
0.4515798883
 40
0.4854886376
 40
0.5197826343
 40
0.5543836046
 40
0.5892133772
 40
0.6592312422
 40
0.7292675033
 40
0.798784071
 40
0.8673110637
 40
0.9010931139
 40
0.9344899953
 40
0.9674681423
 40
1.0
 40
1.0
 40
1.0
 40
1.0
 10
15.1222713469
 20
12.4798379646
 30
0.0
 10
15.1217215544
 20
12.4809583182
 30
0.0
 10
15.120729394
 20
12.4832682993
 30
0.0
 10
15.1195848073
 20
12.4868881798
 30
0.0
 10
15.1187823135
 20
12.4906613301
 30
0.0
 10
15.118324397
 20
12.4945723914
 30
0.0
 10
15.1182117557
 20
12.4986056969
 30
0.0
 10
15.1184437286
 20
12.5027445402
 30
0.0
 10
15.1190182424
 20
12.5069713764
 30
0.0
 10
15.1199318664
 20
12.511267776
 30
0.0
 10
15.1211798179
 20
12.5156144849
 30
0.0
 10
15.1227559813
 20
12.5199914949
 30
0.0
 10
15.1246529308
 20
12.5243781588
 30
0.0
 10
15.1268619731
 20
12.5287533238
 30
0.0
 10
15.1293732016
 20
12.5330954854
 30
0.0
 10
15.1321755646
 20
12.5373829449
 30
0.0
 10
15.1352569404
 20
12.5415939669
 30
0.0
 10
15.1386042078
 20
12.5457069267
 30
0.0
 10
15.1422033309
 20
12.5497004606
 30
0.0
 10
15.1460393606
 20
12.5535535468
 30
0.0
 10
15.1500966969
 20
12.5572458049
 30
0.0
 10
15.1557883258
 20
12.561935092
 30
0.0
 10
15.1633525987
 20
12.5672798383
 30
0.0
 10
15.1730127717
 20
12.5727434439
 30
0.0
 10
15.1831166134
 20
12.5771441766
 30
0.0
 10
15.1918096622
 20
12.5798509231
 30
0.0
 10
15.1988217545
 20
12.5813839805
 30
0.0
 10
15.2040556254
 20
12.5822076166
 30
0.0
 10
15.2092638981
 20
12.5827049121
 30
0.0
 10
15.2127281222
 20
12.5828175353
 30
0.0
 10
15.2144479614
 20
12.5828175353
 30
0.0
  0
SPLINE
  5
2F5
100
AcDbEntity
  8
LAYER_FEATURE
100
AcDbSpline
 62
7
  6
CONTINUOUS
 70
0
 71
3
 72
18
 73
14
 74
0
 42
0.0000001
 43
0.0000001
 44
0.0000000001
 40
0.0
 40
0.0
 40
0.0
 40
0.0
 40
0.0536771512
 40
0.1076203236
 40
0.1620857432
 40
0.2173268168
 40
0.2735740237
 40
0.3310349729
 40
0.4502363603
 40
0.576176466
 40
0.7096000134
 40
0.8508669435
 40
1.0
 40
1.0
 40
1.0
 40
1.0
 10
16.2699499679
 20
12.4574249957
 30
0.0
 10
16.2700167773
 20
12.4576412078
 30
0.0
 10
16.2701320669
 20
12.4580807227
 30
0.0
 10
16.2702481496
 20
12.4587549347
 30
0.0
 10
16.2703073427
 20
12.4594431482
 30
0.0
 10
16.2703095064
 20
12.460143558
 30
0.0
 10
16.2702547241
 20
12.4608544799
 30
0.0
 10
16.270104166
 20
12.4618256268
 30
0.0
 10
16.2697684092
 20
12.4630611918
 30
0.0
 10
16.2691487972
 20
12.4645363181
 30
0.0
 10
16.2683145425
 20
12.4660089991
 30
0.0
 10
16.2672743686
 20
12.4674652695
 30
0.0
 10
16.2664714278
 20
12.4683920006
 30
0.0
 10
16.2660405259
 20
12.468849854
 30
0.0
  0
LINE
  5
2F6
100
AcDbEntity
  8
LAYER_FEATURE
100
AcDbLine
 62
7
  6
CONTINUOUS
 10
16.2849704917
 20
12.5301555938
 11
16.2853123178
 21
12.5320577537
  0
SPLINE
  5
2F7
100
AcDbEntity
  8
LAYER_FEATURE
100
AcDbSpline
 62
7
  6
CONTINUOUS
 70
0
 71
3
 72
13
 73
9
 74
0
 42
0.0000001
 43
0.0000001
 44
0.0000000001
 40
0.0
 40
0.0
 40
0.0
 40
0.0
 40
0.1193279373
 40
0.2392385037
 40
0.3603009791
 40
0.4830544195
 40
0.7354239047
 40
1.0
 40
1.0
 40
1.0
 40
1.0
 10
16.268201266
 20
12.6457827337
 30
0.0
 10
16.2682674631
 20
12.6459969385
 30
0.0
 10
16.2683818335
 20
12.6464323102
 30
0.0
 10
16.268497635
 20
12.6471000621
 30
0.0
 10
16.268557567
 20
12.6477816395
 30
0.0
 10
16.2685629857
 20
12.6487147874
 30
0.0
 10
16.2684250328
 20
12.6499138007
 30
0.0
 10
16.2681735758
 20
12.6508555869
 30
0.0
 10
16.2680149293
 20
12.6513266927
 30
0.0
  0
SPLINE
  5
2F8
100
AcDbEntity
  8
LAYER_FEATURE
100
AcDbSpline
 62
7
  6
CONTINUOUS
 70
0
 71
3
 72
17
 73
13
 74
0
 42
0.0000001
 43
0.0000001
 44
0.0000000001
 40
0.0
 40
0.0
 40
0.0
 40
0.0
 40
0.1119941427
 40
0.1684834714
 40
0.2255140911
 40
0.3417968181
 40
0.4621103424
 40
0.5241221744
 40
0.587493531
 40
0.7185987411
 40
0.8560051762
 40
1.0
 40
1.0
 40
1.0
 40
1.0
 10
16.2060589366
 20
12.7644860704
 30
0.0
 10
16.2061677284
 20
12.7648381343
 30
0.0
 10
16.206294193
 20
12.7653803102
 30
0.0
 10
16.2063868475
 20
12.7661169079
 30
0.0
 10
16.2064300112
 20
12.7668723338
 30
0.0
 10
16.2063875416
 20
12.7678404446
 30
0.0
 10
16.2062210101
 20
12.7688112694
 30
0.0
 10
16.2060159287
 20
12.7695935955
 30
0.0
 10
16.2057565818
 20
12.7703970812
 30
0.0
 10
16.2053374096
 20
12.7714076911
 30
0.0
 10
16.2046972437
 20
12.772606529
 30
0.0
 10
16.2041899793
 20
12.7733826443
 30
0.0
 10
16.2039153607
 20
12.7737687173
 30
0.0
  0
SPLINE
  5
2F9
100
AcDbEntity
  8
LAYER_FEATURE
100
AcDbSpline
 62
7
  6
CONTINUOUS
 70
0
 71
3
 72
18
 73
14
 74
0
 42
0.0000001
 43
0.0000001
 44
0.0000000001
 40
0.0
 40
0.0
 40
0.0
 40
0.0
 40
0.0521362354
 40
0.1046039656
 40
0.1577241155
 40
0.2117982236
 40
0.2671007614
 40
0.3238733311
 40
0.4425322815
 40
0.5690779411
 40
0.7041488231
 40
0.8478801967
 40
1.0
 40
1.0
 40
1.0
 40
1.0
 10
16.1024481292
 20
12.8788070383
 30
0.0
 10
16.1025237442
 20
12.8790517302
 30
0.0
 10
16.1026515166
 20
12.8795504333
 30
0.0
 10
16.1027701828
 20
12.880317236
 30
0.0
 10
16.1028158574
 20
12.881101388
 30
0.0
 10
16.1027884306
 20
12.8819002352
 30
0.0
 10
16.1026880654
 20
12.8827112713
 30
0.0
 10
16.1024542437
 20
12.8838214948
 30
0.0
 10
16.1019727282
 20
12.8852311848
 30
0.0
 10
16.1011242761
 20
12.8869011914
 30
0.0
 10
16.1000084423
 20
12.8885558008
 30
0.0
 10
16.0986397445
 20
12.8901751993
 30
0.0
 10
16.0975976666
 20
12.8911915805
 30
0.0
 10
16.0970412235
 20
12.8916903448
 30
0.0
  0
SPLINE
  5
2FA
100
AcDbEntity
  8
LAYER_FEATURE
100
AcDbSpline
 62
7
  6
CONTINUOUS
 70
0
 71
3
 72
14
 73
10
 74
0
 42
0.0000001
 43
0.0000001
 44
0.0000000001
 40
0.0
 40
0.0
 40
0.0
 40
0.0
 40
0.218795256
 40
0.3361761005
 40
0.4589094182
 40
0.5869097643
 40
0.7199704563
 40
0.8578011192
 40
1.0
 40
1.0
 40
1.0
 40
1.0
 10
15.9570312936
 20
12.9594663146
 30
0.0
 10
15.9573488423
 20
12.9586394213
 30
0.0
 10
15.9579749361
 20
12.9574191436
 30
0.0
 10
15.9590234473
 20
12.9558844085
 30
0.0
 10
15.959958614
 20
12.9547219487
 30
0.0
 10
15.9610175795
 20
12.953583394
 30
0.0
 10
15.9621938956
 20
12.9524753704
 30
0.0
 10
15.9634800432
 20
12.951404986
 30
0.0
 10
15.9643921816
 20
12.9507306091
 30
0.0
 10
15.9648640657
 20
12.950400866
 30
0.0
  0
SPLINE
  5
2FB
100
AcDbEntity
  8
LAYER_FEATURE
100
AcDbSpline
 62
7
  6
CONTINUOUS
 70
0
 71
3
 72
23
 73
19
 74
0
 42
0.0000001
 43
0.0000001
 44
0.0000000001
 40
0.0
 40
0.0
 40
0.0
 40
0.0
 40
0.0488020577
 40
0.0981070842
 40
0.148401423
 40
0.200117626
 40
0.2536278186
 40
0.3092331879
 40
0.3671618688
 40
0.4275712246
 40
0.4905522318
 40
0.556135625
 40
0.6242983425
 40
0.6949703414
 40
0.7680401905
 40
0.8433568266
 40
0.9207501699
 40
1.0
 40
1.0
 40
1.0
 40
1.0
 10
15.9638790952
 20
12.9815624295
 30
0.0
 10
15.9639760215
 20
12.9818760556
 30
0.0
 10
15.9641314042
 20
12.9825195024
 30
0.0
 10
15.9642438685
 20
12.9835137468
 30
0.0
 10
15.9642359794
 20
12.9845339092
 30
0.0
 10
15.9641079853
 20
12.9855743077
 30
0.0
 10
15.9638609265
 20
12.9866295327
 30
0.0
 10
15.9634963897
 20
12.987694183
 30
0.0
 10
15.9630164889
 20
12.9887629155
 30
0.0
 10
15.9624238446
 20
12.9898304016
 30
0.0
 10
15.9617215896
 20
12.9908913307
 30
0.0
 10
15.9609133711
 20
12.9919404168
 30
0.0
 10
15.9600033373
 20
12.9929724141
 30
0.0
 10
15.9589961265
 20
12.9939821402
 30
0.0
 10
15.9578968766
 20
12.9949644845
 30
0.0
 10
15.9567111605
 20
12.9959145378
 30
0.0
 10
15.9554450666
 20
12.9968273916
 30
0.0
 10
15.9545612767
 20
12.9974018938
 30
0.0
 10
15.9541078128
 20
12.9976821256
 30
0.0
  0
SPLINE
  5
2FC
100
AcDbEntity
  8
02___PRT_ALL_AXES
100
AcDbSpline
 62
7
  6
CONTINUOUS
 70
0
 71
3
 72
39
 73
35
 74
0
 42
0.0000001
 43
0.0000001
 44
0.0000000001
 40
0.0
 40
0.0
 40
0.0
 40
0.0
 40
0.0248034973
 40
0.0496643335
 40
0.0746391947
 40
0.0997834851
 40
0.1251507427
 40
0.1507921168
 40
0.1767559198
 40
0.2030872608
 40
0.2298277638
 40
0.2570153696
 40
0.284684211
 40
0.312864556
 40
0.3415828085
 40
0.3708615539
 40
0.4007196437
 40
0.4311723119
 40
0.4622313094
 40
0.493905052
 40
0.5261987774
 40
0.5591147045
 40
0.5926521923
 40
0.6268079021
 40
0.6615759537
 40
0.6969480775
 40
0.7329137579
 40
0.7694603751
 40
0.8065733377
 40
0.8442361876
 40
0.8824308336
 40
0.9211372865
 40
0.9603348127
 40
1.0
 40
1.0
 40
1.0
 40
1.0
 10
14.8803555968
 20
12.4744049532
 30
0.0
 10
14.8813920999
 20
12.4777590836
 30
0.0
 10
14.883665488
 20
12.4844157395
 30
0.0
 10
14.8876620542
 20
12.4942010396
 30
0.0
 10
14.8922422839
 20
12.5037809325
 30
0.0
 10
14.897400676
 20
12.5131439706
 30
0.0
 10
14.9031312338
 20
12.5222795758
 30
0.0
 10
14.9094272539
 20
12.5311773175
 30
0.0
 10
14.9162814083
 20
12.5398271218
 30
0.0
 10
14.923685742
 20
12.5482192276
 30
0.0
 10
14.931631698
 20
12.5563442036
 30
0.0
 10
14.9401101324
 20
12.5641929469
 30
0.0
 10
14.9491113268
 20
12.5717566869
 30
0.0
 10
14.9586250006
 20
12.5790269869
 30
0.0
 10
14.9686403213
 20
12.5859957471
 30
0.0
 10
14.9791459125
 20
12.5926552101
 30
0.0
 10
14.9901298641
 20
12.5989979664
 30
0.0
 10
15.0015797443
 20
12.6050169572
 30
0.0
 10
15.0134826106
 20
12.6107054808
 30
0.0
 10
15.0258250208
 20
12.6160571994
 30
0.0
 10
15.0385930459
 20
12.6210661453
 30
0.0
 10
15.0517722824
 20
12.6257267279
 30
0.0
 10
15.0653478652
 20
12.6300337437
 30
0.0
 10
15.0793044847
 20
12.6339823798
 30
0.0
 10
15.0936264027
 20
12.6375682196
 30
0.0
 10
15.1082974694
 20
12.6407872492
 30
0.0
 10
15.1233011407
 20
12.6436358623
 30
0.0
 10
15.1386204965
 20
12.6461108651
 30
0.0
 10
15.1542382553
 20
12.6482094808
 30
0.0
 10
15.1701368082
 20
12.6499293616
 30
0.0
 10
15.1862981882
 20
12.6512685666
 30
0.0
 10
15.2027042415
 20
12.6522256161
 30
0.0
 10
15.2193362813
 20
12.6527994048
 30
0.0
 10
15.2304987764
 20
12.6529252937
 30
0.0
 10
15.2361128974
 20
12.6529252937
 30
0.0
  0
SPLINE
  5
2FD
100
AcDbEntity
  8
LAYER_CHAMFER_FEAT
100
AcDbSpline
 62
7
  6
CONTINUOUS
 70
0
 71
3
 72
43
 73
39
 74
0
 42
0.0000001
 43
0.0000001
 44
0.0000000001
 40
0.0
 40
0.0
 40
0.0
 40
0.0
 40
0.0106261666
 40
0.0212749804
 40
0.0319688438
 40
0.0427297046
 40
0.0535788084
 40
0.0645365536
 40
0.0756222554
 40
0.0868540945
 40
0.1098154976
 40
0.1335461378
 40
0.1581408782
 40
0.1836713475
 40
0.2101868782
 40
0.2377160149
 40
0.2662683006
 40
0.2958361412
 40
0.3263966286
 40
0.3579132604
 40
0.39033753
 40
0.4236103843
 40
0.4576635607
 40
0.4924208153
 40
0.5277990593
 40
0.5637094208
 40
0.6000582454
 40
0.6367480498
 40
0.6736784382
 40
0.7107469929
 40
0.7478501476
 40
0.7848840467
 40
0.8217454181
 40
0.8583323982
 40
0.8945455303
 40
0.9302883294
 40
0.9654690222
 40
1.0
 40
1.0
 40
1.0
 40
1.0
 10
15.2050531913
 20
12.0958168109
 30
0.0
 10
15.204825798
 20
12.0950809774
 30
0.0
 10
15.2044120127
 20
12.093594553
 30
0.0
 10
15.2039169897
 20
12.0913298129
 30
0.0
 10
15.2035478015
 20
12.0890312399
 30
0.0
 10
15.2033048798
 20
12.0867013639
 30
0.0
 10
15.2031884109
 20
12.0843426261
 30
0.0
 10
15.2031985417
 20
12.0819575403
 30
0.0
 10
15.2033351884
 20
12.0795485557
 30
0.0
 10
15.2036883988
 20
12.0762846688
 30
0.0
 10
15.2044536183
 20
12.0721494295
 30
0.0
 10
15.2058660942
 20
12.0671724231
 30
0.0
 10
15.2077727346
 20
12.0621637279
 30
0.0
 10
15.2101649022
 20
12.0571441977
 30
0.0
 10
15.2130321761
 20
12.0521341554
 30
0.0
 10
15.2163623395
 20
12.0471540143
 30
0.0
 10
15.2201413932
 20
12.0422240603
 30
0.0
 10
15.2243535693
 20
12.0373644392
 30
0.0
 10
15.2289813627
 20
12.0325950639
 30
0.0
 10
15.2340055776
 20
12.0279355321
 30
0.0
 10
15.2394053889
 20
12.0234050368
 30
0.0
 10
15.2451584168
 20
12.019022277
 30
0.0
 10
15.2512408123
 20
12.0148053725
 30
0.0
 10
15.2576273526
 20
12.0107717805
 30
0.0
 10
15.2642915432
 20
12.0069382167
 30
0.0
 10
15.2712057281
 20
12.0033205807
 30
0.0
 10
15.2783412044
 20
11.9999338856
 30
0.0
 10
15.2856683428
 20
11.9967921923
 30
0.0
 10
15.2931567119
 20
11.9939085484
 30
0.0
 10
15.3007752062
 20
11.9912949321
 30
0.0
 10
15.3084921769
 20
11.9889622012
 30
0.0
 10
15.3162755661
 20
11.9869200458
 30
0.0
 10
15.3240930388
 20
11.9851769511
 30
0.0
 10
15.3319121306
 20
11.9837401529
 30
0.0
 10
15.3397003467
 20
11.9826156286
 30
0.0
 10
15.3474254234
 20
11.9818080328
 30
0.0
 10
15.3550550809
 20
11.9813207459
 30
0.0
 10
15.3601082751
 20
11.9812096446
 30
0.0
 10
15.3626110264
 20
11.9812096446
 30
0.0
  0
SPLINE
  5
2FE
100
AcDbEntity
  8
LAYER_FEATURE
100
AcDbSpline
 62
7
  6
CONTINUOUS
 70
0
 71
3
 72
11
 73
7
 74
0
 42
0.0000001
 43
0.0000001
 44
0.0000000001
 40
0.0
 40
0.0
 40
0.0
 40
0.0
 40
0.2722683603
 40
0.4025648421
 40
0.5291002895
 40
1.0
 40
1.0
 40
1.0
 40
1.0
 10
15.8636721481
 20
12.1042535341
 30
0.0
 10
15.8631675309
 20
12.1036489776
 30
0.0
 10
15.8623910796
 20
12.1027795606
 30
0.0
 10
15.8613057964
 20
12.1016999287
 30
0.0
 10
15.8597541234
 20
12.1002784016
 30
0.0
 10
15.858353289
 20
12.0992407235
 30
0.0
 10
15.8571736794
 20
12.0985599019
 30
0.0
  0
SPLINE
  5
2FF
100
AcDbEntity
  8
LAYER_CHAMFER_FEAT
100
AcDbSpline
 62
7
  6
CONTINUOUS
 70
0
 71
3
 72
27
 73
23
 74
0
 42
0.0000001
 43
0.0000001
 44
0.0000000001
 40
0.0
 40
0.0
 40
0.0
 40
0.0
 40
0.0248063988
 40
0.0496701392
 40
0.074647923
 40
0.0997951499
 40
0.1251653785
 40
0.1508097449
 40
0.1767765901
 40
0.2031109997
 40
0.2570287791
 40
0.3128695228
 40
0.3708599293
 40
0.4311658479
 40
0.4938953619
 40
0.5591032335
 40
0.6267959397
 40
0.6969367547
 40
0.7694507149
 40
0.8442289915
 40
0.9211335322
 40
1.0
 40
1.0
 40
1.0
 40
1.0
 10
15.4439083949
 20
12.0220049703
 30
0.0
 10
15.4436715303
 20
12.0212384882
 30
0.0
 10
15.4431520225
 20
12.0197173132
 30
0.0
 10
15.4422387303
 20
12.0174811841
 30
0.0
 10
15.441192058
 20
12.0152919957
 30
0.0
 10
15.4400132699
 20
12.0131523605
 30
0.0
 10
15.438703721
 20
12.0110647003
 30
0.0
 10
15.4372649723
 20
12.0090313995
 30
0.0
 10
15.4356986291
 20
12.0070547302
 30
0.0
 10
15.4334250837
 20
12.0044778159
 30
0.0
 10
15.4302604045
 20
12.0014075071
 30
0.0
 10
15.4260163828
 20
11.9980162164
 30
0.0
 10
15.4213153491
 20
11.99490264
 30
0.0
 10
15.4161791503
 20
11.9920803287
 30
0.0
 10
15.4106309881
 20
11.9895611743
 30
0.0
 10
15.4046958466
 20
11.987355956
 30
0.0
 10
15.3984003314
 20
11.9854741417
 30
0.0
 10
15.391772633
 20
11.983923872
 30
0.0
 10
15.3848424482
 20
11.9827118954
 30
0.0
 10
15.3776407797
 20
11.9818435064
 30
0.0
 10
15.3702001348
 20
11.981322518
 30
0.0
 10
15.3651615923
 20
11.9812096446
 30
0.0
 10
15.3626110264
 20
11.9812096446
 30
0.0
  0
SPLINE
  5
300
100
AcDbEntity
  8
02___PRT_ALL_AXES
100
AcDbSpline
 62
7
  6
CONTINUOUS
 70
0
 71
3
 72
39
 73
35
 74
0
 42
0.0000001
 43
0.0000001
 44
0.0000000001
 40
0.0
 40
0.0
 40
0.0
 40
0.0
 40
0.0396653818
 40
0.0788626132
 40
0.117569205
 40
0.1557638039
 40
0.1934266659
 40
0.2305396242
 40
0.267086241
 40
0.3030519227
 40
0.3384240479
 40
0.3731921005
 40
0.4073478095
 40
0.4408852951
 40
0.4738012208
 40
0.5060949471
 40
0.5377686918
 40
0.5688276906
 40
0.5992803581
 40
0.6291384461
 40
0.65841719
 40
0.6871354428
 40
0.7153157895
 40
0.7429846318
 40
0.7701722374
 40
0.7969127397
 40
0.8232440797
 40
0.8492078825
 40
0.8748492569
 40
0.900216515
 40
0.9253608056
 40
0.9503356668
 40
0.9751965029
 40
1.0
 40
1.0
 40
1.0
 40
1.0
 10
15.1530841485
 20
12.3842441637
 30
0.0
 10
15.14747
 20
12.3842441637
 30
0.0
 10
15.1363075189
 20
12.3841182794
 30
0.0
 10
15.1196754739
 20
12.3835444811
 30
0.0
 10
15.1032694487
 20
12.3825874425
 30
0.0
 10
15.0871080544
 20
12.3812482313
 30
0.0
 10
15.0712095067
 20
12.3795283528
 30
0.0
 10
15.0555917472
 20
12.3774297348
 30
0.0
 10
15.0402723919
 20
12.3749547319
 30
0.0
 10
15.02526872
 20
12.3721061198
 30
0.0
 10
15.0105976524
 20
12.3688870913
 30
0.0
 10
14.996275734
 20
12.365301252
 30
0.0
 10
14.9823191149
 20
12.3613526154
 30
0.0
 10
14.9687435331
 20
12.357045598
 30
0.0
 10
14.9555642974
 20
12.3523850143
 30
0.0
 10
14.9427962716
 20
12.3473760694
 30
0.0
 10
14.93045386
 20
12.3420243523
 30
0.0
 10
14.9185509929
 20
12.3363358295
 30
0.0
 10
14.9071011131
 20
12.3303168381
 30
0.0
 10
14.8961171629
 20
12.3239740805
 30
0.0
 10
14.8856115729
 20
12.3173146163
 30
0.0
 10
14.8755962518
 20
12.3103458565
 30
0.0
 10
14.8660825763
 20
12.303075558
 30
0.0
 10
14.8570813808
 20
12.2955118187
 30
0.0
 10
14.8486029467
 20
12.287663075
 30
0.0
 10
14.8406569917
 20
12.2795380983
 30
0.0
 10
14.8332526593
 20
12.2711459917
 30
0.0
 10
14.8263985053
 20
12.2624961872
 30
0.0
 10
14.8201024838
 20
12.2535984463
 30
0.0
 10
14.814371925
 20
12.2444628416
 30
0.0
 10
14.8092135324
 20
12.2350998036
 30
0.0
 10
14.8046333032
 20
12.2255199103
 30
0.0
 10
14.8006367371
 20
12.2157346101
 30
0.0
 10
14.7983633521
 20
12.2090779533
 30
0.0
 10
14.7973268477
 20
12.2057238232
 30
0.0
  0
SPLINE
  5
301
100
AcDbEntity
  8
LAYER_FEATURE
100
AcDbSpline
 62
7
  6
CONTINUOUS
 70
0
 71
3
 72
11
 73
7
 74
0
 42
0.0000001
 43
0.0000001
 44
0.0000000001
 40
0.0
 40
0.0
 40
0.0
 40
0.0
 40
0.2263252783
 40
0.4671403741
 40
0.7245379764
 40
1.0
 40
1.0
 40
1.0
 40
1.0
 10
15.8561106794
 20
12.2591332089
 30
0.0
 10
15.856781278
 20
12.2588072201
 30
0.0
 10
15.8581200628
 20
12.258038162
 30
0.0
 10
15.8600371461
 20
12.2566082008
 30
0.0
 10
15.8619129962
 20
12.2548765843
 30
0.0
 10
15.8630906106
 20
12.2535713277
 30
0.0
 10
15.8636721486
 20
12.2528746205
 30
0.0
  0
SPLINE
  5
302
100
AcDbEntity
  8
LAYER_FEATURE
100
AcDbSpline
 62
7
  6
CONTINUOUS
 70
0
 71
3
 72
37
 73
33
 74
0
 42
0.0000001
 43
0.0000001
 44
0.0000000001
 40
0.0
 40
0.0
 40
0.0
 40
0.0
 40
0.0938203129
 40
0.1387505314
 40
0.1822968871
 40
0.2244239502
 40
0.2650999748
 40
0.3043002983
 40
0.3420093028
 40
0.3782202634
 40
0.4129364659
 40
0.4461730008
 40
0.4779578334
 40
0.5083341734
 40
0.5373615375
 40
0.5651187481
 40
0.5917048248
 40
0.6172416577
 40
0.6418739747
 40
0.665769975
 40
0.6891188182
 40
0.7121272721
 40
0.7350136452
 40
0.7580005939
 40
0.7813072223
 40
0.8051416326
 40
0.8296949708
 40
0.8815711231
 40
0.9092102486
 40
0.9381108643
 40
0.9683537135
 40
1.0
 40
1.0
 40
1.0
 40
1.0
 10
15.8452660412
 20
12.21934169
 30
0.0
 10
15.8456964743
 20
12.2207345717
 30
0.0
 10
15.8463815096
 20
12.2227802175
 30
0.0
 10
15.8473903161
 20
12.2254275039
 30
0.0
 10
15.848167163
 20
12.2273027198
 30
0.0
 10
15.8489737837
 20
12.2290930662
 30
0.0
 10
15.8498087911
 20
12.2307954862
 30
0.0
 10
15.8506707552
 20
12.2324070072
 30
0.0
 10
15.8515581813
 20
12.2339248494
 30
0.0
 10
15.8524695543
 20
12.2353463981
 30
0.0
 10
15.8534033328
 20
12.2366691996
 30
0.0
 10
15.8543579278
 20
12.2378909818
 30
0.0
 10
15.8553317664
 20
12.2390096198
 30
0.0
 10
15.8563232102
 20
12.240023194
 30
0.0
 10
15.857330672
 20
12.2409298936
 30
0.0
 10
15.8583524804
 20
12.2417281297
 30
0.0
 10
15.8593870223
 20
12.2424163721
 30
0.0
 10
15.8604325738
 20
12.2429933224
 30
0.0
 10
15.8614874236
 20
12.2434577047
 30
0.0
 10
15.8625497074
 20
12.2438085029
 30
0.0
 10
15.8636174899
 20
12.2440447684
 30
0.0
 10
15.8646886747
 20
12.2441658943
 30
0.0
 10
15.8657610816
 20
12.2441714833
 30
0.0
 10
15.866832486
 20
12.2440615443
 30
0.0
 10
15.8679006767
 20
12.2438363993
 30
0.0
 10
15.8689636289
 20
12.2434966351
 30
0.0
 10
15.8703969934
 20
12.2428810076
 30
0.0
 10
15.8717889593
 20
12.2420402683
 30
0.0
 10
15.8731244643
 20
12.2410120115
 30
0.0
 10
15.8741335265
 20
12.240115664
 30
0.0
 10
15.8751265285
 20
12.2391124071
 30
0.0
 10
15.8757622838
 20
12.2383900357
 30
0.0
 10
15.876077397
 20
12.2380125136
 30
0.0
  0
SPLINE
  5
303
100
AcDbEntity
  8
02___PRT_ALL_AXES
100
AcDbSpline
 62
7
  6
CONTINUOUS
 70
0
 71
3
 72
22
 73
18
 74
0
 42
0.0000001
 43
0.0000001
 44
0.0000000001
 40
0.0
 40
0.0
 40
0.0
 40
0.0
 40
0.0525372638
 40
0.1052364852
 40
0.1584071253
 40
0.212349931
 40
0.2673508244
 40
0.3236758031
 40
0.3815673966
 40
0.4412421224
 40
0.5028892955
 40
0.5666712143
 40
0.7010989921
 40
0.7719951508
 40
0.8454200833
 40
0.9214197032
 40
1.0
 40
1.0
 40
1.0
 40
1.0
 10
15.8630845854
 20
12.2605640739
 30
0.0
 10
15.8636070184
 20
12.2605640772
 30
0.0
 10
15.864654134
 20
12.2605160323
 30
0.0
 10
15.8662164981
 20
12.260299476
 30
0.0
 10
15.8677664413
 20
12.2599387719
 30
0.0
 10
15.8692998318
 20
12.2594346551
 30
0.0
 10
15.8708128466
 20
12.2587880211
 30
0.0
 10
15.8723017678
 20
12.2580001165
 30
0.0
 10
15.8737630248
 20
12.2570723717
 30
0.0
 10
15.8751931628
 20
12.2560064654
 30
0.0
 10
15.8765889825
 20
12.2548042815
 30
0.0
 10
15.8784320434
 20
12.252990948
 30
0.0
 10
15.8801585516
 20
12.2509369169
 30
0.0
 10
15.8817676481
 20
12.2486789848
 30
0.0
 10
15.8829475725
 20
12.2468317927
 30
0.0
 10
15.8840764666
 20
12.2448646851
 30
0.0
 10
15.8847819835
 20
12.2434983756
 30
0.0
 10
15.8851262262
 20
12.2427968826
 30
0.0
  0
SPLINE
  5
304
100
AcDbEntity
  8
LAYER_FEATURE
100
AcDbSpline
 62
7
  6
CONTINUOUS
 70
0
 71
3
 72
53
 73
49
 74
0
 42
0.0000001
 43
0.0000001
 44
0.0000000001
 40
0.0
 40
0.0
 40
0.0
 40
0.0
 40
0.0357017651
 40
0.0730196221
 40
0.1117596407
 40
0.1517098442
 40
0.1926450474
 40
0.2343291328
 40
0.2765181204
 40
0.3189627768
 40
0.3614112526
 40
0.4036116581
 40
0.4453146462
 40
0.4862760253
 40
0.5262594449
 40
0.565039203
 40
0.6024032478
 40
0.6381564793
 40
0.6721245078
 40
0.6883928652
 40
0.7041613909
 40
0.7194162373
 40
0.7341459783
 40
0.7483417629
 40
0.7619976523
 40
0.7751110453
 40
0.7876829428
 40
0.7997186745
 40
0.811228143
 40
0.8222268294
 40
0.8327360748
 40
0.8427842376
 40
0.8524069864
 40
0.86164828
 40
0.870560396
 40
0.8792041232
 40
0.8876479297
 40
0.895966698
 40
0.9042395816
 40
0.9125473653
 40
0.9209695896
 40
0.9295818605
 40
0.9384536121
 40
0.9571982875
 40
0.9671861584
 40
0.9776306924
 40
0.9885612307
 40
1.0
 40
1.0
 40
1.0
 40
1.0
 10
15.8452660412
 20
12.21934169
 30
0.0
 10
15.8448120518
 20
12.2178725795
 30
0.0
 10
15.8439577778
 20
12.2148445232
 30
0.0
 10
15.8428549149
 20
12.2101577807
 30
0.0
 10
15.8419077864
 20
12.2052506396
 30
0.0
 10
15.8411231009
 20
12.2001573706
 30
0.0
 10
15.8405063654
 20
12.1949134241
 30
0.0
 10
15.8400619304
 20
12.1895553717
 30
0.0
 10
15.8397929251
 20
12.1841205956
 30
0.0
 10
15.8397012465
 20
12.1786470296
 30
0.0
 10
15.8397875403
 20
12.1731728844
 30
0.0
 10
15.8400511985
 20
12.1677363751
 30
0.0
 10
15.8404903628
 20
12.1623754474
 30
0.0
 10
15.8411019386
 20
12.1571275063
 30
0.0
 10
15.841881618
 20
12.1520291428
 30
0.0
 10
15.8428239122
 20
12.1471158837
 30
0.0
 10
15.8439221971
 20
12.1424218741
 30
0.0
 10
15.8451687604
 20
12.1379798192
 30
0.0
 10
15.8463401466
 20
12.1344645341
 30
0.0
 10
15.8473484347
 20
12.1318062068
 30
0.0
 10
15.8481250957
 20
12.129922933
 30
0.0
 10
15.8489317231
 20
12.1281246682
 30
0.0
 10
15.8497669187
 20
12.1264145272
 30
0.0
 10
15.850629236
 20
12.1247954819
 30
0.0
 10
15.851517192
 20
12.1232703409
 30
0.0
 10
15.8524292497
 20
12.1218417393
 30
0.0
 10
15.853363873
 20
12.1205121592
 30
0.0
 10
15.8543194522
 20
12.1192838842
 30
0.0
 10
15.8552944187
 20
12.1181590659
 30
0.0
 10
15.8562871155
 20
12.1171396347
 30
0.0
 10
15.8572959544
 20
12.116227423
 30
0.0
 10
15.8583192513
 20
12.1154240311
 30
0.0
 10
15.859355386
 20
12.1147310023
 30
0.0
 10
15.8604026292
 20
12.1141496524
 30
0.0
 10
15.8614592571
 20
12.1136812587
 30
0.0
 10
15.8625234043
 20
12.1133268645
 30
0.0
 10
15.8635931208
 20
12.1130874092
 30
0.0
 10
15.8646663057
 20
12.112963536
 30
0.0
 10
15.8657407638
 20
12.1129556231
 30
0.0
 10
15.8668142563
 20
12.1130636997
 30
0.0
 10
15.8678845605
 20
12.1132874159
 30
0.0
 10
15.8689496307
 20
12.1136262154
 30
0.0
 10
15.8703858782
 20
12.1142411259
 30
0.0
 10
15.8717806636
 20
12.1150821113
 30
0.0
 10
15.8731187779
 20
12.1161113552
 30
0.0
 10
15.8741298268
 20
12.1170089006
 30
0.0
 10
15.8751247573
 20
12.1180137672
 30
0.0
 10
15.8757617009
 20
12.1187374168
 30
0.0
 10
15.8760773969
 20
12.1191156392
 30
0.0
  0
SPLINE
  5
305
100
AcDbEntity
  8
02___PRT_ALL_AXES
100
AcDbSpline
 62
7
  6
CONTINUOUS
 70
0
 71
3
 72
56
 73
52
 74
0
 42
0.0000001
 43
0.0000001
 44
0.0000000001
 40
0.0
 40
0.0
 40
0.0
 40
0.0
 40
0.0345294132
 40
0.0697081291
 40
0.1054492283
 40
0.1416605161
 40
0.1782456822
 40
0.2151052099
 40
0.2521372626
 40
0.2892385663
 40
0.3263052722
 40
0.3632338187
 40
0.3999217931
 40
0.4362688034
 40
0.4721773729
 40
0.5075538498
 40
0.5423093677
 40
0.5594290573
 40
0.5763628928
 40
0.5931015688
 40
0.60963628
 40
0.6259587567
 40
0.6420613039
 40
0.6579368415
 40
0.6735789474
 40
0.6889819041
 40
0.7041407441
 40
0.7190512973
 40
0.7337102421
 40
0.7481151576
 40
0.7622645807
 40
0.7761580625
 40
0.7897962244
 40
0.8031808165
 40
0.8163147763
 40
0.8292022871
 40
0.8418488351
 40
0.854261258
 40
0.8664477897
 40
0.8784180964
 40
0.8901833021
 40
0.9017560001
 40
0.9131502433
 40
0.924381514
 40
0.93546667
 40
0.9464238628
 40
0.9572724291
 40
0.9680327498
 40
0.9787260815
 40
0.9893743628
 40
1.0
 40
1.0
 40
1.0
 40
1.0
 10
15.2361128974
 20
12.6529252937
 30
0.0
 10
15.2470649878
 20
12.6529252937
 30
0.0
 10
15.2691777467
 20
12.652439125
 30
0.0
 10
15.3025651339
 20
12.6503067311
 30
0.0
 10
15.3363700182
 20
12.6467727252
 30
0.0
 10
15.3704512689
 20
12.6418517882
 30
0.0
 10
15.4046676091
 20
12.6355643758
 30
0.0
 10
15.4388768729
 20
12.6279365895
 30
0.0
 10
15.4729369851
 20
12.6190001196
 30
0.0
 10
15.5067064523
 20
12.6087920932
 30
0.0
 10
15.5400449845
 20
12.5973549042
 30
0.0
 10
15.5728140886
 20
12.58473608
 30
0.0
 10
15.6048776527
 20
12.5709880267
 30
0.0
 10
15.6361024777
 20
12.5561678535
 30
0.0
 10
15.6663590175
 20
12.540337042
 30
0.0
 10
15.6955212737
 20
12.5235614995
 30
0.0
 10
15.7189275017
 20
12.5087787018
 30
0.0
 10
15.7369948754
 20
12.4965328163
 30
0.0
 10
15.7501303075
 20
12.4872028697
 30
0.0
 10
15.76290434
 20
12.4776914824
 30
0.0
 10
15.775303747
 20
12.4680084904
 30
0.0
 10
15.7873156121
 20
12.4581639759
 30
0.0
 10
15.798927443
 20
12.4481681678
 30
0.0
 10
15.8101271566
 20
12.4380314542
 30
0.0
 10
15.8209030992
 20
12.4277643645
 30
0.0
 10
15.8312440601
 20
12.417377564
 30
0.0
 10
15.8411392811
 20
12.4068818384
 30
0.0
 10
15.8505784648
 20
12.3962880822
 30
0.0
 10
15.859551785
 20
12.3856072878
 30
0.0
 10
15.8680498955
 20
12.3748505328
 30
0.0
 10
15.8760639428
 20
12.364028971
 30
0.0
 10
15.8835855748
 20
12.3531538205
 30
0.0
 10
15.8906069435
 20
12.3422363499
 30
0.0
 10
15.8971207127
 20
12.3312878686
 30
0.0
 10
15.903120063
 20
12.3203197148
 30
0.0
 10
15.9085987
 20
12.3093432462
 30
0.0
 10
15.9135508634
 20
12.2983698314
 30
0.0
 10
15.9179713258
 20
12.2874108373
 30
0.0
 10
15.9218553969
 20
12.2764776217
 30
0.0
 10
15.9251989279
 20
12.2655815245
 30
0.0
 10
15.9279983158
 20
12.2547338602
 30
0.0
 10
15.9302505167
 20
12.2439459117
 30
0.0
 10
15.9319530454
 20
12.2332289212
 30
0.0
 10
15.9331039804
 20
12.2225940831
 30
0.0
 10
15.9337019718
 20
12.2120525357
 30
0.0
 10
15.9337462493
 20
12.2016153544
 30
0.0
 10
15.9332366346
 20
12.191293528
 30
0.0
 10
15.9321735625
 20
12.1810979909
 30
0.0
 10
15.930558028
 20
12.1710394324
 30
0.0
 10
15.9283917973
 20
12.1611289294
 30
0.0
 10
15.9265810578
 20
12.1546243415
 30
0.0
 10
15.9255860001
 20
12.1514043289
 30
0.0
  0
SPLINE
  5
306
100
AcDbEntity
  8
LAYER_FEATURE
100
AcDbSpline
 62
7
  6
CONTINUOUS
 70
0
 71
3
 72
39
 73
35
 74
0
 42
0.0000001
 43
0.0000001
 44
0.0000000001
 40
0.0
 40
0.0
 40
0.0
 40
0.0
 40
0.0396652045
 40
0.0788627045
 40
0.1175691695
 40
0.1557638119
 40
0.1934266617
 40
0.2305396245
 40
0.2670862422
 40
0.3030519235
 40
0.3384240472
 40
0.3731920982
 40
0.407347807
 40
0.4408852942
 40
0.4738012217
 40
0.5060949489
 40
0.5377686923
 40
0.5688276893
 40
0.5992803563
 40
0.6291384448
 40
0.6584171896
 40
0.6871354435
 40
0.7153157905
 40
0.7429846322
 40
0.7701722372
 40
0.7969127389
 40
0.8232440788
 40
0.8492078819
 40
0.8748492571
 40
0.9002165157
 40
0.9253608063
 40
0.9503356672
 40
0.975196503
 40
1.0
 40
1.0
 40
1.0
 40
1.0
 10
15.1264503463
 20
12.8763940773
 30
0.0
 10
15.117146502
 20
12.8763940773
 30
0.0
 10
15.0986477804
 20
12.8761854523
 30
0.0
 10
15.0710848106
 20
12.8752345562
 30
0.0
 10
15.0438963552
 20
12.8736485148
 30
0.0
 10
15.0171133718
 20
12.8714291548
 30
0.0
 10
14.9907659535
 20
12.8685789317
 30
0.0
 10
14.9648838724
 20
12.865101061
 30
0.0
 10
14.9394963106
 20
12.860999435
 30
0.0
 10
14.9146319078
 20
12.8562786538
 30
0.0
 10
14.8903187049
 20
12.8509440095
 30
0.0
 10
14.8665841193
 20
12.8450014789
 30
0.0
 10
14.8434549143
 20
12.8384577145
 30
0.0
 10
14.8209571711
 20
12.8313200358
 30
0.0
 10
14.7991162604
 20
12.8235964198
 30
0.0
 10
14.7779568167
 20
12.815295491
 30
0.0
 10
14.7575027119
 20
12.80642651
 30
0.0
 10
14.7377770301
 20
12.7969993673
 30
0.0
 10
14.7188020473
 20
12.7870245668
 30
0.0
 10
14.7005992115
 20
12.776513215
 30
0.0
 10
14.6831891235
 20
12.765477011
 30
0.0
 10
14.6665915197
 20
12.7539282357
 30
0.0
 10
14.6508252545
 20
12.741879743
 30
0.0
 10
14.6359082837
 20
12.7293449527
 30
0.0
 10
14.6218576442
 20
12.7163378475
 30
0.0
 10
14.6086894401
 20
12.7028729633
 30
0.0
 10
14.5964188238
 20
12.6889653863
 30
0.0
 10
14.5850599736
 20
12.6746307473
 30
0.0
 10
14.5746260711
 20
12.6598852237
 30
0.0
 10
14.5651292654
 20
12.6447455067
 30
0.0
 10
14.5565806692
 20
12.6292288808
 30
0.0
 10
14.5489902186
 20
12.6133528776
 30
0.0
 10
14.5423670284
 20
12.5971364694
 30
0.0
 10
14.5385995229
 20
12.5861049178
 30
0.0
 10
14.536881808
 20
12.5805463818
 30
0.0
  0
SPLINE
  5
307
100
AcDbEntity
  8
LAYER_CUT_FEAT
100
AcDbSpline
 62
7
  6
CONTINUOUS
 70
0
 71
3
 72
22
 73
18
 74
0
 42
0.0000001
 43
0.0000001
 44
0.0000000001
 40
0.0
 40
0.0
 40
0.0
 40
0.0
 40
0.1381197804
 40
0.2053664349
 40
0.2714549095
 40
0.3364371394
 40
0.400372579
 40
0.4633278449
 40
0.5253764087
 40
0.5865986111
 40
0.6470813103
 40
0.7069174443
 40
0.7662055009
 40
0.8250488566
 40
0.8835549595
 40
0.9418344164
 40
1.0
 40
1.0
 40
1.0
 40
1.0
 10
15.9786339197
 20
12.3129046411
 30
0.0
 10
15.9824945472
 20
12.3050375093
 30
0.0
 10
15.9878141883
 20
12.2931242897
 30
0.0
 10
15.9938814058
 20
12.2770015399
 30
0.0
 10
15.9978266074
 20
12.265049186
 30
0.0
 10
16.0012024688
 20
12.2531420576
 30
0.0
 10
16.0040058018
 20
12.2412911971
 30
0.0
 10
16.0062337671
 20
12.2295080269
 30
0.0
 10
16.0078840923
 20
12.217803804
 30
0.0
 10
16.0089550625
 20
12.2061897746
 30
0.0
 10
16.0094455268
 20
12.1946771129
 30
0.0
 10
16.0093548823
 20
12.1832769288
 30
0.0
 10
16.0086830819
 20
12.1720002436
 30
0.0
 10
16.0074306951
 20
12.1608580224
 30
0.0
 10
16.0055988224
 20
12.1498609818
 30
0.0
 10
16.0031893011
 20
12.1390202315
 30
0.0
 10
16.0011984168
 20
12.1319009751
 30
0.0
 10
16.000108822
 20
12.1283750351
 30
0.0
  0
SPLINE
  5
308
100
AcDbEntity
  8
LAYER_FEATURE
100
AcDbSpline
 62
7
  6
CONTINUOUS
 70
0
 71
3
 72
39
 73
35
 74
0
 42
0.0000001
 43
0.0000001
 44
0.0000000001
 40
0.0
 40
0.0
 40
0.0
 40
0.0
 40
0.0396652045
 40
0.0788627045
 40
0.1175691695
 40
0.1557638119
 40
0.1934266617
 40
0.2305396245
 40
0.2670862422
 40
0.3030519235
 40
0.3384240472
 40
0.3731920982
 40
0.407347807
 40
0.4408852942
 40
0.4738012217
 40
0.5060949489
 40
0.5377686923
 40
0.5688276893
 40
0.5992803563
 40
0.6291384448
 40
0.6584171896
 40
0.6871354435
 40
0.7153157905
 40
0.7429846322
 40
0.7701722372
 40
0.7969127389
 40
0.8232440788
 40
0.8492078819
 40
0.8748492571
 40
0.9002165157
 40
0.9253608063
 40
0.9503356672
 40
0.975196503
 40
1.0
 40
1.0
 40
1.0
 40
1.0
 10
15.2530510335
 20
13.286074051
 30
0.0
 10
15.2437471891
 20
13.286074051
 30
0.0
 10
15.2252484675
 20
13.285865426
 30
0.0
 10
15.1976854978
 20
13.2849145299
 30
0.0
 10
15.1704970424
 20
13.2833284886
 30
0.0
 10
15.1437140589
 20
13.2811091286
 30
0.0
 10
15.1173666406
 20
13.2782589055
 30
0.0
 10
15.0914845596
 20
13.2747810348
 30
0.0
 10
15.0660969977
 20
13.2706794087
 30
0.0
 10
15.041232595
 20
13.2659586275
 30
0.0
 10
15.0169193921
 20
13.2606239833
 30
0.0
 10
14.9931848064
 20
13.2546814527
 30
0.0
 10
14.9700556015
 20
13.2481376882
 30
0.0
 10
14.9475578582
 20
13.2410000095
 30
0.0
 10
14.9257169476
 20
13.2332763936
 30
0.0
 10
14.9045575038
 20
13.2249754647
 30
0.0
 10
14.884103399
 20
13.2161064838
 30
0.0
 10
14.8643777172
 20
13.2066793411
 30
0.0
 10
14.8454027344
 20
13.1967045405
 30
0.0
 10
14.8271998986
 20
13.1861931888
 30
0.0
 10
14.8097898107
 20
13.1751569847
 30
0.0
 10
14.7931922068
 20
13.1636082094
 30
0.0
 10
14.7774259416
 20
13.1515597168
 30
0.0
 10
14.7625089708
 20
13.1390249265
 30
0.0
 10
14.7484583314
 20
13.1260178213
 30
0.0
 10
14.7352901273
 20
13.112552937
 30
0.0
 10
14.7230195109
 20
13.09864536
 30
0.0
 10
14.7116606608
 20
13.0843107211
 30
0.0
 10
14.7012267583
 20
13.0695651974
 30
0.0
 10
14.6917299526
 20
13.0544254804
 30
0.0
 10
14.6831813564
 20
13.0389088545
 30
0.0
 10
14.6755909057
 20
13.0230328514
 30
0.0
 10
14.6689677155
 20
13.0068164432
 30
0.0
 10
14.6652002101
 20
12.9957848915
 30
0.0
 10
14.6634824952
 20
12.9902263555
 30
0.0
  0
SPLINE
  5
309
100
AcDbEntity
  8
02___PRT_ALL_AXES
100
AcDbSpline
 62
7
  6
CONTINUOUS
 70
0
 71
3
 72
24
 73
20
 74
0
 42
0.0000001
 43
0.0000001
 44
0.0000000001
 40
0.0
 40
0.0
 40
0.0
 40
0.0
 40
0.0688089233
 40
0.1366951433
 40
0.2036411594
 40
0.2696452312
 40
0.3347127288
 40
0.3988603822
 40
0.4621143406
 40
0.5245103377
 40
0.5860933806
 40
0.6469173606
 40
0.7070448273
 40
0.7665466886
 40
0.8255018571
 40
0.8839969413
 40
0.9131065215
 40
0.9421368528
 40
1.0
 40
1.0
 40
1.0
 40
1.0
 10
15.2144479614
 20
12.5828175353
 30
0.0
 10
15.2159720098
 20
12.5828175353
 30
0.0
 10
15.219000466
 20
12.5827302859
 30
0.0
 10
15.2234959366
 20
12.582332275
 30
0.0
 10
15.2278975731
 20
12.5816699528
 30
0.0
 10
15.2321881887
 20
12.5807467303
 30
0.0
 10
15.2363512738
 20
12.5795672333
 30
0.0
 10
15.2403706601
 20
12.5781373933
 30
0.0
 10
15.2442307282
 20
12.5764642926
 30
0.0
 10
15.2479164278
 20
12.5745561265
 30
0.0
 10
15.2514133372
 20
12.57242211
 30
0.0
 10
15.2547077082
 20
12.5700723984
 30
0.0
 10
15.2577864887
 20
12.5675180169
 30
0.0
 10
15.2606373889
 20
12.5647707312
 30
0.0
 10
15.2632487833
 20
12.5618431732
 30
0.0
 10
15.2652199221
 20
12.5592596061
 30
0.0
 10
15.2666649324
 20
12.5571174818
 30
0.0
 10
15.2680179634
 20
12.5549327086
 30
0.0
 10
15.2689347314
 20
12.5532375099
 30
0.0
 10
15.2694993376
 20
12.5520869686
 30
0.0
  0
SPLINE
  5
30A
100
AcDbEntity
  8
LAYER_FEATURE
100
AcDbSpline
 62
7
  6
CONTINUOUS
 70
0
 71
3
 72
86
 73
82
 74
0
 42
0.0000001
 43
0.0000001
 44
0.0000000001
 40
0.0
 40
0.0
 40
0.0
 40
0.0
 40
0.0182353892
 40
0.0367251766
 40
0.0554466894
 40
0.0743759462
 40
0.0934881151
 40
0.1127575095
 40
0.1321577558
 40
0.1516619099
 40
0.1712425809
 40
0.1908720527
 40
0.2105224028
 40
0.2301656206
 40
0.2497737257
 40
0.2693188858
 40
0.2887735353
 40
0.3081104958
 40
0.3273030976
 40
0.3463253036
 40
0.3651518363
 40
0.383758308
 40
0.4021213562
 40
0.4202187843
 40
0.4380297086
 40
0.4555347117
 40
0.4727160056
 40
0.489557603
 40
0.5060455006
 40
0.5221678737
 40
0.5379152838
 40
0.5532808999
 40
0.5682607313
 40
0.5828538721
 40
0.5970627553
 40
0.6108934095
 40
0.6243557123
 40
0.6309536342
 40
0.6374650657
 40
0.6502368444
 40
0.6626951789
 40
0.668816013
 40
0.6748690662
 40
0.6808584386
 40
0.6867884952
 40
0.6926638631
 40
0.6984894171
 40
0.7042702632
 40
0.7100117257
 40
0.7157193196
 40
0.7213987346
 40
0.7270558031
 40
0.7326964754
 40
0.7383267889
 40
0.7439528356
 40
0.7495807312
 40
0.755216581
 40
0.7608664476
 40
0.7665363197
 40
0.7722320799
 40
0.7779594768
 40
0.7837240989
 40
0.7895313466
 40
0.7953864167
 40
0.8012942755
 40
0.8072596508
 40
0.8132870125
 40
0.819380565
 40
0.8255442415
 40
0.8380946505
 40
0.8509658359
 40
0.8641791358
 40
0.877751488
 40
0.8916955978
 40
0.9060201535
 40
0.9207300696
 40
0.9358267428
 40
0.9513083083
 40
0.9671698913
 40
0.983403849
 40
1.0
 40
1.0
 40
1.0
 40
1.0
 10
15.153150388
 20
12.8558151775
 30
0.0
 10
15.165116895
 20
12.8558151775
 30
0.0
 10
15.1892183724
 20
12.855437992
 30
0.0
 10
15.2255707311
 20
12.8537711486
 30
0.0
 10
15.2623126348
 20
12.8510026704
 30
0.0
 10
15.2993658891
 20
12.8471384014
 30
0.0
 10
15.3366521364
 20
12.8421865463
 30
0.0
 10
15.3740924038
 20
12.836157586
 30
0.0
 10
15.4116074124
 20
12.8290642913
 30
0.0
 10
15.4491177095
 20
12.8209216831
 30
0.0
 10
15.4865438501
 20
12.811747009
 30
0.0
 10
15.5238065634
 20
12.8015597027
 30
0.0
 10
15.5608269225
 20
12.7903813423
 30
0.0
 10
15.5975265128
 20
12.7782356052
 30
0.0
 10
15.6338275993
 20
12.7651482174
 30
0.0
 10
15.6696532923
 20
12.7511468983
 30
0.0
 10
15.7049277117
 20
12.7362613017
 30
0.0
 10
15.7395761499
 20
12.7205229551
 30
0.0
 10
15.7735252304
 20
12.703965188
 30
0.0
 10
15.8067030636
 20
12.6866230602
 30
0.0
 10
15.8390393995
 20
12.6685332858
 30
0.0
 10
15.8704657773
 20
12.6497341531
 30
0.0
 10
15.9009156706
 20
12.6302654416
 30
0.0
 10
15.9303246287
 20
12.6101683342
 30
0.0
 10
15.9586304148
 20
12.5894853299
 30
0.0
 10
15.985773135
 20
12.568260146
 30
0.0
 10
16.0116953624
 20
12.5465376218
 30
0.0
 10
16.0363422556
 20
12.5243636183
 30
0.0
 10
16.0596616702
 20
12.5017849163
 30
0.0
 10
16.0816042625
 20
12.4788491112
 30
0.0
 10
16.1021235865
 20
12.4556045058
 30
0.0
 10
16.1211761805
 20
12.4321000113
 30
0.0
 10
16.1387216498
 20
12.4083850168
 30
0.0
 10
16.1547226997
 20
12.38450936
 30
0.0
 10
16.1691453063
 20
12.3605229606
 30
0.0
 10
16.1819583484
 20
12.3364766815
 30
0.0
 10
16.1913341577
 20
12.3162953865
 30
0.0
 10
16.19798608
 20
12.3001746455
 30
0.0
 10
16.2039970833
 20
12.2842878326
 30
0.0
 10
16.2104823351
 20
12.2644787219
 30
0.0
 10
16.2156230868
 20
12.244541568
 30
0.0
 10
16.2188613023
 20
12.2287022478
 30
0.0
 10
16.2208464155
 20
12.216947026
 30
0.0
 10
16.2224009623
 20
12.2052534693
 30
0.0
 10
16.2235240807
 20
12.1936276556
 30
0.0
 10
16.2242151358
 20
12.1820758069
 30
0.0
 10
16.2244737333
 20
12.170604066
 30
0.0
 10
16.2242996634
 20
12.1592185509
 30
0.0
 10
16.223693033
 20
12.1479253372
 30
0.0
 10
16.222654077
 20
12.1367304606
 30
0.0
 10
16.2211833739
 20
12.1256399041
 30
0.0
 10
16.2192816501
 20
12.1146596061
 30
0.0
 10
16.2169499184
 20
12.1037954454
 30
0.0
 10
16.2141894247
 20
12.0930532378
 30
0.0
 10
16.2110016071
 20
12.0824387479
 30
0.0
 10
16.2073882204
 20
12.0719576462
 30
0.0
 10
16.2033511504
 20
12.0616155634
 30
0.0
 10
16.1988926179
 20
12.0514180149
 30
0.0
 10
16.1940149917
 20
12.0413704661
 30
0.0
 10
16.188720914
 20
12.0314782777
 30
0.0
 10
16.1830132488
 20
12.0217467193
 30
0.0
 10
16.1768950435
 20
12.0121809928
 30
0.0
 10
16.1703696347
 20
12.0027861584
 30
0.0
 10
16.1634404881
 20
11.9935672382
 30
0.0
 10
16.1561113693
 20
11.9845290931
 30
0.0
 10
16.1483861777
 20
11.9756765259
 30
0.0
 10
16.1402690941
 20
11.967014236
 30
0.0
 10
16.1317643576
 20
11.9585467044
 30
0.0
 10
16.1198432926
 20
11.9474565866
 30
0.0
 10
16.103969194
 20
11.9341043147
 30
0.0
 10
16.0835645809
 20
11.9190305382
 30
0.0
 10
16.0617327893
 20
11.904839535
 30
0.0
 10
16.0385210073
 20
11.8915611076
 30
0.0
 10
16.0139784192
 20
11.8792224586
 30
0.0
 10
15.9881570953
 20
11.8678490842
 30
0.0
 10
15.961111659
 20
11.857464477
 30
0.0
 10
15.9328992651
 20
11.8480901452
 30
0.0
 10
15.9035795409
 20
11.8397455496
 30
0.0
 10
15.8732142681
 20
11.8324480256
 30
0.0
 10
15.841868112
 20
11.8262128591
 30
0.0
 10
15.8205888756
 20
11.8228094769
 30
0.0
 10
15.8098057006
 20
11.8212821797
 30
0.0
  0
SPLINE
  5
30B
100
AcDbEntity
  8
LAYER_FEATURE
100
AcDbSpline
 62
7
  6
CONTINUOUS
 70
0
 71
3
 72
70
 73
66
 74
0
 42
0.0000001
 43
0.0000001
 44
0.0000000001
 40
0.0
 40
0.0
 40
0.0
 40
0.0
 40
0.0203083861
 40
0.0404001775
 40
0.0602650133
 40
0.0798941838
 40
0.0992789668
 40
0.1184114027
 40
0.1372841702
 40
0.1558906132
 40
0.1742248128
 40
0.1922816246
 40
0.2100567281
 40
0.2275466716
 40
0.2447489228
 40
0.2616619271
 40
0.2782851624
 40
0.2946191896
 40
0.3106657083
 40
0.3264276182
 40
0.341909077
 40
0.3571155482
 40
0.3867265116
 40
0.4011545997
 40
0.4153435585
 40
0.4293060177
 40
0.4430560988
 40
0.4566094032
 40
0.4699829717
 40
0.4831952246
 40
0.4962658774
 40
0.5092158326
 40
0.5220670386
 40
0.534842325
 40
0.5475652159
 40
0.5602597246
 40
0.5729501316
 40
0.5856607561
 40
0.5984157266
 40
0.6112387565
 40
0.6241529309
 40
0.6371805146
 40
0.6503427794
 40
0.6636598557
 40
0.6771506103
 40
0.6908325563
 40
0.7047217854
 40
0.7188329221
 40
0.7331790986
 40
0.7477719565
 40
0.7626216602
 40
0.7777369201
 40
0.7931250237
 40
0.8087918854
 40
0.8247420964
 40
0.8409789763
 40
0.8575046224
 40
0.8743199722
 40
0.8914248615
 40
0.9088180793
 40
0.9264974171
 40
0.944459726
 40
0.962700972
 40
0.9812162847
 40
1.0
 40
1.0
 40
1.0
 40
1.0
 10
15.153150388
 20
12.8558151775
 30
0.0
 10
15.1453017109
 20
12.8558151775
 30
0.0
 10
15.129687553
 20
12.8556548523
 30
0.0
 10
15.1064064083
 20
12.8549249707
 30
0.0
 10
15.0834083612
 20
12.8537075597
 30
0.0
 10
15.0607151828
 20
12.8520038115
 30
0.0
 10
15.0383479272
 20
12.8498152661
 30
0.0
 10
15.0163275457
 20
12.8471439761
 30
0.0
 10
14.9946746007
 20
12.8439924304
 30
0.0
 10
14.9734093204
 20
12.840363556
 30
0.0
 10
14.952551574
 20
12.8362607195
 30
0.0
 10
14.9321208431
 20
12.8316877359
 30
0.0
 10
14.9121362083
 20
12.8266488582
 30
0.0
 10
14.8926163348
 20
12.8211487641
 30
0.0
 10
14.8735794569
 20
12.8151925486
 30
0.0
 10
14.8550433564
 20
12.8087857356
 30
0.0
 10
14.8370253414
 20
12.8019342673
 30
0.0
 10
14.8195422551
 20
12.7946444961
 30
0.0
 10
14.8026104013
 20
12.7869231374
 30
0.0
 10
14.7862457508
 20
12.7787774219
 30
0.0
 10
14.7704631005
 20
12.7702145568
 30
0.0
 10
14.7503961199
 20
12.7583587668
 30
0.0
 10
14.7313456724
 20
12.7456056314
 30
0.0
 10
14.7134453819
 20
12.731959121
 30
0.0
 10
14.7007854015
 20
12.7214379897
 30
0.0
 10
14.6887883319
 20
12.7105531386
 30
0.0
 10
14.6774652208
 20
12.6993144326
 30
0.0
 10
14.6668268862
 20
12.6877323694
 30
0.0
 10
14.656883429
 20
12.6758177125
 30
0.0
 10
14.6476443508
 20
12.6635815803
 30
0.0
 10
14.6391185092
 20
12.6510354157
 30
0.0
 10
14.631314084
 20
12.6381910041
 30
0.0
 10
14.6242385795
 20
12.6250604468
 30
0.0
 10
14.6178988117
 20
12.6116561508
 30
0.0
 10
14.6123008965
 20
12.5979908144
 30
0.0
 10
14.6074502069
 20
12.584077422
 30
0.0
 10
14.6033513751
 20
12.5699292146
 30
0.0
 10
14.6000082931
 20
12.5555596654
 30
0.0
 10
14.5974241102
 20
12.540982458
 30
0.0
 10
14.5956012057
 20
12.526211468
 30
0.0
 10
14.5945411967
 20
12.5112607362
 30
0.0
 10
14.5942449603
 20
12.4961444442
 30
0.0
 10
14.5947126403
 20
12.480876898
 30
0.0
 10
14.5959436387
 20
12.4654725122
 30
0.0
 10
14.5979366188
 20
12.449945793
 30
0.0
 10
14.600689539
 20
12.4343113258
 30
0.0
 10
14.6041996584
 20
12.4185837661
 30
0.0
 10
14.6084635351
 20
12.4027778299
 30
0.0
 10
14.6134770183
 20
12.3869082795
 30
0.0
 10
14.6192352818
 20
12.3709899196
 30
0.0
 10
14.6257328258
 20
12.3550375871
 30
0.0
 10
14.6329634791
 20
12.3390661439
 30
0.0
 10
14.640920383
 20
12.3230904569
 30
0.0
 10
14.6495960235
 20
12.3071253964
 30
0.0
 10
14.6589822337
 20
12.2911858231
 30
0.0
 10
14.6690701999
 20
12.2752865795
 30
0.0
 10
14.6798504469
 20
12.2594424646
 30
0.0
 10
14.6913128652
 20
12.2436682321
 30
0.0
 10
14.7034467214
 20
12.2279785758
 30
0.0
 10
14.7162406651
 20
12.212388121
 30
0.0
 10
14.7296827238
 20
12.196911394
 30
0.0
 10
14.743760313
 20
12.1815628296
 30
0.0
 10
14.7584603025
 20
12.1663567145
 30
0.0
 10
14.7737688358
 20
12.1513073468
 30
0.0
 10
14.7842964349
 20
12.141457771
 30
0.0
 10
14.7896563011
 20
12.1365617353
 30
0.0
  0
SPLINE
  5
30C
100
AcDbEntity
  8
LAYER_FEATURE
100
AcDbSpline
 62
7
  6
CONTINUOUS
 70
0
 71
3
 72
68
 73
64
 74
0
 42
0.0000001
 43
0.0000001
 44
0.0000000001
 40
0.0
 40
0.0
 40
0.0
 40
0.0
 40
0.0171788537
 40
0.0345306493
 40
0.0520446784
 40
0.069710489
 40
0.0875169164
 40
0.1054526098
 40
0.1235058943
 40
0.141664841
 40
0.1599172928
 40
0.1782508912
 40
0.1966531056
 40
0.2151112603
 40
0.2521425355
 40
0.2892430599
 40
0.3263089876
 40
0.3447973805
 40
0.363238365
 40
0.3816191842
 40
0.3999272074
 40
0.4181499576
 40
0.4362751398
 40
0.4542906695
 40
0.4721847017
 40
0.4899456595
 40
0.5075622643
 40
0.5250235667
 40
0.5423189792
 40
0.5594383084
 40
0.5763717881
 40
0.5931101137
 40
0.6096444786
 40
0.6259666121
 40
0.6420688199
 40
0.6579440233
 40
0.6735858016
 40
0.6889884364
 40
0.7041469583
 40
0.7190571972
 40
0.7337158328
 40
0.7481204459
 40
0.7622695735
 40
0.7761627646
 40
0.7898006393
 40
0.8031849488
 40
0.8163186321
 40
0.8292058734
 40
0.8418521573
 40
0.8542643197
 40
0.8664505941
 40
0.8784206484
 40
0.8901856074
 40
0.9017580635
 40
0.9131520681
 40
0.9243831024
 40
0.9354680247
 40
0.9464249873
 40
0.9572733262
 40
0.9680334213
 40
0.9787265285
 40
0.989374586
 40
1.0
 40
1.0
 40
1.0
 40
1.0
 10
15.1264503463
 20
12.8763940773
 30
0.0
 10
15.1354804265
 20
12.8763940773
 30
0.0
 10
15.1536320736
 20
12.8761953821
 30
0.0
 10
15.1809770857
 20
12.8753125265
 30
0.0
 10
15.2085533302
 20
12.8738441808
 30
0.0
 10
15.2363318233
 20
12.8717919287
 30
0.0
 10
15.2642837997
 20
12.8691578709
 30
0.0
 10
15.2923801156
 20
12.8659447649
 30
0.0
 10
15.320591545
 20
12.8621559488
 30
0.0
 10
15.3488887189
 20
12.8577953717
 30
0.0
 10
15.3772421933
 20
12.8528675725
 30
0.0
 10
15.4056224206
 20
12.8473776856
 30
0.0
 10
15.4339999899
 20
12.8413314048
 30
0.0
 10
15.4718321183
 20
12.8325272597
 30
0.0
 10
15.5189205727
 20
12.8201724622
 30
0.0
 10
15.5748833997
 20
12.8032556994
 30
0.0
 10
15.6209635371
 20
12.7874473869
 30
0.0
 10
15.6573903158
 20
12.7738052549
 30
0.0
 10
15.6844241717
 20
12.7631018419
 30
0.0
 10
15.7111649449
 20
12.7519298254
 30
0.0
 10
15.7375849197
 20
12.7403007781
 30
0.0
 10
15.7636565613
 20
12.7282268172
 30
0.0
 10
15.7893527406
 20
12.7157205062
 30
0.0
 10
15.8146467104
 20
12.7027948655
 30
0.0
 10
15.8395121455
 20
12.689463348
 30
0.0
 10
15.8639231659
 20
12.6757398275
 30
0.0
 10
15.887854365
 20
12.6616385839
 30
0.0
 10
15.9112808354
 20
12.6471742872
 30
0.0
 10
15.9341781996
 20
12.6323619887
 30
0.0
 10
15.956522632
 20
12.6172170991
 30
0.0
 10
15.9782908828
 20
12.6017553718
 30
0.0
 10
15.9994603012
 20
12.5859928867
 30
0.0
 10
16.0200088592
 20
12.5699460328
 30
0.0
 10
16.0399151764
 20
12.5536314921
 30
0.0
 10
16.0591585449
 20
12.5370662251
 30
0.0
 10
16.0777189458
 20
12.5202674468
 30
0.0
 10
16.0955770692
 20
12.50325261
 30
0.0
 10
16.1127143336
 20
12.4860393865
 30
0.0
 10
16.1291129039
 20
12.4686456473
 30
0.0
 10
16.1447557153
 20
12.451089448
 30
0.0
 10
16.1596264876
 20
12.4333890072
 30
0.0
 10
16.1737097373
 20
12.415562685
 30
0.0
 10
16.1869907919
 20
12.3976289655
 30
0.0
 10
16.1994558035
 20
12.3796064366
 30
0.0
 10
16.2110917616
 20
12.3615137716
 30
0.0
 10
16.2218865123
 20
12.3433697146
 30
0.0
 10
16.2318287606
 20
12.3251930571
 30
0.0
 10
16.2409080788
 20
12.3070026219
 30
0.0
 10
16.2491149149
 20
12.2888172472
 30
0.0
 10
16.2564405992
 20
12.2706557697
 30
0.0
 10
16.262877358
 20
12.2525370119
 30
0.0
 10
16.268418323
 20
12.2344797681
 30
0.0
 10
16.2730575307
 20
12.2165027893
 30
0.0
 10
16.2767899321
 20
12.1986247725
 30
0.0
 10
16.2796114029
 20
12.1808643483
 30
0.0
 10
16.2815187525
 20
12.163240069
 30
0.0
 10
16.282509749
 20
12.1457703935
 30
0.0
 10
16.282583126
 20
12.1284736759
 30
0.0
 10
16.2817385873
 20
12.1113681256
 30
0.0
 10
16.2799768471
 20
12.0944718643
 30
0.0
 10
16.2772995491
 20
12.0778026074
 30
0.0
 10
16.2737096183
 20
12.0613787133
 30
0.0
 10
16.2707088194
 20
12.0505991735
 30
0.0
 10
16.2690597888
 20
12.0452629003
 30
0.0
  0
SPLINE
  5
30D
100
AcDbEntity
  8
LAYER_FEATURE
100
AcDbSpline
 62
7
  6
CONTINUOUS
 70
0
 71
3
 72
18
 73
14
 74
0
 42
0.0000001
 43
0.0000001
 44
0.0000000001
 40
0.0
 40
0.0
 40
0.0
 40
0.0
 40
0.1522999336
 40
0.2961923591
 40
0.4313741822
 40
0.5579660902
 40
0.6765950501
 40
0.7333244253
 40
0.7885660861
 40
0.8425630679
 40
0.8955924177
 40
0.9479656985
 40
1.0
 40
1.0
 40
1.0
 40
1.0
 10
14.7822960349
 20
12.9354723752
 30
0.0
 10
14.781546377
 20
12.9353775525
 30
0.0
 10
14.7800951665
 20
12.9351314176
 30
0.0
 10
14.7780258213
 20
12.934571309
 30
0.0
 10
14.7761471974
 20
12.9338363405
 30
0.0
 10
14.774483119
 20
12.9329348191
 30
0.0
 10
14.7732745319
 20
12.9320388229
 30
0.0
 10
14.7724444981
 20
12.9312496989
 30
0.0
 10
14.7718973203
 20
12.9306329159
 30
0.0
 10
14.7714182401
 20
12.9299845074
 30
0.0
 10
14.7710088739
 20
12.9293064404
 30
0.0
 10
14.7706706956
 20
12.928601026
 30
0.0
 10
14.7704932054
 20
12.9281133162
 30
0.0
 10
14.7704169768
 20
12.9278666603
 30
0.0
  0
LINE
  5
30E
100
AcDbEntity
  8
LAYER_FEATURE
100
AcDbLine
 62
7
  6
CONTINUOUS
 10
14.8018358884
 20
12.9976821256
 11
14.8009308519
 21
12.9957343015
  0
SPLINE
  5
30F
100
AcDbEntity
  8
LAYER_FEATURE
100
AcDbSpline
 62
7
  6
CONTINUOUS
 70
0
 71
3
 72
22
 73
18
 74
0
 42
0.0000001
 43
0.0000001
 44
0.0000000001
 40
0.0
 40
0.0
 40
0.0
 40
0.0
 40
0.1496398559
 40
0.2230996379
 40
0.2952824355
 40
0.3659337165
 40
0.434822304
 40
0.5017405479
 40
0.5665098987
 40
0.6289859373
 40
0.6890639714
 40
0.7466853264
 40
0.8018442823
 40
0.8545959622
 40
0.9050610643
 40
0.9534397787
 40
1.0
 40
1.0
 40
1.0
 40
1.0
 10
14.8471108913
 20
13.0322090727
 30
0.0
 10
14.845940238
 20
13.03248811
 30
0.0
 10
14.8441753515
 20
13.0328285457
 30
0.0
 10
14.8418175833
 20
13.0331170412
 30
0.0
 10
14.8400822067
 20
13.0332467686
 30
0.0
 10
14.8383793263
 20
13.0332903776
 30
0.0
 10
14.8367187055
 20
13.0332476191
 30
0.0
 10
14.8351099283
 20
13.0331187233
 30
0.0
 10
14.8335622481
 20
13.0329044127
 30
0.0
 10
14.8320845599
 20
13.0326058839
 30
0.0
 10
14.830685345
 20
13.0322247915
 30
0.0
 10
14.829372634
 20
13.0317632304
 30
0.0
 10
14.8281539579
 20
13.0312237142
 30
0.0
 10
14.8270363726
 20
13.0306091625
 30
0.0
 10
14.8260263077
 20
13.0299228359
 30
0.0
 10
14.8251299632
 20
13.0291685543
 30
0.0
 10
14.8246027249
 20
13.0286134839
 30
0.0
 10
14.8243618335
 20
13.0283268041
 30
0.0
  0
SPLINE
  5
310
100
AcDbEntity
  8
LAYER_FEATURE
100
AcDbSpline
 62
7
  6
CONTINUOUS
 70
0
 71
3
 72
14
 73
10
 74
0
 42
0.0000001
 43
0.0000001
 44
0.0000000001
 40
0.0
 40
0.0
 40
0.0
 40
0.0
 40
0.265513864
 40
0.3932865863
 40
0.5182187769
 40
0.6408019895
 40
0.761569073
 40
0.8810979495
 40
1.0
 40
1.0
 40
1.0
 40
1.0
 10
14.8860661176
 20
13.0850842063
 30
0.0
 10
14.8856443572
 20
13.0847793068
 30
0.0
 10
14.8850477648
 20
13.0842856456
 30
0.0
 10
14.8843433629
 20
13.0835527588
 30
0.0
 10
14.8838763361
 20
13.082983357
 30
0.0
 10
14.8834653826
 20
13.0823888857
 30
0.0
 10
14.8831115674
 20
13.0817708276
 30
0.0
 10
14.8828159304
 20
13.081130898
 30
0.0
 10
14.8826579773
 20
13.0806902837
 30
0.0
 10
14.8825891697
 20
13.0804676151
 30
0.0
  0
SPLINE
  5
311
100
AcDbEntity
  8
LAYER_FEATURE
100
AcDbSpline
 62
7
  6
CONTINUOUS
 70
0
 71
3
 72
20
 73
16
 74
0
 42
0.0000001
 43
0.0000001
 44
0.0000000001
 40
0.0
 40
0.0
 40
0.0
 40
0.0
 40
0.1389789483
 40
0.2777345894
 40
0.4141232602
 40
0.4808054654
 40
0.5461484432
 40
0.6099333966
 40
0.6719626078
 40
0.7320635842
 40
0.7900936654
 40
0.845945719
 40
0.8995510459
 40
0.9508936249
 40
1.0
 40
1.0
 40
1.0
 40
1.0
 10
14.9477660972
 20
13.1080838818
 30
0.0
 10
14.9466354398
 20
13.1085334005
 30
0.0
 10
14.9443349662
 20
13.1093322144
 30
0.0
 10
14.9408157585
 20
13.1102213655
 30
0.0
 10
14.937856426
 20
13.1106963935
 30
0.0
 10
14.9355150265
 20
13.1109049359
 30
0.0
 10
14.9338014148
 20
13.1109742227
 30
0.0
 10
14.9321272074
 20
13.1109571737
 30
0.0
 10
14.9305020117
 20
13.1108538689
 30
0.0
 10
14.9289351978
 20
13.1106648824
 30
0.0
 10
14.9274357644
 20
13.1103912697
 30
0.0
 10
14.9260123467
 20
13.1100345499
 30
0.0
 10
14.9246730352
 20
13.1095966924
 30
0.0
 10
14.9234257001
 20
13.1090801327
 30
0.0
 10
14.9226429899
 20
13.1086762666
 30
0.0
 10
14.9222705766
 20
13.1084614684
 30
0.0
  0
SPLINE
  5
312
100
AcDbEntity
  8
LAYER_FEATURE
100
AcDbSpline
 62
7
  6
CONTINUOUS
 70
0
 71
3
 72
15
 73
11
 74
0
 42
0.0000001
 43
0.0000001
 44
0.0000000001
 40
0.0
 40
0.0
 40
0.0
 40
0.0
 40
0.128181693
 40
0.2567400631
 40
0.3850121722
 40
0.5123494531
 40
0.6381116095
 40
0.7616855011
 40
0.8824922788
 40
1.0
 40
1.0
 40
1.0
 40
1.0
 10
14.9727671204
 20
13.0981441538
 30
0.0
 10
14.9734136574
 20
13.0978871083
 30
0.0
 10
14.9747219118
 20
13.0974049996
 30
0.0
 10
14.9767172254
 20
13.096780905
 30
0.0
 10
14.9787368063
 20
13.0962582442
 30
0.0
 10
14.9807652804
 20
13.0958409861
 30
0.0
 10
14.9827873273
 20
13.0955322903
 30
0.0
 10
14.9847876696
 20
13.0953344897
 30
0.0
 10
14.9867510952
 20
13.0952490845
 30
0.0
 10
14.9880454305
 20
13.0952678037
 30
0.0
 10
14.9886825866
 20
13.0952969607
 30
0.0
  0
SPLINE
  5
313
100
AcDbEntity
  8
LAYER_FEATURE
100
AcDbSpline
 62
7
  6
CONTINUOUS
 70
0
 71
3
 72
17
 73
13
 74
0
 42
0.0000001
 43
0.0000001
 44
0.0000000001
 40
0.0
 40
0.0
 40
0.0
 40
0.0
 40
0.1445772837
 40
0.2824046132
 40
0.4137510641
 40
0.4771725449
 40
0.5391873804
 40
0.6593701863
 40
0.7753631151
 40
0.8322026415
 40
0.8884775663
 40
1.0
 40
1.0
 40
1.0
 40
1.0
 10
15.0103270928
 20
13.1484047927
 30
0.0
 10
15.0098655015
 20
13.1482427092
 30
0.0
 10
15.0089758461
 20
13.1478901534
 30
0.0
 10
15.0077236562
 20
13.1472597085
 30
0.0
 10
15.0067710549
 20
13.1466562368
 30
0.0
 10
15.0060772793
 20
13.146132415
 30
0.0
 10
15.0054431157
 20
13.1455946133
 30
0.0
 10
15.0047319039
 20
13.1448751156
 30
0.0
 10
15.0041290349
 20
13.1440840006
 30
0.0
 10
15.0037248003
 20
13.1434217873
 30
0.0
 10
15.0033746425
 20
13.1427466293
 30
0.0
 10
15.0031673297
 20
13.1422152973
 30
0.0
 10
15.0030559127
 20
13.1418547498
 30
0.0
  0
SPLINE
  5
314
100
AcDbEntity
  8
LAYER_FEATURE
100
AcDbSpline
 62
7
  6
CONTINUOUS
 70
0
 71
3
 72
19
 73
15
 74
0
 42
0.0000001
 43
0.0000001
 44
0.0000000001
 40
0.0
 40
0.0
 40
0.0
 40
0.0
 40
0.1278310806
 40
0.2587858629
 40
0.3908646938
 40
0.5220120351
 40
0.5866202959
 40
0.6502508993
 40
0.7126754709
 40
0.7736809309
 40
0.833073759
 40
0.8906808894
 40
0.9463628558
 40
1.0
 40
1.0
 40
1.0
 40
1.0
 10
15.0845752126
 20
13.1584320425
 30
0.0
 10
15.0835577634
 20
13.1590277948
 30
0.0
 10
15.0814379141
 20
13.1601336928
 30
0.0
 10
15.0781006156
 20
13.1615088736
 30
0.0
 10
15.0746270968
 20
13.1625977415
 30
0.0
 10
15.0716699339
 20
13.1632490795
 30
0.0
 10
15.0693033738
 20
13.1636046149
 30
0.0
 10
15.0675534397
 20
13.1637852732
 30
0.0
 10
15.0658300427
 20
13.1638802118
 30
0.0
 10
15.0641430825
 20
13.1638888764
 30
0.0
 10
15.0625023183
 20
13.1638112014
 30
0.0
 10
15.0609171348
 20
13.163647637
 30
0.0
 10
15.0593967905
 20
13.1633990818
 30
0.0
 10
15.0584132028
 20
13.1631732868
 30
0.0
 10
15.0579352064
 20
13.1630457592
 30
0.0
  0
SPLINE
  5
315
100
AcDbEntity
  8
LAYER_FEATURE
100
AcDbSpline
 62
7
  6
CONTINUOUS
 70
0
 71
3
 72
17
 73
13
 74
0
 42
0.0000001
 43
0.0000001
 44
0.0000000001
 40
0.0
 40
0.0
 40
0.0
 40
0.0
 40
0.1263833699
 40
0.2557673731
 40
0.386449134
 40
0.5166681166
 40
0.6446835217
 40
0.7688451887
 40
0.8290259306
 40
0.8877037994
 40
0.9447399611
 40
1.0
 40
1.0
 40
1.0
 40
1.0
 10
15.1067854735
 20
13.1454271528
 30
0.0
 10
15.1077311051
 20
13.1448734522
 30
0.0
 10
15.109696688
 20
13.143839467
 30
0.0
 10
15.1127859472
 20
13.1425326507
 30
0.0
 10
15.1160028828
 20
13.1414705994
 30
0.0
 10
15.1192835322
 20
13.1406744905
 30
0.0
 10
15.122562792
 20
13.1401601144
 30
0.0
 10
15.1252686602
 20
13.1399726847
 30
0.0
 10
15.1273764688
 20
13.139975973
 30
0.0
 10
15.1289002935
 20
13.1400531688
 30
0.0
 10
15.1303756186
 20
13.1402047353
 30
0.0
 10
15.1313378835
 20
13.1403573695
 30
0.0
 10
15.1318086497
 20
13.1404465256
 30
0.0
  0
SPLINE
  5
316
100
AcDbEntity
  8
LAYER_FEATURE
100
AcDbSpline
 62
7
  6
CONTINUOUS
 70
0
 71
3
 72
18
 73
14
 74
0
 42
0.0000001
 43
0.0000001
 44
0.0000000001
 40
0.0
 40
0.0
 40
0.0
 40
0.0
 40
0.1525103535
 40
0.2965834586
 40
0.4318958718
 40
0.5585428176
 40
0.6771395163
 40
0.7338197441
 40
0.788991414
 40
0.8429008991
 40
0.8958289214
 40
0.9480851736
 40
1.0
 40
1.0
 40
1.0
 40
1.0
 10
15.1668110401
 20
13.1836652196
 30
0.0
 10
15.1660511048
 20
13.1835740226
 30
0.0
 10
15.1645796948
 20
13.1833339923
 30
0.0
 10
15.1624805431
 20
13.1827795917
 30
0.0
 10
15.160574193
 20
13.1820467135
 30
0.0
 10
15.1588852265
 20
13.1811437513
 30
0.0
 10
15.1576583128
 20
13.180243526
 30
0.0
 10
15.1568159329
 20
13.1794493444
 30
0.0
 10
15.1562608691
 20
13.1788282415
 30
0.0
 10
15.1557751096
 20
13.1781748244
 30
0.0
 10
15.1553603289
 20
13.1774911477
 30
0.0
 10
15.1550180003
 20
13.1767795941
 30
0.0
 10
15.1548386526
 20
13.1762874458
 30
0.0
 10
15.1547617267
 20
13.1760385216
 30
0.0
  0
SPLINE
  5
317
100
AcDbEntity
  8
LAYER_FEATURE
100
AcDbSpline
 62
7
  6
CONTINUOUS
 70
0
 71
3
 72
20
 73
16
 74
0
 42
0.0000001
 43
0.0000001
 44
0.0000000001
 40
0.0
 40
0.0
 40
0.0
 40
0.0
 40
0.0576909919
 40
0.1170603981
 40
0.1779197374
 40
0.2400729049
 40
0.3032998413
 40
0.3673696129
 40
0.4970321761
 40
0.6270915744
 40
0.7555271962
 40
0.8185403795
 40
0.8804291212
 40
0.9409839946
 40
1.0
 40
1.0
 40
1.0
 40
1.0
 10
15.2489420176
 20
13.1800899946
 30
0.0
 10
15.2485298201
 20
13.18043882
 30
0.0
 10
15.2476726772
 20
13.1811224159
 30
0.0
 10
15.2463161193
 20
13.1820896015
 30
0.0
 10
15.2448767474
 20
13.1830087527
 30
0.0
 10
15.2433629937
 20
13.1838745306
 30
0.0
 10
15.2417835044
 20
13.1846819734
 30
0.0
 10
15.2395937054
 20
13.185678318
 30
0.0
 10
15.2367533694
 20
13.1867477282
 30
0.0
 10
15.2332509716
 20
13.1877296841
 30
0.0
 10
15.2302890709
 20
13.1882863883
 30
0.0
 10
15.2279332764
 20
13.1885627918
 30
0.0
 10
15.226200881
 20
13.1886833354
 30
0.0
 10
15.2245020995
 20
13.188717702
 30
0.0
 10
15.2233828411
 20
13.1886825553
 30
0.0
 10
15.2228314154
 20
13.1886499447
 30
0.0
  0
SPLINE
  5
318
100
AcDbEntity
  8
LAYER_FEATURE
100
AcDbSpline
 62
7
  6
CONTINUOUS
 70
0
 71
3
 72
17
 73
13
 74
0
 42
0.0000001
 43
0.0000001
 44
0.0000000001
 40
0.0
 40
0.0
 40
0.0
 40
0.0
 40
0.0574008685
 40
0.1163702206
 40
0.1767431788
 40
0.2383559257
 40
0.3645151505
 40
0.4932757094
 40
0.6229267874
 40
0.751721605
 40
0.8779466821
 40
1.0
 40
1.0
 40
1.0
 40
1.0
 10
15.2669659638
 20
13.1648370883
 30
0.0
 10
15.267349045
 20
13.1645129028
 30
0.0
 10
15.2681435854
 20
13.1638765718
 30
0.0
 10
15.2693972098
 20
13.162972169
 30
0.0
 10
15.2707235548
 20
13.1621086735
 30
0.0
 10
15.2725945122
 20
13.1610091912
 30
0.0
 10
15.2750717116
 20
13.1597671996
 30
0.0
 10
15.2781955598
 20
13.1585139618
 30
0.0
 10
15.2814326542
 20
13.1575108093
 30
0.0
 10
15.284718779
 20
13.1567776554
 30
0.0
 10
15.2879885506
 20
13.1563290215
 30
0.0
 10
15.2901602449
 20
13.1562233385
 30
0.0
 10
15.2912273323
 20
13.1562233385
 30
0.0
  0
SPLINE
  5
319
100
AcDbEntity
  8
LAYER_FEATURE
100
AcDbSpline
 62
7
  6
CONTINUOUS
 70
0
 71
3
 72
15
 73
11
 74
0
 42
0.0000001
 43
0.0000001
 44
0.0000000001
 40
0.0
 40
0.0
 40
0.0
 40
0.0
 40
0.1440864582
 40
0.2833439998
 40
0.4172886168
 40
0.545561731
 40
0.6679358633
 40
0.78434794
 40
0.8949224849
 40
1.0
 40
1.0
 40
1.0
 40
1.0
 10
15.3091149147
 20
13.1562233385
 30
0.0
 10
15.3097530366
 20
13.1562233385
 30
0.0
 10
15.3110082759
 20
13.1562599533
 30
0.0
 10
15.3128497432
 20
13.1564302404
 30
0.0
 10
15.3146065238
 20
13.1567137976
 30
0.0
 10
15.3162651362
 20
13.1571085354
 30
0.0
 10
15.3178129695
 20
13.1576115993
 30
0.0
 10
15.319238296
 20
13.1582194481
 30
0.0
 10
15.3205299797
 20
13.1589276275
 30
0.0
 10
15.3213144372
 20
13.1594768153
 30
0.0
 10
15.32167844
 20
13.1597667516
 30
0.0
  0
SPLINE
  5
31A
100
AcDbEntity
  8
LAYER_FEATURE
100
AcDbSpline
 62
7
  6
CONTINUOUS
 70
0
 71
3
 72
23
 73
19
 74
0
 42
0.0000001
 43
0.0000001
 44
0.0000000001
 40
0.0
 40
0.0
 40
0.0
 40
0.0
 40
0.0793111537
 40
0.1567923798
 40
0.2322145484
 40
0.3053977811
 40
0.3761818485
 40
0.4444467153
 40
0.5101142665
 40
0.5731544082
 40
0.6335920149
 40
0.6915135889
 40
0.7470739886
 40
0.8005011804
 40
0.8520989912
 40
0.9022445914
 40
0.9513788835
 40
1.0
 40
1.0
 40
1.0
 40
1.0
 10
15.3456854975
 20
13.1886499447
 30
0.0
 10
15.3451436279
 20
13.1886802322
 30
0.0
 10
15.3440708254
 20
13.1887154894
 30
0.0
 10
15.3424813816
 20
13.188690675
 30
0.0
 10
15.340937018
 20
13.1885876749
 30
0.0
 10
15.3394458926
 20
13.1884070575
 30
0.0
 10
15.3380157309
 20
13.1881497056
 30
0.0
 10
15.3366540015
 20
13.1878169325
 30
0.0
 10
15.3353677859
 20
13.1874104154
 30
0.0
 10
15.3341637796
 20
13.1869321807
 30
0.0
 10
15.3330482665
 20
13.186384592
 30
0.0
 10
15.3320271041
 20
13.1857703314
 30
0.0
 10
15.3311057144
 20
13.1850924069
 30
0.0
 10
15.330289086
 20
13.1843541405
 30
0.0
 10
15.3295817883
 20
13.1835592166
 30
0.0
 10
15.3289879238
 20
13.1827116517
 30
0.0
 10
15.3285110776
 20
13.1818161571
 30
0.0
 10
15.3282726036
 20
13.1811889159
 30
0.0
 10
15.328174376
 20
13.180871039
 30
0.0
  0
SPLINE
  5
31B
100
AcDbEntity
  8
LAYER_FEATURE
100
AcDbSpline
 62
7
  6
CONTINUOUS
 70
0
 71
3
 72
19
 73
15
 74
0
 42
0.0000001
 43
0.0000001
 44
0.0000000001
 40
0.0
 40
0.0
 40
0.0
 40
0.0
 40
0.0524588369
 40
0.1070442627
 40
0.1636643883
 40
0.2222029092
 40
0.2825061977
 40
0.3443966077
 40
0.4076737485
 40
0.4721189876
 40
0.6035360329
 40
0.7366979146
 40
0.869535946
 40
1.0
 40
1.0
 40
1.0
 40
1.0
 10
15.4305387414
 20
13.1716968893
 30
0.0
 10
15.430246687
 20
13.1720771547
 30
0.0
 10
15.4296214882
 20
13.1728309906
 30
0.0
 10
15.4285903125
 20
13.1739160438
 30
0.0
 10
15.427452567
 20
13.174972252
 30
0.0
 10
15.4262149383
 20
13.1759934986
 30
0.0
 10
15.4248844961
 20
13.1769739534
 30
0.0
 10
15.4234689424
 20
13.1779079656
 30
0.0
 10
15.4219764099
 20
13.1787901844
 30
0.0
 10
15.4198818826
 20
13.1798976297
 30
0.0
 10
15.4171285183
 20
13.1811180332
 30
0.0
 10
15.4136873238
 20
13.1822950324
 30
0.0
 10
15.4101656939
 20
13.1831674332
 30
0.0
 10
15.4077838026
 20
13.1835379285
 30
0.0
 10
15.4065981683
 20
13.1836652196
 30
0.0
  0
SPLINE
  5
31C
100
AcDbEntity
  8
LAYER_FEATURE
100
AcDbSpline
 62
7
  6
CONTINUOUS
 70
0
 71
3
 72
18
 73
14
 74
0
 42
0.0000001
 43
0.0000001
 44
0.0000000001
 40
0.0
 40
0.0
 40
0.0
 40
0.0
 40
0.0525340712
 40
0.1070586124
 40
0.1634933485
 40
0.2217446279
 40
0.2816849514
 40
0.3431664055
 40
0.4700371073
 40
0.6008804353
 40
0.7340112862
 40
0.8676495476
 40
1.0
 40
1.0
 40
1.0
 40
1.0
 10
15.443243862
 20
13.1551543627
 30
0.0
 10
15.443515187
 20
13.1548010878
 30
0.0
 10
15.4440933312
 20
13.154100226
 30
0.0
 10
15.4450418201
 20
13.1530881091
 30
0.0
 10
15.4460833735
 20
13.152100195
 30
0.0
 10
15.447212661
 20
13.1511414537
 30
0.0
 10
15.4484241295
 20
13.1502166005
 30
0.0
 10
15.4501588751
 20
13.1490224782
 30
0.0
 10
15.4524947686
 20
13.1476474407
 30
0.0
 10
15.4554887456
 20
13.1462178004
 30
0.0
 10
15.4586440809
 20
13.1450194368
 30
0.0
 10
15.4618977991
 20
13.144076244
 30
0.0
 10
15.4641108156
 20
13.1436257006
 30
0.0
 10
15.4652189918
 20
13.1434487238
 30
0.0
  0
SPLINE
  5
31D
100
AcDbEntity
  8
LAYER_FEATURE
100
AcDbSpline
 62
7
  6
CONTINUOUS
 70
0
 71
3
 72
22
 73
18
 74
0
 42
0.0000001
 43
0.0000001
 44
0.0000000001
 40
0.0
 40
0.0
 40
0.0
 40
0.0
 40
0.1516010559
 40
0.2254807096
 40
0.2977782436
 40
0.3682924264
 40
0.4368470219
 40
0.5032914457
 40
0.5675041842
 40
0.6293980305
 40
0.6889251366
 40
0.7460820496
 40
0.8009156201
 40
0.8535284634
 40
0.9040826168
 40
0.9528117071
 40
1.0
 40
1.0
 40
1.0
 40
1.0
 10
15.4840178678
 20
13.1404465256
 30
0.0
 10
15.4851006084
 20
13.1402736109
 30
0.0
 10
15.4867229905
 20
13.1400830922
 30
0.0
 10
15.4888746089
 20
13.1399769338
 30
0.0
 10
15.4904424658
 20
13.1399727121
 30
0.0
 10
15.4919701831
 20
13.1400432527
 30
0.0
 10
15.4934501826
 20
13.140188206
 30
0.0
 10
15.4948750737
 20
13.1404068625
 30
0.0
 10
15.496237765
 20
13.1406981664
 30
0.0
 10
15.4975314724
 20
13.1410607179
 30
0.0
 10
15.4987497631
 20
13.1414927729
 30
0.0
 10
15.4998865752
 20
13.1419922702
 30
0.0
 10
15.5009362326
 20
13.14255686
 30
0.0
 10
15.5018934214
 20
13.1431838912
 30
0.0
 10
15.5027533329
 20
13.1438704535
 30
0.0
 10
15.5035112968
 20
13.1446131788
 30
0.0
 10
15.5039521934
 20
13.1451510213
 30
0.0
 10
15.5041527703
 20
13.1454271528
 30
0.0
  0
SPLINE
  5
31E
100
AcDbEntity
  8
LAYER_FEATURE
100
AcDbSpline
 62
7
  6
CONTINUOUS
 70
0
 71
3
 72
22
 73
18
 74
0
 42
0.0000001
 43
0.0000001
 44
0.0000000001
 40
0.0
 40
0.0
 40
0.0
 40
0.0
 40
0.1513270806
 40
0.2253635872
 40
0.2979496155
 40
0.3688374421
 40
0.4378055843
 40
0.5046592117
 40
0.569236076
 40
0.631411943
 40
0.6911066467
 40
0.7482908544
 40
0.8029934111
 40
0.8553094117
 40
0.9054046755
 40
0.9535285684
 40
1.0
 40
1.0
 40
1.0
 40
1.0
 10
15.535711125
 20
13.1630457592
 30
0.0
 10
15.5345411258
 20
13.1632931353
 30
0.0
 10
15.532781078
 20
13.1635856249
 30
0.0
 10
15.5304364337
 20
13.1638081329
 30
0.0
 10
15.5287186674
 20
13.1638879767
 30
0.0
 10
15.5270391221
 20
13.1638814934
 30
0.0
 10
15.5254074209
 20
13.1637887178
 30
0.0
 10
15.5238329744
 20
13.1636101635
 30
0.0
 10
15.5223248312
 20
13.1633468306
 30
0.0
 10
15.5208916524
 20
13.163000185
 30
0.0
 10
15.5195416601
 20
13.1625721396
 30
0.0
 10
15.5182826051
 20
13.1620650352
 30
0.0
 10
15.5171217247
 20
13.1614816169
 30
0.0
 10
15.5160657748
 20
13.1608250279
 30
0.0
 10
15.515120888
 20
13.1600987424
 30
0.0
 10
15.5142929646
 20
13.1593068333
 30
0.0
 10
15.5138151132
 20
13.1587291697
 30
0.0
 10
15.5135992854
 20
13.1584320425
 30
0.0
  0
SPLINE
  5
31F
100
AcDbEntity
  8
LAYER_FEATURE
100
AcDbSpline
 62
7
  6
CONTINUOUS
 70
0
 71
3
 72
21
 73
17
 74
0
 42
0.0000001
 43
0.0000001
 44
0.0000000001
 40
0.0
 40
0.0
 40
0.0
 40
0.0
 40
0.0986259898
 40
0.151373977
 40
0.2064289676
 40
0.2637577689
 40
0.3232831213
 40
0.3848872044
 40
0.4484178437
 40
0.5136935853
 40
0.5805082356
 40
0.6486349467
 40
0.7178299896
 40
0.7878372409
 40
0.8583877345
 40
1.0
 40
1.0
 40
1.0
 40
1.0
 10
15.6179549938
 20
13.1337800965
 30
0.0
 10
15.6176451301
 20
13.1345699365
 30
0.0
 10
15.6170444154
 20
13.1357356745
 30
0.0
 10
15.6160470959
 20
13.1372059579
 30
0.0
 10
15.6151627362
 20
13.1383195466
 30
0.0
 10
15.6141644166
 20
13.1394120083
 30
0.0
 10
15.6130577327
 20
13.1404774599
 30
0.0
 10
15.6118491156
 20
13.1415097266
 30
0.0
 10
15.6105455205
 20
13.1425029232
 30
0.0
 10
15.6091544685
 20
13.143451338
 30
0.0
 10
15.6076839842
 20
13.1443495119
 30
0.0
 10
15.606142551
 20
13.145192265
 30
0.0
 10
15.6045390893
 20
13.1459747274
 30
0.0
 10
15.6028828036
 20
13.1466923984
 30
0.0
 10
15.6006145007
 20
13.1475582428
 30
0.0
 10
15.5988674395
 20
13.1480969793
 30
0.0
 10
15.5976887241
 20
13.1484047927
 30
0.0
  0
SPLINE
  5
320
100
AcDbEntity
  8
LAYER_FEATURE
100
AcDbSpline
 62
7
  6
CONTINUOUS
 70
0
 71
3
 72
19
 73
15
 74
0
 42
0.0000001
 43
0.0000001
 44
0.0000000001
 40
0.0
 40
0.0
 40
0.0
 40
0.0
 40
0.0993248815
 40
0.1522015943
 40
0.2072471031
 40
0.2644428131
 40
0.3237327287
 40
0.385026779
 40
0.4482049419
 40
0.513121505
 40
0.5796084159
 40
0.7164962319
 40
0.8572363366
 40
1.0
 40
1.0
 40
1.0
 40
1.0
 10
15.6245429795
 20
13.1169873772
 30
0.0
 10
15.6248303983
 20
13.1162547492
 30
0.0
 10
15.6253783455
 20
13.1151720995
 30
0.0
 10
15.6262813697
 20
13.1137997826
 30
0.0
 10
15.6270771966
 20
13.11275986
 30
0.0
 10
15.6279730437
 20
13.1117366426
 30
0.0
 10
15.6289645489
 20
13.1107349117
 30
0.0
 10
15.6300467152
 20
13.10975969
 30
0.0
 10
15.6312141484
 20
13.1088158039
 30
0.0
 10
15.6324610404
 20
13.107907932
 30
0.0
 10
15.6342382535
 20
13.10674033
 30
0.0
 10
15.6366188619
 20
13.1054029565
 30
0.0
 10
15.6396547086
 20
13.1040237105
 30
0.0
 10
15.6417718336
 20
13.1032641086
 30
0.0
 10
15.6428510923
 20
13.1029253576
 30
0.0
  0
SPLINE
  5
321
100
AcDbEntity
  8
LAYER_FEATURE
100
AcDbSpline
 62
7
  6
CONTINUOUS
 70
0
 71
3
 72
19
 73
15
 74
0
 42
0.0000001
 43
0.0000001
 44
0.0000000001
 40
0.0
 40
0.0
 40
0.0
 40
0.0
 40
0.1421348745
 40
0.2824615678
 40
0.4191479739
 40
0.4856095801
 40
0.5505479073
 40
0.6137914101
 40
0.6751900204
 40
0.7346184123
 40
0.7919801626
 40
0.8472117592
 40
0.9002858087
 40
1.0
 40
1.0
 40
1.0
 40
1.0
 10
15.6613800594
 20
13.0971096004
 30
0.0
 10
15.6624601128
 20
13.0967705999
 30
0.0
 10
15.6646347768
 20
13.0961833323
 30
0.0
 10
15.6679213013
 20
13.0955783577
 30
0.0
 10
15.6706478643
 20
13.0953126773
 30
0.0
 10
15.672782788
 20
13.0952521662
 30
0.0
 10
15.6743333351
 20
13.0952820128
 30
0.0
 10
15.6758402525
 20
13.095386503
 30
0.0
 10
15.6772960512
 20
13.0955651293
 30
0.0
 10
15.6786934919
 20
13.095817027
 30
0.0
 10
15.6800255473
 20
13.0961409461
 30
0.0
 10
15.6812858385
 20
13.0965354617
 30
0.0
 10
15.6828290491
 20
13.0971399777
 30
0.0
 10
15.6839121218
 20
13.0977104265
 30
0.0
 10
15.6845773749
 20
13.0981441538
 30
0.0
  0
SPLINE
  5
322
100
AcDbEntity
  8
LAYER_FEATURE
100
AcDbSpline
 62
7
  6
CONTINUOUS
 70
0
 71
3
 72
19
 73
15
 74
0
 42
0.0000001
 43
0.0000001
 44
0.0000000001
 40
0.0
 40
0.0
 40
0.0
 40
0.0
 40
0.1409439932
 40
0.2810256124
 40
0.4180955431
 40
0.4848844256
 40
0.5501857536
 40
0.6137898053
 40
0.6755106149
 40
0.7351904043
 40
0.7927045299
 40
0.8479675522
 40
0.9009365859
 40
1.0
 40
1.0
 40
1.0
 40
1.0
 10
15.7249479135
 20
13.1084614684
 30
0.0
 10
15.7238048381
 20
13.1088824535
 30
0.0
 10
15.7214876148
 20
13.1096223589
 30
0.0
 10
15.7179587952
 20
13.1104194286
 30
0.0
 10
15.7150077598
 20
13.1108137691
 30
0.0
 10
15.7126850437
 20
13.1109556297
 30
0.0
 10
15.710993077
 20
13.1109748554
 30
0.0
 10
15.709346142
 20
13.1109077369
 30
0.0
 10
15.7077536909
 20
13.1107546396
 30
0.0
 10
15.7062248703
 20
13.1105164052
 30
0.0
 10
15.704768552
 20
13.1101944057
 30
0.0
 10
15.7033927723
 20
13.1097902648
 30
0.0
 10
15.7017150538
 20
13.1091595777
 30
0.0
 10
15.7005401837
 20
13.1085514808
 30
0.0
 10
15.6998229781
 20
13.1080838818
 30
0.0
  0
SPLINE
  5
323
100
AcDbEntity
  8
LAYER_FEATURE
100
AcDbSpline
 62
7
  6
CONTINUOUS
 70
0
 71
3
 72
22
 73
18
 74
0
 42
0.0000001
 43
0.0000001
 44
0.0000000001
 40
0.0
 40
0.0
 40
0.0
 40
0.0
 40
0.0464736515
 40
0.0945343009
 40
0.1445188807
 40
0.1966945664
 40
0.2512437872
 40
0.3082765213
 40
0.367834586
 40
0.4298997255
 40
0.4944010798
 40
0.561222114
 40
0.6302068395
 40
0.7011653966
 40
0.7738801192
 40
0.8481060405
 40
1.0
 40
1.0
 40
1.0
 40
1.0
 10
15.7994147226
 20
13.0687220675
 30
0.0
 10
15.7994134236
 20
13.069087033
 30
0.0
 10
15.7993635005
 20
13.0698299449
 30
0.0
 10
15.799154
 20
13.0709477333
 30
0.0
 10
15.7988104819
 20
13.0720786434
 30
0.0
 10
15.7983353814
 20
13.0732159676
 30
0.0
 10
15.7977316739
 20
13.0743533729
 30
0.0
 10
15.7970030341
 20
13.0754844481
 30
0.0
 10
15.7961537581
 20
13.0766028366
 30
0.0
 10
15.7951887952
 20
13.0777022203
 30
0.0
 10
15.7941137272
 20
13.0787763606
 30
0.0
 10
15.7929347555
 20
13.0798191324
 30
0.0
 10
15.7916586702
 20
13.0808245686
 30
0.0
 10
15.7902928426
 20
13.0817868911
 30
0.0
 10
15.7888450981
 20
13.0827005909
 30
0.0
 10
15.7868014624
 20
13.0838556132
 30
0.0
 10
15.7851948201
 20
13.0846196047
 30
0.0
 10
15.7840961606
 20
13.0850842063
 30
0.0
  0
SPLINE
  5
324
100
AcDbEntity
  8
LAYER_FEATURE
100
AcDbSpline
 62
7
  6
CONTINUOUS
 70
0
 71
3
 72
22
 73
18
 74
0
 42
0.0000001
 43
0.0000001
 44
0.0000000001
 40
0.0
 40
0.0
 40
0.0
 40
0.0
 40
0.0472110723
 40
0.0959004248
 40
0.1463682587
 40
0.1988640832
 40
0.2535649362
 40
0.3105870818
 40
0.3699894552
 40
0.4317790972
 40
0.4959171307
 40
0.5623239094
 40
0.6308842016
 40
0.7014525583
 40
0.7738568428
 40
0.8478989677
 40
1.0
 40
1.0
 40
1.0
 40
1.0
 10
15.7994716259
 20
13.0527343039
 30
0.0
 10
15.7994728332
 20
13.0523951086
 30
0.0
 10
15.7995160529
 20
13.051705682
 30
0.0
 10
15.7996974222
 20
13.0506679146
 30
0.0
 10
15.7999949895
 20
13.0496178603
 30
0.0
 10
15.8004069145
 20
13.0485609464
 30
0.0
 10
15.8009309745
 20
13.0475022917
 30
0.0
 10
15.8015643846
 20
13.0464470864
 30
0.0
 10
15.8023038904
 20
13.0454004777
 30
0.0
 10
15.8031457562
 20
13.044367596
 30
0.0
 10
15.8040857594
 20
13.043353524
 30
0.0
 10
15.80511919
 20
13.0423632648
 30
0.0
 10
15.8062408861
 20
13.0414017163
 30
0.0
 10
15.8074452385
 20
13.0404736659
 30
0.0
 10
15.8087262739
 20
13.0395837141
 30
0.0
 10
15.8105439521
 20
13.0384438343
 30
0.0
 10
15.8119784854
 20
13.0376750896
 30
0.0
 10
15.8129623557
 20
13.0371994719
 30
0.0
  0
SPLINE
  5
325
100
AcDbEntity
  8
LAYER_FEATURE
100
AcDbSpline
 62
7
  6
CONTINUOUS
 70
0
 71
3
 72
18
 73
14
 74
0
 42
0.0000001
 43
0.0000001
 44
0.0000000001
 40
0.0
 40
0.0
 40
0.0
 40
0.0
 40
0.1317085405
 40
0.2648946064
 40
0.3977704725
 40
0.5285555979
 40
0.6555560598
 40
0.7171672974
 40
0.7772767527
 40
0.8357325654
 40
0.8924024806
 40
0.9471872645
 40
1.0
 40
1.0
 40
1.0
 40
1.0
 10
15.8300571707
 20
13.0289355812
 30
0.0
 10
15.831065636
 20
13.0284480739
 30
0.0
 10
15.8331367371
 20
13.0275539079
 30
0.0
 10
15.8363446295
 20
13.0264691817
 30
0.0
 10
15.839622279
 20
13.0256486097
 30
0.0
 10
15.8429042769
 20
13.0251085901
 30
0.0
 10
15.8456165164
 20
13.0248990828
 30
0.0
 10
15.8477324082
 20
13.0248843796
 30
0.0
 10
15.8492640491
 20
13.024948258
 30
0.0
 10
15.8507485897
 20
13.0250865969
 30
0.0
 10
15.8521787265
 20
13.0252987128
 30
0.0
 10
15.8535471911
 20
13.0255835886
 30
0.0
 10
15.8544304603
 20
13.0258256138
 30
0.0
 10
15.8548593266
 20
13.0259590561
 30
0.0
  0
SPLINE
  5
326
100
AcDbEntity
  8
LAYER_FEATURE
100
AcDbSpline
 62
7
  6
CONTINUOUS
 70
0
 71
3
 72
19
 73
15
 74
0
 42
0.0000001
 43
0.0000001
 44
0.0000000001
 40
0.0
 40
0.0
 40
0.0
 40
0.0
 40
0.1297805709
 40
0.2621319443
 40
0.3950161132
 40
0.5263668075
 40
0.5908559256
 40
0.6542260099
 40
0.7162557277
 40
0.7767412018
 40
0.835500446
 40
0.8923745356
 40
0.9472408634
 40
1.0
 40
1.0
 40
1.0
 40
1.0
 10
15.9015054198
 20
13.0283268041
 30
0.0
 10
15.900462923
 20
13.0288990582
 30
0.0
 10
15.8983009625
 20
13.0299548803
 30
0.0
 10
15.8949161792
 20
13.0312499606
 30
0.0
 10
15.8914179502
 20
13.0322508036
 30
0.0
 10
15.8884563155
 20
13.0328241104
 30
0.0
 10
15.8860981451
 20
13.0331143878
 30
0.0
 10
15.8843623607
 20
13.0332454241
 30
0.0
 10
15.8826589053
 20
13.0332903611
 30
0.0
 10
15.8809975589
 20
13.0332489291
 30
0.0
 10
15.8793879269
 20
13.0331213488
 30
0.0
 10
15.8778392058
 20
13.0329083489
 30
0.0
 10
15.8763604444
 20
13.0326111098
 30
0.0
 10
15.8754077042
 20
13.0323527075
 30
0.0
 10
15.8749460805
 20
13.0322090727
 30
0.0
  0
SPLINE
  5
327
100
AcDbEntity
  8
LAYER_FEATURE
100
AcDbSpline
 62
7
  6
CONTINUOUS
 70
0
 71
3
 72
15
 73
11
 74
0
 42
0.0000001
 43
0.0000001
 44
0.0000000001
 40
0.0
 40
0.0
 40
0.0
 40
0.0
 40
0.1214419005
 40
0.2472184838
 40
0.37574468
 40
0.5053159858
 40
0.6341869308
 40
0.7606402912
 40
0.8830573137
 40
1.0
 40
1.0
 40
1.0
 40
1.0
 10
15.9794505985
 20
12.9402080923
 30
0.0
 10
15.9803213886
 20
12.9395996019
 30
0.0
 10
15.9821558904
 20
12.9384475616
 30
0.0
 10
15.9850861814
 20
12.93695036
 30
0.0
 10
15.9881970536
 20
12.9356758723
 30
0.0
 10
15.9914266083
 20
12.9346495244
 30
0.0
 10
15.9947109328
 20
12.9338916135
 30
0.0
 10
15.9979851057
 20
12.9334171435
 30
0.0
 10
16.0011839905
 20
12.9332354945
 30
0.0
 10
16.0032804798
 20
12.9333142096
 30
0.0
 10
16.0042991842
 20
12.9334075147
 30
0.0
  0
SPLINE
  5
328
100
AcDbEntity
  8
LAYER_FEATURE
100
AcDbSpline
 62
7
  6
CONTINUOUS
 70
0
 71
3
 72
19
 73
15
 74
0
 42
0.0000001
 43
0.0000001
 44
0.0000000001
 40
0.0
 40
0.0
 40
0.0
 40
0.0
 40
0.0586725025
 40
0.1189210564
 40
0.1805447493
 40
0.2433374338
 40
0.3714754343
 40
0.5014389766
 40
0.6312111848
 40
0.7587840629
 40
0.8211620832
 40
0.8822894353
 40
0.9419663916
 40
1.0
 40
1.0
 40
1.0
 40
1.0
 10
16.0542898862
 20
12.9276769217
 30
0.0
 10
16.053859235
 20
12.9280178578
 30
0.0
 10
16.052966832
 20
12.9286845409
 30
0.0
 10
16.0515613043
 20
12.9296245097
 30
0.0
 10
16.0500777047
 20
12.9305133541
 30
0.0
 10
16.04799327
 20
12.9316307652
 30
0.0
 10
16.0452494913
 20
12.9328648531
 30
0.0
 10
16.0418158317
 20
12.9340596824
 30
0.0
 10
16.0382967117
 20
12.9349513584
 30
0.0
 10
16.035337285
 20
12.9354284882
 30
0.0
 10
16.0329954563
 20
12.9356387863
 30
0.0
 10
16.0312812899
 20
12.9357094093
 30
0.0
 10
16.0296064507
 20
12.9356936796
 30
0.0
 10
16.0285059888
 20
12.935624662
 30
0.0
 10
16.0279649641
 20
12.9355751085
 30
0.0
  0
SPLINE
  5
329
100
AcDbEntity
  8
LAYER_FEATURE
100
AcDbSpline
 62
7
  6
CONTINUOUS
 70
0
 71
3
 72
17
 73
13
 74
0
 42
0.0000001
 43
0.0000001
 44
0.0000000001
 40
0.0
 40
0.0
 40
0.0
 40
0.0
 40
0.0549581963
 40
0.1117194631
 40
0.1701543874
 40
0.2301282747
 40
0.353997378
 40
0.4818985086
 40
0.6121929215
 40
0.7431430381
 40
0.872983772
 40
1.0
 40
1.0
 40
1.0
 40
1.0
 10
16.1001734043
 20
12.8365022083
 30
0.0
 10
16.1005049742
 20
12.8361611479
 30
0.0
 10
16.1012001625
 20
12.8354881456
 30
0.0
 10
16.1023141583
 20
12.834523868
 30
0.0
 10
16.1035114243
 20
12.8335926075
 30
0.0
 10
16.1052289941
 20
12.8323884158
 30
0.0
 10
16.1075467083
 20
12.8309989981
 30
0.0
 10
16.1105233802
 20
12.8295500044
 30
0.0
 10
16.1136667837
 20
12.828329981
 30
0.0
 10
16.1169145448
 20
12.8273631442
 30
0.0
 10
16.1202020589
 20
12.8266686673
 30
0.0
 10
16.1224112219
 20
12.8263921447
 30
0.0
 10
16.1235070916
 20
12.8263048834
 30
0.0
  0
SPLINE
  5
32A
100
AcDbEntity
  8
LAYER_FEATURE
100
AcDbSpline
 62
7
  6
CONTINUOUS
 70
0
 71
3
 72
19
 73
15
 74
0
 42
0.0000001
 43
0.0000001
 44
0.0000000001
 40
0.0
 40
0.0
 40
0.0
 40
0.0
 40
0.053327376
 40
0.1087224766
 40
0.1660724925
 40
0.225243657
 40
0.2860676802
 40
0.3483549279
 40
0.4118954096
 40
0.4764630993
 40
0.6076836941
 40
0.7400456169
 40
0.8714889434
 40
1.0
 40
1.0
 40
1.0
 40
1.0
 10
16.173701303
 20
12.8128360238
 30
0.0
 10
16.1733864108
 20
12.813212496
 30
0.0
 10
16.1727168565
 20
12.813957331
 30
0.0
 10
16.1716231534
 20
12.8150263683
 30
0.0
 10
16.1704266141
 20
12.8160630327
 30
0.0
 10
16.1691342615
 20
12.8170613175
 30
0.0
 10
16.1677534825
 20
12.8180155116
 30
0.0
 10
16.1662922726
 20
12.8189201097
 30
0.0
 10
16.1647590295
 20
12.8197699246
 30
0.0
 10
16.1626192788
 20
12.8208289137
 30
0.0
 10
16.1598236782
 20
12.8219831073
 30
0.0
 10
16.1563508966
 20
12.8230742399
 30
0.0
 10
16.1528209119
 20
12.8238542596
 30
0.0
 10
16.1504439223
 20
12.8241599732
 30
0.0
 10
16.1492648898
 20
12.8242538565
 30
0.0
  0
SPLINE
  5
32B
100
AcDbEntity
  8
LAYER_FEATURE
100
AcDbSpline
 62
7
  6
CONTINUOUS
 70
0
 71
3
 72
14
 73
10
 74
0
 42
0.0000001
 43
0.0000001
 44
0.0000000001
 40
0.0
 40
0.0
 40
0.0
 40
0.0
 40
0.1187387418
 40
0.2402408395
 40
0.3640522626
 40
0.4896871822
 40
0.6166374402
 40
0.7443726821
 40
1.0
 40
1.0
 40
1.0
 40
1.0
 10
16.1914662562
 20
12.7173012785
 30
0.0
 10
16.1919476113
 20
12.7169639814
 30
0.0
 10
16.1929403617
 20
12.716308055
 30
0.0
 10
16.1944935263
 20
12.7153927425
 30
0.0
 10
16.1961200995
 20
12.714539105
 30
0.0
 10
16.1978098543
 20
12.7137525102
 30
0.0
 10
16.1995523357
 20
12.7130378342
 30
0.0
 10
16.201931371
 20
12.7121867973
 30
0.0
 10
16.2037607073
 20
12.7116692428
 30
0.0
 10
16.2049927778
 20
12.7113808145
 30
0.0
  0
SPLINE
  5
32C
100
AcDbEntity
  8
LAYER_FEATURE
100
AcDbSpline
 62
7
  6
CONTINUOUS
 70
0
 71
3
 72
19
 73
15
 74
0
 42
0.0000001
 43
0.0000001
 44
0.0000000001
 40
0.0
 40
0.0
 40
0.0
 40
0.0
 40
0.0999012481
 40
0.153284297
 40
0.2089322175
 40
0.2667850143
 40
0.3267428539
 40
0.3886691242
 40
0.4523962573
 40
0.5177304512
 40
0.5844559113
 40
0.721094655
 40
0.860324856
 40
1.0
 40
1.0
 40
1.0
 40
1.0
 10
16.2522366116
 20
12.6910199861
 30
0.0
 10
16.2518740664
 20
12.6918116596
 30
0.0
 10
16.2511987079
 20
12.692974267
 30
0.0
 10
16.2501101413
 20
12.6944350501
 30
0.0
 10
16.249158938
 20
12.6955372723
 30
0.0
 10
16.2480970501
 20
12.6966147828
 30
0.0
 10
16.2469304251
 20
12.6976617288
 30
0.0
 10
16.2456658373
 20
12.6986720412
 30
0.0
 10
16.2443105728
 20
12.69963994
 30
0.0
 10
16.2428724227
 20
12.7005598816
 30
0.0
 10
16.2408396468
 20
12.7017244478
 30
0.0
 10
16.2381459514
 20
12.703023719
 30
0.0
 10
16.2347532944
 20
12.7043037608
 30
0.0
 10
16.2324094972
 20
12.7049625469
 30
0.0
 10
16.2312241369
 20
12.7052400404
 30
0.0
  0
SPLINE
  5
32D
100
AcDbEntity
  8
LAYER_FEATURE
100
AcDbSpline
 62
7
  6
CONTINUOUS
 70
0
 71
3
 72
22
 73
18
 74
0
 42
0.0000001
 43
0.0000001
 44
0.0000000001
 40
0.0
 40
0.0
 40
0.0
 40
0.0
 40
0.0465137432
 40
0.0947915255
 40
0.1451189247
 40
0.1977129865
 40
0.2527097599
 40
0.3101778959
 40
0.3701233296
 40
0.432497253
 40
0.4972032007
 40
0.5641035061
 40
0.633025054
 40
0.7037644456
 40
0.7760936925
 40
0.849760466
 40
1.0
 40
1.0
 40
1.0
 40
1.0
 10
16.2849611497
 20
12.5698829585
 30
0.0
 10
16.284933289
 20
12.5702537311
 30
0.0
 10
16.2848298127
 20
12.5710064641
 30
0.0
 10
16.2845423607
 20
12.5721325499
 30
0.0
 10
16.284122175
 20
12.5732679955
 30
0.0
 10
16.2835720841
 20
12.5744061363
 30
0.0
 10
16.2828954294
 20
12.57554065
 30
0.0
 10
16.2820962586
 20
12.5766651396
 30
0.0
 10
16.2811792414
 20
12.5777732708
 30
0.0
 10
16.2801496977
 20
12.5788587664
 30
0.0
 10
16.2790135718
 20
12.5799154501
 30
0.0
 10
16.2777774134
 20
12.5809372826
 30
0.0
 10
16.2764483427
 20
12.5819184057
 30
0.0
 10
16.2750340386
 20
12.5828531732
 30
0.0
 10
16.2735426082
 20
12.5837362271
 30
0.0
 10
16.2714494573
 20
12.5848448968
 30
0.0
 10
16.2698106976
 20
12.5855725598
 30
0.0
 10
16.2686929046
 20
12.5860117359
 30
0.0
  0
SPLINE
  5
32E
100
AcDbEntity
  8
LAYER_FEATURE
100
AcDbSpline
 62
7
  6
CONTINUOUS
 70
0
 71
3
 72
68
 73
64
 74
0
 42
0.0000001
 43
0.0000001
 44
0.0000000001
 40
0.0
 40
0.0
 40
0.0
 40
0.0
 40
0.0171788537
 40
0.0345306493
 40
0.0520446784
 40
0.069710489
 40
0.0875169164
 40
0.1054526098
 40
0.1235058943
 40
0.141664841
 40
0.1599172928
 40
0.1782508912
 40
0.1966531056
 40
0.2151112603
 40
0.2521425355
 40
0.2892430599
 40
0.3263089876
 40
0.3447973805
 40
0.363238365
 40
0.3816191842
 40
0.3999272074
 40
0.4181499576
 40
0.4362751398
 40
0.4542906695
 40
0.4721847017
 40
0.4899456595
 40
0.5075622643
 40
0.5250235667
 40
0.5423189792
 40
0.5594383084
 40
0.5763717881
 40
0.5931101137
 40
0.6096444786
 40
0.6259666121
 40
0.6420688199
 40
0.6579440233
 40
0.6735858016
 40
0.6889884364
 40
0.7041469583
 40
0.7190571972
 40
0.7337158328
 40
0.7481204459
 40
0.7622695735
 40
0.7761627646
 40
0.7898006393
 40
0.8031849488
 40
0.8163186321
 40
0.8292058734
 40
0.8418521573
 40
0.8542643197
 40
0.8664505941
 40
0.8784206484
 40
0.8901856074
 40
0.9017580635
 40
0.9131520681
 40
0.9243831024
 40
0.9354680247
 40
0.9464249873
 40
0.9572733262
 40
0.9680334213
 40
0.9787265285
 40
0.989374586
 40
1.0
 40
1.0
 40
1.0
 40
1.0
 10
15.2530510335
 20
13.286074051
 30
0.0
 10
15.2620811137
 20
13.286074051
 30
0.0
 10
15.2802327607
 20
13.2858753558
 30
0.0
 10
15.3075777729
 20
13.2849925003
 30
0.0
 10
15.3351540173
 20
13.2835241546
 30
0.0
 10
15.3629325105
 20
13.2814719024
 30
0.0
 10
15.3908844868
 20
13.2788378446
 30
0.0
 10
15.4189808028
 20
13.2756247386
 30
0.0
 10
15.4471922322
 20
13.2718359225
 30
0.0
 10
15.475489406
 20
13.2674753454
 30
0.0
 10
15.5038428804
 20
13.2625475462
 30
0.0
 10
15.5322231077
 20
13.2570576593
 30
0.0
 10
15.560600677
 20
13.2510113785
 30
0.0
 10
15.5984328055
 20
13.2422072334
 30
0.0
 10
15.6455212598
 20
13.2298524359
 30
0.0
 10
15.7014840868
 20
13.2129356732
 30
0.0
 10
15.7475642243
 20
13.1971273606
 30
0.0
 10
15.7839910029
 20
13.1834852287
 30
0.0
 10
15.8110248588
 20
13.1727818156
 30
0.0
 10
15.837765632
 20
13.1616097991
 30
0.0
 10
15.8641856068
 20
13.1499807519
 30
0.0
 10
15.8902572485
 20
13.1379067909
 30
0.0
 10
15.9159534277
 20
13.1254004799
 30
0.0
 10
15.9412473975
 20
13.1124748393
 30
0.0
 10
15.9661128326
 20
13.0991433218
 30
0.0
 10
15.9905238531
 20
13.0854198013
 30
0.0
 10
16.0144550522
 20
13.0713185576
 30
0.0
 10
16.0378815225
 20
13.0568542609
 30
0.0
 10
16.0607788867
 20
13.0420419624
 30
0.0
 10
16.0831233192
 20
13.0268970728
 30
0.0
 10
16.1048915699
 20
13.0114353455
 30
0.0
 10
16.1260609883
 20
12.9956728605
 30
0.0
 10
16.1466095464
 20
12.9796260066
 30
0.0
 10
16.1665158635
 20
12.9633114659
 30
0.0
 10
16.185759232
 20
12.9467461989
 30
0.0
 10
16.2043196329
 20
12.9299474206
 30
0.0
 10
16.2221777563
 20
12.9129325837
 30
0.0
 10
16.2393150207
 20
12.8957193602
 30
0.0
 10
16.255713591
 20
12.878325621
 30
0.0
 10
16.2713564024
 20
12.8607694217
 30
0.0
 10
16.2862271747
 20
12.8430689809
 30
0.0
 10
16.3003104244
 20
12.8252426588
 30
0.0
 10
16.3135914791
 20
12.8073089392
 30
0.0
 10
16.3260564907
 20
12.7892864103
 30
0.0
 10
16.3376924487
 20
12.7711937454
 30
0.0
 10
16.3484871994
 20
12.7530496884
 30
0.0
 10
16.3584294477
 20
12.7348730308
 30
0.0
 10
16.3675087659
 20
12.7166825956
 30
0.0
 10
16.375715602
 20
12.6984972209
 30
0.0
 10
16.3830412863
 20
12.6803357434
 30
0.0
 10
16.3894780452
 20
12.6622169856
 30
0.0
 10
16.3950190101
 20
12.6441597419
 30
0.0
 10
16.3996582178
 20
12.6261827631
 30
0.0
 10
16.4033906193
 20
12.6083047462
 30
0.0
 10
16.40621209
 20
12.5905443221
 30
0.0
 10
16.4081194396
 20
12.5729200427
 30
0.0
 10
16.4091104362
 20
12.5554503672
 30
0.0
 10
16.4091838131
 20
12.5381536497
 30
0.0
 10
16.4083392745
 20
12.5210480994
 30
0.0
 10
16.4065775342
 20
12.504151838
 30
0.0
 10
16.4039002363
 20
12.4874825812
 30
0.0
 10
16.4003103055
 20
12.4710586871
 30
0.0
 10
16.3973095066
 20
12.4602791473
 30
0.0
 10
16.395660476
 20
12.4549428741
 30
0.0
  0
SPLINE
  5
32F
100
AcDbEntity
  8
02___PRT_ALL_AXES
100
AcDbSpline
 62
7
  6
CONTINUOUS
 70
0
 71
3
 72
49
 73
45
 74
0
 42
0.0000001
 43
0.0000001
 44
0.0000000001
 40
0.0
 40
0.0
 40
0.0
 40
0.0
 40
0.0287824185
 40
0.0592111841
 40
0.0912305325
 40
0.1247564697
 40
0.1596816686
 40
0.1958784033
 40
0.2332016247
 40
0.271491469
 40
0.3105753966
 40
0.3502700503
 40
0.3903828502
 40
0.430713422
 40
0.4710550201
 40
0.5111960041
 40
0.5509214696
 40
0.590015189
 40
0.6282618212
 40
0.6654495786
 40
0.7013731322
 40
0.7358370112
 40
0.7686591398
 40
0.7844029279
 40
0.799676182
 40
0.814461761
 40
0.8287441618
 40
0.8425097926
 40
0.8557469639
 40
0.8684464279
 40
0.8806012574
 40
0.8922076028
 40
0.9032645674
 40
0.913775209
 40
0.9237465438
 40
0.933190752
 40
0.942125479
 40
0.9505752209
 40
0.958571977
 40
0.973364427
 40
0.9802866706
 40
0.9869790208
 40
0.9935213486
 40
1.0
 40
1.0
 40
1.0
 40
1.0
 10
15.8851262262
 20
12.2427968826
 30
0.0
 10
15.8857900497
 20
12.2414441525
 30
0.0
 10
15.8870465788
 20
12.2386068541
 30
0.0
 10
15.8886809618
 20
12.2341158331
 30
0.0
 10
15.8901107583
 20
12.2292961347
 30
0.0
 10
15.8913304123
 20
12.2241772259
 30
0.0
 10
15.8923369408
 20
12.2187898613
 30
0.0
 10
15.8931295503
 20
12.2131663517
 30
0.0
 10
15.893709605
 20
12.2073401469
 30
0.0
 10
15.8940804266
 20
12.2013456391
 30
0.0
 10
15.8942471003
 20
12.1952179486
 30
0.0
 10
15.8942162576
 20
12.1889927639
 30
0.0
 10
15.8939958486
 20
12.1827062083
 30
0.0
 10
15.8935949201
 20
12.1763947289
 30
0.0
 10
15.8930233933
 20
12.170094992
 30
0.0
 10
15.8922918525
 20
12.1638437701
 30
0.0
 10
15.8914113389
 20
12.1576778047
 30
0.0
 10
15.8903931542
 20
12.1516336377
 30
0.0
 10
15.8892486709
 20
12.1457473933
 30
0.0
 10
15.8879891511
 20
12.1400545325
 30
0.0
 10
15.8866255799
 20
12.1345895258
 30
0.0
 10
15.8851684919
 20
12.1293856375
 30
0.0
 10
15.8838672362
 20
12.1252372571
 30
0.0
 10
15.8827836389
 20
12.122075492
 30
0.0
 10
15.8819645906
 20
12.1198216722
 30
0.0
 10
15.8811289549
 20
12.1176557476
 30
0.0
 10
15.880277702
 20
12.1155809607
 30
0.0
 10
15.8794117684
 20
12.1136004013
 30
0.0
 10
15.8785320227
 20
12.111716993
 30
0.0
 10
15.8776392948
 20
12.109933494
 30
0.0
 10
15.876734338
 20
12.1082524904
 30
0.0
 10
15.8758178787
 20
12.1066763934
 30
0.0
 10
15.8748905527
 20
12.1052074459
 30
0.0
 10
15.8739529787
 20
12.103847705
 30
0.0
 10
15.8730056777
 20
12.1025990778
 30
0.0
 10
15.8720491317
 20
12.1014632651
 30
0.0
 10
15.8710838089
 20
12.1004419052
 30
0.0
 10
15.8701098154
 20
12.0995362447
 30
0.0
 10
15.8688339853
 20
12.0985118537
 30
0.0
 10
15.8675052413
 20
12.0976835161
 30
0.0
 10
15.8661355563
 20
12.0970979474
 30
0.0
 10
15.8651237773
 20
12.0967901372
 30
0.0
 10
15.8641061481
 20
12.0966051463
 30
0.0
 10
15.863423759
 20
12.0965640812
 30
0.0
 10
15.8630845854
 20
12.0965640782
 30
0.0
  0
SPLINE
  5
330
100
AcDbEntity
  8
LAYER_FEATURE
100
AcDbSpline
 62
7
  6
CONTINUOUS
 70
0
 71
3
 72
22
 73
18
 74
0
 42
0.0000001
 43
0.0000001
 44
0.0000000001
 40
0.0
 40
0.0
 40
0.0
 40
0.0
 40
0.1381197804
 40
0.2053664349
 40
0.2714549095
 40
0.3364371394
 40
0.400372579
 40
0.4633278449
 40
0.5253764087
 40
0.5865986111
 40
0.6470813103
 40
0.7069174443
 40
0.7662055009
 40
0.8250488566
 40
0.8835549595
 40
0.9418344164
 40
1.0
 40
1.0
 40
1.0
 40
1.0
 10
15.9850486773
 20
12.3336628042
 30
0.0
 10
15.9889093048
 20
12.3257956724
 30
0.0
 10
15.9942289459
 20
12.3138824528
 30
0.0
 10
16.0002961634
 20
12.297759703
 30
0.0
 10
16.004241365
 20
12.2858073491
 30
0.0
 10
16.0076172263
 20
12.2739002207
 30
0.0
 10
16.0104205593
 20
12.2620493602
 30
0.0
 10
16.0126485247
 20
12.25026619
 30
0.0
 10
16.0142988499
 20
12.2385619671
 30
0.0
 10
16.0153698201
 20
12.2269479377
 30
0.0
 10
16.0158602843
 20
12.215435276
 30
0.0
 10
16.0157696399
 20
12.2040350919
 30
0.0
 10
16.0150978395
 20
12.1927584067
 30
0.0
 10
16.0138454527
 20
12.1816161855
 30
0.0
 10
16.0120135799
 20
12.1706191449
 30
0.0
 10
16.0096040586
 20
12.1597783946
 30
0.0
 10
16.0076131744
 20
12.1526591382
 30
0.0
 10
16.0065235796
 20
12.1491331982
 30
0.0
  0
SPLINE
  5
331
100
AcDbEntity
  8
LAYER_FEATURE
100
AcDbSpline
 62
7
  6
CONTINUOUS
 70
0
 71
3
 72
78
 73
74
 74
0
 42
0.0000001
 43
0.0000001
 44
0.0000000001
 40
0.0
 40
0.0
 40
0.0
 40
0.0
 40
0.0053541098
 40
0.0107129091
 40
0.0160810664
 40
0.0214632111
 40
0.0268639112
 40
0.0322876585
 40
0.0377388457
 40
0.0432217569
 40
0.0487405439
 40
0.0542992227
 40
0.0599016502
 40
0.0655515264
 40
0.0770061088
 40
0.0886904833
 40
0.1006276343
 40
0.1128374476
 40
0.119050525
 40
0.1253378045
 40
0.1381402471
 40
0.1512566577
 40
0.1646949955
 40
0.1784605391
 40
0.1925560405
 40
0.2069818852
 40
0.2217362497
 40
0.2368152568
 40
0.2522131245
 40
0.2679223083
 40
0.2839336364
 40
0.3002364373
 40
0.3168186609
 40
0.333666992
 40
0.3507669589
 40
0.3681030357
 40
0.3856587396
 40
0.4034167245
 40
0.4213588699
 40
0.4394663669
 40
0.4577198016
 40
0.4760992358
 40
0.4945842851
 40
0.5131541964
 40
0.5317879233
 40
0.5504642006
 40
0.5691616178
 40
0.5878586929
 40
0.6065339449
 40
0.6251659668
 40
0.6437334994
 40
0.6622155043
 40
0.680591239
 40
0.6988403323
 40
0.7169428613
 40
0.73487943
 40
0.7526312504
 40
0.7701802253
 40
0.7875090345
 40
0.8046012243
 40
0.8214413009
 40
0.8380148277
 40
0.8543085282
 40
0.8703103943
 40
0.8860098005
 40
0.9013976246
 40
0.9164663761
 40
0.9312103318
 40
0.9456256761
 40
0.9597106576
 40
0.9734657236
 40
0.9868937291
 40
1.0
 40
1.0
 40
1.0
 40
1.0
 10
14.8122475324
 20
12.5181924101
 30
0.0
 10
14.8129757785
 20
12.5205490218
 30
0.0
 10
14.8145182362
 20
12.5252384267
 30
0.0
 10
14.817086023
 20
12.5321891503
 30
0.0
 10
14.8199072469
 20
12.539054987
 30
0.0
 10
14.8229806874
 20
12.5458328435
 30
0.0
 10
14.8263049818
 20
12.5525198563
 30
0.0
 10
14.829878731
 20
12.5591131199
 30
0.0
 10
14.8337003424
 20
12.5656098312
 30
0.0
 10
14.8377682056
 20
12.5720071729
 30
0.0
 10
14.8420805176
 20
12.5783024389
 30
0.0
 10
14.8466354418
 20
12.5844928842
 30
0.0
 10
14.8514310304
 20
12.5905759585
 30
0.0
 10
14.858173485
 20
12.5985759163
 30
0.0
 10
14.8672082525
 20
12.6082984389
 30
0.0
 10
14.8789265562
 20
12.6194389283
 30
0.0
 10
14.891550987
 20
12.6300883122
 30
0.0
 10
14.9027428622
 20
12.6384894759
 30
0.0
 10
14.9121167849
 20
12.6449503278
 30
0.0
 10
14.9218874804
 20
12.6513095425
 30
0.0
 10
14.9346348951
 20
12.6589150521
 30
0.0
 10
14.9506502652
 20
12.6674297273
 30
0.0
 10
14.9674484629
 20
12.6753730219
 30
0.0
 10
14.9850005214
 20
12.6827314649
 30
0.0
 10
15.0032765786
 20
12.6894927771
 30
0.0
 10
15.0222454581
 20
12.6956455983
 30
0.0
 10
15.0418748409
 20
12.701179591
 30
0.0
 10
15.0621312785
 20
12.7060854393
 30
0.0
 10
15.0829802548
 20
12.7103548747
 30
0.0
 10
15.1043862391
 20
12.7139806925
 30
0.0
 10
15.1263127448
 20
12.7169567682
 30
0.0
 10
15.1487223901
 20
12.7192780711
 30
0.0
 10
15.1715769613
 20
12.7209406763
 30
0.0
 10
15.1948374777
 20
12.7219417732
 30
0.0
 10
15.218464258
 20
12.7222796731
 30
0.0
 10
15.2424169886
 20
12.7219538135
 30
0.0
 10
15.2666547926
 20
12.7209647609
 30
0.0
 10
15.2911363004
 20
12.7193142108
 30
0.0
 10
15.3158197206
 20
12.7170049859
 30
0.0
 10
15.3406629123
 20
12.714041032
 30
0.0
 10
15.3656234576
 20
12.710427412
 30
0.0
 10
15.3906587344
 20
12.7061702978
 30
0.0
 10
15.4157259901
 20
12.7012769598
 30
0.0
 10
15.4407824149
 20
12.6957557552
 30
0.0
 10
15.4657852157
 20
12.6896161134
 30
0.0
 10
15.4906916896
 20
12.6828685205
 30
0.0
 10
15.5154592973
 20
12.6755245011
 30
0.0
 10
15.5400457361
 20
12.6675965986
 30
0.0
 10
15.564409013
 20
12.6590983536
 30
0.0
 10
15.5885075165
 20
12.650044281
 30
0.0
 10
15.6123000881
 20
12.6404498445
 30
0.0
 10
15.6357460932
 20
12.63033143
 30
0.0
 10
15.6588054909
 20
12.6197063175
 30
0.0
 10
15.6814389023
 20
12.6085926508
 30
0.0
 10
15.7036076786
 20
12.5970094063
 30
0.0
 10
15.7252739671
 20
12.5849763597
 30
0.0
 10
15.7464007761
 20
12.5725140515
 30
0.0
 10
15.7669520381
 20
12.5596437512
 30
0.0
 10
15.7868926718
 20
12.5463874199
 30
0.0
 10
15.8061886415
 20
12.5327676717
 30
0.0
 10
15.8248070152
 20
12.5188077335
 30
0.0
 10
15.8427160203
 20
12.5045314043
 30
0.0
 10
15.859885097
 20
12.4899630125
 30
0.0
 10
15.8762849492
 20
12.4751273729
 30
0.0
 10
15.8918875932
 20
12.4600497418
 30
0.0
 10
15.9066664023
 20
12.444755773
 30
0.0
 10
15.9205961509
 20
12.4292714699
 30
0.0
 10
15.933653049
 20
12.4136231452
 30
0.0
 10
15.9458147917
 20
12.3978373552
 30
0.0
 10
15.9570605465
 20
12.3819409245
 30
0.0
 10
15.9673711244
 20
12.3659606466
 30
0.0
 10
15.9767285312
 20
12.349924149
 30
0.0
 10
15.9823887296
 20
12.3390832077
 30
0.0
 10
15.9850486773
 20
12.3336628042
 30
0.0
  0
SPLINE
  5
332
100
AcDbEntity
  8
LAYER_CUT_FEAT
100
AcDbSpline
 62
7
  6
CONTINUOUS
 70
0
 71
3
 72
78
 73
74
 74
0
 42
0.0000001
 43
0.0000001
 44
0.0000000001
 40
0.0
 40
0.0
 40
0.0
 40
0.0
 40
0.0053541098
 40
0.0107129091
 40
0.0160810664
 40
0.0214632111
 40
0.0268639112
 40
0.0322876585
 40
0.0377388457
 40
0.0432217569
 40
0.0487405439
 40
0.0542992227
 40
0.0599016502
 40
0.0655515264
 40
0.0770061088
 40
0.0886904833
 40
0.1006276343
 40
0.1128374476
 40
0.119050525
 40
0.1253378045
 40
0.1381402471
 40
0.1512566577
 40
0.1646949955
 40
0.1784605391
 40
0.1925560405
 40
0.2069818852
 40
0.2217362497
 40
0.2368152568
 40
0.2522131245
 40
0.2679223083
 40
0.2839336364
 40
0.3002364373
 40
0.3168186609
 40
0.333666992
 40
0.3507669589
 40
0.3681030357
 40
0.3856587396
 40
0.4034167245
 40
0.4213588699
 40
0.4394663669
 40
0.4577198016
 40
0.4760992358
 40
0.4945842851
 40
0.5131541964
 40
0.5317879233
 40
0.5504642006
 40
0.5691616178
 40
0.5878586929
 40
0.6065339449
 40
0.6251659668
 40
0.6437334994
 40
0.6622155043
 40
0.680591239
 40
0.6988403323
 40
0.7169428613
 40
0.73487943
 40
0.7526312504
 40
0.7701802253
 40
0.7875090345
 40
0.8046012243
 40
0.8214413009
 40
0.8380148277
 40
0.8543085282
 40
0.8703103943
 40
0.8860098005
 40
0.9013976246
 40
0.9164663761
 40
0.9312103318
 40
0.9456256761
 40
0.9597106576
 40
0.9734657236
 40
0.9868937291
 40
1.0
 40
1.0
 40
1.0
 40
1.0
 10
14.8058327749
 20
12.497434247
 30
0.0
 10
14.8065610209
 20
12.4997908587
 30
0.0
 10
14.8081034786
 20
12.5044802635
 30
0.0
 10
14.8106712655
 20
12.5114309872
 30
0.0
 10
14.8134924894
 20
12.5182968239
 30
0.0
 10
14.8165659298
 20
12.5250746804
 30
0.0
 10
14.8198902242
 20
12.5317616932
 30
0.0
 10
14.8234639734
 20
12.5383549568
 30
0.0
 10
14.8272855848
 20
12.5448516681
 30
0.0
 10
14.831353448
 20
12.5512490098
 30
0.0
 10
14.83566576
 20
12.5575442758
 30
0.0
 10
14.8402206842
 20
12.5637347211
 30
0.0
 10
14.8450162728
 20
12.5698177954
 30
0.0
 10
14.8517587274
 20
12.5778177532
 30
0.0
 10
14.860793495
 20
12.5875402758
 30
0.0
 10
14.8725117986
 20
12.5986807651
 30
0.0
 10
14.8851362295
 20
12.6093301491
 30
0.0
 10
14.8963281047
 20
12.6177313128
 30
0.0
 10
14.9057020274
 20
12.6241921646
 30
0.0
 10
14.9154727228
 20
12.6305513794
 30
0.0
 10
14.9282201376
 20
12.638156889
 30
0.0
 10
14.9442355076
 20
12.6466715642
 30
0.0
 10
14.9610337053
 20
12.6546148588
 30
0.0
 10
14.9785857638
 20
12.6619733018
 30
0.0
 10
14.996861821
 20
12.668734614
 30
0.0
 10
15.0158307005
 20
12.6748874352
 30
0.0
 10
15.0354600833
 20
12.6804214279
 30
0.0
 10
15.0557165209
 20
12.6853272761
 30
0.0
 10
15.0765654973
 20
12.6895967116
 30
0.0
 10
15.0979714816
 20
12.6932225294
 30
0.0
 10
15.1198979872
 20
12.696198605
 30
0.0
 10
15.1423076325
 20
12.698519908
 30
0.0
 10
15.1651622037
 20
12.7001825132
 30
0.0
 10
15.1884227201
 20
12.7011836101
 30
0.0
 10
15.2120495004
 20
12.70152151
 30
0.0
 10
15.236002231
 20
12.7011956504
 30
0.0
 10
15.2602400351
 20
12.7002065978
 30
0.0
 10
15.2847215428
 20
12.6985560477
 30
0.0
 10
15.309404963
 20
12.6962468228
 30
0.0
 10
15.3342481547
 20
12.6932828689
 30
0.0
 10
15.3592087
 20
12.6896692489
 30
0.0
 10
15.3842439768
 20
12.6854121347
 30
0.0
 10
15.4093112325
 20
12.6805187967
 30
0.0
 10
15.4343676573
 20
12.6749975921
 30
0.0
 10
15.4593704582
 20
12.6688579503
 30
0.0
 10
15.4842769321
 20
12.6621103574
 30
0.0
 10
15.5090445397
 20
12.654766338
 30
0.0
 10
15.5336309786
 20
12.6468384355
 30
0.0
 10
15.5579942554
 20
12.6383401905
 30
0.0
 10
15.5820927589
 20
12.6292861179
 30
0.0
 10
15.6058853305
 20
12.6196916814
 30
0.0
 10
15.6293313357
 20
12.6095732669
 30
0.0
 10
15.6523907333
 20
12.5989481544
 30
0.0
 10
15.6750241447
 20
12.5878344877
 30
0.0
 10
15.6971929211
 20
12.5762512432
 30
0.0
 10
15.7188592095
 20
12.5642181966
 30
0.0
 10
15.7399860185
 20
12.5517558884
 30
0.0
 10
15.7605372805
 20
12.5388855881
 30
0.0
 10
15.7804779142
 20
12.5256292568
 30
0.0
 10
15.7997738839
 20
12.5120095086
 30
0.0
 10
15.8183922576
 20
12.4980495704
 30
0.0
 10
15.8363012628
 20
12.4837732412
 30
0.0
 10
15.8534703395
 20
12.4692048494
 30
0.0
 10
15.8698701917
 20
12.4543692098
 30
0.0
 10
15.8854728356
 20
12.4392915787
 30
0.0
 10
15.9002516447
 20
12.4239976099
 30
0.0
 10
15.9141813933
 20
12.4085133068
 30
0.0
 10
15.9272382915
 20
12.3928649821
 30
0.0
 10
15.9394000342
 20
12.3770791921
 30
0.0
 10
15.9506457889
 20
12.3611827614
 30
0.0
 10
15.9609563669
 20
12.3452024835
 30
0.0
 10
15.9703137736
 20
12.3291659859
 30
0.0
 10
15.975973972
 20
12.3183250446
 30
0.0
 10
15.9786339197
 20
12.3129046411
 30
0.0
  0
SPLINE
  5
333
100
AcDbEntity
  8
LAYER_CHAMFER_FEAT
100
AcDbSpline
 62
7
  6
CONTINUOUS
 70
0
 71
3
 72
60
 73
56
 74
0
 42
0.0000001
 43
0.0000001
 44
0.0000000001
 40
0.0
 40
0.0
 40
0.0
 40
0.0
 40
0.0157588266
 40
0.0311491482
 40
0.0461672675
 40
0.0608122797
 40
0.0750862378
 40
0.0889943716
 40
0.1025453664
 40
0.115751519
 40
0.1286289071
 40
0.1411975875
 40
0.153481638
 40
0.1655091359
 40
0.177312092
 40
0.1889261853
 40
0.2003903591
 40
0.2117463097
 40
0.2230377936
 40
0.234309822
 40
0.2456077933
 40
0.2569765906
 40
0.2684597232
 40
0.2800985324
 40
0.2919315218
 40
0.3039938673
 40
0.3163170292
 40
0.3289285135
 40
0.3418518221
 40
0.3551064376
 40
0.3687078832
 40
0.382667928
 40
0.3969947526
 40
0.4116931142
 40
0.4267646303
 40
0.4422079863
 40
0.4580191002
 40
0.4741913956
 40
0.4907159963
 40
0.5075818599
 40
0.5247760116
 40
0.542283715
 40
0.5600885773
 40
0.5781727421
 40
0.6150972269
 40
0.6528941399
 40
0.6913810707
 40
0.7303640922
 40
0.7696412591
 40
0.8090059816
 40
0.8482502937
 40
0.8871681263
 40
0.9255585987
 40
0.9632290616
 40
1.0
 40
1.0
 40
1.0
 40
1.0
 10
15.2386046376
 20
12.1295144729
 30
0.0
 10
15.2369486906
 20
12.1291250326
 30
0.0
 10
15.2336898437
 20
12.1282925224
 30
0.0
 10
15.2289139241
 20
12.1268639251
 30
0.0
 10
15.2243165353
 20
12.1252727462
 30
0.0
 10
15.219906773
 20
12.1235220972
 30
0.0
 10
15.2156932586
 20
12.121615339
 30
0.0
 10
15.2116842809
 20
12.1195561113
 30
0.0
 10
15.2078877136
 20
12.1173483803
 30
0.0
 10
15.2043110395
 20
12.1149963774
 30
0.0
 10
15.2009613558
 20
12.1125045831
 30
0.0
 10
15.1978453191
 20
12.1098777902
 30
0.0
 10
15.1949691647
 20
12.1071210551
 30
0.0
 10
15.192338724
 20
12.104239681
 30
0.0
 10
15.1899593502
 20
12.1012392827
 30
0.0
 10
15.1878359257
 20
12.0981257529
 30
0.0
 10
15.1859728807
 20
12.0949052404
 30
0.0
 10
15.1843740947
 20
12.0915841945
 30
0.0
 10
15.1830428843
 20
12.0881693251
 30
0.0
 10
15.1819820341
 20
12.0846675601
 30
0.0
 10
15.1811937017
 20
12.0810860461
 30
0.0
 10
15.1806794119
 20
12.0774320939
 30
0.0
 10
15.1804401283
 20
12.0737131306
 30
0.0
 10
15.1804761954
 20
12.0699366812
 30
0.0
 10
15.1807873447
 20
12.0661103287
 30
0.0
 10
15.1813727941
 20
12.0622416988
 30
0.0
 10
15.1822312095
 20
12.0583384505
 30
0.0
 10
15.1833606955
 20
12.054408255
 30
0.0
 10
15.1847588875
 20
12.0504588081
 30
0.0
 10
15.1864229177
 20
12.0464978232
 30
0.0
 10
15.1883493839
 20
12.0425330038
 30
0.0
 10
15.1905344288
 20
12.0385720661
 30
0.0
 10
15.1929737157
 20
12.034622725
 30
0.0
 10
15.1956623895
 20
12.0306926529
 30
0.0
 10
15.1985951472
 20
12.0267895039
 30
0.0
 10
15.2017662291
 20
12.0229208979
 30
0.0
 10
15.2051693819
 20
12.0190943677
 30
0.0
 10
15.2087979216
 20
12.0153173843
 30
0.0
 10
15.2126447397
 20
12.0115973438
 30
0.0
 10
15.2167022718
 20
12.0079415095
 30
0.0
 10
15.2209625564
 20
12.0043570313
 30
0.0
 10
15.2254172364
 20
12.0008509558
 30
0.0
 10
15.2300575985
 20
11.9974301032
 30
0.0
 10
15.2365246016
 20
11.9929608941
 30
0.0
 10
15.2450177279
 20
11.987636195
 30
0.0
 10
15.2557249829
 20
11.9817334865
 30
0.0
 10
15.266934737
 20
11.9763196031
 30
0.0
 10
15.278559088
 20
11.9714370029
 30
0.0
 10
15.2905071993
 20
11.9671238072
 30
0.0
 10
15.3026855844
 20
11.9634137902
 30
0.0
 10
15.3149989788
 20
11.9603359683
 30
0.0
 10
15.3273510131
 20
11.9579144036
 30
0.0
 10
15.3396452361
 20
11.9561680709
 30
0.0
 10
15.3517850232
 20
11.9551105883
 30
0.0
 10
15.3598224905
 20
11.9548670781
 30
0.0
 10
15.3637918178
 20
11.9548670781
 30
0.0
  0
SPLINE
  5
334
100
AcDbEntity
  8
LAYER_FEATURE
100
AcDbSpline
 62
7
  6
CONTINUOUS
 70
0
 71
3
 72
48
 73
44
 74
0
 42
0.0000001
 43
0.0000001
 44
0.0000000001
 40
0.0
 40
0.0
 40
0.0
 40
0.0
 40
0.0290937738
 40
0.0572902587
 40
0.0710904767
 40
0.0847099893
 40
0.0981685983
 40
0.1114883517
 40
0.1246932876
 40
0.1378092309
 40
0.1508634013
 40
0.1638839885
 40
0.1768997315
 40
0.1899394505
 40
0.2030315768
 40
0.2162036921
 40
0.2294821322
 40
0.2428915931
 40
0.2564547972
 40
0.2701922795
 40
0.28412214
 40
0.2982599192
 40
0.3271973556
 40
0.3570880416
 40
0.3879619416
 40
0.4198102398
 40
0.4525890748
 40
0.4862238834
 40
0.5206139351
 40
0.5556368337
 40
0.5911529485
 40
0.6270097809
 40
0.6630461947
 40
0.6990965752
 40
0.7349949655
 40
0.7705791851
 40
0.8056949843
 40
0.8402002903
 40
0.8739695066
 40
0.9068979293
 40
0.9389063654
 40
0.9699450884
 40
1.0
 40
1.0
 40
1.0
 40
1.0
 10
15.1341769217
 20
12.5185847287
 30
0.0
 10
15.1336658162
 20
12.5169307907
 30
0.0
 10
15.132827327
 20
12.5136188245
 30
0.0
 10
15.1322545339
 20
12.5094176569
 30
0.0
 10
15.1321043987
 20
12.5061100584
 30
0.0
 10
15.1321432808
 20
12.5036764536
 30
0.0
 10
15.13233287
 20
12.5012786109
 30
0.0
 10
15.1326727078
 20
12.4989222657
 30
0.0
 10
15.1331620541
 20
12.4966131701
 30
0.0
 10
15.1337997409
 20
12.4943569441
 30
0.0
 10
15.1345842265
 20
12.4921590846
 30
0.0
 10
15.1355136522
 20
12.4900249695
 30
0.0
 10
15.1365857306
 20
12.4879597987
 30
0.0
 10
15.1377978422
 20
12.485968605
 30
0.0
 10
15.1391470437
 20
12.4840562542
 30
0.0
 10
15.140629995
 20
12.4822273695
 30
0.0
 10
15.1422430738
 20
12.480486387
 30
0.0
 10
15.1439823378
 20
12.4788375208
 30
0.0
 10
15.145843517
 20
12.4772847082
 30
0.0
 10
15.1478220707
 20
12.4758316997
 30
0.0
 10
15.1499132575
 20
12.4744819356
 30
0.0
 10
15.1528671413
 20
12.4728115278
 30
0.0
 10
15.1568243591
 20
12.4710021937
 30
0.0
 10
15.1618954827
 20
12.4693084742
 30
0.0
 10
15.1672784233
 20
12.4680896548
 30
0.0
 10
15.1729212032
 20
12.467356784
 30
0.0
 10
15.1787700835
 20
12.467116106
 30
0.0
 10
15.1847692632
 20
12.4673694483
 30
0.0
 10
15.1908615554
 20
12.4681140558
 30
0.0
 10
15.1969888431
 20
12.469342596
 30
0.0
 10
15.2030926459
 20
12.4710431651
 30
0.0
 10
15.2091146693
 20
12.4731994153
 30
0.0
 10
15.2149973649
 20
12.4757906934
 30
0.0
 10
15.220684499
 20
12.4787922013
 30
0.0
 10
15.226121695
 20
12.4821752466
 30
0.0
 10
15.2312569483
 20
12.4859075376
 30
0.0
 10
15.2360411245
 20
12.489953495
 30
0.0
 10
15.2404284415
 20
12.4942745748
 30
0.0
 10
15.2443768751
 20
12.4988297097
 30
0.0
 10
15.2478485001
 20
12.5035756116
 30
0.0
 10
15.2508099013
 20
12.5084675236
 30
0.0
 10
15.2532321431
 20
12.5134583552
 30
0.0
 10
15.2544921338
 20
12.5168761514
 30
0.0
 10
15.2550201241
 20
12.5185847287
 30
0.0
  0
SPLINE
  5
335
100
AcDbEntity
  8
LAYER_FEATURE
100
AcDbSpline
 62
7
  6
CONTINUOUS
 70
0
 71
3
 72
48
 73
44
 74
0
 42
0.0000001
 43
0.0000001
 44
0.0000000001
 40
0.0
 40
0.0
 40
0.0
 40
0.0
 40
0.0300549116
 40
0.0610936346
 40
0.0931020707
 40
0.1260304934
 40
0.1597997097
 40
0.1943050157
 40
0.2294208149
 40
0.2650050345
 40
0.3009034248
 40
0.3369538053
 40
0.3729902191
 40
0.4088470515
 40
0.4443631663
 40
0.4793860649
 40
0.5137761166
 40
0.5474109252
 40
0.5801897602
 40
0.6120380584
 40
0.6429119584
 40
0.6728026444
 40
0.7017400808
 40
0.71587786
 40
0.7298077205
 40
0.7435452028
 40
0.7571084069
 40
0.7705178678
 40
0.7837963079
 40
0.7969684232
 40
0.8100605495
 40
0.8231002685
 40
0.8361160115
 40
0.8491365987
 40
0.8621907691
 40
0.8753067124
 40
0.8885116483
 40
0.9018314017
 40
0.9152900107
 40
0.9289095233
 40
0.9427097413
 40
0.9709062262
 40
1.0
 40
1.0
 40
1.0
 40
1.0
 10
15.1341769217
 20
12.5185847287
 30
0.0
 10
15.134704912
 20
12.520293306
 30
0.0
 10
15.1359649027
 20
12.5237111022
 30
0.0
 10
15.1383871446
 20
12.5287019338
 30
0.0
 10
15.1413485457
 20
12.5335938458
 30
0.0
 10
15.1448201708
 20
12.5383397477
 30
0.0
 10
15.1487686044
 20
12.5428948825
 30
0.0
 10
15.1531559214
 20
12.5472159624
 30
0.0
 10
15.1579400976
 20
12.5512619197
 30
0.0
 10
15.1630753508
 20
12.5549942108
 30
0.0
 10
15.1685125469
 20
12.5583772561
 30
0.0
 10
15.1741996809
 20
12.5613787639
 30
0.0
 10
15.1800823765
 20
12.5639700421
 30
0.0
 10
15.1861044
 20
12.5661262923
 30
0.0
 10
15.1922082027
 20
12.5678268613
 30
0.0
 10
15.1983354904
 20
12.5690554016
 30
0.0
 10
15.2044277826
 20
12.5698000091
 30
0.0
 10
15.2104269623
 20
12.5700533514
 30
0.0
 10
15.2162758426
 20
12.5698126734
 30
0.0
 10
15.2219186226
 20
12.5690798026
 30
0.0
 10
15.2273015631
 20
12.5678609831
 30
0.0
 10
15.2323726867
 20
12.5661672637
 30
0.0
 10
15.2363299046
 20
12.5643579296
 30
0.0
 10
15.2392837884
 20
12.5626875218
 30
0.0
 10
15.2413749751
 20
12.5613377577
 30
0.0
 10
15.2433535289
 20
12.5598847492
 30
0.0
 10
15.245214708
 20
12.5583319366
 30
0.0
 10
15.246953972
 20
12.5566830704
 30
0.0
 10
15.2485670508
 20
12.5549420879
 30
0.0
 10
15.2500500021
 20
12.5531132032
 30
0.0
 10
15.2513992036
 20
12.5512008524
 30
0.0
 10
15.2526113153
 20
12.5492096587
 30
0.0
 10
15.2536833936
 20
12.5471444878
 30
0.0
 10
15.2546128194
 20
12.5450103728
 30
0.0
 10
15.2553973049
 20
12.5428125133
 30
0.0
 10
15.2560349917
 20
12.5405562872
 30
0.0
 10
15.256524338
 20
12.5382471917
 30
0.0
 10
15.2568641759
 20
12.5358908465
 30
0.0
 10
15.257053765
 20
12.5334930038
 30
0.0
 10
15.2570926471
 20
12.531059399
 30
0.0
 10
15.2569425119
 20
12.5277518005
 30
0.0
 10
15.2563697189
 20
12.5235506329
 30
0.0
 10
15.2555312296
 20
12.5202386667
 30
0.0
 10
15.2550201241
 20
12.5185847287
 30
0.0
  0
SPLINE
  5
336
100
AcDbEntity
  8
LAYER_FEATURE
100
AcDbSpline
 62
7
  6
CONTINUOUS
 70
0
 71
3
 72
20
 73
16
 74
0
 42
0.0000001
 43
0.0000001
 44
0.0000000001
 40
0.0
 40
0.0
 40
0.0
 40
0.0
 40
0.1404796206
 40
0.2090120091
 40
0.2763454414
 40
0.4072970435
 40
0.5334161455
 40
0.5947791395
 40
0.6550701927
 40
0.7143706559
 40
0.7727790881
 40
0.8304103312
 40
0.8873940906
 40
0.943872972
 40
1.0
 40
1.0
 40
1.0
 40
1.0
 10
15.2194506481
 20
12.5726231318
 30
0.0
 10
15.2222615631
 20
12.5726231318
 30
0.0
 10
15.2264482129
 20
12.5724245752
 30
0.0
 10
15.2319365125
 20
12.5717346626
 30
0.0
 10
15.2371929781
 20
12.5707877391
 30
0.0
 10
15.243479896
 20
12.5691145832
 30
0.0
 10
15.2494160047
 20
12.5667510265
 30
0.0
 10
15.2538257387
 20
12.564478455
 30
0.0
 10
15.2569295316
 20
12.5626083753
 30
0.0
 10
15.2598491073
 20
12.5605633546
 30
0.0
 10
15.2625750929
 20
12.5583498457
 30
0.0
 10
15.2650985379
 20
12.5559749443
 30
0.0
 10
15.2674112119
 20
12.5534462013
 30
0.0
 10
15.2695053629
 20
12.5507720062
 30
0.0
 10
15.2707542365
 20
12.548893353
 30
0.0
 10
15.2713387937
 20
12.5479344073
 30
0.0
  0
SPLINE
  5
337
100
AcDbEntity
  8
LAYER_FEATURE
100
AcDbSpline
 62
7
  6
CONTINUOUS
 70
0
 71
3
 72
23
 73
19
 74
0
 42
0.0000001
 43
0.0000001
 44
0.0000000001
 40
0.0
 40
0.0
 40
0.0
 40
0.0
 40
0.0549036844
 40
0.1116047498
 40
0.1700770959
 40
0.2302301448
 40
0.2919190966
 40
0.3549527445
 40
0.4191016361
 40
0.4841062115
 40
0.5496847164
 40
0.615540875
 40
0.6813715179
 40
0.7468741042
 40
0.8117542857
 40
0.8757334986
 40
0.9385561215
 40
1.0
 40
1.0
 40
1.0
 40
1.0
 10
15.124074208
 20
12.5083903252
 30
0.0
 10
15.1247341952
 20
12.5105260444
 30
0.0
 10
15.1263091873
 20
12.5147982901
 30
0.0
 10
15.1293369789
 20
12.5210368341
 30
0.0
 10
15.1330387391
 20
12.527151723
 30
0.0
 10
15.1373782741
 20
12.5330840943
 30
0.0
 10
15.1423138054
 20
12.5387780227
 30
0.0
 10
15.1477979558
 20
12.544179369
 30
0.0
 10
15.1537781823
 20
12.5492368081
 30
0.0
 10
15.1601972411
 20
12.5539021829
 30
0.0
 10
15.1669937386
 20
12.5581309856
 30
0.0
 10
15.1741026578
 20
12.5618828685
 30
0.0
 10
15.1814560246
 20
12.5651219671
 30
0.0
 10
15.1889835636
 20
12.567817279
 30
0.0
 10
15.1966132836
 20
12.569942999
 30
0.0
 10
15.2042725018
 20
12.5714786554
 30
0.0
 10
15.2118874206
 20
12.5724094303
 30
0.0
 10
15.2169489979
 20
12.5726231318
 30
0.0
 10
15.2194506481
 20
12.5726231318
 30
0.0
  0
ENDSEC
  0
SECTION
  2
OBJECTS
  0
DICTIONARY
  5
C
100
AcDbDictionary
280
0
281
1
  3
ACAD_GROUP
350
D
  3
ACAD_MLINESTYLE
350
17
  3
ACAD_LAYOUT
350
1A
  3
ACAD_PLOTSETTINGS
350
19
  3
ACAD_PLOTSTYLENAME
350
E
  0
DICTIONARY
  5
D
102
{ACAD_REACTORS
330
C
102
}
100
AcDbDictionary
280
0
281
1
  0
ACDBDICTIONARYWDFLT
  5
E
102
{ACAD_REACTORS
330
C
102
}
100
AcDbDictionary
281
1
  3
Normal
350
F
100
AcDbDictionaryWithDefault
340
F
  0
DICTIONARY
  5
17
102
{ACAD_REACTORS
330
C
102
}
100
AcDbDictionary
280
0
281
1
  3
Standard
350
18
  0
DICTIONARY
  5
19
102
{ACAD_REACTORS
330
C
102
}
100
AcDbDictionary
281
1
  0
DICTIONARY
  5
1A
102
{ACAD_REACTORS
330
C
102
}
100
AcDbDictionary
281
1
  3
Model
350
338
  3
Layout1
350
339
  0
ACDBPLACEHOLDER
  5
F
102
{ACAD_REACTORS
330
E
102
}
  0
MLINESTYLE
  5
18
102
{ACAD_REACTORS
330
17
102
}
100
AcDbMlineStyle
  2
STANDARD
 70
0
  3

 62
256
 51
90.0
 52
90.0
 71
2
 49
0.5
 62
256
  6
BYLAYER
 49
-0.5
 62
256
  6
BYLAYER
  0
LAYOUT
  5
338
102
{ACAD_REACTORS
330
1A
102
}
100
AcDbPlotSettings
  1

  2
none_device
  4
ANSI_C_(22.00_x_17.00_Inches)
  6

 40
0.0
 41
0.0
 42
0.0
 43
0.0
 44
558.8
 45
431.8
 46
0.0
 47
0.0
 48
0.0
 49
0.0
140
0.0
141
0.0
142
1.0
143
1.0
 70
1024
 72
0
 73
0
 74
0
  7

 75
0
147
1.0
148
0.0
149
0.0
100
AcDbLayout
  1
Model
 70
0
 71
0
 10
0.0
 20
0.0
 11
22.0
 21
17.0
 12
0.0
 22
0.0
 32
0.0
 14
0.0
 24
0.0
 34
0.0
 15
0.0
 25
0.0
 35
0.0
146
0.0
 13
0.0
 23
0.0
 33
0.0
 16
1.0
 26
0.0
 36
0.0
 17
0.0
 27
1.0
 37
0.0
 76
0
330
222
345
0
346
0
  0
LAYOUT
  5
339
102
{ACAD_REACTORS
330
1A
102
}
100
AcDbPlotSettings
  1

  2
none_device
  4
ANSI_C_(22.00_x_17.00_Inches)
  6

 40
0.0
 41
0.0
 42
0.0
 43
0.0
 44
558.8
 45
431.8
 46
0.0
 47
0.0
 48
0.0
 49
0.0
140
0.0
141
0.0
142
1.0
143
1.0
 70
0
 72
0
 73
0
 74
0
  7

 75
0
147
1.0
148
0.0
149
0.0
100
AcDbLayout
  1
Layout1
 70
0
 71
1
 10
0.0
 20
0.0
 11
22.0
 21
17.0
 12
0.0
 22
0.0
 32
0.0
 14
0.0
 24
0.0
 34
0.0
 15
0.0
 25
0.0
 35
0.0
146
0.0
 13
0.0
 23
0.0
 33
0.0
 16
1.0
 26
0.0
 36
0.0
 17
0.0
 27
1.0
 37
0.0
 76
0
330
223
345
0
346
0
  0
ENDSEC
  0
EOF