999
DXF file: _cgs_temp_output.dxf
999
Pro/ENGINEER 2015110 by Parametric Technology Corporation
  0
SECTION
  2
HEADER
  9
$ACADVER
  1
AC1021
  9
$DWGCODEPAGE
  3
ANSI_1252
  9
$EXTMAX
 10
22.0
 20
17.0
 30
0.0
  9
$EXTMIN
 10
0.0
 20
0.0
 30
0.0
  9
$LIMMIN
 10
0.0
 20
0.0
  9
$LIMMAX
 10
22.0
 20
17.0
  9
$VIEWCTR
 10
11.0
 20
8.5
  9
$VIEWSIZE
 40
17.0
  9
$CLAYER
  8
0
  9
$LTSCALE
 40
1.21
  9
$CELTYPE
  6
BYLAYER
  9
$DIMSCALE
 40
1.0
  9
$DIMASZ
 40
0.1875
  9
$DIMEXO
 40
0.0625
  9
$DIMDLI
 40
0.836
  9
$DIMEXE
 40
0.125
  9
$DIMCEN
 40
0.198
  9
$DIMLFAC
 40
1.0
  9
$DIMBLK
  1
_CLOSED
  9
$DIMALT
 70
0
  9
$DIMALTF
 40
25.4
  9
$DIMTXT
 40
0.15625
  9
$DIMTOL
 70
0
  9
$DIMLIM
 70
0
  9
$DIMTFAC
 40
1.0
  9
$DIMGAP
 40
0.09
  9
$DIMDSEP
 70
46
  9
$AUNITS
 70
0
  9
$PDMODE
 70
3
  9
$PDSIZE
 40
0.3125
  9
$HANDSEED
  5
34B
  9
$TILEMODE
 70
1
  9
$MEASUREMENT
 70
0
  9
$INSUNITS
 70
1
  0
ENDSEC
  0
SECTION
  2
CLASSES
  0
CLASS
  1
ACDBDICTIONARYWDFLT
  2
AcDbDictionaryWithDefault
  3
AutoCAD 2000
 90
0
 91
1
280
0
281
0
  0
CLASS
  1
ACDBPLACEHOLDER
  2
AcDbPlaceHolder
  3
AutoCAD 2000
 90
0
 91
1
280
0
281
0
  0
CLASS
  1
LAYOUT
  2
AcDbLayout
  3
AutoCAD 2000
 90
0
 91
0
280
0
281
0
  0
ENDSEC
  0
SECTION
  2
TABLES
  0
TABLE
  2
VPORT
  5
8
100
AcDbSymbolTable
 70
2
  0
VPORT
  5
1F4
100
AcDbSymbolTableRecord
100
AcDbViewportTableRecord
  2
*ACTIVE
 70
0
 10
0.0
 20
0.0
 11
1.0
 21
1.0
 12
11.0
 22
8.5
 13
0.0
 23
0.0
 14
1.0
 24
1.0
 15
0.0
 25
0.0
 16
0.0
 26
0.0
 36
1.0
 17
0.0
 27
0.0
 37
0.0
 40
17.0
 41
1.2941176471
 42
50.0
 43
0.0
 44
0.0
 50
0.0
 51
0.0
 71
0
 72
100
 73
1
 74
1
 75
0
 76
0
 77
0
 78
0
  0
ENDTAB
  0
TABLE
  2
LTYPE
  5
5
100
AcDbSymbolTable
 70
6
  0
LTYPE
  5
14
100
AcDbSymbolTableRecord
100
AcDbLinetypeTableRecord
  2
BYBLOCK
 70
0
  3

 72
65
 73
0
 40
0.0
  0
LTYPE
  5
15
100
AcDbSymbolTableRecord
100
AcDbLinetypeTableRecord
  2
BYLAYER
 70
0
  3

 72
65
 73
0
 40
0.0
  0
LTYPE
  5
16
100
AcDbSymbolTableRecord
100
AcDbLinetypeTableRecord
  2
CONTINUOUS
 70
64
  3
Solid line
 72
65
 73
0
 40
0.0
  0
LTYPE
  5
1F5
100
AcDbSymbolTableRecord
100
AcDbLinetypeTableRecord
  2
CENTER
 70
64
  3
____ _ ____ _ ____ _ ____ _ ____ _ ____ _ ____
 72
65
 73
4
 40
0.6
 49
0.375
 74
0
 49
-0.075
 74
0
 49
0.075
 74
0
 49
-0.075
 74
0
  0
LTYPE
  5
1F6
100
AcDbSymbolTableRecord
100
AcDbLinetypeTableRecord
  2
HIDDEN
 70
64
  3
- - - - - - - - - - - - - - - - - - - -
 72
65
 73
2
 40
0.2
 49
0.1
 74
0
 49
-0.1
 74
0
  0
LTYPE
  5
1F7
100
AcDbSymbolTableRecord
100
AcDbLinetypeTableRecord
  2
PHANTOM
 70
64
  3
_____ _ _ _____ _ _ _____ _ _ _____
 72
65
 73
6
 40
0.8
 49
0.45
 74
0
 49
-0.05
 74
0
 49
0.1
 74
0
 49
-0.05
 74
0
 49
0.1
 74
0
 49
-0.05
 74
0
  0
LTYPE
  5
1F8
100
AcDbSymbolTableRecord
100
AcDbLinetypeTableRecord
  2
DOT
 70
64
  3
. . . . . . . . . . . . . . . . . . . .
 72
65
 73
2
 40
0.2
 49
0.1
 74
0
 49
-0.1
 74
0
  0
LTYPE
  5
1F9
100
AcDbSymbolTableRecord
100
AcDbLinetypeTableRecord
  2
DASHED
 70
64
  3
- - - - - - - - - - - - - - - - - - - -
 72
65
 73
2
 40
0.2
 49
0.1
 74
0
 49
-0.1
 74
0
  0
ENDTAB
  0
TABLE
  2
LAYER
  5
2
100
AcDbSymbolTable
 70
36
  0
LAYER
  5
10
100
AcDbSymbolTableRecord
100
AcDbLayerTableRecord
  2
0
 70
0
 62
7
  6
CONTINUOUS
370
-3
390
F
  0
LAYER
  5
1FA
100
AcDbSymbolTableRecord
100
AcDbLayerTableRecord
  2
DEFAULT_1
 70
0
 62
7
  6
CENTER
370
-3
390
F
  0
LAYER
  5
1FB
100
AcDbSymbolTableRecord
100
AcDbLayerTableRecord
  2
DEFAULT_2
 70
0
 62
8
  6
HIDDEN
370
-3
390
F
  0
LAYER
  5
1FC
100
AcDbSymbolTableRecord
100
AcDbLayerTableRecord
  2
DEFAULT_3
 70
0
 62
7
  6
PHANTOM
370
-3
390
F
  0
LAYER
  5
1FD
100
AcDbSymbolTableRecord
100
AcDbLayerTableRecord
  2
01_ALL_DTM_PLN
 70
0
 62
7
  6
CONTINUOUS
370
-3
390
F
  0
LAYER
  5
1FE
100
AcDbSymbolTableRecord
100
AcDbLayerTableRecord
  2
01__ASM_ALL_DTM_PLN
 70
0
 62
7
  6
CONTINUOUS
370
-3
390
F
  0
LAYER
  5
1FF
100
AcDbSymbolTableRecord
100
AcDbLayerTableRecord
  2
01__ASM_DEF_DTM_PLN
 70
0
 62
7
  6
CONTINUOUS
370
-3
390
F
  0
LAYER
  5
200
100
AcDbSymbolTableRecord
100
AcDbLayerTableRecord
  2
01___PRT_ALL_DTM_PLN
 70
0
 62
7
  6
CONTINUOUS
370
-3
390
F
  0
LAYER
  5
201
100
AcDbSymbolTableRecord
100
AcDbLayerTableRecord
  2
01___PRT_DEF_DTM_PLN
 70
0
 62
7
  6
CONTINUOUS
370
-3
390
F
  0
LAYER
  5
202
100
AcDbSymbolTableRecord
100
AcDbLayerTableRecord
  2
02_ALL_AXES
 70
0
 62
7
  6
CONTINUOUS
370
-3
390
F
  0
LAYER
  5
203
100
AcDbSymbolTableRecord
100
AcDbLayerTableRecord
  2
02__ASM_ALL_AXES
 70
0
 62
7
  6
CONTINUOUS
370
-3
390
F
  0
LAYER
  5
204
100
AcDbSymbolTableRecord
100
AcDbLayerTableRecord
  2
02___PRT_ALL_AXES
 70
0
 62
7
  6
CONTINUOUS
370
-3
390
F
  0
LAYER
  5
205
100
AcDbSymbolTableRecord
100
AcDbLayerTableRecord
  2
03_ALL_CURVES
 70
0
 62
7
  6
CONTINUOUS
370
-3
390
F
  0
LAYER
  5
206
100
AcDbSymbolTableRecord
100
AcDbLayerTableRecord
  2
03__ASM_ALL_CURVES
 70
0
 62
7
  6
CONTINUOUS
370
-3
390
F
  0
LAYER
  5
207
100
AcDbSymbolTableRecord
100
AcDbLayerTableRecord
  2
03___PRT_ALL_CURVES
 70
0
 62
7
  6
CONTINUOUS
370
-3
390
F
  0
LAYER
  5
208
100
AcDbSymbolTableRecord
100
AcDbLayerTableRecord
  2
04_ALL_DTM_PNT
 70
0
 62
7
  6
CONTINUOUS
370
-3
390
F
  0
LAYER
  5
209
100
AcDbSymbolTableRecord
100
AcDbLayerTableRecord
  2
04__ASM_ALL_DTM_PNT
 70
0
 62
7
  6
CONTINUOUS
370
-3
390
F
  0
LAYER
  5
20A
100
AcDbSymbolTableRecord
100
AcDbLayerTableRecord
  2
04___PRT_ALL_DTM_PNT
 70
0
 62
7
  6
CONTINUOUS
370
-3
390
F
  0
LAYER
  5
20B
100
AcDbSymbolTableRecord
100
AcDbLayerTableRecord
  2
05_ALL_DTM_CSYS
 70
0
 62
7
  6
CONTINUOUS
370
-3
390
F
  0
LAYER
  5
20C
100
AcDbSymbolTableRecord
100
AcDbLayerTableRecord
  2
05__ASM_ALL_DTM_CSYS
 70
0
 62
7
  6
CONTINUOUS
370
-3
390
F
  0
LAYER
  5
20D
100
AcDbSymbolTableRecord
100
AcDbLayerTableRecord
  2
05__ASM_DEF_DTM_CSYS
 70
0
 62
7
  6
CONTINUOUS
370
-3
390
F
  0
LAYER
  5
20E
100
AcDbSymbolTableRecord
100
AcDbLayerTableRecord
  2
05___PRT_ALL_DTM_CSYS
 70
0
 62
7
  6
CONTINUOUS
370
-3
390
F
  0
LAYER
  5
20F
100
AcDbSymbolTableRecord
100
AcDbLayerTableRecord
  2
05___PRT_DEF_DTM_CSYS
 70
0
 62
7
  6
CONTINUOUS
370
-3
390
F
  0
LAYER
  5
210
100
AcDbSymbolTableRecord
100
AcDbLayerTableRecord
  2
06_ALL_SURFS
 70
0
 62
7
  6
CONTINUOUS
370
-3
390
F
  0
LAYER
  5
211
100
AcDbSymbolTableRecord
100
AcDbLayerTableRecord
  2
06__ASM_ALL_SURFS
 70
0
 62
7
  6
CONTINUOUS
370
-3
390
F
  0
LAYER
  5
212
100
AcDbSymbolTableRecord
100
AcDbLayerTableRecord
  2
06___PRT_ALL_SURFS
 70
0
 62
7
  6
CONTINUOUS
370
-3
390
F
  0
LAYER
  5
213
100
AcDbSymbolTableRecord
100
AcDbLayerTableRecord
  2
07__ASM_ALL_SKELETONS
 70
0
 62
7
  6
CONTINUOUS
370
-3
390
F
  0
LAYER
  5
214
100
AcDbSymbolTableRecord
100
AcDbLayerTableRecord
  2
LAYER_AXIS
 70
0
 62
7
  6
CONTINUOUS
370
-3
390
F
  0
LAYER
  5
215
100
AcDbSymbolTableRecord
100
AcDbLayerTableRecord
  2
LAYER_CHAMFER_FEAT
 70
0
 62
7
  6
CONTINUOUS
370
-3
390
F
  0
LAYER
  5
216
100
AcDbSymbolTableRecord
100
AcDbLayerTableRecord
  2
LAYER_CUT_FEAT
 70
0
 62
7
  6
CONTINUOUS
370
-3
390
F
  0
LAYER
  5
217
100
AcDbSymbolTableRecord
100
AcDbLayerTableRecord
  2
LAYER_DATUM
 70
0
 62
7
  6
CONTINUOUS
370
-3
390
F
  0
LAYER
  5
218
100
AcDbSymbolTableRecord
100
AcDbLayerTableRecord
  2
LAYER_DIM
 70
0
 62
7
  6
CONTINUOUS
370
-3
390
F
  0
LAYER
  5
219
100
AcDbSymbolTableRecord
100
AcDbLayerTableRecord
  2
LAYER_FEATURE
 70
0
 62
7
  6
CONTINUOUS
370
-3
390
F
  0
LAYER
  5
21A
100
AcDbSymbolTableRecord
100
AcDbLayerTableRecord
  2
LAYER_GEOM_FEAT
 70
0
 62
7
  6
CONTINUOUS
370
-3
390
F
  0
LAYER
  5
21B
100
AcDbSymbolTableRecord
100
AcDbLayerTableRecord
  2
LAYER_NOGEOM_FEAT
 70
0
 62
7
  6
CONTINUOUS
370
-3
390
F
  0
LAYER
  5
21C
100
AcDbSymbolTableRecord
100
AcDbLayerTableRecord
  2
LAYER_PARAMETER_DIM
 70
0
 62
7
  6
CONTINUOUS
370
-3
390
F
  0
LAYER
  5
21D
100
AcDbSymbolTableRecord
100
AcDbLayerTableRecord
  2
LAYER_PROTRUSION_FEAT
 70
0
 62
7
  6
CONTINUOUS
370
-3
390
F
  0
LAYER
  5
21E
100
AcDbSymbolTableRecord
100
AcDbLayerTableRecord
  2
LAYER_QUILT
 70
0
 62
7
  6
CONTINUOUS
370
-3
390
F
  0
LAYER
  5
21F
100
AcDbSymbolTableRecord
100
AcDbLayerTableRecord
  2
LAYER_ROUND_FEAT
 70
0
 62
7
  6
CONTINUOUS
370
-3
390
F
  0
ENDTAB
  0
TABLE
  2
STYLE
  5
3
100
AcDbSymbolTable
 70
1
  0
STYLE
  5
11
100
AcDbSymbolTableRecord
100
AcDbTextStyleTableRecord
  2
STANDARD
 70
0
 40
0.0
 41
0.8
 50
0.0
 71
0
 42
0.2
  3
txt
  4

  0
STYLE
  5
220
100
AcDbSymbolTableRecord
100
AcDbTextStyleTableRecord
  2
TEXTSTYLE_1
 70
0
 40
0.0
 41
0.8
 50
0.0
 71
0
 42
0.2
  3
gdt
  4

  0
ENDTAB
  0
TABLE
  2
VIEW
  5
6
100
AcDbSymbolTable
 70
0
  0
ENDTAB
  0
TABLE
  2
UCS
  5
7
100
AcDbSymbolTable
 70
0
  0
ENDTAB
  0
TABLE
  2
APPID
  5
9
100
AcDbSymbolTable
 70
1
  0
APPID
  5
221
100
AcDbSymbolTableRecord
100
AcDbRegAppTableRecord
  2
ACAD
 70
0
  0
ENDTAB
  0
TABLE
  2
BLOCK_RECORD
  5
1
100
AcDbSymbolTable
 70
0
  0
BLOCK_RECORD
  5
222
100
AcDbSymbolTableRecord
100
AcDbBlockTableRecord
  2
*Model_Space
  0
BLOCK_RECORD
  5
223
100
AcDbSymbolTableRecord
100
AcDbBlockTableRecord
  2
*Paper_Space
  0
ENDTAB
  0
TABLE
  2
DIMSTYLE
  5
A
100
AcDbSymbolTable
 70
1
100
AcDbDimStyleTable
 71
0
  0
DIMSTYLE
105
224
100
AcDbSymbolTableRecord
100
AcDbDimStyleTableRecord
  2
STANDARD
 70
0
  3

  4

 40
1.0
 41
0.1875
 42
0.0625
 43
0.38
 44
0.125
 45
0.0
 46
0.0
 47
0.0001
 48
0.0001
140
0.15625
141
0.09
142
0.0
143
25.4
144
1.0
145
0.0
146
1.0
147
0.09
 71
0.0
 72
0.0
 73
1
 74
1
 75
0
 76
0
 77
0
 78
4
170
0
171
2
172
0
173
0
174
0
175
0
176
0
177
0
178
0
270
2
271
4
272
4
273
2
274
2
275
0
280
0
281
0
282
0
283
1
284
4
285
0
286
0
287
3
288
0
340
11
278
46
  0
ENDTAB
  0
ENDSEC
  0
SECTION
  2
BLOCKS
  0
BLOCK
  5
20
100
AcDbEntity
  8
0
100
AcDbBlockBegin
  2
*Model_Space
 70
0
 10
0.0
 20
0.0
 30
0.0
  3
*Model_Space
  1

  0
ENDBLK
  5
21
100
AcDbEntity
  8
0
100
AcDbBlockEnd
  0
BLOCK
  5
1C
100
AcDbEntity
  8
0
100
AcDbBlockBegin
  2
*Paper_Space
 70
0
 10
0.0
 20
0.0
 30
0.0
  3
*Paper_Space
  1

  0
ENDBLK
  5
1D
100
AcDbEntity
  8
0
100
AcDbBlockEnd
  0
ENDSEC
  0
SECTION
  2
ENTITIES
  0
MTEXT
  5
225
100
AcDbEntity
  8
0
100
AcDbMText
 62
7
  6
CONTINUOUS
  7
STANDARD
 71
1
 72
1
 10
15.9560215477
 20
0.9479130325
 30
0.0
 11
1.0
 21
0.0
 31
0.0
 44
0.9
  1
SCALE: 1:1.000
 40
0.3
 41
3.36
  0
LINE
  5
226
100
AcDbEntity
  8
0
100
AcDbLine
 62
7
  6
CONTINUOUS
 10
0.0
 20
0.0
 11
0.0
 21
17.0
  0
LINE
  5
227
100
AcDbEntity
  8
0
100
AcDbLine
 62
7
  6
CONTINUOUS
 10
0.0
 20
0.0
 11
22.0
 21
0.0
  0
LINE
  5
228
100
AcDbEntity
  8
0
100
AcDbLine
 62
7
  6
CONTINUOUS
 10
0.0
 20
17.0
 11
22.0
 21
17.0
  0
LINE
  5
229
100
AcDbEntity
  8
0
100
AcDbLine
 62
7
  6
CONTINUOUS
 10
22.0
 20
0.0
 11
22.0
 21
17.0
  0
LINE
  5
22A
100
AcDbEntity
  8
LAYER_FEATURE
100
AcDbLine
 62
7
  6
CONTINUOUS
 10
6.0647672762
 20
6.1766198968
 11
6.0610651126
 21
6.1729177332
  0
LINE
  5
22B
100
AcDbEntity
  8
LAYER_FEATURE
100
AcDbLine
 62
7
  6
CONTINUOUS
 10
6.7868672762
 20
5.4545198968
 11
6.7831651126
 21
5.4508177332
  0
LINE
  5
22C
100
AcDbEntity
  8
LAYER_FEATURE
100
AcDbLine
 62
7
  6
CONTINUOUS
 10
6.1959672762
 20
6.1766198968
 11
6.1996694398
 21
6.1729177332
  0
LINE
  5
22D
100
AcDbEntity
  8
LAYER_FEATURE
100
AcDbLine
 62
7
  6
CONTINUOUS
 10
6.7868672762
 20
5.5857198968
 11
6.7831651126
 21
5.5894220603
  0
LINE
  5
22E
100
AcDbEntity
  8
LAYER_FEATURE
100
AcDbLine
 62
7
  6
CONTINUOUS
 10
6.7868672762
 20
5.5857198968
 11
6.7868672762
 21
5.4545198968
  0
LINE
  5
22F
100
AcDbEntity
  8
LAYER_FEATURE
100
AcDbLine
 62
7
  6
CONTINUOUS
 10
6.0647672762
 20
6.1766198968
 11
6.1959672762
 21
6.1766198968
  0
LINE
  5
230
100
AcDbEntity
  8
LAYER_FEATURE
100
AcDbLine
 62
7
  6
CONTINUOUS
 10
5.0083720839
 20
12.5525477814
 11
5.0083720839
 21
12.5925477814
  0
LINE
  5
231
100
AcDbEntity
  8
LAYER_FEATURE
100
AcDbLine
 62
7
  6
CONTINUOUS
 10
5.0083720839
 20
12.9505477814
 11
5.0083720839
 21
12.9905477814
  0
LINE
  5
232
100
AcDbEntity
  8
02___PRT_ALL_AXES
100
AcDbLine
 62
7
  6
CONTINUOUS
 10
5.1258720839
 20
12.6165477814
 11
5.1258720839
 21
12.9265477814
  0
LINE
  5
233
100
AcDbEntity
  8
0
100
AcDbLine
 62
7
  6
CONTINUOUS
 10
5.1399730241
 20
12.9265477814
 11
5.1399730241
 21
12.6165477814
  0
LINE
  5
234
100
AcDbEntity
  8
0
100
AcDbLine
 62
7
  6
CONTINUOUS
 10
5.1931703847
 20
12.9265477814
 11
5.1931703847
 21
12.6165477814
  0
LINE
  5
235
100
AcDbEntity
  8
0
100
AcDbLine
 62
7
  6
CONTINUOUS
 10
5.2836786062
 20
12.9265477814
 11
5.2836786062
 21
12.6165477814
  0
LINE
  5
236
100
AcDbEntity
  8
0
100
AcDbLine
 62
7
  6
CONTINUOUS
 10
5.4075420448
 20
12.9265477814
 11
5.4075420448
 21
12.6165477814
  0
LINE
  5
237
100
AcDbEntity
  8
02___PRT_ALL_AXES
100
AcDbLine
 62
7
  6
CONTINUOUS
 10
5.4143720839
 20
12.2095477814
 11
5.4143720839
 21
12.5525477814
  0
LINE
  5
238
100
AcDbEntity
  8
0
100
AcDbLine
 62
7
  6
CONTINUOUS
 10
5.559347274
 20
12.9265477814
 11
5.559347274
 21
12.6165477814
  0
LINE
  5
239
100
AcDbEntity
  8
LAYER_FEATURE
100
AcDbLine
 62
7
  6
CONTINUOUS
 10
5.0083720839
 20
12.5925477814
 11
5.0459920862
 21
12.6069938623
  0
LINE
  5
23A
100
AcDbEntity
  8
02___PRT_ALL_AXES
100
AcDbLine
 62
7
  6
CONTINUOUS
 10
5.4143720839
 20
12.2095477814
 11
6.7273720839
 21
12.2095477814
  0
LINE
  5
23B
100
AcDbEntity
  8
LAYER_CUT_FEAT
100
AcDbLine
 62
7
  6
CONTINUOUS
 10
6.0472007228
 20
12.3400477814
 11
6.0945434449
 21
12.3400477814
  0
LINE
  5
23C
100
AcDbEntity
  8
LAYER_CUT_FEAT
100
AcDbLine
 62
7
  6
CONTINUOUS
 10
6.0945434449
 20
12.4220477814
 11
6.0472007228
 21
12.4220477814
  0
LINE
  5
23D
100
AcDbEntity
  8
LAYER_CUT_FEAT
100
AcDbLine
 62
7
  6
CONTINUOUS
 10
6.0235293618
 20
12.3810477814
 11
6.0472007228
 21
12.3400477814
  0
LINE
  5
23E
100
AcDbEntity
  8
LAYER_CUT_FEAT
100
AcDbLine
 62
7
  6
CONTINUOUS
 10
6.1182148059
 20
12.3810477814
 11
6.0945434449
 21
12.4220477814
  0
LINE
  5
23F
100
AcDbEntity
  8
LAYER_FEATURE
100
AcDbLine
 62
7
  6
CONTINUOUS
 10
5.0083720839
 20
12.5525477814
 11
7.1333720839
 21
12.5525477814
  0
LINE
  5
240
100
AcDbEntity
  8
LAYER_FEATURE
100
AcDbLine
 62
7
  6
CONTINUOUS
 10
5.0083720839
 20
12.5925477814
 11
7.1333720839
 21
12.5925477814
  0
LINE
  5
241
100
AcDbEntity
  8
LAYER_FEATURE
100
AcDbLine
 62
7
  6
CONTINUOUS
 10
5.0459920862
 20
12.9361017005
 11
5.0083720839
 21
12.9505477814
  0
LINE
  5
242
100
AcDbEntity
  8
LAYER_CUT_FEAT
100
AcDbLine
 62
7
  6
CONTINUOUS
 10
6.0472007228
 20
12.4220477814
 11
6.0235293618
 21
12.3810477814
  0
LINE
  5
243
100
AcDbEntity
  8
LAYER_FEATURE
100
AcDbLine
 62
7
  6
CONTINUOUS
 10
7.0957520815
 20
12.9361017005
 11
7.1333720839
 21
12.9505477814
  0
LINE
  5
244
100
AcDbEntity
  8
LAYER_FEATURE
100
AcDbLine
 62
7
  6
CONTINUOUS
 10
7.0442207864
 20
12.6165477814
 11
5.0975233813
 21
12.6165477814
  0
LINE
  5
245
100
AcDbEntity
  8
LAYER_CUT_FEAT
100
AcDbLine
 62
7
  6
CONTINUOUS
 10
6.0945434449
 20
12.3400477814
 11
6.1182148059
 21
12.3810477814
  0
LINE
  5
246
100
AcDbEntity
  8
LAYER_FEATURE
100
AcDbLine
 62
7
  6
CONTINUOUS
 10
7.0442207864
 20
12.9265477814
 11
5.0975233813
 21
12.9265477814
  0
LINE
  5
247
100
AcDbEntity
  8
LAYER_FEATURE
100
AcDbLine
 62
7
  6
CONTINUOUS
 10
5.0083720839
 20
12.9505477814
 11
7.1333720839
 21
12.9505477814
  0
LINE
  5
248
100
AcDbEntity
  8
LAYER_FEATURE
100
AcDbLine
 62
7
  6
CONTINUOUS
 10
7.1333720839
 20
12.5925477814
 11
7.0957520815
 21
12.6069938623
  0
LINE
  5
249
100
AcDbEntity
  8
LAYER_FEATURE
100
AcDbLine
 62
7
  6
CONTINUOUS
 10
6.7256970727
 20
12.4483227925
 11
6.7273720839
 21
12.4466477814
  0
LINE
  5
24A
100
AcDbEntity
  8
LAYER_FEATURE
100
AcDbLine
 62
7
  6
CONTINUOUS
 10
5.0083720839
 20
12.9905477814
 11
7.1333720839
 21
12.9905477814
  0
LINE
  5
24B
100
AcDbEntity
  8
LAYER_CUT_FEAT
100
AcDbLine
 62
7
  6
CONTINUOUS
 10
6.5823968938
 20
12.9265477814
 11
6.5823968938
 21
12.6165477814
  0
LINE
  5
24C
100
AcDbEntity
  8
02___PRT_ALL_AXES
100
AcDbLine
 62
7
  6
CONTINUOUS
 10
6.7273720839
 20
12.2095477814
 11
6.7273720839
 21
12.2990477814
  0
LINE
  5
24D
100
AcDbEntity
  8
LAYER_FEATURE
100
AcDbLine
 62
7
  6
CONTINUOUS
 10
6.7273720839
 20
12.3154478461
 11
6.7273720839
 21
12.4466477167
  0
LINE
  5
24E
100
AcDbEntity
  8
02___PRT_ALL_AXES
100
AcDbLine
 62
7
  6
CONTINUOUS
 10
6.7273720839
 20
12.4630477814
 11
6.7273720839
 21
12.5525477814
  0
LINE
  5
24F
100
AcDbEntity
  8
LAYER_CUT_FEAT
100
AcDbLine
 62
7
  6
CONTINUOUS
 10
6.7342021229
 20
12.9265477814
 11
6.7342021229
 21
12.6165477814
  0
LINE
  5
250
100
AcDbEntity
  8
LAYER_FEATURE
100
AcDbLine
 62
7
  6
CONTINUOUS
 10
6.7256970725
 20
12.31377277
 11
6.7273720839
 21
12.3154477814
  0
LINE
  5
251
100
AcDbEntity
  8
LAYER_CUT_FEAT
100
AcDbLine
 62
7
  6
CONTINUOUS
 10
6.8580655615
 20
12.9265477814
 11
6.8580655615
 21
12.6165477814
  0
LINE
  5
252
100
AcDbEntity
  8
LAYER_CUT_FEAT
100
AcDbLine
 62
7
  6
CONTINUOUS
 10
6.948573783
 20
12.9265477814
 11
6.948573783
 21
12.6165477814
  0
LINE
  5
253
100
AcDbEntity
  8
LAYER_CUT_FEAT
100
AcDbLine
 62
7
  6
CONTINUOUS
 10
7.0017711437
 20
12.9265477814
 11
7.0017711437
 21
12.6165477814
  0
LINE
  5
254
100
AcDbEntity
  8
02___PRT_ALL_AXES
100
AcDbLine
 62
7
  6
CONTINUOUS
 10
7.0158720839
 20
12.6165477814
 11
7.0158720839
 21
12.9265477814
  0
LINE
  5
255
100
AcDbEntity
  8
LAYER_FEATURE
100
AcDbLine
 62
7
  6
CONTINUOUS
 10
7.1333720839
 20
12.5525477814
 11
7.1333720839
 21
12.5925477814
  0
LINE
  5
256
100
AcDbEntity
  8
LAYER_FEATURE
100
AcDbLine
 62
7
  6
CONTINUOUS
 10
7.1333720839
 20
12.9505477814
 11
7.1333720839
 21
12.9905477814
  0
LINE
  5
257
100
AcDbEntity
  8
LAYER_FEATURE
100
AcDbLine
 62
7
  6
CONTINUOUS
 10
15.9508552569
 20
4.3981247044
 11
15.9108552569
 21
4.3981247044
  0
LINE
  5
258
100
AcDbEntity
  8
LAYER_FEATURE
100
AcDbLine
 62
7
  6
CONTINUOUS
 10
15.5528552569
 20
4.3981247044
 11
15.5128552569
 21
4.3981247044
  0
LINE
  5
259
100
AcDbEntity
  8
LAYER_CUT_FEAT
100
AcDbLine
 62
7
  6
CONTINUOUS
 10
15.8868552569
 20
4.5179120808
 11
15.5768552569
 21
4.5179120808
  0
LINE
  5
25A
100
AcDbEntity
  8
LAYER_CUT_FEAT
100
AcDbLine
 62
7
  6
CONTINUOUS
 10
15.8868552569
 20
4.5514753844
 11
15.5768552569
 21
4.5514753844
  0
LINE
  5
25B
100
AcDbEntity
  8
LAYER_CUT_FEAT
100
AcDbLine
 62
7
  6
CONTINUOUS
 10
15.8868552569
 20
4.6237239607
 11
15.5768552569
 21
4.6237239607
  0
LINE
  5
25C
100
AcDbEntity
  8
LAYER_CUT_FEAT
100
AcDbLine
 62
7
  6
CONTINUOUS
 10
15.8868552569
 20
4.7315002003
 11
15.5768552569
 21
4.7315002003
  0
LINE
  5
25D
100
AcDbEntity
  8
LAYER_FEATURE
100
AcDbLine
 62
7
  6
CONTINUOUS
 10
15.2740809811
 20
6.1154504286
 11
15.2757552569
 21
6.1171247044
  0
LINE
  5
25E
100
AcDbEntity
  8
02___PRT_ALL_AXES
100
AcDbLine
 62
7
  6
CONTINUOUS
 10
15.5128552569
 20
4.8041247044
 11
15.1698552569
 21
4.8041247044
  0
LINE
  5
25F
100
AcDbEntity
  8
LAYER_CUT_FEAT
100
AcDbLine
 62
7
  6
CONTINUOUS
 10
15.8868552569
 20
4.8700937642
 11
15.5768552569
 21
4.8700937642
  0
LINE
  5
260
100
AcDbEntity
  8
02___PRT_ALL_AXES
100
AcDbLine
 62
7
  6
CONTINUOUS
 10
15.1698552569
 20
6.1171247044
 11
15.1698552569
 21
4.8041247044
  0
LINE
  5
261
100
AcDbEntity
  8
LAYER_CUT_FEAT
100
AcDbLine
 62
7
  6
CONTINUOUS
 10
15.8868552569
 20
5.0334474487
 11
15.5768552569
 21
5.0334474487
  0
LINE
  5
262
100
AcDbEntity
  8
LAYER_CUT_FEAT
100
AcDbLine
 62
7
  6
CONTINUOUS
 10
15.3003552569
 20
5.4842960655
 11
15.3003552569
 21
5.4369533434
  0
LINE
  5
263
100
AcDbEntity
  8
LAYER_CUT_FEAT
100
AcDbLine
 62
7
  6
CONTINUOUS
 10
15.3823552569
 20
5.4369533434
 11
15.3823552569
 21
5.4842960655
  0
LINE
  5
264
100
AcDbEntity
  8
LAYER_CUT_FEAT
100
AcDbLine
 62
7
  6
CONTINUOUS
 10
15.3413552569
 20
5.5079674265
 11
15.3003552569
 21
5.4842960655
  0
LINE
  5
265
100
AcDbEntity
  8
LAYER_CUT_FEAT
100
AcDbLine
 62
7
  6
CONTINUOUS
 10
15.3003552569
 20
5.4369533434
 11
15.3413552569
 21
5.4132819824
  0
LINE
  5
266
100
AcDbEntity
  8
LAYER_CUT_FEAT
100
AcDbLine
 62
7
  6
CONTINUOUS
 10
15.3413552569
 20
5.4132819824
 11
15.3823552569
 21
5.4369533434
  0
LINE
  5
267
100
AcDbEntity
  8
LAYER_CUT_FEAT
100
AcDbLine
 62
7
  6
CONTINUOUS
 10
15.3823552569
 20
5.4842960655
 11
15.3413552569
 21
5.5079674265
  0
LINE
  5
268
100
AcDbEntity
  8
LAYER_FEATURE
100
AcDbLine
 62
7
  6
CONTINUOUS
 10
15.5128552569
 20
6.5231247044
 11
15.5128552569
 21
4.3981247044
  0
LINE
  5
269
100
AcDbEntity
  8
LAYER_FEATURE
100
AcDbLine
 62
7
  6
CONTINUOUS
 10
15.5528552569
 20
6.5231247044
 11
15.5528552569
 21
4.3981247044
  0
LINE
  5
26A
100
AcDbEntity
  8
LAYER_FEATURE
100
AcDbLine
 62
7
  6
CONTINUOUS
 10
15.9108552569
 20
6.5231247044
 11
15.896409176
 21
6.4855047021
  0
LINE
  5
26B
100
AcDbEntity
  8
LAYER_FEATURE
100
AcDbLine
 62
7
  6
CONTINUOUS
 10
15.9108552569
 20
4.3981247044
 11
15.896409176
 21
4.4357447068
  0
LINE
  5
26C
100
AcDbEntity
  8
LAYER_FEATURE
100
AcDbLine
 62
7
  6
CONTINUOUS
 10
15.5768552569
 20
4.4872760019
 11
15.5768552569
 21
6.433973407
  0
LINE
  5
26D
100
AcDbEntity
  8
LAYER_FEATURE
100
AcDbLine
 62
7
  6
CONTINUOUS
 10
15.8868552569
 20
4.4872760019
 11
15.8868552569
 21
6.433973407
  0
LINE
  5
26E
100
AcDbEntity
  8
LAYER_FEATURE
100
AcDbLine
 62
7
  6
CONTINUOUS
 10
15.9108552569
 20
6.5231247044
 11
15.9108552569
 21
4.3981247044
  0
LINE
  5
26F
100
AcDbEntity
  8
LAYER_FEATURE
100
AcDbLine
 62
7
  6
CONTINUOUS
 10
15.5673013378
 20
4.4357447068
 11
15.5528552569
 21
4.3981247044
  0
LINE
  5
270
100
AcDbEntity
  8
LAYER_FEATURE
100
AcDbLine
 62
7
  6
CONTINUOUS
 10
15.4086295329
 20
6.1154504285
 11
15.4069552569
 21
6.1171247044
  0
LINE
  5
271
100
AcDbEntity
  8
LAYER_FEATURE
100
AcDbLine
 62
7
  6
CONTINUOUS
 10
15.5673013378
 20
6.4855047021
 11
15.5528552569
 21
6.5231247044
  0
LINE
  5
272
100
AcDbEntity
  8
LAYER_FEATURE
100
AcDbLine
 62
7
  6
CONTINUOUS
 10
15.9508552569
 20
6.5231247044
 11
15.9508552569
 21
4.3981247044
  0
LINE
  5
273
100
AcDbEntity
  8
LAYER_CUT_FEAT
100
AcDbLine
 62
7
  6
CONTINUOUS
 10
15.8868552569
 20
5.8878019601
 11
15.5768552569
 21
5.8878019601
  0
LINE
  5
274
100
AcDbEntity
  8
LAYER_CUT_FEAT
100
AcDbLine
 62
7
  6
CONTINUOUS
 10
15.8868552569
 20
6.0511556447
 11
15.5768552569
 21
6.0511556447
  0
LINE
  5
275
100
AcDbEntity
  8
02___PRT_ALL_AXES
100
AcDbLine
 62
7
  6
CONTINUOUS
 10
15.5128552569
 20
6.1171247044
 11
15.4233552569
 21
6.1171247044
  0
LINE
  5
276
100
AcDbEntity
  8
02___PRT_ALL_AXES
100
AcDbLine
 62
7
  6
CONTINUOUS
 10
15.2593552569
 20
6.1171247044
 11
15.1698552569
 21
6.1171247044
  0
LINE
  5
277
100
AcDbEntity
  8
LAYER_FEATURE
100
AcDbLine
 62
7
  6
CONTINUOUS
 10
15.2757552569
 20
6.1171247044
 11
15.4069552569
 21
6.1171247044
  0
LINE
  5
278
100
AcDbEntity
  8
LAYER_CUT_FEAT
100
AcDbLine
 62
7
  6
CONTINUOUS
 10
15.8868552569
 20
6.1897492086
 11
15.5768552569
 21
6.1897492086
  0
LINE
  5
279
100
AcDbEntity
  8
LAYER_CUT_FEAT
100
AcDbLine
 62
7
  6
CONTINUOUS
 10
15.8868552569
 20
6.2975254482
 11
15.5768552569
 21
6.2975254482
  0
LINE
  5
27A
100
AcDbEntity
  8
LAYER_CUT_FEAT
100
AcDbLine
 62
7
  6
CONTINUOUS
 10
15.8868552569
 20
6.3697740245
 11
15.5768552569
 21
6.3697740245
  0
LINE
  5
27B
100
AcDbEntity
  8
0
100
AcDbLine
 62
7
  6
CONTINUOUS
 10
15.8868552569
 20
6.4033373281
 11
15.5768552569
 21
6.4033373281
  0
LINE
  5
27C
100
AcDbEntity
  8
LAYER_FEATURE
100
AcDbLine
 62
7
  6
CONTINUOUS
 10
15.9508552569
 20
6.5231247044
 11
15.9108552569
 21
6.5231247044
  0
LINE
  5
27D
100
AcDbEntity
  8
LAYER_FEATURE
100
AcDbLine
 62
7
  6
CONTINUOUS
 10
15.5528552569
 20
6.5231247044
 11
15.5128552569
 21
6.5231247044
  0
LINE
  5
27E
100
AcDbEntity
  8
LAYER_FEATURE
100
AcDbLine
 62
7
  6
CONTINUOUS
 10
14.4029652966
 20
12.6611104733
 11
14.4126479496
 21
12.6924435497
  0
LINE
  5
27F
100
AcDbEntity
  8
LAYER_FEATURE
100
AcDbLine
 62
7
  6
CONTINUOUS
 10
14.4993076933
 20
12.9728745834
 11
14.5089903463
 21
13.0042076598
  0
LINE
  5
280
100
AcDbEntity
  8
0
100
AcDbLine
 62
7
  6
CONTINUOUS
 10
14.6254950342
 20
12.967922266
 11
14.6127822752
 21
12.9267837629
  0
LINE
  5
281
100
AcDbEntity
  8
0
100
AcDbLine
 62
7
  6
CONTINUOUS
 10
14.6946142402
 20
13.0595545135
 11
14.6614938859
 21
12.9523770078
  0
LINE
  5
282
100
AcDbEntity
  8
LAYER_FEATURE
100
AcDbLine
 62
7
  6
CONTINUOUS
 10
14.6260093009
 20
12.9691871284
 11
14.6254950343
 21
12.967922266
  0
LINE
  5
283
100
AcDbEntity
  8
0
100
AcDbLine
 62
7
  6
CONTINUOUS
 10
14.7983078057
 20
13.1331762683
 11
14.7537189392
 21
12.9888866436
  0
LINE
  5
284
100
AcDbEntity
  8
LAYER_CUT_FEAT
100
AcDbLine
 62
7
  6
CONTINUOUS
 10
14.6776487894
 20
12.576226854
 11
14.6834583811
 21
12.5950266999
  0
LINE
  5
285
100
AcDbEntity
  8
0
100
AcDbLine
 62
7
  6
CONTINUOUS
 10
14.9320438242
 20
13.1855699064
 11
14.88098397
 21
13.0203401576
  0
LINE
  5
286
100
AcDbEntity
  8
02___PRT_ALL_AXES
100
AcDbLine
 62
7
  6
CONTINUOUS
 10
14.7078374105
 20
12.2725589105
 11
14.7908661594
 21
12.5412400405
  0
LINE
  5
287
100
AcDbEntity
  8
0
100
AcDbLine
 62
7
  6
CONTINUOUS
 10
15.0899773902
 20
13.2144455744
 11
15.0352871833
 21
13.037468
  0
LINE
  5
288
100
AcDbEntity
  8
0
100
AcDbLine
 62
7
  6
CONTINUOUS
 10
15.2652060488
 20
13.2185412671
 11
15.2086171457
 21
13.0354195094
  0
LINE
  5
289
100
AcDbEntity
  8
LAYER_FEATURE
100
AcDbLine
 62
7
  6
CONTINUOUS
 10
15.442371809
 20
13.1858772207
 11
15.4509414681
 21
13.1995703073
  0
LINE
  5
28A
100
AcDbEntity
  8
LAYER_FEATURE
100
AcDbLine
 62
7
  6
CONTINUOUS
 10
15.6257429209
 20
13.1456923238
 11
15.6393965173
 21
13.1569408508
  0
LINE
  5
28B
100
AcDbEntity
  8
LAYER_FEATURE
100
AcDbLine
 62
7
  6
CONTINUOUS
 10
15.8039957563
 20
13.0834226091
 11
15.8221365623
 21
13.0917349619
  0
LINE
  5
28C
100
AcDbEntity
  8
LAYER_CUT_FEAT
100
AcDbLine
 62
7
  6
CONTINUOUS
 10
15.1644475357
 20
12.6532729236
 11
15.1327200491
 21
12.6211565203
  0
LINE
  5
28D
100
AcDbEntity
  8
LAYER_CUT_FEAT
100
AcDbLine
 62
7
  6
CONTINUOUS
 10
15.1894609687
 20
12.6023009062
 11
15.1763607624
 21
12.589040117
  0
LINE
  5
28E
100
AcDbEntity
  8
LAYER_CUT_FEAT
100
AcDbLine
 62
7
  6
CONTINUOUS
 10
15.9957036241
 20
12.1836408682
 11
15.9700184632
 21
12.1836408682
  0
LINE
  5
28F
100
AcDbEntity
  8
LAYER_CUT_FEAT
100
AcDbLine
 62
7
  6
CONTINUOUS
 10
15.9984075872
 20
12.2304716255
 11
15.9661261917
 21
12.2304716255
  0
LINE
  5
290
100
AcDbEntity
  8
LAYER_CUT_FEAT
100
AcDbLine
 62
7
  6
CONTINUOUS
 10
15.1327200491
 20
12.6211565203
 11
15.1445980972
 21
12.589040117
  0
LINE
  5
291
100
AcDbEntity
  8
LAYER_CUT_FEAT
100
AcDbLine
 62
7
  6
CONTINUOUS
 10
15.1882036318
 20
12.589040117
 11
15.2199311184
 21
12.6211565203
  0
LINE
  5
292
100
AcDbEntity
  8
LAYER_CUT_FEAT
100
AcDbLine
 62
7
  6
CONTINUOUS
 10
15.1327200491
 20
12.6211565203
 11
15.1484804907
 21
12.589040117
  0
LINE
  5
293
100
AcDbEntity
  8
LAYER_CUT_FEAT
100
AcDbLine
 62
7
  6
CONTINUOUS
 10
15.1644475357
 20
12.6532729236
 11
15.1894609687
 21
12.6023009062
  0
LINE
  5
294
100
AcDbEntity
  8
LAYER_CUT_FEAT
100
AcDbLine
 62
7
  6
CONTINUOUS
 10
15.2199311184
 20
12.6211565203
 11
15.2080530703
 21
12.6532729236
  0
LINE
  5
295
100
AcDbEntity
  8
LAYER_CUT_FEAT
100
AcDbLine
 62
7
  6
CONTINUOUS
 10
15.1445980972
 20
12.589040117
 11
15.1882036318
 21
12.589040117
  0
LINE
  5
296
100
AcDbEntity
  8
LAYER_CUT_FEAT
100
AcDbLine
 62
7
  6
CONTINUOUS
 10
15.2013038382
 20
12.6023009062
 11
15.1894609687
 21
12.6023009062
  0
LINE
  5
297
100
AcDbEntity
  8
LAYER_CUT_FEAT
100
AcDbLine
 62
7
  6
CONTINUOUS
 10
15.2080530703
 20
12.6532729236
 11
15.1644475357
 21
12.6532729236
  0
LINE
  5
298
100
AcDbEntity
  8
LAYER_FEATURE
100
AcDbLine
 62
7
  6
CONTINUOUS
 10
15.9796574731
 20
12.2873801231
 11
15.992062721
 21
12.2725180137
  0
LINE
  5
299
100
AcDbEntity
  8
LAYER_FEATURE
100
AcDbLine
 62
7
  6
CONTINUOUS
 10
15.9184769942
 20
13.0466393998
 11
15.9162953594
 21
13.03085679
  0
LINE
  5
29A
100
AcDbEntity
  8
LAYER_FEATURE
100
AcDbLine
 62
7
  6
CONTINUOUS
 10
15.969339811
 20
13.0017895619
 11
15.9911749862
 21
13.0068024508
  0
LINE
  5
29B
100
AcDbEntity
  8
LAYER_FEATURE
100
AcDbLine
 62
7
  6
CONTINUOUS
 10
16.1145487563
 20
12.9043609381
 11
16.1391239989
 21
12.9058552758
  0
LINE
  5
29C
100
AcDbEntity
  8
LAYER_FEATURE
100
AcDbLine
 62
7
  6
CONTINUOUS
 10
16.2332762646
 20
12.7953948361
 11
16.2595175186
 21
12.7933053128
  0
LINE
  5
29D
100
AcDbEntity
  8
LAYER_FEATURE
100
AcDbLine
 62
7
  6
CONTINUOUS
 10
14.6664569765
 20
13.0068024508
 11
14.6776637562
 21
13.0047027272
  0
LINE
  5
29E
100
AcDbEntity
  8
LAYER_FEATURE
100
AcDbLine
 62
7
  6
CONTINUOUS
 10
16.320333374
 20
12.6796535973
 11
16.3470937706
 21
12.6740715353
  0
LINE
  5
29F
100
AcDbEntity
  8
LAYER_FEATURE
100
AcDbLine
 62
7
  6
CONTINUOUS
 10
14.7521377549
 20
13.0917349619
 11
14.7784367814
 21
13.0834226091
  0
LINE
  5
2A0
100
AcDbEntity
  8
LAYER_FEATURE
100
AcDbLine
 62
7
  6
CONTINUOUS
 10
16.3729535052
 20
12.5618445291
 11
16.3980252526
 21
12.5533650316
  0
LINE
  5
2A1
100
AcDbEntity
  8
LAYER_FEATURE
100
AcDbLine
 62
7
  6
CONTINUOUS
 10
14.8708809945
 20
13.1569408508
 11
14.8955745415
 21
13.1456923238
  0
LINE
  5
2A2
100
AcDbEntity
  8
LAYER_FEATURE
100
AcDbLine
 62
7
  6
CONTINUOUS
 10
16.4051717664
 20
12.4388242212
 11
16.4100860144
 21
12.436461255
  0
LINE
  5
2A3
100
AcDbEntity
  8
LAYER_FEATURE
100
AcDbLine
 62
7
  6
CONTINUOUS
 10
15.0174970461
 20
13.1995703073
 11
15.039505887
 21
13.1858772207
  0
LINE
  5
2A4
100
AcDbEntity
  8
LAYER_FEATURE
100
AcDbLine
 62
7
  6
CONTINUOUS
 10
15.1855780846
 20
13.2177602196
 11
15.2039403276
 21
13.202221027
  0
LINE
  5
2A5
100
AcDbEntity
  8
LAYER_FEATURE
100
AcDbLine
 62
7
  6
CONTINUOUS
 10
15.3677781621
 20
13.2107156011
 11
15.381691289
 21
13.1940094398
  0
LINE
  5
2A6
100
AcDbEntity
  8
LAYER_CUT_FEAT
100
AcDbLine
 62
7
  6
CONTINUOUS
 10
15.9641166363
 20
12.1956675268
 11
15.9785581486
 21
12.1662388189
  0
LINE
  5
2A7
100
AcDbEntity
  8
LAYER_CUT_FEAT
100
AcDbLine
 62
7
  6
CONTINUOUS
 10
15.9984075872
 20
12.2304716255
 11
15.9839660749
 21
12.2599003334
  0
LINE
  5
2A8
100
AcDbEntity
  8
LAYER_CUT_FEAT
100
AcDbLine
 62
7
  6
CONTINUOUS
 10
16.0772507211
 20
12.9537503921
 11
16.0210500416
 21
12.7718849266
  0
LINE
  5
2A9
100
AcDbEntity
  8
LAYER_FEATURE
100
AcDbLine
 62
7
  6
CONTINUOUS
 10
15.5561342609
 20
13.1787443356
 11
15.5649902013
 21
13.161601345
  0
LINE
  5
2AA
100
AcDbEntity
  8
LAYER_FEATURE
100
AcDbLine
 62
7
  6
CONTINUOUS
 10
15.7424143157
 20
13.1232437208
 11
15.7458260225
 21
13.1064131318
  0
LINE
  5
2AB
100
AcDbEntity
  8
LAYER_CUT_FEAT
100
AcDbLine
 62
7
  6
CONTINUOUS
 10
15.9668205994
 20
12.2424982841
 11
15.9641166363
 21
12.1956675268
  0
LINE
  5
2AC
100
AcDbEntity
  8
LAYER_CUT_FEAT
100
AcDbLine
 62
7
  6
CONTINUOUS
 10
15.9957036241
 20
12.1836408682
 11
15.9984075872
 21
12.2304716255
  0
LINE
  5
2AD
100
AcDbEntity
  8
LAYER_CUT_FEAT
100
AcDbLine
 62
7
  6
CONTINUOUS
 10
15.9839660749
 20
12.2599003334
 11
15.9668205994
 21
12.2424982841
  0
LINE
  5
2AE
100
AcDbEntity
  8
LAYER_CUT_FEAT
100
AcDbLine
 62
7
  6
CONTINUOUS
 10
16.2124539004
 20
12.8481124208
 11
16.158547702
 21
12.6736718988
  0
LINE
  5
2AF
100
AcDbEntity
  8
LAYER_FEATURE
100
AcDbLine
 62
7
  6
CONTINUOUS
 10
15.9796574731
 20
12.1387590292
 11
15.992062721
 21
12.1536211386
  0
LINE
  5
2B0
100
AcDbEntity
  8
LAYER_CUT_FEAT
100
AcDbLine
 62
7
  6
CONTINUOUS
 10
15.9785581486
 20
12.1662388189
 11
15.9957036241
 21
12.1836408682
  0
LINE
  5
2B1
100
AcDbEntity
  8
LAYER_FEATURE
100
AcDbLine
 62
7
  6
CONTINUOUS
 10
15.5846614977
 20
13.148232856
 11
15.6034121678
 21
13.1433227087
  0
LINE
  5
2B2
100
AcDbEntity
  8
LAYER_FEATURE
100
AcDbLine
 62
7
  6
CONTINUOUS
 10
15.7618518119
 20
13.0914970886
 11
15.7798052713
 21
13.0844013123
  0
LINE
  5
2B3
100
AcDbEntity
  8
02___PRT_ALL_AXES
100
AcDbLine
 62
7
  6
CONTINUOUS
 10
15.962304979
 20
11.8848991118
 11
16.0453337279
 21
12.1535802418
  0
LINE
  5
2B4
100
AcDbEntity
  8
LAYER_CUT_FEAT
100
AcDbLine
 62
7
  6
CONTINUOUS
 10
16.3178988735
 20
12.7330856119
 11
16.2682252979
 21
12.5723418625
  0
LINE
  5
2B5
100
AcDbEntity
  8
LAYER_FEATURE
100
AcDbLine
 62
7
  6
CONTINUOUS
 10
15.0645112124
 20
13.1802628508
 11
15.0801603871
 21
13.1826777408
  0
LINE
  5
2B6
100
AcDbEntity
  8
LAYER_FEATURE
100
AcDbLine
 62
7
  6
CONTINUOUS
 10
15.2282016961
 20
13.1936072771
 11
15.2460892785
 21
13.1936072771
  0
LINE
  5
2B7
100
AcDbEntity
  8
LAYER_FEATURE
100
AcDbLine
 62
7
  6
CONTINUOUS
 10
15.4041483624
 20
13.1827727723
 11
15.4228767488
 21
13.1802628508
  0
LINE
  5
2B8
100
AcDbEntity
  8
LAYER_FEATURE
100
AcDbLine
 62
7
  6
CONTINUOUS
 10
15.927975238
 20
13.0150450951
 11
15.9443468344
 21
13.0060738094
  0
LINE
  5
2B9
100
AcDbEntity
  8
LAYER_FEATURE
100
AcDbLine
 62
7
  6
CONTINUOUS
 10
16.075771385
 20
12.9222181946
 11
16.0898456012
 21
12.9117634878
  0
LINE
  5
2BA
100
AcDbEntity
  8
LAYER_FEATURE
100
AcDbLine
 62
7
  6
CONTINUOUS
 10
16.201877713
 20
12.8138878659
 11
16.2099425773
 21
12.805592161
  0
LINE
  5
2BB
100
AcDbEntity
  8
LAYER_CUT_FEAT
100
AcDbLine
 62
7
  6
CONTINUOUS
 10
16.1585510979
 20
12.1185934282
 11
16.1643606897
 21
12.1373932741
  0
LINE
  5
2BC
100
AcDbEntity
  8
LAYER_CUT_FEAT
100
AcDbLine
 62
7
  6
CONTINUOUS
 10
16.388977189
 20
12.6136971889
 11
16.3468720013
 21
12.4774447517
  0
LINE
  5
2BD
100
AcDbEntity
  8
LAYER_CUT_FEAT
100
AcDbLine
 62
7
  6
CONTINUOUS
 10
16.4225823835
 20
12.4951649989
 11
16.3939891505
 21
12.402637263
  0
LINE
  5
2BE
100
AcDbEntity
  8
LAYER_FEATURE
100
AcDbLine
 62
7
  6
CONTINUOUS
 10
16.4172456834
 20
12.3826694875
 11
16.4173953332
 21
12.3832246159
  0
LINE
  5
2BF
100
AcDbEntity
  8
LAYER_CUT_FEAT
100
AcDbLine
 62
7
  6
CONTINUOUS
 10
16.4172457488
 20
12.3826694673
 11
16.4121739198
 21
12.3662570226
  0
LINE
  5
2C0
100
AcDbEntity
  8
LAYER_FEATURE
100
AcDbLine
 62
7
  6
CONTINUOUS
 10
16.4332345907
 20
12.0337098089
 11
16.4429172436
 21
12.0650428853
  0
LINE
  5
2C1
100
AcDbEntity
  8
LAYER_FEATURE
100
AcDbLine
 62
7
  6
CONTINUOUS
 10
16.5295769874
 20
12.345473919
 11
16.5392596403
 21
12.3768069954
  0
CIRCLE
  5
2C2
100
AcDbEntity
  8
LAYER_FEATURE
100
AcDbCircle
 62
7
  6
CONTINUOUS
 10
6.1303672762
 20
5.5201198968
 40
1.0625
  0
CIRCLE
  5
2C3
100
AcDbEntity
  8
LAYER_FEATURE
100
AcDbCircle
 62
7
  6
CONTINUOUS
 10
6.1303672762
 20
5.5201198968
 40
1.0
  0
CIRCLE
  5
2C4
100
AcDbEntity
  8
LAYER_CUT_FEAT
100
AcDbCircle
 62
7
  6
CONTINUOUS
 10
6.1303672762
 20
5.5201198968
 40
0.775
  0
CIRCLE
  5
2C5
100
AcDbEntity
  8
02___PRT_ALL_AXES
100
AcDbCircle
 62
7
  6
CONTINUOUS
 10
6.1303672762
 20
5.5201198968
 40
0.6565
  0
CIRCLE
  5
2C6
100
AcDbEntity
  8
LAYER_CHAMFER_FEAT
100
AcDbCircle
 62
7
  6
CONTINUOUS
 10
6.1303672762
 20
5.5201198968
 40
0.14375
  0
CIRCLE
  5
2C7
100
AcDbEntity
  8
LAYER_CHAMFER_FEAT
100
AcDbCircle
 62
7
  6
CONTINUOUS
 10
6.1303672762
 20
5.5201198968
 40
0.125
  0
ARC
  5
2C8
100
AcDbEntity
  8
LAYER_FEATURE
100
AcDbCircle
 62
7
  6
CONTINUOUS
 10
7.0442207864
 20
12.4727977814
 40
0.14375
100
AcDbArc
 50
68.9932105692
 51
90.0
  0
ARC
  5
2C9
100
AcDbEntity
  8
LAYER_FEATURE
100
AcDbCircle
 62
7
  6
CONTINUOUS
 10
5.0975233813
 20
12.4727977814
 40
0.14375
100
AcDbArc
 50
90.0
 51
111.0067894308
  0
ARC
  5
2CA
100
AcDbEntity
  8
LAYER_FEATURE
100
AcDbCircle
 62
7
  6
CONTINUOUS
 10
7.0442207864
 20
13.0702977814
 40
0.14375
100
AcDbArc
 50
270.0
 51
291.0067894308
  0
ARC
  5
2CB
100
AcDbEntity
  8
LAYER_FEATURE
100
AcDbCircle
 62
7
  6
CONTINUOUS
 10
5.0975233813
 20
13.0702977814
 40
0.14375
100
AcDbArc
 50
248.9932105692
 51
270.0
  0
CIRCLE
  5
2CC
100
AcDbEntity
  8
02___PRT_ALL_AXES
100
AcDbCircle
 62
7
  6
CONTINUOUS
 10
6.0708720839
 20
12.3810477814
 40
0.082
  0
CIRCLE
  5
2CD
100
AcDbEntity
  8
LAYER_FEATURE
100
AcDbCircle
 62
7
  6
CONTINUOUS
 10
6.0708720839
 20
12.3810477814
 40
0.0656
  0
ARC
  5
2CE
100
AcDbEntity
  8
LAYER_FEATURE
100
AcDbCircle
 62
7
  6
CONTINUOUS
 10
15.4331052569
 20
4.4872760019
 40
0.14375
100
AcDbArc
 50
338.9932105692
 51
360.0
  0
ARC
  5
2CF
100
AcDbEntity
  8
LAYER_FEATURE
100
AcDbCircle
 62
7
  6
CONTINUOUS
 10
15.4331052569
 20
6.433973407
 40
0.14375
100
AcDbArc
 50
0.0
 51
21.0067894308
  0
ARC
  5
2D0
100
AcDbEntity
  8
LAYER_FEATURE
100
AcDbCircle
 62
7
  6
CONTINUOUS
 10
16.0306052569
 20
4.4872760019
 40
0.14375
100
AcDbArc
 50
180.0
 51
201.0067894308
  0
ARC
  5
2D1
100
AcDbEntity
  8
LAYER_FEATURE
100
AcDbCircle
 62
7
  6
CONTINUOUS
 10
16.0306052569
 20
6.433973407
 40
0.14375
100
AcDbArc
 50
158.9932105692
 51
180.0
  0
CIRCLE
  5
2D2
100
AcDbEntity
  8
02___PRT_ALL_AXES
100
AcDbCircle
 62
7
  6
CONTINUOUS
 10
15.3413552569
 20
5.4606247044
 40
0.082
  0
CIRCLE
  5
2D3
100
AcDbEntity
  8
LAYER_FEATURE
100
AcDbCircle
 62
7
  6
CONTINUOUS
 10
15.3413552569
 20
5.4606247044
 40
0.0656
  0
ARC
  5
2D4
100
AcDbEntity
  8
LAYER_FEATURE
100
AcDbCircle
 62
7
  6
CONTINUOUS
 10
15.1814182568
 20
11.5815021652
 40
1.6493287967
100
AcDbArc
 50
70.7639187562
 51
73.0102316966
  0
ARC
  5
2D5
100
AcDbEntity
  8
LAYER_FEATURE
100
AcDbCircle
 62
7
  6
CONTINUOUS
 10
15.1940686261
 20
11.6360253515
 40
1.5933449582
100
AcDbArc
 50
77.6512070679
 51
79.951688425
  0
ARC
  5
2D6
100
AcDbEntity
  8
LAYER_FEATURE
100
AcDbCircle
 62
7
  6
CONTINUOUS
 10
15.214237384
 20
11.6615950606
 40
1.5627361116
100
AcDbArc
 50
63.7530428893
 51
66.0797293827
  0
ARC
  5
2D7
100
AcDbEntity
  8
LAYER_FEATURE
100
AcDbCircle
 62
7
  6
CONTINUOUS
 10
15.7424311046
 20
13.1729748121
 40
1.4860252791
100
AcDbArc
 50
268.3413988669
 51
269.9913565167
  0
ARC
  5
2D8
100
AcDbEntity
  8
LAYER_FEATURE
100
AcDbCircle
 62
7
  6
CONTINUOUS
 10
15.216707727
 20
11.8188377082
 40
1.409030953
100
AcDbArc
 50
84.829175216
 51
87.3281644102
  0
ARC
  5
2D9
100
AcDbEntity
  8
LAYER_FEATURE
100
AcDbCircle
 62
7
  6
CONTINUOUS
 10
15.3178225711
 20
11.8488174344
 40
1.3486310319
100
AcDbArc
 50
56.1754358826
 51
58.7446292783
  0
ARC
  5
2DA
100
AcDbEntity
  8
LAYER_FEATURE
100
AcDbCircle
 62
7
  6
CONTINUOUS
 10
15.2154297832
 20
12.0779368318
 40
1.1497477497
100
AcDbArc
 50
92.7744029544
 51
95.6319786726
  0
ARC
  5
2DB
100
AcDbEntity
  8
LAYER_FEATURE
100
AcDbCircle
 62
7
  6
CONTINUOUS
 10
15.4842178688
 20
12.0716409894
 40
1.0703112213
100
AcDbArc
 50
47.5031045945
 51
50.5004001939
  0
ARC
  5
2DC
100
AcDbEntity
  8
LAYER_FEATURE
100
AcDbCircle
 62
7
  6
CONTINUOUS
 10
15.171143834
 20
12.3631595102
 40
0.8608085844
100
AcDbArc
 50
102.0725820167
 51
105.5384364309
  0
ARC
  5
2DD
100
AcDbEntity
  8
LAYER_FEATURE
100
AcDbCircle
 62
7
  6
CONTINUOUS
 10
15.6881575714
 20
12.2697926148
 40
0.7856318926
100
AcDbArc
 50
37.0159307027
 51
40.6995445594
  0
ARC
  5
2DE
100
AcDbEntity
  8
LAYER_FEATURE
100
AcDbCircle
 62
7
  6
CONTINUOUS
 10
15.0844351899
 20
12.6086006109
 40
0.6000653238
100
AcDbArc
 50
113.5113323061
 51
117.934729572
  0
ARC
  5
2DF
100
AcDbEntity
  8
LAYER_FEATURE
100
AcDbCircle
 62
7
  6
CONTINUOUS
 10
15.882047038
 20
12.396738113
 40
0.5534898363
100
AcDbArc
 50
23.8199445803
 51
28.4570818689
  0
ARC
  5
2E0
100
AcDbEntity
  8
LAYER_CUT_FEAT
100
AcDbCircle
 62
7
  6
CONTINUOUS
 10
15.1353148269
 20
12.5595073381
 40
0.4803938476
100
AcDbArc
 50
206.2000666808
 51
210.4418741278
  0
ARC
  5
2E1
100
AcDbEntity
  8
LAYER_FEATURE
100
AcDbCircle
 62
7
  6
CONTINUOUS
 10
14.9893862754
 20
12.7568391615
 40
0.4235472106
100
AcDbArc
 50
128.1075951709
 51
133.6691902458
  0
ARC
  5
2E2
100
AcDbEntity
  8
LAYER_FEATURE
100
AcDbCircle
 62
7
  6
CONTINUOUS
 10
16.0373257446
 20
12.4511519458
 40
0.3884602803
100
AcDbArc
 50
7.0235216676
 51
12.9152735135
  0
ARC
  5
2E3
100
AcDbEntity
  8
LAYER_FEATURE
100
AcDbCircle
 62
7
  6
CONTINUOUS
 10
14.9171725316
 20
12.8204632028
 40
0.3269477526
100
AcDbArc
 50
146.3328149378
 51
152.9424063633
  0
ARC
  5
2E4
100
AcDbEntity
  8
LAYER_FEATURE
100
AcDbCircle
 62
7
  6
CONTINUOUS
 10
16.1099797024
 20
12.45406062
 40
0.31547125
100
AcDbArc
 50
347.024153314
 51
353.7931503264
  0
ARC
  5
2E5
100
AcDbEntity
  8
LAYER_FEATURE
100
AcDbCircle
 62
7
  6
CONTINUOUS
 10
14.7910042512
 20
13.1231755679
 40
0.0416921939
100
AcDbArc
 50
252.4562110528
 51
258.3702286257
  0
SPLINE
  5
2E6
100
AcDbEntity
  8
02___PRT_ALL_AXES
100
AcDbSpline
 62
7
  6
CONTINUOUS
 70
0
 71
3
 72
17
 73
13
 74
0
 42
0.0000001
 43
0.0000001
 44
0.0000000001
 40
0.0
 40
0.0
 40
0.0
 40
0.0
 40
0.0382832641
 40
0.1469073022
 40
0.3089674348
 40
0.4026129232
 40
0.4999999981
 40
0.597387073
 40
0.6910325616
 40
0.8530926972
 40
0.9617167362
 40
1.0
 40
1.0
 40
1.0
 40
1.0
 10
6.7273720839
 20
12.2990477814
 30
0.0
 10
6.7271120246
 20
12.3011298018
 30
0.0
 10
6.7261509418
 20
12.3091239418
 30
0.0
 10
6.7244292814
 20
12.325971761
 30
0.0
 10
6.7230633089
 20
12.3458990655
 30
0.0
 10
6.7223596188
 20
12.3652398297
 30
0.0
 10
6.7221652136
 20
12.3810477811
 30
0.0
 10
6.7223596188
 20
12.3968557324
 30
0.0
 10
6.7230633089
 20
12.4161964968
 30
0.0
 10
6.7244292813
 20
12.4361238015
 30
0.0
 10
6.7261509418
 20
12.4529716209
 30
0.0
 10
6.7271120246
 20
12.4609657609
 30
0.0
 10
6.7273720839
 20
12.4630477814
 30
0.0
  0
SPLINE
  5
2E7
100
AcDbEntity
  8
02___PRT_ALL_AXES
100
AcDbSpline
 62
7
  6
CONTINUOUS
 70
0
 71
3
 72
17
 73
13
 74
0
 42
0.0000001
 43
0.0000001
 44
0.0000000001
 40
0.0
 40
0.0
 40
0.0
 40
0.0
 40
0.0382832843
 40
0.1469073202
 40
0.3089673977
 40
0.4026129119
 40
0.5000000005
 40
0.5973870891
 40
0.6910326031
 40
0.8530926806
 40
0.961716716
 40
1.0
 40
1.0
 40
1.0
 40
1.0
 10
15.4233552569
 20
6.1171247044
 30
0.0
 10
15.4212732354
 20
6.1168646448
 30
0.0
 10
15.4132790945
 20
6.1159035615
 30
0.0
 10
15.3964312772
 20
6.1141819018
 30
0.0
 10
15.3765039745
 20
6.1128159299
 30
0.0
 10
15.3571632112
 20
6.1121122355
 30
0.0
 10
15.3413552569
 20
6.1119178408
 30
0.0
 10
15.3255473026
 20
6.1121122355
 30
0.0
 10
15.3062065392
 20
6.1128159299
 30
0.0
 10
15.2862792365
 20
6.1141819018
 30
0.0
 10
15.2694314193
 20
6.1159035615
 30
0.0
 10
15.2614372784
 20
6.1168646448
 30
0.0
 10
15.2593552569
 20
6.1171247044
 30
0.0
  0
SPLINE
  5
2E8
100
AcDbEntity
  8
02___PRT_ALL_AXES
100
AcDbSpline
 62
7
  6
CONTINUOUS
 70
0
 71
3
 72
43
 73
39
 74
0
 42
0.0000001
 43
0.0000001
 44
0.0000000001
 40
0.0
 40
0.0
 40
0.0
 40
0.0
 40
0.028005004
 40
0.0578552801
 40
0.0894198689
 40
0.1225481582
 40
0.1570746742
 40
0.192822405
 40
0.2296058674
 40
0.267233779
 40
0.3055112655
 40
0.3442418324
 40
0.3832290713
 40
0.4222780122
 40
0.4611966259
 40
0.4997972221
 40
0.537897776
 40
0.5753232776
 40
0.6119074469
 40
0.6474943994
 40
0.6819405808
 40
0.7151168477
 40
0.7469107255
 40
0.7772289658
 40
0.8060003134
 40
0.8331788602
 40
0.8587478816
 40
0.882724681
 40
0.9051663395
 40
0.9158464534
 40
0.9261861436
 40
0.9459222939
 40
0.9553844039
 40
0.9646147051
 40
0.9736498293
 40
0.9825299514
 40
0.991298174
 40
1.0
 40
1.0
 40
1.0
 40
1.0
 10
15.9614126732
 20
12.1488367695
 30
0.0
 10
15.9607454096
 20
12.1501965098
 30
0.0
 10
15.9594407999
 20
12.1530422229
 30
0.0
 10
15.9576224408
 20
12.1575250125
 30
0.0
 10
15.9558899845
 20
12.1623372441
 30
0.0
 10
15.9542563295
 20
12.1674499069
 30
0.0
 10
15.952734522
 20
12.1728323989
 30
0.0
 10
15.9513377149
 20
12.1784525401
 30
0.0
 10
15.950078962
 20
12.1842769011
 30
0.0
 10
15.9489710598
 20
12.190271016
 30
0.0
 10
15.9480263678
 20
12.1963995971
 30
0.0
 10
15.9472566292
 20
12.2026267155
 30
0.0
 10
15.946672781
 20
12.2089159556
 30
0.0
 10
15.9462847605
 20
12.2152305604
 30
0.0
 10
15.9461013007
 20
12.2215335743
 30
0.0
 10
15.9461297257
 20
12.2277879972
 30
0.0
 10
15.9463757454
 20
12.2339569433
 30
0.0
 10
15.9468432584
 20
12.2400038281
 30
0.0
 10
15.9475341717
 20
12.245892582
 30
0.0
 10
15.9484482442
 20
12.2515879006
 30
0.0
 10
15.9495829742
 20
12.2570555101
 30
0.0
 10
15.9509335259
 20
12.2622624521
 30
0.0
 10
15.9524927218
 20
12.2671773706
 30
0.0
 10
15.9542510882
 20
12.2717707795
 30
0.0
 10
15.9561969835
 20
12.2760153208
 30
0.0
 10
15.9583167429
 20
12.2798859164
 30
0.0
 10
15.9605950588
 20
12.2833600425
 30
0.0
 10
15.9630148127
 20
12.2864172842
 30
0.0
 10
15.9651691997
 20
12.2886389373
 30
0.0
 10
15.9669465932
 20
12.2901792428
 30
0.0
 10
15.9686972942
 20
12.2915200892
 30
0.0
 10
15.970517198
 20
12.2926578846
 30
0.0
 10
15.9723905022
 20
12.2935617882
 30
0.0
 10
15.9737878048
 20
12.2941104956
 30
0.0
 10
15.9751938895
 20
12.2945382725
 30
0.0
 10
15.9766059201
 20
12.2948444885
 30
0.0
 10
15.9780207799
 20
12.2950284926
 30
0.0
 10
15.9789661387
 20
12.2950695769
 30
0.0
 10
15.9794367737
 20
12.2950695761
 30
0.0
  0
SPLINE
  5
2E9
100
AcDbEntity
  8
02___PRT_ALL_AXES
100
AcDbSpline
 62
7
  6
CONTINUOUS
 70
0
 71
3
 72
23
 73
19
 74
0
 42
0.0000001
 43
0.0000001
 44
0.0000000001
 40
0.0
 40
0.0
 40
0.0
 40
0.0
 40
0.0736408453
 40
0.145798287
 40
0.2163772256
 40
0.2853136646
 40
0.3525637397
 40
0.4181133419
 40
0.4819782368
 40
0.5442067384
 40
0.6048812983
 40
0.6641191849
 40
0.7220723651
 40
0.7789260929
 40
0.8348958112
 40
0.8902226176
 40
0.9451667701
 40
1.0
 40
1.0
 40
1.0
 40
1.0
 10
15.1564761452
 20
12.5569237137
 30
0.0
 10
15.154957344
 20
12.5569237137
 30
0.0
 10
15.1519498053
 20
12.5569931775
 30
0.0
 10
15.1474968324
 20
12.5573124684
 30
0.0
 10
15.1431618206
 20
12.557845105
 30
0.0
 10
15.1389607623
 20
12.5585896662
 30
0.0
 10
15.1349087101
 20
12.5595442984
 30
0.0
 10
15.1310200978
 20
12.5607065491
 30
0.0
 10
15.127308565
 20
12.5620734765
 30
0.0
 10
15.1237869779
 20
12.5636416052
 30
0.0
 10
15.120467414
 20
12.5654069434
 30
0.0
 10
15.1173611647
 20
12.5673649659
 30
0.0
 10
15.1144787414
 20
12.569510587
 30
0.0
 10
15.1118298658
 20
12.57183813
 30
0.0
 10
15.1094234745
 20
12.5743412469
 30
0.0
 10
15.1072676077
 20
12.5770130042
 30
0.0
 10
15.1053696251
 20
12.5798453497
 30
0.0
 10
15.1042807151
 20
12.5818344744
 30
0.0
 10
15.103782507
 20
12.5828497251
 30
0.0
  0
SPLINE
  5
2EA
100
AcDbEntity
  8
LAYER_CUT_FEAT
100
AcDbSpline
 62
7
  6
CONTINUOUS
 70
0
 71
3
 72
22
 73
18
 74
0
 42
0.0000001
 43
0.0000001
 44
0.0000000001
 40
0.0
 40
0.0
 40
0.0
 40
0.0
 40
0.1381197631
 40
0.2053664309
 40
0.2714549167
 40
0.336437138
 40
0.400372579
 40
0.4633278437
 40
0.5253764097
 40
0.5865986125
 40
0.6470813093
 40
0.7069174431
 40
0.7662055021
 40
0.8250488573
 40
0.8835549588
 40
0.9418344159
 40
1.0
 40
1.0
 40
1.0
 40
1.0
 10
14.7042776733
 20
12.3474101411
 30
0.0
 10
14.6994904958
 20
12.3571653833
 30
0.0
 10
14.6928941404
 20
12.3719377751
 30
0.0
 10
14.6853707917
 20
12.3919299859
 30
0.0
 10
14.6804787395
 20
12.4067509053
 30
0.0
 10
14.6762926714
 20
12.4215157448
 30
0.0
 10
14.6728165396
 20
12.4362108115
 30
0.0
 10
14.6700538645
 20
12.450821943
 30
0.0
 10
14.6680074572
 20
12.4653351789
 30
0.0
 10
14.6666794546
 20
12.4797365756
 30
0.0
 10
14.6660712821
 20
12.494012276
 30
0.0
 10
14.6661836819
 20
12.5081485042
 30
0.0
 10
14.6670167083
 20
12.5221315943
 30
0.0
 10
14.6685696706
 20
12.5359479486
 30
0.0
 10
14.6708411976
 20
12.5495842779
 30
0.0
 10
14.6738290003
 20
12.563026809
 30
0.0
 10
14.6762976949
 20
12.5718546875
 30
0.0
 10
14.6776487915
 20
12.5762268534
 30
0.0
  0
SPLINE
  5
2EB
100
AcDbEntity
  8
LAYER_CHAMFER_FEAT
100
AcDbSpline
 62
7
  6
CONTINUOUS
 70
0
 71
3
 72
21
 73
17
 74
0
 42
0.0000001
 43
0.0000001
 44
0.0000000001
 40
0.0
 40
0.0
 40
0.0
 40
0.0
 40
0.1460143923
 40
0.2163544553
 40
0.2849259845
 40
0.4168728452
 40
0.4804147421
 40
0.5424299209
 40
0.6030239586
 40
0.6623209791
 40
0.7204638452
 40
0.7776129894
 40
0.8339450323
 40
0.8896508396
 40
0.9449324832
 40
1.0
 40
1.0
 40
1.0
 40
1.0
 10
15.2617201965
 20
12.1656445533
 30
0.0
 10
15.2590808677
 20
12.1648312888
 30
0.0
 10
15.2552151852
 20
12.1634680827
 30
0.0
 10
15.2502668242
 20
12.1613290209
 30
0.0
 10
15.2456655665
 20
12.1590730463
 30
0.0
 10
15.2413474755
 20
12.1565408711
 30
0.0
 10
15.2373675203
 20
12.1537294918
 30
0.0
 10
15.2346139146
 20
12.1515317156
 30
0.0
 10
15.2320600568
 20
12.1492227283
 30
0.0
 10
15.2297108455
 20
12.1468067262
 30
0.0
 10
15.2275708927
 20
12.1442882965
 30
0.0
 10
15.2256444318
 20
12.1416721839
 30
0.0
 10
15.2239353474
 20
12.1389633803
 30
0.0
 10
15.2224470114
 20
12.1361670688
 30
0.0
 10
15.2211825379
 20
12.1332888897
 30
0.0
 10
15.2204898592
 20
12.1313174511
 30
0.0
 10
15.2201823397
 20
12.13032231
 30
0.0
  0
SPLINE
  5
2EC
100
AcDbEntity
  8
LAYER_CHAMFER_FEAT
100
AcDbSpline
 62
7
  6
CONTINUOUS
 70
0
 71
3
 72
21
 73
17
 74
0
 42
0.0000001
 43
0.0000001
 44
0.0000000001
 40
0.0
 40
0.0
 40
0.0
 40
0.0
 40
0.1461144987
 40
0.2164954802
 40
0.2851009758
 40
0.3519651289
 40
0.4171390181
 40
0.5426540606
 40
0.6032418091
 40
0.6625247494
 40
0.7206461779
 40
0.7777673955
 40
0.8340659843
 40
0.8897339669
 40
0.944974814
 40
1.0
 40
1.0
 40
1.0
 40
1.0
 10
15.4445010195
 20
12.1093197325
 30
0.0
 10
15.4462364023
 20
12.1071520205
 30
0.0
 10
15.4486807422
 20
12.1038339484
 30
0.0
 10
15.4515863701
 20
12.0992590692
 30
0.0
 10
15.4535240051
 20
12.0958587601
 30
0.0
 10
15.455243216
 20
12.0924531796
 30
0.0
 10
15.4572147138
 20
12.0879715279
 30
0.0
 10
15.4587739074
 20
12.0834439745
 30
0.0
 10
15.4598745958
 20
12.0789097368
 30
0.0
 10
15.4604595149
 20
12.0755755156
 30
0.0
 10
15.4608119912
 20
12.0722749981
 30
0.0
 10
15.4609312841
 20
12.0690144327
 30
0.0
 10
15.4608169565
 20
12.0658002415
 30
0.0
 10
15.4604691236
 20
12.0626386776
 30
0.0
 10
15.4598884548
 20
12.0595362273
 30
0.0
 10
15.4593462772
 20
12.0575095629
 30
0.0
 10
15.4590375369
 20
12.0565104714
 30
0.0
  0
SPLINE
  5
2ED
100
AcDbEntity
  8
LAYER_FEATURE
100
AcDbSpline
 62
7
  6
CONTINUOUS
 70
0
 71
3
 72
33
 73
29
 74
0
 42
0.0000001
 43
0.0000001
 44
0.0000000001
 40
0.0
 40
0.0
 40
0.0
 40
0.0
 40
0.0202795796
 40
0.0417780496
 40
0.0645065155
 40
0.0884597917
 40
0.113619069
 40
0.1399539228
 40
0.1674237088
 40
0.1959790261
 40
0.2255629498
 40
0.2561118167
 40
0.2875560182
 40
0.3198208943
 40
0.3528272993
 40
0.3864920843
 40
0.4554434056
 40
0.5259572813
 40
0.5972808724
 40
0.6686461656
 40
0.7392843681
 40
0.8084403396
 40
0.8422362834
 40
0.8753924269
 40
0.907824675
 40
0.9394523909
 40
0.9702027636
 40
1.0
 40
1.0
 40
1.0
 40
1.0
 10
15.9920627199
 20
12.2725180076
 30
0.0
 10
15.9925112114
 20
12.2719806951
 30
0.0
 10
15.993394196
 20
12.2708391438
 30
0.0
 10
15.9946414672
 20
12.2689935739
 30
0.0
 10
15.9958461301
 20
12.2669709164
 30
0.0
 10
15.9970044079
 20
12.2647776136
 30
0.0
 10
15.9981127416
 20
12.2624204828
 30
0.0
 10
15.9991676434
 20
12.259906919
 30
0.0
 10
16.0001658023
 20
12.257244827
 30
0.0
 10
16.0011040695
 20
12.2544426022
 30
0.0
 10
16.0019794617
 20
12.2515090897
 30
0.0
 10
16.0027891942
 20
12.248453567
 30
0.0
 10
16.0035307029
 20
12.2452857113
 30
0.0
 10
16.0042016191
 20
12.2420155653
 30
0.0
 10
16.0047998092
 20
12.2386534782
 30
0.0
 10
16.0055034209
 20
12.2340256249
 30
0.0
 10
16.0061848565
 20
12.2280870625
 30
0.0
 10
16.0066829492
 20
12.2208269861
 30
0.0
 10
16.0068613361
 20
12.2134686772
 30
0.0
 10
16.0067177565
 20
12.2061053196
 30
0.0
 10
16.0062540141
 20
12.1988301604
 30
0.0
 10
16.0056008899
 20
12.1928724656
 30
0.0
 10
16.0049195037
 20
12.1882243564
 30
0.0
 10
16.00433731
 20
12.1848437674
 30
0.0
 10
16.0036819671
 20
12.1815528549
 30
0.0
 10
16.0029555406
 20
12.1783619511
 30
0.0
 10
16.0021603515
 20
12.1752813188
 30
0.0
 10
16.001576481
 20
12.1732744859
 30
0.0
 10
16.0012728582
 20
12.1722919622
 30
0.0
  0
SPLINE
  5
2EE
100
AcDbEntity
  8
LAYER_FEATURE
100
AcDbSpline
 62
7
  6
CONTINUOUS
 70
0
 71
3
 72
15
 73
11
 74
0
 42
0.0000001
 43
0.0000001
 44
0.0000000001
 40
0.0
 40
0.0
 40
0.0
 40
0.0
 40
0.1030414464
 40
0.2124414996
 40
0.3282548413
 40
0.4504495494
 40
0.5789185432
 40
0.7134880734
 40
0.8539471161
 40
1.0
 40
1.0
 40
1.0
 40
1.0
 10
15.9920627204
 20
12.1536211421
 30
0.0
 10
15.9925237078
 20
12.154173434
 30
0.0
 10
15.9934308559
 20
12.1553486978
 30
0.0
 10
15.9947100113
 20
12.1572518801
 30
0.0
 10
15.9959440218
 20
12.1593414451
 30
0.0
 10
15.9971287835
 20
12.1616103996
 30
0.0
 10
15.9982604402
 20
12.1640512914
 30
0.0
 10
15.999335301
 20
12.1666561061
 30
0.0
 10
16.0003497134
 20
12.1694160968
 30
0.0
 10
16.0009717973
 20
12.1713177287
 30
0.0
 10
16.0012728582
 20
12.1722919622
 30
0.0
  0
SPLINE
  5
2EF
100
AcDbEntity
  8
02___PRT_ALL_AXES
100
AcDbSpline
 62
7
  6
CONTINUOUS
 70
0
 71
3
 72
24
 73
20
 74
0
 42
0.0000001
 43
0.0000001
 44
0.0000000001
 40
0.0
 40
0.0
 40
0.0
 40
0.0
 40
0.0433694823
 40
0.087521862
 40
0.1330545249
 40
0.1805029019
 40
0.2050997816
 40
0.2303414878
 40
0.2829250772
 40
0.3385733983
 40
0.3975246974
 40
0.4599551798
 40
0.525990545
 40
0.5957106627
 40
0.6691576244
 40
0.7463390019
 40
0.8272392382
 40
0.9118205642
 40
1.0
 40
1.0
 40
1.0
 40
1.0
 10
15.9794367737
 20
12.1310695762
 30
0.0
 10
15.9790539574
 20
12.1310695771
 30
0.0
 10
15.9782805802
 20
12.131118618
 30
0.0
 10
15.9771239321
 20
12.1313375113
 30
0.0
 10
15.9759666739
 20
12.1317011601
 30
0.0
 10
15.975014404
 20
12.1321187992
 30
0.0
 10
15.9742551339
 20
12.1325205202
 30
0.0
 10
15.9734764843
 20
12.1329805051
 30
0.0
 10
15.9725036212
 20
12.133647744
 30
0.0
 10
15.9713554498
 20
12.1345768662
 30
0.0
 10
15.9702119257
 20
12.1356435142
 30
0.0
 10
15.9690742092
 20
12.1368457828
 30
0.0
 10
15.9679435344
 20
12.1381816798
 30
0.0
 10
15.9668212291
 20
12.139648935
 30
0.0
 10
15.9657087581
 20
12.1412450522
 30
0.0
 10
15.9646076398
 20
12.1429672933
 30
0.0
 10
15.9635194791
 20
12.1448127429
 30
0.0
 10
15.9624460475
 20
12.146778088
 30
0.0
 10
15.9617555685
 20
12.1481380225
 30
0.0
 10
15.9614126732
 20
12.1488367695
 30
0.0
  0
SPLINE
  5
2F0
100
AcDbEntity
  8
LAYER_FEATURE
100
AcDbSpline
 62
7
  6
CONTINUOUS
 70
0
 71
3
 72
42
 73
38
 74
0
 42
0.0000001
 43
0.0000001
 44
0.0000000001
 40
0.0
 40
0.0
 40
0.0
 40
0.0
 40
0.0122636902
 40
0.0245350667
 40
0.0368217919
 40
0.0491314807
 40
0.0738470407
 40
0.0987437148
 40
0.1238784823
 40
0.1493055755
 40
0.175075979
 40
0.2012370267
 40
0.2278321015
 40
0.2549004309
 40
0.2824769707
 40
0.3105923656
 40
0.324861447
 40
0.3392747628
 40
0.3685427345
 40
0.3984161244
 40
0.4289090406
 40
0.46003181
 40
0.4917911565
 40
0.5241903864
 40
0.5572295748
 40
0.5909057512
 40
0.6252130813
 40
0.6601430421
 40
0.6956845914
 40
0.7318243305
 40
0.7685466599
 40
0.805833927
 40
0.8436665673
 40
0.8820232383
 40
0.9208809483
 40
0.9602151784
 40
1.0
 40
1.0
 40
1.0
 40
1.0
 10
14.4029653024
 20
12.6611104716
 30
0.0
 10
14.401918196
 20
12.6577220288
 30
0.0
 10
14.3999267494
 20
12.6509105553
 30
0.0
 10
14.3972516387
 20
12.6406019315
 30
0.0
 10
14.3948889169
 20
12.6302034164
 30
0.0
 10
14.3921526874
 20
12.6162059923
 30
0.0
 10
14.3895175368
 20
12.5984817413
 30
0.0
 10
14.3876213635
 20
12.5769365317
 30
0.0
 10
14.3869885024
 20
12.5551113953
 30
0.0
 10
14.3876195149
 20
12.5330339617
 30
0.0
 10
14.389513192
 20
12.5107314165
 30
0.0
 10
14.392666798
 20
12.488231293
 30
0.0
 10
14.3970760313
 20
12.465561244
 30
0.0
 10
14.4027351064
 20
12.442748968
 30
0.0
 10
14.4096366172
 20
12.4198226005
 30
0.0
 10
14.4163825382
 20
12.4007399587
 30
0.0
 10
14.4223808743
 20
12.3854477674
 30
0.0
 10
14.4288478233
 20
12.3699857527
 30
0.0
 10
14.4377013864
 20
12.3506366543
 30
0.0
 10
14.4494705295
 20
12.3275330933
 30
0.0
 10
14.4624238845
 20
12.3044551403
 30
0.0
 10
14.4765453527
 20
12.2814311395
 30
0.0
 10
14.4918176165
 20
12.258488982
 30
0.0
 10
14.5082219313
 20
12.2356565768
 30
0.0
 10
14.5257382055
 20
12.2129616806
 30
0.0
 10
14.544345003
 20
12.1904319035
 30
0.0
 10
14.5640195706
 20
12.1680946651
 30
0.0
 10
14.5847378602
 20
12.1459771641
 30
0.0
 10
14.6064745543
 20
12.1241063423
 30
0.0
 10
14.6292030964
 20
12.1025088521
 30
0.0
 10
14.6528957223
 20
12.0812110231
 30
0.0
 10
14.6775234902
 20
12.0602388291
 30
0.0
 10
14.7030563215
 20
12.0396178524
 30
0.0
 10
14.7294630142
 20
12.0193732649
 30
0.0
 10
14.7567113637
 20
11.9995297444
 30
0.0
 10
14.7847678846
 20
11.9801116412
 30
0.0
 10
14.8038841816
 20
11.9675340904
 30
0.0
 10
14.8135673139
 20
11.961320306
 30
0.0
  0
SPLINE
  5
2F1
100
AcDbEntity
  8
LAYER_FEATURE
100
AcDbSpline
 62
7
  6
CONTINUOUS
 70
0
 71
3
 72
15
 73
11
 74
0
 42
0.0000001
 43
0.0000001
 44
0.0000000001
 40
0.0
 40
0.0
 40
0.0
 40
0.0
 40
0.1226241577
 40
0.2454808672
 40
0.3688005085
 40
0.4928091726
 40
0.6177266819
 40
0.7437647834
 40
0.8711255502
 40
1.0
 40
1.0
 40
1.0
 40
1.0
 10
14.4993076991
 20
12.9728745816
 30
0.0
 10
14.4974846771
 20
12.9669752712
 30
0.0
 10
14.4941487681
 20
12.955065924
 30
0.0
 10
14.4900945335
 20
12.9369349813
 30
0.0
 10
14.4869913453
 20
12.9185461308
 30
0.0
 10
14.4848422213
 20
12.8999173508
 30
0.0
 10
14.4836489861
 20
12.8810660315
 30
0.0
 10
14.4834126322
 20
12.8620097747
 30
0.0
 10
14.484133143
 20
12.8427669822
 30
0.0
 10
14.4852438887
 20
12.8299066259
 30
0.0
 10
14.4859547304
 20
12.8234563852
 30
0.0
  0
SPLINE
  5
2F2
100
AcDbEntity
  8
LAYER_FEATURE
100
AcDbSpline
 62
7
  6
CONTINUOUS
 70
0
 71
3
 72
39
 73
35
 74
0
 42
0.0000001
 43
0.0000001
 44
0.0000000001
 40
0.0
 40
0.0
 40
0.0
 40
0.0
 40
0.024803497
 40
0.0496643328
 40
0.0746391937
 40
0.0997834843
 40
0.1251507429
 40
0.1507921181
 40
0.1767559212
 40
0.2030872611
 40
0.2298277628
 40
0.2570153678
 40
0.2846842095
 40
0.3128645565
 40
0.3415828104
 40
0.3708615552
 40
0.4007196437
 40
0.4311723107
 40
0.4622313077
 40
0.4939050511
 40
0.5261987783
 40
0.5591147058
 40
0.592652193
 40
0.6268079018
 40
0.6615759528
 40
0.6969480765
 40
0.7329137578
 40
0.7694603755
 40
0.8065733383
 40
0.8442361881
 40
0.8824308305
 40
0.9211372955
 40
0.9603347955
 40
1.0
 40
1.0
 40
1.0
 40
1.0
 10
16.4332345849
 20
12.0337098107
 30
0.0
 10
16.4312212677
 20
12.0271947037
 30
0.0
 10
16.4268054105
 20
12.0142647273
 30
0.0
 10
16.4190424324
 20
11.99525763
 30
0.0
 10
16.4101457377
 20
11.9766495182
 30
0.0
 10
16.4001260096
 20
11.958462629
 30
0.0
 10
16.3889948943
 20
11.9407175112
 30
0.0
 10
16.3767654167
 20
11.9234344236
 30
0.0
 10
16.3634518168
 20
11.9066329301
 30
0.0
 10
16.3490695445
 20
11.8903319918
 30
0.0
 10
16.3336352182
 20
11.8745499295
 30
0.0
 10
16.3171665977
 20
11.8593044256
 30
0.0
 10
16.2996825586
 20
11.8446125175
 30
0.0
 10
16.2812030696
 20
11.8304905942
 30
0.0
 10
16.2617491765
 20
11.8169543848
 30
0.0
 10
16.2413429786
 20
11.8040189554
 30
0.0
 10
16.2200076084
 20
11.7916987004
 30
0.0
 10
16.1977672121
 20
11.7800073318
 30
0.0
 10
16.1746469287
 20
11.7689578678
 30
0.0
 10
16.1506728676
 20
11.7585626198
 30
0.0
 10
16.1258720855
 20
11.7488331803
 30
0.0
 10
16.1002725626
 20
11.7397804038
 30
0.0
 10
16.0739031724
 20
11.7314143987
 30
0.0
 10
16.046793652
 20
11.7237445148
 30
0.0
 10
16.0189745706
 20
11.7167793314
 30
0.0
 10
15.9904772975
 20
11.7105266458
 30
0.0
 10
15.9613339683
 20
11.7049934632
 30
0.0
 10
15.9315774493
 20
11.7001859864
 30
0.0
 10
15.9012413091
 20
11.6961096074
 30
0.0
 10
15.8703597515
 20
11.6927688881
 30
0.0
 10
15.8389676722
 20
11.6901675974
 30
0.0
 10
15.8071003431
 20
11.6883086135
 30
0.0
 10
15.7747940492
 20
11.6871940772
 30
0.0
 10
15.7531118741
 20
11.6869495499
 30
0.0
 10
15.7422069269
 20
11.6869495499
 30
0.0
  0
SPLINE
  5
2F3
100
AcDbEntity
  8
LAYER_FEATURE
100
AcDbSpline
 62
7
  6
CONTINUOUS
 70
0
 71
3
 72
15
 73
11
 74
0
 42
0.0000001
 43
0.0000001
 44
0.0000000001
 40
0.0
 40
0.0
 40
0.0
 40
0.0
 40
0.1226190938
 40
0.2454712477
 40
0.3687873417
 40
0.4927939541
 40
0.6177113591
 40
0.7437517168
 40
0.8711174744
 40
1.0
 40
1.0
 40
1.0
 40
1.0
 10
16.5295769816
 20
12.3454739208
 30
0.0
 10
16.5277519203
 20
12.3395680111
 30
0.0
 10
16.5237825215
 20
12.3278399187
 30
0.0
 10
16.516891705
 20
12.310563873
 30
0.0
 10
16.5090680749
 20
12.2936121973
 30
0.0
 10
16.5003193015
 20
12.2770014987
 30
0.0
 10
16.4906537287
 20
12.2607472122
 30
0.0
 10
16.4800805071
 20
12.2448644787
 30
0.0
 10
16.4686100816
 20
12.2293685232
 30
0.0
 10
16.4604235944
 20
12.2193681212
 30
0.0
 10
16.4561903835
 20
12.2144392402
 30
0.0
  0
SPLINE
  5
2F4
100
AcDbEntity
  8
LAYER_CUT_FEAT
100
AcDbSpline
 62
7
  6
CONTINUOUS
 70
0
 71
3
 72
23
 73
19
 74
0
 42
0.0000001
 43
0.0000001
 44
0.0000000001
 40
0.0
 40
0.0
 40
0.0
 40
0.0
 40
0.0571910787
 40
0.1145254489
 40
0.1721446351
 40
0.2301866971
 40
0.2887846627
 40
0.3480651387
 40
0.4081471334
 40
0.4691411213
 40
0.5311483415
 40
0.5942603225
 40
0.6585586113
 40
0.7241146811
 40
0.7909899835
 40
0.859236135
 40
0.9288951935
 40
1.0
 40
1.0
 40
1.0
 40
1.0
 10
16.1585510958
 20
12.1185934289
 30
0.0
 10
16.1570220516
 20
12.1136454224
 30
0.0
 10
16.1536559275
 20
12.1038281032
 30
0.0
 10
16.1477061802
 20
12.0894099528
 30
0.0
 10
16.1408604528
 20
12.0753087938
 30
0.0
 10
16.133127683
 20
12.0615429091
 30
0.0
 10
16.1245176407
 20
12.0481291635
 30
0.0
 10
16.1150412667
 20
12.0350841563
 30
0.0
 10
16.104710544
 20
12.0224238802
 30
0.0
 10
16.093538483
 20
12.010163803
 30
0.0
 10
16.0815390844
 20
11.9983188373
 30
0.0
 10
16.0687273154
 20
11.9869033439
 30
0.0
 10
16.0551190891
 20
11.975931128
 30
0.0
 10
16.0407312372
 20
11.9654154324
 30
0.0
 10
16.0255815334
 20
11.9553689424
 30
0.0
 10
16.0096885341
 20
11.9458037194
 30
0.0
 10
15.9930720844
 20
11.9367314482
 30
0.0
 10
15.9816435646
 20
11.931077492
 30
0.0
 10
15.9758187459
 20
11.9283334342
 30
0.0
  0
SPLINE
  5
2F5
100
AcDbEntity
  8
02___PRT_ALL_AXES
100
AcDbSpline
 62
7
  6
CONTINUOUS
 70
0
 71
3
 72
38
 73
34
 74
0
 42
0.0000001
 43
0.0000001
 44
0.0000000001
 40
0.0
 40
0.0
 40
0.0
 40
0.0
 40
0.0264301201
 40
0.0528614821
 40
0.0793663724
 40
0.1060172334
 40
0.1328851321
 40
0.1600382206
 40
0.1875401131
 40
0.2154484687
 40
0.2438135868
 40
0.2726773455
 40
0.302072261
 40
0.3320208948
 40
0.3625354671
 40
0.3936177115
 40
0.4574111935
 40
0.4901042126
 40
0.5232709033
 40
0.5568646227
 40
0.5908306422
 40
0.625106777
 40
0.6596241895
 40
0.694308108
 40
0.7290787681
 40
0.7638523153
 40
0.7985418995
 40
0.8330588681
 40
0.8673140049
 40
0.9012191862
 40
0.934688431
 40
0.9676408002
 40
1.0
 40
1.0
 40
1.0
 40
1.0
 10
15.2510104902
 20
12.6550987254
 30
0.0
 10
15.2516308551
 20
12.6538345443
 30
0.0
 10
15.2527599394
 20
12.6512495088
 30
0.0
 10
15.2541019164
 20
12.6472338317
 30
0.0
 10
15.2550838095
 20
12.6431028677
 30
0.0
 10
15.2556994963
 20
12.6388783389
 30
0.0
 10
15.2559449633
 20
12.6345817323
 30
0.0
 10
15.255818066
 20
12.6302347781
 30
0.0
 10
15.25531867
 20
12.6258591183
 30
0.0
 10
15.2544486566
 20
12.6214761972
 30
0.0
 10
15.2532119344
 20
12.617107089
 30
0.0
 10
15.2516144158
 20
12.6127723667
 30
0.0
 10
15.2496639546
 20
12.6084919455
 30
0.0
 10
15.2473703394
 20
12.6042850563
 30
0.0
 10
15.2447449378
 20
12.6001698365
 30
0.0
 10
15.2407866477
 20
12.5947832515
 30
0.0
 10
15.2362451757
 20
12.5896995741
 30
0.0
 10
15.231214659
 20
12.5849617718
 30
0.0
 10
15.2271587673
 20
12.5815473266
 30
0.0
 10
15.2228718739
 20
12.5783147169
 30
0.0
 10
15.2183745329
 20
12.5752751648
 30
0.0
 10
15.2136885531
 20
12.5724393762
 30
0.0
 10
15.2088364382
 20
12.5698170614
 30
0.0
 10
15.2038414237
 20
12.5674171002
 30
0.0
 10
15.1987273533
 20
12.5652475306
 30
0.0
 10
15.1935185954
 20
12.5633155707
 30
0.0
 10
15.188239939
 20
12.5616276262
 30
0.0
 10
15.1829164887
 20
12.560189291
 30
0.0
 10
15.1775735296
 20
12.5590053331
 30
0.0
 10
15.1722364333
 20
12.5580797056
 30
0.0
 10
15.166930387
 20
12.5574154867
 30
0.0
 10
15.1616806201
 20
12.5570149461
 30
0.0
 10
15.1582002382
 20
12.5569237137
 30
0.0
 10
15.1564761452
 20
12.5569237137
 30
0.0
  0
SPLINE
  5
2F6
100
AcDbEntity
  8
02___PRT_ALL_AXES
100
AcDbSpline
 62
7
  6
CONTINUOUS
 70
0
 71
3
 72
57
 73
53
 74
0
 42
0.0000001
 43
0.0000001
 44
0.0000000001
 40
0.0
 40
0.0
 40
0.0
 40
0.0
 40
0.0106256167
 40
0.0212738774
 40
0.0319671884
 40
0.0427274885
 40
0.0535760342
 40
0.0645332059
 40
0.0756183401
 40
0.086849589
 40
0.0982438104
 40
0.1098164866
 40
0.1215816699
 40
0.1335519529
 40
0.1457384606
 40
0.1581508597
 40
0.170797384
 40
0.1836848706
 40
0.1968188044
 40
0.21020337
 40
0.2238415056
 40
0.2377349613
 40
0.2518843578
 40
0.2662892454
 40
0.2809481609
 40
0.2958586851
 40
0.3110174964
 40
0.3264204243
 40
0.3420625003
 40
0.3579380064
 40
0.3740405219
 40
0.3903629674
 40
0.4068976475
 40
0.4236362918
 40
0.4405700941
 40
0.45768975
 40
0.4749854929
 40
0.4924471286
 40
0.5278235378
 40
0.5637320373
 40
0.6000789782
 40
0.6367668817
 40
0.673695357
 40
0.7107619916
 40
0.7478632237
 40
0.7848952052
 40
0.8217546615
 40
0.8583397576
 40
0.894550975
 40
0.93029201
 40
0.9654707071
 40
1.0
 40
1.0
 40
1.0
 40
1.0
 10
14.7078374105
 20
12.2725589105
 30
0.0
 10
14.7066431582
 20
12.2686943071
 30
0.0
 10
14.7044699417
 20
12.260887612
 30
0.0
 10
14.7018700654
 20
12.2489931974
 30
0.0
 10
14.6999311279
 20
12.2369210884
 30
0.0
 10
14.698655248
 20
12.2246845797
 30
0.0
 10
14.6980436195
 20
12.2122965006
 30
0.0
 10
14.6980967611
 20
12.1997699752
 30
0.0
 10
14.6988144577
 20
12.1871181912
 30
0.0
 10
14.7001957888
 20
12.1743544413
 30
0.0
 10
14.7022391352
 20
12.1614920932
 30
0.0
 10
14.7049421902
 20
12.1485445829
 30
0.0
 10
14.7083019686
 20
12.1355254028
 30
0.0
 10
14.7123148147
 20
12.1224480939
 30
0.0
 10
14.7169764085
 20
12.1093262361
 30
0.0
 10
14.7222817718
 20
12.0961734397
 30
0.0
 10
14.7282252752
 20
12.0830033361
 30
0.0
 10
14.7348006429
 20
12.0698295677
 30
0.0
 10
14.7420009585
 20
12.0566657775
 30
0.0
 10
14.7498186703
 20
12.0435255977
 30
0.0
 10
14.7582455962
 20
12.030422637
 30
0.0
 10
14.7672729311
 20
12.0173704686
 30
0.0
 10
14.776891255
 20
12.004382617
 30
0.0
 10
14.7870905408
 20
11.9914725443
 30
0.0
 10
14.7978601632
 20
11.9786536372
 30
0.0
 10
14.8091889084
 20
11.9659391927
 30
0.0
 10
14.8210649836
 20
11.9533424036
 30
0.0
 10
14.8334760292
 20
11.9408763451
 30
0.0
 10
14.846409131
 20
11.9285539611
 30
0.0
 10
14.8598508331
 20
11.9163880503
 30
0.0
 10
14.8737871512
 20
11.9043912523
 30
0.0
 10
14.8882035865
 20
11.8925760347
 30
0.0
 10
14.9030851402
 20
11.8809546778
 30
0.0
 10
14.9184163275
 20
11.869539265
 30
0.0
 10
14.9341812023
 20
11.8583416621
 30
0.0
 10
14.9503633408
 20
11.8473735311
 30
0.0
 10
14.9669459819
 20
11.8366462196
 30
0.0
 10
14.9896643982
 20
11.8226191455
 30
0.0
 10
15.0189574572
 20
11.805768406
 30
0.0
 10
15.055270482
 20
11.7867687206
 30
0.0
 10
15.0927460785
 20
11.7689817566
 30
0.0
 10
15.1312281907
 20
11.7524815921
 30
0.0
 10
15.1705571124
 20
11.7373366893
 30
0.0
 10
15.2105694457
 20
11.7236099779
 30
0.0
 10
15.2510989794
 20
11.7113584755
 30
0.0
 10
15.2919773408
 20
11.7006330785
 30
0.0
 10
15.3330347121
 20
11.6914783435
 30
0.0
 10
15.3741005747
 20
11.6839322946
 30
0.0
 10
15.4150043085
 20
11.6780262741
 30
0.0
 10
15.4555763698
 20
11.6737848172
 30
0.0
 10
15.4956473385
 20
11.6712255591
 30
0.0
 10
15.5221866899
 20
11.670642067
 30
0.0
 10
15.5353311802
 20
11.670642067
 30
0.0
  0
SPLINE
  5
2F7
100
AcDbEntity
  8
02___PRT_ALL_AXES
100
AcDbSpline
 62
7
  6
CONTINUOUS
 70
0
 71
3
 72
39
 73
35
 74
0
 42
0.0000001
 43
0.0000001
 44
0.0000000001
 40
0.0
 40
0.0
 40
0.0
 40
0.0
 40
0.0248034971
 40
0.0496643332
 40
0.0746391943
 40
0.0997834849
 40
0.1251507431
 40
0.1507921178
 40
0.1767559204
 40
0.2030872601
 40
0.2298277621
 40
0.2570153683
 40
0.2846842112
 40
0.3128645574
 40
0.3415828095
 40
0.3708615532
 40
0.4007196421
 40
0.4311723103
 40
0.4622313085
 40
0.4939050522
 40
0.5261987786
 40
0.5591147051
 40
0.5926521913
 40
0.6268078997
 40
0.6615759515
 40
0.6969480768
 40
0.7329137591
 40
0.7694603762
 40
0.8065733343
 40
0.8442361955
 40
0.8824307956
 40
0.9211373856
 40
0.9603346178
 40
1.0
 40
1.0
 40
1.0
 40
1.0
 10
15.962304979
 20
11.8848991118
 30
0.0
 10
15.9610609844
 20
11.8808735425
 30
0.0
 10
15.9583325065
 20
11.8728843374
 30
0.0
 10
15.9535358966
 20
11.8611401882
 30
0.0
 10
15.9480387845
 20
11.8496425649
 30
0.0
 10
15.9418477705
 20
11.8384052075
 30
0.0
 10
15.9349700519
 20
11.8274408118
 30
0.0
 10
15.9274136745
 20
11.8167618965
 30
0.0
 10
15.919187437
 20
11.8063805496
 30
0.0
 10
15.9103008852
 20
11.7963084871
 30
0.0
 10
15.9007642869
 20
11.7865570293
 30
0.0
 10
15.8905886151
 20
11.7771371027
 30
0.0
 10
15.8797855343
 20
11.7680592333
 30
0.0
 10
15.8683673849
 20
11.7593335456
 30
0.0
 10
15.8563471695
 20
11.7509697591
 30
0.0
 10
15.8437385411
 20
11.7429771843
 30
0.0
 10
15.8305557919
 20
11.7353647166
 30
0.0
 10
15.8168138424
 20
11.7281408272
 30
0.0
 10
15.8025282263
 20
11.7213135593
 30
0.0
 10
15.7877150767
 20
11.7148905194
 30
0.0
 10
15.7723911116
 20
11.7088788699
 30
0.0
 10
15.7565736187
 20
11.7032853183
 30
0.0
 10
15.7402804385
 20
11.6981161106
 30
0.0
 10
15.7235299444
 20
11.6933770242
 30
0.0
 10
15.7063410245
 20
11.6890733607
 30
0.0
 10
15.6887330612
 20
11.6852099383
 30
0.0
 10
15.6707259118
 20
11.6817910836
 30
0.0
 10
15.6523398846
 20
11.6788206279
 30
0.0
 10
15.6335957182
 20
11.6763019022
 30
0.0
 10
15.6145145545
 20
11.6742377331
 30
0.0
 10
15.595117927
 20
11.6726304352
 30
0.0
 10
15.5754276974
 20
11.671481814
 30
0.0
 10
15.555466203
 20
11.6707931512
 30
0.0
 10
15.5420691848
 20
11.670642067
 30
0.0
 10
15.5353311802
 20
11.670642067
 30
0.0
  0
SPLINE
  5
2F8
100
AcDbEntity
  8
LAYER_CHAMFER_FEAT
100
AcDbSpline
 62
7
  6
CONTINUOUS
 70
0
 71
3
 72
11
 73
7
 74
0
 42
0.0000001
 43
0.0000001
 44
0.0000000001
 40
0.0
 40
0.0
 40
0.0
 40
0.0
 40
0.2617772479
 40
0.5161275675
 40
0.7623844469
 40
1.0
 40
1.0
 40
1.0
 40
1.0
 10
15.2912214264
 20
12.1680854441
 30
0.0
 10
15.2879243125
 20
12.1680854441
 30
0.0
 10
15.2814222187
 20
12.1679217693
 30
0.0
 10
15.2718450401
 20
12.1671638441
 30
0.0
 10
15.2626280083
 20
12.1659011406
 30
0.0
 10
15.2566470965
 20
12.1647051213
 30
0.0
 10
15.253733784
 20
12.1640199718
 30
0.0
  0
SPLINE
  5
2F9
100
AcDbEntity
  8
LAYER_CHAMFER_FEAT
100
AcDbSpline
 62
7
  6
CONTINUOUS
 70
0
 71
3
 72
23
 73
19
 74
0
 42
0.0000001
 43
0.0000001
 44
0.0000000001
 40
0.0
 40
0.0
 40
0.0
 40
0.0
 40
0.0614590448
 40
0.1243125027
 40
0.1883141501
 40
0.2531994647
 40
0.3186929619
 40
0.3845108437
 40
0.4503651229
 40
0.5159673377
 40
0.5810323107
 40
0.6452819431
 40
0.7084491048
 40
0.7702816913
 40
0.8305469252
 40
0.8890359434
 40
0.9455688006
 40
1.0
 40
1.0
 40
1.0
 40
1.0
 10
15.2912214264
 20
12.1680854441
 30
0.0
 10
15.2948322449
 20
12.1680854441
 30
0.0
 10
15.3021371194
 20
12.1678840644
 30
0.0
 10
15.3131705146
 20
12.1670066348
 30
0.0
 10
15.324346368
 20
12.1655558455
 30
0.0
 10
15.3355917664
 20
12.1635410825
 30
0.0
 10
15.3468337936
 20
12.1609754511
 30
0.0
 10
15.3579994157
 20
12.1578756001
 30
0.0
 10
15.3690161137
 20
12.1542616673
 30
0.0
 10
15.3798123274
 20
12.150157131
 30
0.0
 10
15.3903179399
 20
12.14558865
 30
0.0
 10
15.4004647409
 20
12.1405858827
 30
0.0
 10
15.4101868731
 20
12.1351812876
 30
0.0
 10
15.4194212835
 20
12.1294098788
 30
0.0
 10
15.4281080835
 20
12.1233090509
 30
0.0
 10
15.4361911412
 20
12.1169180639
 30
0.0
 10
15.4436176772
 20
12.1102785834
 30
0.0
 10
15.4481895325
 20
12.1056226947
 30
0.0
 10
15.4503467685
 20
12.1032619674
 30
0.0
  0
SPLINE
  5
2FA
100
AcDbEntity
  8
LAYER_FEATURE
100
AcDbSpline
 62
7
  6
CONTINUOUS
 70
0
 71
3
 72
39
 73
35
 74
0
 42
0.0000001
 43
0.0000001
 44
0.0000000001
 40
0.0
 40
0.0
 40
0.0
 40
0.0
 40
0.0396652045
 40
0.0788627045
 40
0.1175691695
 40
0.1557638119
 40
0.1934266617
 40
0.2305396245
 40
0.2670862422
 40
0.3030519235
 40
0.3384240472
 40
0.3731920982
 40
0.407347807
 40
0.4408852942
 40
0.4738012217
 40
0.5060949489
 40
0.5377686923
 40
0.5688276893
 40
0.5992803563
 40
0.6291384448
 40
0.6584171896
 40
0.6871354435
 40
0.7153157905
 40
0.7429846322
 40
0.7701722372
 40
0.7969127389
 40
0.8232440788
 40
0.8492078819
 40
0.8748492571
 40
0.9002165157
 40
0.9253608063
 40
0.9503356672
 40
0.975196503
 40
1.0
 40
1.0
 40
1.0
 40
1.0
 10
15.1036756133
 20
13.0392038088
 30
0.0
 10
15.0927706661
 20
13.0392038088
 30
0.0
 10
15.0710884911
 20
13.0389592815
 30
0.0
 10
15.0387821972
 20
13.0378447452
 30
0.0
 10
15.0069148681
 20
13.0359857613
 30
0.0
 10
14.9755227888
 20
13.0333844706
 30
0.0
 10
14.9446412312
 20
13.0300437513
 30
0.0
 10
14.9143050909
 20
13.0259673722
 30
0.0
 10
14.884548572
 20
13.0211598955
 30
0.0
 10
14.8554052427
 20
13.0156267128
 30
0.0
 10
14.8269079696
 20
13.0093740272
 30
0.0
 10
14.7990888883
 20
13.0024088438
 30
0.0
 10
14.7719793678
 20
12.99473896
 30
0.0
 10
14.7456099777
 20
12.9863729548
 30
0.0
 10
14.7200104547
 20
12.9773201783
 30
0.0
 10
14.6952096726
 20
12.9675907388
 30
0.0
 10
14.6712356115
 20
12.9571954909
 30
0.0
 10
14.6481153281
 20
12.9461460269
 30
0.0
 10
14.6258749319
 20
12.9344546583
 30
0.0
 10
14.6045395617
 20
12.9221344033
 30
0.0
 10
14.5841333637
 20
12.9091989738
 30
0.0
 10
14.5646794706
 20
12.8956627645
 30
0.0
 10
14.5461999816
 20
12.8815408412
 30
0.0
 10
14.5287159425
 20
12.8668489331
 30
0.0
 10
14.5122473221
 20
12.8516034292
 30
0.0
 10
14.4968129957
 20
12.8358213669
 30
0.0
 10
14.4824307234
 20
12.8195204286
 30
0.0
 10
14.4691171235
 20
12.802718935
 30
0.0
 10
14.4568876459
 20
12.7854358475
 30
0.0
 10
14.4457565306
 20
12.7676907297
 30
0.0
 10
14.4357368026
 20
12.7495038405
 30
0.0
 10
14.4268401078
 20
12.7308957287
 30
0.0
 10
14.4190771297
 20
12.7118886314
 30
0.0
 10
14.4146612726
 20
12.698958655
 30
0.0
 10
14.4126479553
 20
12.6924435479
 30
0.0
  0
SPLINE
  5
2FB
100
AcDbEntity
  8
LAYER_FEATURE
100
AcDbSpline
 62
7
  6
CONTINUOUS
 70
0
 71
3
 72
39
 73
35
 74
0
 42
0.0000001
 43
0.0000001
 44
0.0000000001
 40
0.0
 40
0.0
 40
0.0
 40
0.0
 40
0.0396652045
 40
0.0788627045
 40
0.1175691695
 40
0.1557638119
 40
0.1934266617
 40
0.2305396245
 40
0.2670862422
 40
0.3030519235
 40
0.3384240472
 40
0.3731920982
 40
0.407347807
 40
0.4408852942
 40
0.4738012217
 40
0.5060949489
 40
0.5377686923
 40
0.5688276893
 40
0.5992803563
 40
0.6291384448
 40
0.6584171896
 40
0.6871354435
 40
0.7153157905
 40
0.7429846322
 40
0.7701722372
 40
0.7969127389
 40
0.8232440788
 40
0.8492078819
 40
0.8748492571
 40
0.9002165157
 40
0.9253608063
 40
0.9503356672
 40
0.975196503
 40
1.0
 40
1.0
 40
1.0
 40
1.0
 10
15.20001801
 20
13.3509679188
 30
0.0
 10
15.1891130628
 20
13.3509679188
 30
0.0
 10
15.1674308878
 20
13.3507233915
 30
0.0
 10
15.1351245939
 20
13.3496088552
 30
0.0
 10
15.1032572648
 20
13.3477498713
 30
0.0
 10
15.0718651855
 20
13.3451485806
 30
0.0
 10
15.0409836279
 20
13.3418078613
 30
0.0
 10
15.0106474877
 20
13.3377314823
 30
0.0
 10
14.9808909687
 20
13.3329240055
 30
0.0
 10
14.9517476395
 20
13.3273908229
 30
0.0
 10
14.9232503663
 20
13.3211381373
 30
0.0
 10
14.895431285
 20
13.3141729538
 30
0.0
 10
14.8683217646
 20
13.30650307
 30
0.0
 10
14.8419523744
 20
13.2981370649
 30
0.0
 10
14.8163528514
 20
13.2890842884
 30
0.0
 10
14.7915520693
 20
13.2793548489
 30
0.0
 10
14.7675780082
 20
13.2689596009
 30
0.0
 10
14.7444577248
 20
13.2579101369
 30
0.0
 10
14.7222173286
 20
13.2462187683
 30
0.0
 10
14.7008819584
 20
13.2338985133
 30
0.0
 10
14.6804757604
 20
13.2209630839
 30
0.0
 10
14.6610218673
 20
13.2074268745
 30
0.0
 10
14.6425423784
 20
13.1933049512
 30
0.0
 10
14.6250583392
 20
13.1786130431
 30
0.0
 10
14.6085897188
 20
13.1633675392
 30
0.0
 10
14.5931553924
 20
13.1475854769
 30
0.0
 10
14.5787731201
 20
13.1312845386
 30
0.0
 10
14.5654595202
 20
13.1144830451
 30
0.0
 10
14.5532300426
 20
13.0971999575
 30
0.0
 10
14.5420989273
 20
13.0794548397
 30
0.0
 10
14.5320791993
 20
13.0612679505
 30
0.0
 10
14.5231825045
 20
13.0426598387
 30
0.0
 10
14.5154195265
 20
13.0236527414
 30
0.0
 10
14.5110036693
 20
13.010722765
 30
0.0
 10
14.508990352
 20
13.004207658
 30
0.0
  0
SPLINE
  5
2FC
100
AcDbEntity
  8
LAYER_FEATURE
100
AcDbSpline
 62
7
  6
CONTINUOUS
 70
0
 71
3
 72
68
 73
64
 74
0
 42
0.0000001
 43
0.0000001
 44
0.0000000001
 40
0.0
 40
0.0
 40
0.0
 40
0.0
 40
0.0171788537
 40
0.0345306493
 40
0.0520446784
 40
0.069710489
 40
0.0875169164
 40
0.1054526098
 40
0.1235058943
 40
0.141664841
 40
0.1599172928
 40
0.1782508912
 40
0.1966531056
 40
0.2151112603
 40
0.2521425355
 40
0.2892430599
 40
0.3263089876
 40
0.3447973805
 40
0.363238365
 40
0.3816191842
 40
0.3999272074
 40
0.4181499576
 40
0.4362751398
 40
0.4542906695
 40
0.4721847017
 40
0.4899456595
 40
0.5075622643
 40
0.5250235667
 40
0.5423189792
 40
0.5594383084
 40
0.5763717881
 40
0.5931101137
 40
0.6096444786
 40
0.6259666121
 40
0.6420688199
 40
0.6579440233
 40
0.6735858016
 40
0.6889884364
 40
0.7041469583
 40
0.7190571972
 40
0.7337158328
 40
0.7481204459
 40
0.7622695735
 40
0.7761627646
 40
0.7898006393
 40
0.8031849488
 40
0.8163186321
 40
0.8292058734
 40
0.8418521573
 40
0.8542643197
 40
0.8664505941
 40
0.8784206484
 40
0.8901856074
 40
0.9017580635
 40
0.9131520681
 40
0.9243831024
 40
0.9354680247
 40
0.9464249873
 40
0.9572733262
 40
0.9680334213
 40
0.9787265285
 40
0.989374586
 40
1.0
 40
1.0
 40
1.0
 40
1.0
 10
15.1036756133
 20
13.0392038088
 30
0.0
 10
15.1142596841
 20
13.0392038088
 30
0.0
 10
15.1355350564
 20
13.03897092
 30
0.0
 10
15.1675858842
 20
13.0379361335
 30
0.0
 10
15.1999077372
 20
13.0362150995
 30
0.0
 10
15.232466644
 20
13.0338096743
 30
0.0
 10
15.2652288887
 20
13.0307223203
 30
0.0
 10
15.2981603125
 20
13.0269562694
 30
0.0
 10
15.3312266598
 20
13.0225154342
 30
0.0
 10
15.3643935072
 20
13.0174044434
 30
0.0
 10
15.397626344
 20
13.011628617
 30
0.0
 10
15.4308905376
 20
13.0051939729
 30
0.0
 10
15.4641516158
 20
12.998107185
 30
0.0
 10
15.5084942925
 20
12.9877879305
 30
0.0
 10
15.5636862206
 20
12.9733069902
 30
0.0
 10
15.6292797161
 20
12.953479014
 30
0.0
 10
15.6832898055
 20
12.9349502417
 30
0.0
 10
15.7259852852
 20
12.918960429
 30
0.0
 10
15.7576714097
 20
12.9064150607
 30
0.0
 10
15.7890140148
 20
12.8933204468
 30
0.0
 10
15.8199806151
 20
12.8796901515
 30
0.0
 10
15.8505389376
 20
12.8655383771
 30
0.0
 10
15.880657184
 20
12.8508798493
 30
0.0
 10
15.9103040047
 20
12.8357298292
 30
0.0
 10
15.9394485439
 20
12.8201040848
 30
0.0
 10
15.968060468
 20
12.8040188774
 30
0.0
 10
15.9961099981
 20
12.7874909442
 30
0.0
 10
16.0235679405
 20
12.7705374801
 30
0.0
 10
16.0504057226
 20
12.7531761264
 30
0.0
 10
16.0765954186
 20
12.7354249458
 30
0.0
 10
16.1021097776
 20
12.7173024027
 30
0.0
 10
16.126922251
 20
12.6988273444
 30
0.0
 10
16.1510070197
 20
12.6800189801
 30
0.0
 10
16.1743390241
 20
12.6608968626
 30
0.0
 10
16.1968939927
 20
12.6414808712
 30
0.0
 10
16.2186484615
 20
12.6217911835
 30
0.0
 10
16.2395797975
 20
12.6018482556
 30
0.0
 10
16.2596662216
 20
12.5816728006
 30
0.0
 10
16.2788868294
 20
12.5612857648
 30
0.0
 10
16.2972216193
 20
12.5407083111
 30
0.0
 10
16.3146515097
 20
12.5199617934
 30
0.0
 10
16.3311583523
 20
12.4990677313
 30
0.0
 10
16.3467249497
 20
12.4780477897
 30
0.0
 10
16.3613350708
 20
12.4569237556
 30
0.0
 10
16.3749734662
 20
12.4357175156
 30
0.0
 10
16.3876258905
 20
12.4144510396
 30
0.0
 10
16.3992791049
 20
12.3931463527
 30
0.0
 10
16.4099208871
 20
12.3718255172
 30
0.0
 10
16.4195400414
 20
12.350510613
 30
0.0
 10
16.4281264061
 20
12.3292237185
 30
0.0
 10
16.4356708697
 20
12.3079868954
 30
0.0
 10
16.4421653819
 20
12.2868221723
 30
0.0
 10
16.4476029529
 20
12.265751527
 30
0.0
 10
16.451977665
 20
12.2447968741
 30
0.0
 10
16.455284684
 20
12.2239800504
 30
0.0
 10
16.4575202703
 20
12.2033228007
 30
0.0
 10
16.4586818078
 20
12.1828467608
 30
0.0
 10
16.4587678123
 20
12.1625734432
 30
0.0
 10
16.4577779366
 20
12.1425241909
 30
0.0
 10
16.4557130176
 20
12.1227202442
 30
0.0
 10
16.4525749823
 20
12.1031823673
 30
0.0
 10
16.4483672586
 20
12.0839320778
 30
0.0
 10
16.4448500509
 20
12.071297482
 30
0.0
 10
16.4429172378
 20
12.0650428871
 30
0.0
  0
SPLINE
  5
2FD
100
AcDbEntity
  8
LAYER_FEATURE
100
AcDbSpline
 62
7
  6
CONTINUOUS
 70
0
 71
3
 72
68
 73
64
 74
0
 42
0.0000001
 43
0.0000001
 44
0.0000000001
 40
0.0
 40
0.0
 40
0.0
 40
0.0
 40
0.0171788537
 40
0.0345306493
 40
0.0520446784
 40
0.069710489
 40
0.0875169164
 40
0.1054526098
 40
0.1235058943
 40
0.141664841
 40
0.1599172928
 40
0.1782508912
 40
0.1966531056
 40
0.2151112603
 40
0.2521425355
 40
0.2892430599
 40
0.3263089876
 40
0.3447973805
 40
0.363238365
 40
0.3816191842
 40
0.3999272074
 40
0.4181499576
 40
0.4362751398
 40
0.4542906695
 40
0.4721847017
 40
0.4899456595
 40
0.5075622643
 40
0.5250235667
 40
0.5423189792
 40
0.5594383084
 40
0.5763717881
 40
0.5931101137
 40
0.6096444786
 40
0.6259666121
 40
0.6420688199
 40
0.6579440233
 40
0.6735858016
 40
0.6889884364
 40
0.7041469583
 40
0.7190571972
 40
0.7337158328
 40
0.7481204459
 40
0.7622695735
 40
0.7761627646
 40
0.7898006393
 40
0.8031849488
 40
0.8163186321
 40
0.8292058734
 40
0.8418521573
 40
0.8542643197
 40
0.8664505941
 40
0.8784206484
 40
0.8901856074
 40
0.9017580635
 40
0.9131520681
 40
0.9243831024
 40
0.9354680247
 40
0.9464249873
 40
0.9572733262
 40
0.9680334213
 40
0.9787265285
 40
0.989374586
 40
1.0
 40
1.0
 40
1.0
 40
1.0
 10
15.20001801
 20
13.3509679188
 30
0.0
 10
15.2106020808
 20
13.3509679188
 30
0.0
 10
15.2318774532
 20
13.3507350301
 30
0.0
 10
15.263928281
 20
13.3497002435
 30
0.0
 10
15.2962501339
 20
13.3479792095
 30
0.0
 10
15.3288090407
 20
13.3455737844
 30
0.0
 10
15.3615712854
 20
13.3424864304
 30
0.0
 10
15.3945027092
 20
13.3387203795
 30
0.0
 10
15.4275690565
 20
13.3342795443
 30
0.0
 10
15.4607359039
 20
13.3291685535
 30
0.0
 10
15.4939687407
 20
13.323392727
 30
0.0
 10
15.5272329343
 20
13.316958083
 30
0.0
 10
15.5604940125
 20
13.309871295
 30
0.0
 10
15.6048366892
 20
13.2995520405
 30
0.0
 10
15.6600286173
 20
13.2850711002
 30
0.0
 10
15.7256221128
 20
13.265243124
 30
0.0
 10
15.7796322022
 20
13.2467143518
 30
0.0
 10
15.8223276819
 20
13.2307245391
 30
0.0
 10
15.8540138064
 20
13.2181791708
 30
0.0
 10
15.8853564115
 20
13.2050845568
 30
0.0
 10
15.9163230118
 20
13.1914542615
 30
0.0
 10
15.9468813343
 20
13.1773024871
 30
0.0
 10
15.9769995807
 20
13.1626439593
 30
0.0
 10
16.0066464014
 20
13.1474939393
 30
0.0
 10
16.0357909406
 20
13.1318681948
 30
0.0
 10
16.0644028648
 20
13.1157829874
 30
0.0
 10
16.0924523948
 20
13.0992550543
 30
0.0
 10
16.1199103372
 20
13.0823015901
 30
0.0
 10
16.1467481193
 20
13.0649402364
 30
0.0
 10
16.1729378153
 20
13.0471890558
 30
0.0
 10
16.1984521743
 20
13.0290665128
 30
0.0
 10
16.2232646477
 20
13.0105914545
 30
0.0
 10
16.2473494164
 20
12.9917830901
 30
0.0
 10
16.2706814208
 20
12.9726609726
 30
0.0
 10
16.2932363894
 20
12.9532449813
 30
0.0
 10
16.3149908582
 20
12.9335552935
 30
0.0
 10
16.3359221942
 20
12.9136123656
 30
0.0
 10
16.3560086183
 20
12.8934369106
 30
0.0
 10
16.3752292261
 20
12.8730498748
 30
0.0
 10
16.393564016
 20
12.8524724212
 30
0.0
 10
16.4109939064
 20
12.8317259034
 30
0.0
 10
16.427500749
 20
12.8108318413
 30
0.0
 10
16.4430673464
 20
12.7898118998
 30
0.0
 10
16.4576774675
 20
12.7686878656
 30
0.0
 10
16.4713158629
 20
12.7474816257
 30
0.0
 10
16.4839682873
 20
12.7262151496
 30
0.0
 10
16.4956215016
 20
12.7049104627
 30
0.0
 10
16.5062632838
 20
12.6835896272
 30
0.0
 10
16.5158824381
 20
12.662274723
 30
0.0
 10
16.5244688028
 20
12.6409878286
 30
0.0
 10
16.5320132664
 20
12.6197510054
 30
0.0
 10
16.5385077786
 20
12.5985862823
 30
0.0
 10
16.5439453496
 20
12.5775156371
 30
0.0
 10
16.5483200618
 20
12.5565609841
 30
0.0
 10
16.5516270807
 20
12.5357441604
 30
0.0
 10
16.553862667
 20
12.5150869108
 30
0.0
 10
16.5550242046
 20
12.4946108708
 30
0.0
 10
16.555110209
 20
12.4743375532
 30
0.0
 10
16.5541203333
 20
12.4542883009
 30
0.0
 10
16.5520554143
 20
12.4344843542
 30
0.0
 10
16.548917379
 20
12.4149464773
 30
0.0
 10
16.5447096553
 20
12.3956961878
 30
0.0
 10
16.5411924476
 20
12.383061592
 30
0.0
 10
16.5392596346
 20
12.3768069971
 30
0.0
  0
SPLINE
  5
2FE
100
AcDbEntity
  8
LAYER_CUT_FEAT
100
AcDbSpline
 62
7
  6
CONTINUOUS
 70
0
 71
3
 72
77
 73
73
 74
0
 42
0.0000001
 43
0.0000001
 44
0.0000000001
 40
0.0
 40
0.0
 40
0.0
 40
0.0
 40
0.0053541179
 40
0.0107129251
 40
0.0160810907
 40
0.0214632432
 40
0.0268639518
 40
0.0322877068
 40
0.0377389028
 40
0.0432218216
 40
0.0487406176
 40
0.054299304
 40
0.0655501203
 40
0.0770047201
 40
0.0886891122
 40
0.1006262813
 40
0.1128361131
 40
0.1190492003
 40
0.1253364889
 40
0.1381389509
 40
0.1512553814
 40
0.1646937396
 40
0.178459304
 40
0.1925548268
 40
0.2069806933
 40
0.22173508
 40
0.2368141099
 40
0.2522120008
 40
0.2679212083
 40
0.2839325604
 40
0.3002353858
 40
0.3168176342
 40
0.3336659905
 40
0.3507659831
 40
0.3681020858
 40
0.3856578159
 40
0.4034158274
 40
0.4213579995
 40
0.4394655235
 40
0.4577189856
 40
0.4760984473
 40
0.4945835243
 40
0.5131534635
 40
0.5317872183
 40
0.5504635236
 40
0.569160969
 40
0.5878580722
 40
0.6065333523
 40
0.6251654024
 40
0.643732963
 40
0.6622149958
 40
0.6805907583
 40
0.6988398791
 40
0.7169424354
 40
0.7348790312
 40
0.7526308784
 40
0.7701798798
 40
0.7875087151
 40
0.8046009307
 40
0.8214410327
 40
0.8380145844
 40
0.8543083094
 40
0.8703101996
 40
0.8860096294
 40
0.9013974766
 40
0.9164662507
 40
0.9312102284
 40
0.9456255948
 40
0.9597105962
 40
0.9734656859
 40
0.9868937055
 40
1.0
 40
1.0
 40
1.0
 40
1.0
 10
14.6776487915
 20
12.5762268534
 30
0.0
 10
14.678551816
 20
12.5791490521
 30
0.0
 10
14.6804644758
 20
12.5849639099
 30
0.0
 10
14.683648514
 20
12.5935828139
 30
0.0
 10
14.6871468491
 20
12.602096444
 30
0.0
 10
14.6909578978
 20
12.6105009941
 30
0.0
 10
14.6950800405
 20
12.6187928814
 30
0.0
 10
14.6995114715
 20
12.6269685368
 30
0.0
 10
14.7042502899
 20
12.6350244523
 30
0.0
 10
14.7092944109
 20
12.642957153
 30
0.0
 10
14.7146417429
 20
12.6507633231
 30
0.0
 10
14.7222022169
 20
12.6610386337
 30
0.0
 10
14.7324181745
 20
12.6735579567
 30
0.0
 10
14.7457998676
 20
12.6879580372
 30
0.0
 10
14.7603308422
 20
12.7017726172
 30
0.0
 10
14.7759850599
 20
12.7149777486
 30
0.0
 10
14.7898630035
 20
12.7253952196
 30
0.0
 10
14.8014866682
 20
12.7334066679
 30
0.0
 10
14.8136023287
 20
12.7412920992
 30
0.0
 10
14.8294091242
 20
12.7507229282
 30
0.0
 10
14.8492681832
 20
12.761281126
 30
0.0
 10
14.8700979489
 20
12.7711308107
 30
0.0
 10
14.8918625017
 20
12.7802552798
 30
0.0
 10
14.9145248131
 20
12.7886393065
 30
0.0
 10
14.938046224
 20
12.7962688043
 30
0.0
 10
14.9623866589
 20
12.8031309548
 30
0.0
 10
14.9875046418
 20
12.8092142063
 30
0.0
 10
15.0133573726
 20
12.8145083058
 30
0.0
 10
15.0399007932
 20
12.8190043196
 30
0.0
 10
15.0670896602
 20
12.8226946531
 30
0.0
 10
15.0948776203
 20
12.8255730686
 30
0.0
 10
15.1232172885
 20
12.8276346988
 30
0.0
 10
15.1520603286
 20
12.8288760589
 30
0.0
 10
15.181357536
 20
12.8292950547
 30
0.0
 10
15.2110589216
 20
12.828890989
 30
0.0
 10
15.2411137983
 20
12.827664564
 30
0.0
 10
15.2714708676
 20
12.8256178821
 30
0.0
 10
15.3020783084
 20
12.8227544435
 30
0.0
 10
15.3328838658
 20
12.8190791411
 30
0.0
 10
15.3638349418
 20
12.8145982527
 30
0.0
 10
15.3948786848
 20
12.8093194315
 30
0.0
 10
15.4259620817
 20
12.8032516928
 30
0.0
 10
15.4570320485
 20
12.7964053994
 30
0.0
 10
15.4880355215
 20
12.788792244
 30
0.0
 10
15.5189195492
 20
12.7804252292
 30
0.0
 10
15.5496313828
 20
12.7713186455
 30
0.0
 10
15.580118567
 20
12.7614880467
 30
0.0
 10
15.6103290306
 20
12.7509502232
 30
0.0
 10
15.640211175
 20
12.7397231734
 30
0.0
 10
15.669713964
 20
12.7278260723
 30
0.0
 10
15.6987870107
 20
12.7152792385
 30
0.0
 10
15.727380664
 20
12.702104099
 30
0.0
 10
15.7554460944
 20
12.6883231524
 30
0.0
 10
15.7829353772
 20
12.6739599293
 30
0.0
 10
15.8098015752
 20
12.6590389514
 30
0.0
 10
15.8359988184
 20
12.6435856892
 30
0.0
 10
15.8614823834
 20
12.6276265167
 30
0.0
 10
15.8862087693
 20
12.6111886659
 30
0.0
 10
15.9101357718
 20
12.5943001779
 30
0.0
 10
15.9332225552
 20
12.5769898545
 30
0.0
 10
15.9554297214
 20
12.5592872061
 30
0.0
 10
15.9767193764
 20
12.5412224002
 30
0.0
 10
15.997055193
 20
12.5228262069
 30
0.0
 10
16.0164024713
 20
12.5041299442
 30
0.0
 10
16.0347281944
 20
12.4851654227
 30
0.0
 10
16.0520010823
 20
12.4659648869
 30
0.0
 10
16.0681916361
 20
12.4465609642
 30
0.0
 10
16.083272196
 20
12.4269865846
 30
0.0
 10
16.0972169332
 20
12.40727501
 30
0.0
 10
16.1100020471
 20
12.3874594666
 30
0.0
 10
16.1216052331
 20
12.36757421
 30
0.0
 10
16.1286238779
 20
12.3541314435
 30
0.0
 10
16.131922214
 20
12.3474101411
 30
0.0
  0
SPLINE
  5
2FF
100
AcDbEntity
  8
LAYER_CHAMFER_FEAT
100
AcDbSpline
 62
7
  6
CONTINUOUS
 70
0
 71
3
 72
57
 73
53
 74
0
 42
0.0000001
 43
0.0000001
 44
0.0000000001
 40
0.0
 40
0.0
 40
0.0
 40
0.0
 40
0.0311433801
 40
0.0461618129
 40
0.0608071389
 40
0.0750813781
 40
0.0889898047
 40
0.1157373802
 40
0.1286150405
 40
0.1411839896
 40
0.1534682821
 40
0.1654960339
 40
0.1772992398
 40
0.1889135663
 40
0.2003779799
 40
0.2117341681
 40
0.2230258843
 40
0.2342981453
 40
0.2455963513
 40
0.2569653867
 40
0.2684487536
 40
0.2800878044
 40
0.2919210429
 40
0.3039836338
 40
0.3163070522
 40
0.3289188004
 40
0.3418423735
 40
0.3550972655
 40
0.3686989923
 40
0.3826593266
 40
0.3969864497
 40
0.4116851115
 40
0.4267569445
 40
0.442200621
 40
0.4580120552
 40
0.4741846941
 40
0.4907096364
 40
0.5075758405
 40
0.5247703592
 40
0.5422784233
 40
0.5781640052
 40
0.6150892452
 40
0.6528869479
 40
0.691374678
 40
0.7303585031
 40
0.7696364847
 40
0.8090020236
 40
0.8482471502
 40
0.8871657827
 40
0.925557073
 40
0.9632282786
 40
1.0
 40
1.0
 40
1.0
 40
1.0
 10
15.253733784
 20
12.1640199718
 30
0.0
 10
15.2504612881
 20
12.1632503499
 30
0.0
 10
15.2456500802
 20
12.161925594
 30
0.0
 10
15.2394457465
 20
12.1597782671
 30
0.0
 10
15.2350359331
 20
12.1580276202
 30
0.0
 10
15.2308222755
 20
12.1561207533
 30
0.0
 10
15.2255464735
 20
12.1534108822
 30
0.0
 10
15.2206132928
 20
12.1503745458
 30
0.0
 10
15.2160905705
 20
12.1470101288
 30
0.0
 10
15.2129744387
 20
12.1443832866
 30
0.0
 10
15.2100983233
 20
12.1416265491
 30
0.0
 10
15.2074678683
 20
12.1387451804
 30
0.0
 10
15.2050884867
 20
12.1357447891
 30
0.0
 10
15.2029650818
 20
12.1326312455
 30
0.0
 10
15.2011020248
 20
12.1294107414
 30
0.0
 10
15.1995032314
 20
12.1260896977
 30
0.0
 10
15.1981720412
 20
12.1226748207
 30
0.0
 10
15.1971111768
 20
12.119173061
 30
0.0
 10
15.1963228408
 20
12.1155915467
 30
0.0
 10
15.1958085674
 20
12.1119375926
 30
0.0
 10
15.1955692702
 20
12.1082186306
 30
0.0
 10
15.1956053375
 20
12.1044421805
 30
0.0
 10
15.1959164972
 20
12.1006158293
 30
0.0
 10
15.1965019363
 20
12.0967471979
 30
0.0
 10
15.1973603544
 20
12.09284395
 30
0.0
 10
15.1984898444
 20
12.0889137558
 30
0.0
 10
15.1998880311
 20
12.084964307
 30
0.0
 10
15.2015520645
 20
12.0810033236
 30
0.0
 10
15.2034785296
 20
12.0770385035
 30
0.0
 10
15.2056635743
 20
12.0730775655
 30
0.0
 10
15.2081028636
 20
12.0691282264
 30
0.0
 10
15.2107915329
 20
12.0651981509
 30
0.0
 10
15.2137242943
 20
12.0612950045
 30
0.0
 10
15.2168953774
 20
12.0574264002
 30
0.0
 10
15.2202985239
 20
12.0535998638
 30
0.0
 10
15.2239270693
 20
12.0498228866
 30
0.0
 10
15.2277738892
 20
12.0461028452
 30
0.0
 10
15.2318314084
 20
12.0424470093
 30
0.0
 10
15.2360917225
 20
12.0388625142
 30
0.0
 10
15.2420801974
 20
12.0341493009
 30
0.0
 10
15.2500253569
 20
12.0284873501
 30
0.0
 10
15.2601466911
 20
12.0221417874
 30
0.0
 10
15.270854179
 20
12.0162389622
 30
0.0
 10
15.2820638714
 20
12.0108251157
 30
0.0
 10
15.2936882345
 20
12.0059424942
 30
0.0
 10
15.3056363443
 20
12.0016293101
 30
0.0
 10
15.3178147312
 20
11.9979192946
 30
0.0
 10
15.3301281227
 20
11.9948414645
 30
0.0
 10
15.3424801599
 20
11.9924199036
 30
0.0
 10
15.3547743808
 20
11.9906735751
 30
0.0
 10
15.3669141679
 20
11.9896160866
 30
0.0
 10
15.3749516335
 20
11.9893725782
 30
0.0
 10
15.378920963
 20
11.9893725782
 30
0.0
  0
SPLINE
  5
300
100
AcDbEntity
  8
02___PRT_ALL_AXES
100
AcDbSpline
 62
7
  6
CONTINUOUS
 70
0
 71
3
 72
57
 73
53
 74
0
 42
0.0000001
 43
0.0000001
 44
0.0000000001
 40
0.0
 40
0.0
 40
0.0
 40
0.0
 40
0.0345292929
 40
0.06970799
 40
0.105449025
 40
0.1416602424
 40
0.1782453385
 40
0.2151047948
 40
0.2521367763
 40
0.2892380084
 40
0.326304643
 40
0.3632331183
 40
0.3999210218
 40
0.4362679627
 40
0.4721764622
 40
0.5075528714
 40
0.5250145071
 40
0.54231025
 40
0.5594299059
 40
0.5763637082
 40
0.5931023525
 40
0.6096370326
 40
0.6259594781
 40
0.6420619936
 40
0.6579374997
 40
0.6735795757
 40
0.6889825036
 40
0.7041413149
 40
0.7190518391
 40
0.7337107546
 40
0.7481156422
 40
0.7622650387
 40
0.7761584944
 40
0.78979663
 40
0.8031811956
 40
0.8163151294
 40
0.829202616
 40
0.8418491403
 40
0.8542615394
 40
0.8664480471
 40
0.8784183301
 40
0.8901835134
 40
0.9017561896
 40
0.913150411
 40
0.9243816599
 40
0.9354667941
 40
0.9464239658
 40
0.9572725115
 40
0.9680328116
 40
0.9787261226
 40
0.9893743833
 40
1.0
 40
1.0
 40
1.0
 40
1.0
 10
15.1348112093
 20
12.4868159553
 30
0.0
 10
15.1479556996
 20
12.4868159553
 30
0.0
 10
15.1744950509
 20
12.4862324632
 30
0.0
 10
15.2145660197
 20
12.4836732051
 30
0.0
 10
15.2551380809
 20
12.4794317482
 30
0.0
 10
15.2960418147
 20
12.4735257276
 30
0.0
 10
15.3371076773
 20
12.4659796788
 30
0.0
 10
15.3781650487
 20
12.4568249438
 30
0.0
 10
15.41904341
 20
12.4460995468
 30
0.0
 10
15.4595729437
 20
12.4338480444
 30
0.0
 10
15.4995852771
 20
12.420121333
 30
0.0
 10
15.5389141988
 20
12.4049764301
 30
0.0
 10
15.5773963109
 20
12.3884762657
 30
0.0
 10
15.6148719074
 20
12.3706893017
 30
0.0
 10
15.6511849322
 20
12.3516896163
 30
0.0
 10
15.6804779913
 20
12.3348388768
 30
0.0
 10
15.7031964076
 20
12.3208118027
 30
0.0
 10
15.7197790486
 20
12.3100844912
 30
0.0
 10
15.7359611872
 20
12.2991163601
 30
0.0
 10
15.7517260619
 20
12.2879187573
 30
0.0
 10
15.7670572492
 20
12.2765033444
 30
0.0
 10
15.7819388029
 20
12.2648819876
 30
0.0
 10
15.7963552382
 20
12.25306677
 30
0.0
 10
15.8102915563
 20
12.241069972
 30
0.0
 10
15.8237332584
 20
12.2289040612
 30
0.0
 10
15.8366663603
 20
12.2165816772
 30
0.0
 10
15.8490774058
 20
12.2041156187
 30
0.0
 10
15.860953481
 20
12.1915188296
 30
0.0
 10
15.8722822262
 20
12.178804385
 30
0.0
 10
15.8830518486
 20
12.1659854779
 30
0.0
 10
15.8932511344
 20
12.1530754053
 30
0.0
 10
15.9028694583
 20
12.1400875536
 30
0.0
 10
15.9118967933
 20
12.1270353852
 30
0.0
 10
15.9203237192
 20
12.1139324246
 30
0.0
 10
15.9281414309
 20
12.1007922448
 30
0.0
 10
15.9353417465
 20
12.0876284546
 30
0.0
 10
15.9419171142
 20
12.0744546862
 30
0.0
 10
15.9478606176
 20
12.0612845826
 30
0.0
 10
15.9531659809
 20
12.0481317862
 30
0.0
 10
15.9578275747
 20
12.0350099284
 30
0.0
 10
15.9618404209
 20
12.0219326195
 30
0.0
 10
15.9652001992
 20
12.0089134394
 30
0.0
 10
15.9679032543
 20
11.9959659291
 30
0.0
 10
15.9699466007
 20
11.983103581
 30
0.0
 10
15.9713279318
 20
11.9703398311
 30
0.0
 10
15.9720456284
 20
11.9576880471
 30
0.0
 10
15.9720987699
 20
11.9451615216
 30
0.0
 10
15.9714871415
 20
11.9327734426
 30
0.0
 10
15.9702112615
 20
11.9205369339
 30
0.0
 10
15.968272324
 20
11.9084648248
 30
0.0
 10
15.9656724478
 20
11.8965704103
 30
0.0
 10
15.9634992313
 20
11.8887637152
 30
0.0
 10
15.962304979
 20
11.8848991118
 30
0.0
  0
SPLINE
  5
301
100
AcDbEntity
  8
LAYER_CHAMFER_FEAT
100
AcDbSpline
 62
7
  6
CONTINUOUS
 70
0
 71
3
 72
41
 73
37
 74
0
 42
0.0000001
 43
0.0000001
 44
0.0000000001
 40
0.0
 40
0.0
 40
0.0
 40
0.0
 40
0.0357356785
 40
0.0703750841
 40
0.1039087812
 40
0.1363418685
 40
0.167695425
 40
0.182981085
 40
0.1980128794
 40
0.2273415242
 40
0.255763219
 40
0.2833751139
 40
0.3102943717
 40
0.3366569491
 40
0.3626151738
 40
0.3883340487
 40
0.4139864155
 40
0.4397473383
 40
0.4657882609
 40
0.492271538
 40
0.5193458485
 40
0.5471428013
 40
0.5757748118
 40
0.5904363197
 40
0.6053394683
 40
0.6358981836
 40
0.6675088717
 40
0.7002057065
 40
0.7340057915
 40
0.7689105996
 40
0.8049074071
 40
0.8419706162
 40
0.8800634073
 40
0.9191378053
 40
0.9591389593
 40
1.0
 40
1.0
 40
1.0
 40
1.0
 10
15.4503467685
 20
12.1032619674
 30
0.0
 10
15.451836221
 20
12.1016320154
 30
0.0
 10
15.4546903747
 20
12.098348573
 30
0.0
 10
15.458638846
 20
12.0932821794
 30
0.0
 10
15.4621761706
 20
12.0881662115
 30
0.0
 10
15.4652902426
 20
12.0830177979
 30
0.0
 10
15.467542822
 20
12.0786778578
 30
0.0
 10
15.4691175132
 20
12.0752071967
 30
0.0
 10
15.4705182804
 20
12.0717977367
 30
0.0
 10
15.4719951858
 20
12.0675451414
 30
0.0
 10
15.4733248207
 20
12.0624352133
 30
0.0
 10
15.4741922559
 20
12.0573771625
 30
0.0
 10
15.4745938343
 20
12.0523881389
 30
0.0
 10
15.4745275179
 20
12.0474851288
 30
0.0
 10
15.4739929253
 20
12.0426851528
 30
0.0
 10
15.4729914778
 20
12.0380050984
 30
0.0
 10
15.4715264916
 20
12.0334615645
 30
0.0
 10
15.4696031958
 20
12.0290706444
 30
0.0
 10
15.4672286448
 20
12.0248477237
 30
0.0
 10
15.4644115902
 20
12.0208073422
 30
0.0
 10
15.461162251
 20
12.0169630798
 30
0.0
 10
15.4574923772
 20
12.0133277242
 30
0.0
 10
15.45412083
 20
12.0105043287
 30
0.0
 10
15.4512334095
 20
12.0083601334
 30
0.0
 10
15.4481683708
 20
12.0062598058
 30
0.0
 10
15.4440928755
 20
12.0037880494
 30
0.0
 10
15.4388806146
 20
12.0010976997
 30
0.0
 10
15.4333233079
 20
11.9986669321
 30
0.0
 10
15.4274396152
 20
11.9965036588
 30
0.0
 10
15.4212489997
 20
11.9946148058
 30
0.0
 10
15.4147720011
 20
11.9930064882
 30
0.0
 10
15.4080300757
 20
11.9916839044
 30
0.0
 10
15.4010456184
 20
11.9906513842
 30
0.0
 10
15.3938416984
 20
11.9899122421
 30
0.0
 10
15.3864424532
 20
11.9894689655
 30
0.0
 10
15.3814456304
 20
11.9893725782
 30
0.0
 10
15.378920963
 20
11.9893725782
 30
0.0
  0
SPLINE
  5
302
100
AcDbEntity
  8
LAYER_FEATURE
100
AcDbSpline
 62
7
  6
CONTINUOUS
 70
0
 71
3
 72
15
 73
11
 74
0
 42
0.0000001
 43
0.0000001
 44
0.0000000001
 40
0.0
 40
0.0
 40
0.0
 40
0.0
 40
0.1190290647
 40
0.2390446419
 40
0.3604598354
 40
0.4836503738
 40
0.6089474696
 40
0.7366296404
 40
0.8669253814
 40
1.0
 40
1.0
 40
1.0
 40
1.0
 10
15.1059113396
 20
12.5790745933
 30
0.0
 10
15.1054715812
 20
12.5802846484
 30
0.0
 10
15.104697226
 20
12.5827558616
 30
0.0
 10
15.1038637669
 20
12.5865695325
 30
0.0
 10
15.1033579013
 20
12.5904858371
 30
0.0
 10
15.1031816897
 20
12.5944876369
 30
0.0
 10
15.1033356003
 20
12.5985579695
 30
0.0
 10
15.1038187246
 20
12.6026796502
 30
0.0
 10
15.1046287279
 20
12.6068350108
 30
0.0
 10
15.1053762865
 20
12.6095868735
 30
0.0
 10
15.1058012688
 20
12.6109621168
 30
0.0
  0
SPLINE
  5
303
100
AcDbEntity
  8
02___PRT_ALL_AXES
100
AcDbSpline
 62
7
  6
CONTINUOUS
 70
0
 71
3
 72
35
 73
31
 74
0
 42
0.0000001
 43
0.0000001
 44
0.0000000001
 40
0.0
 40
0.0
 40
0.0
 40
0.0
 40
0.0238790816
 40
0.0479811681
 40
0.0724409927
 40
0.0973793053
 40
0.1228993065
 40
0.1490844392
 40
0.1759973322
 40
0.2036799183
 40
0.2321542244
 40
0.2614238786
 40
0.2914758642
 40
0.3222825721
 40
0.35380388
 40
0.3859892227
 40
0.4187796141
 40
0.4521094748
 40
0.4859083759
 40
0.5201025457
 40
0.5546162268
 40
0.5893728862
 40
0.6592893556
 40
0.7292801596
 40
0.7987931878
 40
0.8673363344
 40
0.9011248099
 40
0.934522125
 40
0.9674911955
 40
1.0
 40
1.0
 40
1.0
 40
1.0
 10
15.103782507
 20
12.5828497251
 30
0.0
 10
15.1032260563
 20
12.5839836629
 30
0.0
 10
15.1022210352
 20
12.5863195702
 30
0.0
 10
15.1010581159
 20
12.5899767255
 30
0.0
 10
15.100239123
 20
12.5937833547
 30
0.0
 10
15.0997667967
 20
12.5977234336
 30
0.0
 10
15.0996420419
 20
12.6017807096
 30
0.0
 10
15.0998643598
 20
12.6059380081
 30
0.0
 10
15.1004317996
 20
12.6101774503
 30
0.0
 10
15.1013410223
 20
12.6144804179
 30
0.0
 10
15.1025873136
 20
12.6188276154
 30
0.0
 10
15.1041646077
 20
12.6231991321
 30
0.0
 10
15.1060655081
 20
12.6275745423
 30
0.0
 10
15.1082813269
 20
12.631933019
 30
0.0
 10
15.110802126
 20
12.6362534669
 30
0.0
 10
15.1136167777
 20
12.6405146592
 30
0.0
 10
15.1167130242
 20
12.6446953789
 30
0.0
 10
15.1200775417
 20
12.6487745511
 30
0.0
 10
15.123696016
 20
12.6527313862
 30
0.0
 10
15.1275531452
 20
12.6565454555
 30
0.0
 10
15.131632903
 20
12.6601969876
 30
0.0
 10
15.1373568359
 20
12.6648314597
 30
0.0
 10
15.1449621921
 20
12.6701063109
 30
0.0
 10
15.1546657565
 20
12.6754883872
 30
0.0
 10
15.1648050089
 20
12.6798170744
 30
0.0
 10
15.1735183928
 20
12.6824763492
 30
0.0
 10
15.18054169
 20
12.6839819466
 30
0.0
 10
15.1857806846
 20
12.684790569
 30
0.0
 10
15.1909909867
 20
12.6852787164
 30
0.0
 10
15.1944554307
 20
12.6853893269
 30
0.0
 10
15.1961750223
 20
12.6853893269
 30
0.0
  0
SPLINE
  5
304
100
AcDbEntity
  8
LAYER_FEATURE
100
AcDbSpline
 62
7
  6
CONTINUOUS
 70
0
 71
3
 72
11
 73
7
 74
0
 42
0.0000001
 43
0.0000001
 44
0.0000000001
 40
0.0
 40
0.0
 40
0.0
 40
0.0
 40
0.2451953656
 40
0.4923549446
 40
0.7434033194
 40
1.0
 40
1.0
 40
1.0
 40
1.0
 10
16.4225823747
 20
12.4951650016
 30
0.0
 10
16.4226673935
 20
12.4954401241
 30
0.0
 10
16.4228078178
 20
12.4960024491
 30
0.0
 10
16.4229259498
 20
12.4968691296
 30
0.0
 10
16.4229515859
 20
12.4977567831
 30
0.0
 10
16.4229076335
 20
12.498352509
 30
0.0
 10
16.4228710334
 20
12.4986516272
 30
0.0
  0
SPLINE
  5
305
100
AcDbEntity
  8
LAYER_FEATURE
100
AcDbSpline
 62
7
  6
CONTINUOUS
 70
0
 71
3
 72
14
 73
10
 74
0
 42
0.0000001
 43
0.0000001
 44
0.0000000001
 40
0.0
 40
0.0
 40
0.0
 40
0.0
 40
0.1174320162
 40
0.2356563011
 40
0.3554399163
 40
0.4774996267
 40
0.6024787977
 40
0.7309522547
 40
1.0
 40
1.0
 40
1.0
 40
1.0
 10
16.388977183
 20
12.6136971908
 30
0.0
 10
16.3890551147
 20
12.6139493841
 30
0.0
 10
16.389186077
 20
12.6144637307
 30
0.0
 10
16.3893049208
 20
12.6152550512
 30
0.0
 10
16.3893462058
 20
12.6160646301
 30
0.0
 10
16.3893098054
 20
12.6168895313
 30
0.0
 10
16.3891959831
 20
12.6177270611
 30
0.0
 10
16.3889378176
 20
12.6188738997
 30
0.0
 10
16.3886336893
 20
12.6197190596
 30
0.0
 10
16.3883901334
 20
12.6202726039
 30
0.0
  0
SPLINE
  5
306
100
AcDbEntity
  8
LAYER_FEATURE
100
AcDbSpline
 62
7
  6
CONTINUOUS
 70
0
 71
3
 72
18
 73
14
 74
0
 42
0.0000001
 43
0.0000001
 44
0.0000000001
 40
0.0
 40
0.0
 40
0.0
 40
0.0
 40
0.0555115572
 40
0.111221924
 40
0.1673266265
 40
0.2240139928
 40
0.339775116
 40
0.4598499441
 40
0.5218639651
 40
0.5853208611
 40
0.716844268
 40
0.8549893097
 40
1.0
 40
1.0
 40
1.0
 40
1.0
 10
16.3178988688
 20
12.7330856133
 30
0.0
 10
16.3179555291
 20
12.7332689733
 30
0.0
 10
16.3180556365
 20
12.7336406512
 30
0.0
 10
16.3181650287
 20
12.7342091854
 30
0.0
 10
16.3182335768
 20
12.7347882103
 30
0.0
 10
16.3182706939
 20
12.7355780551
 30
0.0
 10
16.3182120307
 20
12.7365909992
 30
0.0
 10
16.3180189307
 20
12.7376052878
 30
0.0
 10
16.3177867031
 20
12.7384222137
 30
0.0
 10
16.3174951082
 20
12.7392619416
 30
0.0
 10
16.3170276763
 20
12.7403170363
 30
0.0
 10
16.3163193031
 20
12.7415656847
 30
0.0
 10
16.3157611909
 20
12.7423716451
 30
0.0
 10
16.3154596142
 20
12.7427721258
 30
0.0
  0
SPLINE
  5
307
100
AcDbEntity
  8
LAYER_FEATURE
100
AcDbSpline
 62
7
  6
CONTINUOUS
 70
0
 71
3
 72
18
 73
14
 74
0
 42
0.0000001
 43
0.0000001
 44
0.0000000001
 40
0.0
 40
0.0
 40
0.0
 40
0.0
 40
0.0523453629
 40
0.1050127782
 40
0.158314773
 40
0.2125453355
 40
0.2679725127
 40
0.324834187
 40
0.4435557649
 40
0.5700090875
 40
0.7048529784
 40
0.8482588385
 40
1.0
 40
1.0
 40
1.0
 40
1.0
 10
16.212453898
 20
12.8481124215
 30
0.0
 10
16.2125282861
 20
12.8483531521
 30
0.0
 10
16.2126543581
 20
12.8488436004
 30
0.0
 10
16.2127728424
 20
12.8495974746
 30
0.0
 10
16.2128207073
 20
12.8503682245
 30
0.0
 10
16.2127978008
 20
12.8511533253
 30
0.0
 10
16.212704326
 20
12.8519503996
 30
0.0
 10
16.2124829465
 20
12.8530412151
 30
0.0
 10
16.2120230991
 20
12.8544267511
 30
0.0
 10
16.2112083264
 20
12.8560700341
 30
0.0
 10
16.2101336748
 20
12.8577000476
 30
0.0
 10
16.2088127233
 20
12.8592978669
 30
0.0
 10
16.2078052272
 20
12.8603027417
 30
0.0
 10
16.2072668894
 20
12.860796376
 30
0.0
  0
SPLINE
  5
308
100
AcDbEntity
  8
LAYER_FEATURE
100
AcDbSpline
 62
7
  6
CONTINUOUS
 70
0
 71
3
 72
11
 73
7
 74
0
 42
0.0000001
 43
0.0000001
 44
0.0000000001
 40
0.0
 40
0.0
 40
0.0
 40
0.0
 40
0.227512684
 40
0.4704698361
 40
0.7283557424
 40
1.0
 40
1.0
 40
1.0
 40
1.0
 10
16.0695664649
 20
12.9288902159
 30
0.0
 10
16.0699104497
 20
12.9282857109
 30
0.0
 10
16.0707074551
 20
12.9270832272
 30
0.0
 10
16.0721446874
 20
12.9253773484
 30
0.0
 10
16.073843281
 20
12.9237316149
 30
0.0
 10
16.0751047479
 20
12.9227133906
 30
0.0
 10
16.075771385
 20
12.9222181946
 30
0.0
  0
SPLINE
  5
309
100
AcDbEntity
  8
LAYER_FEATURE
100
AcDbSpline
 62
7
  6
CONTINUOUS
 70
0
 71
3
 72
22
 73
18
 74
0
 42
0.0000001
 43
0.0000001
 44
0.0000000001
 40
0.0
 40
0.0
 40
0.0
 40
0.0
 40
0.0494889656
 40
0.0994427155
 40
0.1503064254
 40
0.2024831202
 40
0.2563248767
 40
0.3121224412
 40
0.3701032111
 40
0.4304318602
 40
0.493213317
 40
0.5584982581
 40
0.6262879621
 40
0.6965401239
 40
0.7691717889
 40
0.8440658715
 40
1.0
 40
1.0
 40
1.0
 40
1.0
 10
16.0772507229
 20
12.9537503916
 30
0.0
 10
16.0773428586
 20
12.9540485421
 30
0.0
 10
16.0774923671
 20
12.954659312
 30
0.0
 10
16.0776077623
 20
12.955602111
 30
0.0
 10
16.0776144746
 20
12.956568887
 30
0.0
 10
16.0775125956
 20
12.9575547634
 30
0.0
 10
16.077302896
 20
12.9585550922
 30
0.0
 10
16.0769866227
 20
12.9595652283
 30
0.0
 10
16.0765654323
 20
12.9605805608
 30
0.0
 10
16.0760414197
 20
12.9615964902
 30
0.0
 10
16.075417126
 20
12.962608445
 30
0.0
 10
16.0746954827
 20
12.9636118519
 30
0.0
 10
16.073879837
 20
12.9646021695
 30
0.0
 10
16.0729739852
 20
12.9655748937
 30
0.0
 10
16.0719820745
 20
12.9665256337
 30
0.0
 10
16.0705316058
 20
12.9677747073
 30
0.0
 10
16.0693572205
 20
12.9686395954
 30
0.0
 10
16.0685405002
 20
12.9691871284
 30
0.0
  0
SPLINE
  5
30A
100
AcDbEntity
  8
02___PRT_ALL_AXES
100
AcDbSpline
 62
7
  6
CONTINUOUS
 70
0
 71
3
 72
39
 73
35
 74
0
 42
0.0000001
 43
0.0000001
 44
0.0000000001
 40
0.0
 40
0.0
 40
0.0
 40
0.0
 40
0.0248034973
 40
0.0496643335
 40
0.0746391947
 40
0.0997834851
 40
0.1251507427
 40
0.1507921168
 40
0.1767559198
 40
0.2030872608
 40
0.2298277638
 40
0.2570153696
 40
0.284684211
 40
0.312864556
 40
0.3415828085
 40
0.3708615539
 40
0.4007196437
 40
0.4311723119
 40
0.4622313094
 40
0.493905052
 40
0.5261987774
 40
0.5591147045
 40
0.5926521923
 40
0.6268079021
 40
0.6615759537
 40
0.6969480775
 40
0.7329137579
 40
0.7694603751
 40
0.8065733377
 40
0.8442361876
 40
0.8824308336
 40
0.9211372865
 40
0.9603348127
 40
1.0
 40
1.0
 40
1.0
 40
1.0
 10
14.7908661596
 20
12.5412400405
 30
0.0
 10
14.7921101528
 20
12.5452656101
 30
0.0
 10
14.7948386341
 20
12.5532548142
 30
0.0
 10
14.7996352442
 20
12.5649989632
 30
0.0
 10
14.8051323572
 20
12.576496586
 30
0.0
 10
14.8113233708
 20
12.5877339435
 30
0.0
 10
14.8182010877
 20
12.5986983398
 30
0.0
 10
14.8257574629
 20
12.6093772565
 30
0.0
 10
14.8339837012
 20
12.619758603
 30
0.0
 10
14.8428702552
 20
12.6298306641
 30
0.0
 10
14.8524068551
 20
12.6395821207
 30
0.0
 10
14.8625825263
 20
12.6490020476
 30
0.0
 10
14.8733856052
 20
12.6580799183
 30
0.0
 10
14.884803753
 20
12.6668056074
 30
0.0
 10
14.8968239688
 20
12.6751693936
 30
0.0
 10
14.9094325989
 20
12.6831619667
 30
0.0
 10
14.9226153488
 20
12.6907744338
 30
0.0
 10
14.9363572983
 20
12.6979983231
 30
0.0
 10
14.9506429138
 20
12.7048255915
 30
0.0
 10
14.9654560625
 20
12.7112486321
 30
0.0
 10
14.9807800268
 20
12.7172602829
 30
0.0
 10
14.9965975199
 20
12.722853834
 30
0.0
 10
15.0128907012
 20
12.7280230404
 30
0.0
 10
15.029641196
 20
12.7327621256
 30
0.0
 10
15.0468301159
 20
12.7370657889
 30
0.0
 10
15.064438078
 20
12.7409292129
 30
0.0
 10
15.0824452265
 20
12.7443480694
 30
0.0
 10
15.1008312541
 20
12.7473185253
 30
0.0
 10
15.1195754197
 20
12.7498372478
 30
0.0
 10
15.1386565898
 20
12.7519014191
 30
0.0
 10
15.1580532002
 20
12.7535087099
 30
0.0
 10
15.1777434635
 20
12.7546573442
 30
0.0
 10
15.1977049519
 20
12.7553459956
 30
0.0
 10
15.2111019867
 20
12.7554970853
 30
0.0
 10
15.2178399582
 20
12.7554970853
 30
0.0
  0
SPLINE
  5
30B
100
AcDbEntity
  8
LAYER_FEATURE
100
AcDbSpline
 62
7
  6
CONTINUOUS
 70
0
 71
3
 72
10
 73
6
 74
0
 42
0.0000001
 43
0.0000001
 44
0.0000000001
 40
0.0
 40
0.0
 40
0.0
 40
0.0
 40
0.2719224252
 40
0.5286210425
 40
1.0
 40
1.0
 40
1.0
 40
1.0
 10
15.9796574726
 20
12.1387590316
 30
0.0
 10
15.9791609128
 20
12.1381641333
 30
0.0
 10
15.9781567599
 20
12.1370386766
 30
0.0
 10
15.9761029598
 20
12.1350617723
 30
0.0
 10
15.9744279614
 20
12.1338093948
 30
0.0
 10
15.9732693603
 20
12.1331296174
 30
0.0
  0
SPLINE
  5
30C
100
AcDbEntity
  8
LAYER_CHAMFER_FEAT
100
AcDbSpline
 62
7
  6
CONTINUOUS
 70
0
 71
3
 72
42
 73
38
 74
0
 42
0.0000001
 43
0.0000001
 44
0.0000000001
 40
0.0
 40
0.0
 40
0.0
 40
0.0
 40
0.0106262449
 40
0.0212751356
 40
0.0319690782
 40
0.0427300144
 40
0.0535792026
 40
0.0645370193
 40
0.0868474333
 40
0.1098090037
 40
0.133539819
 40
0.158134743
 40
0.183665404
 40
0.2101811335
 40
0.2377104756
 40
0.2662629724
 40
0.2958310291
 40
0.3263917376
 40
0.3579085954
 40
0.390333096
 40
0.4236061875
 40
0.4576596078
 40
0.4924171132
 40
0.5277956148
 40
0.5637062395
 40
0.6000553311
 40
0.6367454047
 40
0.6736760633
 40
0.7107448883
 40
0.747848313
 40
0.7848824803
 40
0.8217441211
 40
0.8583313605
 40
0.8945447747
 40
0.9302877874
 40
0.9654688271
 40
1.0
 40
1.0
 40
1.0
 40
1.0
 10
15.2201823397
 20
12.13032231
 30
0.0
 10
15.2199549512
 20
12.1295864749
 30
0.0
 10
15.2195411504
 20
12.1281000549
 30
0.0
 10
15.2190461378
 20
12.1258353126
 30
0.0
 10
15.218676949
 20
12.1235367376
 30
0.0
 10
15.2184340183
 20
12.1212068724
 30
0.0
 10
15.2183175727
 20
12.1188480938
 30
0.0
 10
15.2183310876
 20
12.1156493073
 30
0.0
 10
15.2186711926
 20
12.1115802326
 30
0.0
 10
15.2195827542
 20
12.1066551646
 30
0.0
 10
15.2209952338
 20
12.1016778569
 30
0.0
 10
15.2229018752
 20
12.0966692465
 30
0.0
 10
15.2252940456
 20
12.0916496921
 30
0.0
 10
15.228161322
 20
12.0866396568
 30
0.0
 10
15.2314914878
 20
12.0816595141
 30
0.0
 10
15.2352705431
 20
12.0767295612
 30
0.0
 10
15.2394827201
 20
12.0718699405
 30
0.0
 10
15.2441105135
 20
12.0671005656
 30
0.0
 10
15.2491347275
 20
12.062441034
 30
0.0
 10
15.2545345372
 20
12.0579105383
 30
0.0
 10
15.2602875632
 20
12.0535277778
 30
0.0
 10
15.266369957
 20
12.0493108723
 30
0.0
 10
15.272756496
 20
12.0452772792
 30
0.0
 10
15.2794206862
 20
12.0414437147
 30
0.0
 10
15.2863348713
 20
12.0378260785
 30
0.0
 10
15.2934703482
 20
12.0344393837
 30
0.0
 10
15.3007974873
 20
12.031297691
 30
0.0
 10
15.308285857
 20
12.0284140478
 30
0.0
 10
15.3159043516
 20
12.0258004322
 30
0.0
 10
15.3236213224
 20
12.0234677021
 30
0.0
 10
15.3314047117
 20
12.0214255469
 30
0.0
 10
15.3392221839
 20
12.0196824529
 30
0.0
 10
15.3470412764
 20
12.0182456536
 30
0.0
 10
15.3548294901
 20
12.017121131
 30
0.0
 10
15.362554571
 20
12.0163135317
 30
0.0
 10
15.3701842278
 20
12.0158262473
 30
0.0
 10
15.3752374244
 20
12.0157151447
 30
0.0
 10
15.3777401716
 20
12.0157151447
 30
0.0
  0
SPLINE
  5
30D
100
AcDbEntity
  8
02___PRT_ALL_AXES
100
AcDbSpline
 62
7
  6
CONTINUOUS
 70
0
 71
3
 72
39
 73
35
 74
0
 42
0.0000001
 43
0.0000001
 44
0.0000000001
 40
0.0
 40
0.0
 40
0.0
 40
0.0
 40
0.0396653822
 40
0.0788626144
 40
0.1175692044
 40
0.1557638045
 40
0.1934266657
 40
0.2305396238
 40
0.2670862409
 40
0.3030519232
 40
0.3384240485
 40
0.3731921003
 40
0.4073478087
 40
0.4408852949
 40
0.4738012214
 40
0.5060949478
 40
0.5377686915
 40
0.5688276897
 40
0.5992803579
 40
0.6291384468
 40
0.6584171905
 40
0.6871354426
 40
0.7153157888
 40
0.7429846317
 40
0.7701722379
 40
0.7969127399
 40
0.8232440796
 40
0.8492078822
 40
0.8748492569
 40
0.9002165151
 40
0.9253608057
 40
0.9503356668
 40
0.9751965029
 40
1.0
 40
1.0
 40
1.0
 40
1.0
 10
15.1348112093
 20
12.4868159553
 30
0.0
 10
15.1280732047
 20
12.4868159553
 30
0.0
 10
15.1146761864
 20
12.486664871
 30
0.0
 10
15.094714692
 20
12.4859762083
 30
0.0
 10
15.0750244624
 20
12.4848275871
 30
0.0
 10
15.055627835
 20
12.4832202892
 30
0.0
 10
15.0365466713
 20
12.4811561201
 30
0.0
 10
15.0178025048
 20
12.4786373944
 30
0.0
 10
14.9994164777
 20
12.4756669387
 30
0.0
 10
14.9814093282
 20
12.472248084
 30
0.0
 10
14.963801365
 20
12.4683846616
 30
0.0
 10
14.946612445
 20
12.4640809981
 30
0.0
 10
14.9298619509
 20
12.4593419117
 30
0.0
 10
14.9135687707
 20
12.4541727039
 30
0.0
 10
14.8977512779
 20
12.4485791524
 30
0.0
 10
14.8824273127
 20
12.4425675028
 30
0.0
 10
14.8676141631
 20
12.4361444629
 30
0.0
 10
14.853328547
 20
12.429317195
 30
0.0
 10
14.8395865975
 20
12.4220933057
 30
0.0
 10
14.8264038484
 20
12.4144808379
 30
0.0
 10
14.8137952199
 20
12.4064882632
 30
0.0
 10
14.8017750045
 20
12.3981244767
 30
0.0
 10
14.7903568551
 20
12.3893987889
 30
0.0
 10
14.7795537743
 20
12.3803209196
 30
0.0
 10
14.7693781025
 20
12.370900993
 30
0.0
 10
14.7598415042
 20
12.3611495352
 30
0.0
 10
14.7509549524
 20
12.3510774726
 30
0.0
 10
14.7427287149
 20
12.3406961258
 30
0.0
 10
14.7351723375
 20
12.3300172105
 30
0.0
 10
14.7282946189
 20
12.3190528148
 30
0.0
 10
14.722103605
 20
12.3078154573
 30
0.0
 10
14.7166064928
 20
12.296317834
 30
0.0
 10
14.7118098829
 20
12.2845736849
 30
0.0
 10
14.709081405
 20
12.2765844798
 30
0.0
 10
14.7078374105
 20
12.2725589105
 30
0.0
  0
SPLINE
  5
30E
100
AcDbEntity
  8
LAYER_CHAMFER_FEAT
100
AcDbSpline
 62
7
  6
CONTINUOUS
 70
0
 71
3
 72
27
 73
23
 74
0
 42
0.0000001
 43
0.0000001
 44
0.0000000001
 40
0.0
 40
0.0
 40
0.0
 40
0.0
 40
0.0248063952
 40
0.0496701434
 40
0.074647917
 40
0.099795159
 40
0.1251653699
 40
0.150809759
 40
0.1767765796
 40
0.2031110182
 40
0.2570287964
 40
0.3128695384
 40
0.3708599427
 40
0.4311658584
 40
0.4938953698
 40
0.5591032371
 40
0.6267959449
 40
0.6969367449
 40
0.7694507392
 40
0.8442289274
 40
0.9211336396
 40
1.0
 40
1.0
 40
1.0
 40
1.0
 10
15.4590375369
 20
12.0565104714
 30
0.0
 10
15.4588006774
 20
12.0557439879
 30
0.0
 10
15.4582811757
 20
12.05422281
 30
0.0
 10
15.4573678654
 20
12.0519866891
 30
0.0
 10
15.4563212144
 20
12.0497974899
 30
0.0
 10
15.455142404
 20
12.0476578676
 30
0.0
 10
15.4538328775
 20
12.0455701927
 30
0.0
 10
15.4523941071
 20
12.043536908
 30
0.0
 10
15.4508277837
 20
12.0415602222
 30
0.0
 10
15.4485542176
 20
12.0389833254
 30
0.0
 10
15.4453895483
 20
12.0359130072
 30
0.0
 10
15.4411455234
 20
12.0325217195
 30
0.0
 10
15.4364444912
 20
12.0294081422
 30
0.0
 10
15.4313082926
 20
12.0265858311
 30
0.0
 10
15.425760131
 20
12.0240666764
 30
0.0
 10
15.41982499
 20
12.0218614576
 30
0.0
 10
15.4135294755
 20
12.0199796434
 30
0.0
 10
15.406901777
 20
12.0184293723
 30
0.0
 10
15.3999715943
 20
12.0172173974
 30
0.0
 10
15.3927699225
 20
12.016349005
 30
0.0
 10
15.3853292784
 20
12.0158280193
 30
0.0
 10
15.380290734
 20
12.0157151447
 30
0.0
 10
15.3777401716
 20
12.0157151447
 30
0.0
  0
SPLINE
  5
30F
100
AcDbEntity
  8
LAYER_FEATURE
100
AcDbSpline
 62
7
  6
CONTINUOUS
 70
0
 71
3
 72
11
 73
7
 74
0
 42
0.0000001
 43
0.0000001
 44
0.0000000001
 40
0.0
 40
0.0
 40
0.0
 40
0.0
 40
0.2269429719
 40
0.4680790767
 40
0.7253122084
 40
1.0
 40
1.0
 40
1.0
 40
1.0
 10
15.9723473375
 20
12.2935138486
 30
0.0
 10
15.972995173
 20
12.2931850982
 30
0.0
 10
15.9742876752
 20
12.2924184252
 30
0.0
 10
15.9761399444
 20
12.2910115746
 30
0.0
 10
15.9779533943
 20
12.2893224354
 30
0.0
 10
15.9790940076
 20
12.2880551781
 30
0.0
 10
15.9796574729
 20
12.2873801224
 30
0.0
  0
SPLINE
  5
310
100
AcDbEntity
  8
02___PRT_ALL_AXES
100
AcDbSpline
 62
7
  6
CONTINUOUS
 70
0
 71
3
 72
23
 73
19
 74
0
 42
0.0000001
 43
0.0000001
 44
0.0000000001
 40
0.0
 40
0.0
 40
0.0
 40
0.0
 40
0.0518118299
 40
0.1038323361
 40
0.1563921709
 40
0.2098103418
 40
0.2643875204
 40
0.3204005759
 40
0.3780989177
 40
0.4377026648
 40
0.4994014011
 40
0.5633554622
 40
0.629696345
 40
0.698528113
 40
0.7699281447
 40
0.8439547736
 40
0.920646271
 40
1.0
 40
1.0
 40
1.0
 40
1.0
 10
15.9794367737
 20
12.2950695761
 30
0.0
 10
15.9799466222
 20
12.2950695751
 30
0.0
 10
15.9809690269
 20
12.2950214277
 30
0.0
 10
15.9824947902
 20
12.2948045468
 30
0.0
 10
15.9840093073
 20
12.2944433897
 30
0.0
 10
15.985508657
 20
12.2939387147
 30
0.0
 10
15.9869892652
 20
12.2932915235
 30
0.0
 10
15.9884476226
 20
12.2925030625
 30
0.0
 10
15.9898804099
 20
12.2915748629
 30
0.0
 10
15.99128438
 20
12.2905085877
 30
0.0
 10
15.9926564995
 20
12.2893062214
 30
0.0
 10
15.9939937718
 20
12.2879698496
 30
0.0
 10
15.9952934107
 20
12.2865018695
 30
0.0
 10
15.9965526864
 20
12.2849048473
 30
0.0
 10
15.9977690704
 20
12.2831816016
 30
0.0
 10
15.9989401797
 20
12.2813350974
 30
0.0
 10
16.0000636421
 20
12.279368688
 30
0.0
 10
16.000767543
 20
12.2780033958
 30
0.0
 10
16.0011115503
 20
12.2773023827
 30
0.0
  0
SPLINE
  5
311
100
AcDbEntity
  8
LAYER_FEATURE
100
AcDbSpline
 62
7
  6
CONTINUOUS
 70
0
 71
3
 72
37
 73
33
 74
0
 42
0.0000001
 43
0.0000001
 44
0.0000000001
 40
0.0
 40
0.0
 40
0.0
 40
0.0
 40
0.0938201899
 40
0.1387506489
 40
0.1822969378
 40
0.224423867
 40
0.2650999622
 40
0.3043002713
 40
0.3420093124
 40
0.3782201997
 40
0.4129364704
 40
0.4461729348
 40
0.4779578336
 40
0.5083341008
 40
0.5373615268
 40
0.5651186796
 40
0.5917047988
 40
0.6172415996
 40
0.6418739329
 40
0.6657699275
 40
0.6891187658
 40
0.712127226
 40
0.735013593
 40
0.7580005357
 40
0.7813071824
 40
0.8051415515
 40
0.8296949511
 40
0.881571107
 40
0.9092101022
 40
0.9381108628
 40
0.9683535553
 40
1.0
 40
1.0
 40
1.0
 40
1.0
 10
15.9612513653
 20
12.2538471901
 30
0.0
 10
15.9616817978
 20
12.2552400701
 30
0.0
 10
15.9623668337
 20
12.2572857177
 30
0.0
 10
15.9633756409
 20
12.2599330048
 30
0.0
 10
15.9641524861
 20
12.2618082222
 30
0.0
 10
15.9649591102
 20
12.263598565
 30
0.0
 10
15.9657941124
 20
12.2653009864
 30
0.0
 10
15.9666560822
 20
12.266912506
 30
0.0
 10
15.9675435018
 20
12.2684303512
 30
0.0
 10
15.9684548826
 20
12.2698518955
 30
0.0
 10
15.9693886522
 20
12.2711747022
 30
0.0
 10
15.9703432568
 20
12.272396478
 30
0.0
 10
15.9713170855
 20
12.2735151233
 30
0.0
 10
15.9723085393
 20
12.2745286889
 30
0.0
 10
15.9733159915
 20
12.2754353978
 30
0.0
 10
15.9743378085
 20
12.2762336241
 30
0.0
 10
15.9753723432
 20
12.2769218762
 30
0.0
 10
15.9764179001
 20
12.2774988177
 30
0.0
 10
15.9774727464
 20
12.277963207
 30
0.0
 10
15.9785350319
 20
12.2783140015
 30
0.0
 10
15.9796028139
 20
12.2785502671
 30
0.0
 10
15.9806739987
 20
12.2786713976
 30
0.0
 10
15.9817464052
 20
12.2786769775
 30
0.0
 10
15.9828178114
 20
12.2785670522
 30
0.0
 10
15.9838859981
 20
12.27834189
 30
0.0
 10
15.9849489567
 20
12.2780021447
 30
0.0
 10
15.9863823137
 20
12.2773864956
 30
0.0
 10
15.9877742753
 20
12.2765457574
 30
0.0
 10
15.9891097976
 20
12.2755175206
 30
0.0
 10
15.9901188396
 20
12.2746211541
 30
0.0
 10
15.9911118642
 20
12.2736179163
 30
0.0
 10
15.9917476039
 20
12.2728955305
 30
0.0
 10
15.9920627199
 20
12.2725180076
 30
0.0
  0
SPLINE
  5
312
100
AcDbEntity
  8
LAYER_FEATURE
100
AcDbSpline
 62
7
  6
CONTINUOUS
 70
0
 71
3
 72
52
 73
48
 74
0
 42
0.0000001
 43
0.0000001
 44
0.0000000001
 40
0.0
 40
0.0
 40
0.0
 40
0.0
 40
0.0357018387
 40
0.0730198779
 40
0.1117599993
 40
0.1517103402
 40
0.1926456768
 40
0.2343299004
 40
0.2765190279
 40
0.3189638245
 40
0.3614124396
 40
0.4036129823
 40
0.4453161042
 40
0.4862776132
 40
0.5262611585
 40
0.5650410384
 40
0.602405202
 40
0.6381585505
 40
0.6721266941
 40
0.7041604002
 40
0.7194153097
 40
0.7341450953
 40
0.7483409205
 40
0.7619968701
 40
0.775110281
 40
0.7876822528
 40
0.7997179833
 40
0.8112275352
 40
0.8222262086
 40
0.8327355383
 40
0.8427836865
 40
0.8524065108
 40
0.8616477978
 40
0.8705599729
 40
0.8792037076
 40
0.8876475545
 40
0.8959663452
 40
0.904239255
 40
0.9125470707
 40
0.9209693166
 40
0.9295816213
 40
0.9384534
 40
0.9571981415
 40
0.9671860337
 40
0.9776306182
 40
0.9885611727
 40
1.0
 40
1.0
 40
1.0
 40
1.0
 10
15.9612513653
 20
12.2538471901
 30
0.0
 10
15.9607973764
 20
12.2523780814
 30
0.0
 10
15.9599431026
 20
12.2493500243
 30
0.0
 10
15.9588402384
 20
12.2446632825
 30
0.0
 10
15.9578931101
 20
12.2397561396
 30
0.0
 10
15.9571084242
 20
12.2346628715
 30
0.0
 10
15.9564916886
 20
12.2294189247
 30
0.0
 10
15.9560472535
 20
12.2240608722
 30
0.0
 10
15.9557782484
 20
12.218626096
 30
0.0
 10
15.95568657
 20
12.2131525298
 30
0.0
 10
15.9557728643
 20
12.2076783847
 30
0.0
 10
15.956036523
 20
12.2022418756
 30
0.0
 10
15.9564756878
 20
12.1968809485
 30
0.0
 10
15.9570872642
 20
12.1916330074
 30
0.0
 10
15.957866944
 20
12.186534647
 30
0.0
 10
15.9588092389
 20
12.1816213806
 30
0.0
 10
15.959907522
 20
12.1769273996
 30
0.0
 10
15.9611540918
 20
12.1724852463
 30
0.0
 10
15.9625402144
 20
12.1683258121
 30
0.0
 10
15.963823718
 20
12.1650676933
 30
0.0
 10
15.9649170371
 20
12.1626301714
 30
0.0
 10
15.9657522452
 20
12.1609200268
 30
0.0
 10
15.9666145611
 20
12.1593009831
 30
0.0
 10
15.9675025132
 20
12.1577758397
 30
0.0
 10
15.9684145787
 20
12.1563472424
 30
0.0
 10
15.9693491908
 20
12.1550176557
 30
0.0
 10
15.9703047843
 20
12.1537893902
 30
0.0
 10
15.9712797339
 20
12.1526645594
 30
0.0
 10
15.9722724494
 20
12.1516451442
 30
0.0
 10
15.9732812686
 20
12.1507329131
 30
0.0
 10
15.9743045851
 20
12.1499295436
 30
0.0
 10
15.9753407012
 20
12.1492364895
 30
0.0
 10
15.9763879609
 20
12.1486551666
 30
0.0
 10
15.9774445752
 20
12.1481867447
 30
0.0
 10
15.9785087326
 20
12.1478323783
 30
0.0
 10
15.9795784425
 20
12.1475928967
 30
0.0
 10
15.9806516307
 20
12.147469047
 30
0.0
 10
15.9817260882
 20
12.1474611144
 30
0.0
 10
15.9827995795
 20
12.1475692063
 30
0.0
 10
15.9838698856
 20
12.1477929123
 30
0.0
 10
15.9849349542
 20
12.1481317177
 30
0.0
 10
15.9863712031
 20
12.1487466252
 30
0.0
 10
15.9877659848
 20
12.1495876156
 30
0.0
 10
15.9891041048
 20
12.150616853
 30
0.0
 10
15.9901151472
 20
12.1515144048
 30
0.0
 10
15.9911100852
 20
12.1525192648
 30
0.0
 10
15.9917470244
 20
12.1532429185
 30
0.0
 10
15.9920627204
 20
12.1536211421
 30
0.0
  0
SPLINE
  5
313
100
AcDbEntity
  8
LAYER_FEATURE
100
AcDbSpline
 62
7
  6
CONTINUOUS
 70
0
 71
3
 72
39
 73
35
 74
0
 42
0.0000001
 43
0.0000001
 44
0.0000000001
 40
0.0
 40
0.0
 40
0.0
 40
0.0
 40
0.0396652045
 40
0.0788627045
 40
0.1175691695
 40
0.1557638119
 40
0.1934266617
 40
0.2305396245
 40
0.2670862422
 40
0.3030519235
 40
0.3384240472
 40
0.3731920982
 40
0.407347807
 40
0.4408852942
 40
0.4738012217
 40
0.5060949489
 40
0.5377686923
 40
0.5688276893
 40
0.5992803563
 40
0.6291384448
 40
0.6584171896
 40
0.6871354435
 40
0.7153157905
 40
0.7429846322
 40
0.7701722372
 40
0.7969127389
 40
0.8232440788
 40
0.8492078819
 40
0.8748492571
 40
0.9002165157
 40
0.9253608063
 40
0.9503356672
 40
0.975196503
 40
1.0
 40
1.0
 40
1.0
 40
1.0
 10
15.0939929604
 20
13.0078707324
 30
0.0
 10
15.0830880132
 20
13.0078707324
 30
0.0
 10
15.0614058381
 20
13.0076262051
 30
0.0
 10
15.0290995442
 20
13.0065116688
 30
0.0
 10
14.9972322151
 20
13.0046526849
 30
0.0
 10
14.9658401358
 20
13.0020513942
 30
0.0
 10
14.9349585782
 20
12.9987106749
 30
0.0
 10
14.904622438
 20
12.9946342958
 30
0.0
 10
14.874865919
 20
12.9898268191
 30
0.0
 10
14.8457225898
 20
12.9842936365
 30
0.0
 10
14.8172253167
 20
12.9780409508
 30
0.0
 10
14.7894062353
 20
12.9710757674
 30
0.0
 10
14.7622967149
 20
12.9634058836
 30
0.0
 10
14.7359273247
 20
12.9550398785
 30
0.0
 10
14.7103278018
 20
12.9459871019
 30
0.0
 10
14.6855270196
 20
12.9362576624
 30
0.0
 10
14.6615529586
 20
12.9258624145
 30
0.0
 10
14.6384326752
 20
12.9148129505
 30
0.0
 10
14.6161922789
 20
12.9031215819
 30
0.0
 10
14.5948569087
 20
12.8908013269
 30
0.0
 10
14.5744507108
 20
12.8778658974
 30
0.0
 10
14.5549968177
 20
12.8643296881
 30
0.0
 10
14.5365173287
 20
12.8502077648
 30
0.0
 10
14.5190332896
 20
12.8355158567
 30
0.0
 10
14.5025646691
 20
12.8202703528
 30
0.0
 10
14.4871303428
 20
12.8044882905
 30
0.0
 10
14.4727480705
 20
12.7881873522
 30
0.0
 10
14.4594344706
 20
12.7713858587
 30
0.0
 10
14.447204993
 20
12.7541027711
 30
0.0
 10
14.4360738776
 20
12.7363576533
 30
0.0
 10
14.4260541496
 20
12.7181707641
 30
0.0
 10
14.4171574549
 20
12.6995626523
 30
0.0
 10
14.4093944768
 20
12.680555555
 30
0.0
 10
14.4049786196
 20
12.6676255786
 30
0.0
 10
14.4029653024
 20
12.6611104716
 30
0.0
  0
SPLINE
  5
314
100
AcDbEntity
  8
02___PRT_ALL_AXES
100
AcDbSpline
 62
7
  6
CONTINUOUS
 70
0
 71
3
 72
57
 73
53
 74
0
 42
0.0000001
 43
0.0000001
 44
0.0000000001
 40
0.0
 40
0.0
 40
0.0
 40
0.0
 40
0.0345293467
 40
0.0697079947
 40
0.1054490251
 40
0.1416602431
 40
0.1782453387
 40
0.2151047953
 40
0.2521367767
 40
0.2892380088
 40
0.3263046434
 40
0.3632331187
 40
0.3999210223
 40
0.4362679626
 40
0.4721764629
 40
0.5075528716
 40
0.5250145068
 40
0.5423102498
 40
0.5594299064
 40
0.5763637092
 40
0.593102353
 40
0.6096370323
 40
0.6259594775
 40
0.6420619937
 40
0.6579375007
 40
0.6735795765
 40
0.6889825035
 40
0.7041413142
 40
0.7190518388
 40
0.7337107553
 40
0.7481156431
 40
0.7622650389
 40
0.7761584939
 40
0.7897966295
 40
0.8031811958
 40
0.8163151303
 40
0.8292026163
 40
0.8418491399
 40
0.8542615389
 40
0.866448047
 40
0.8784183307
 40
0.8901835138
 40
0.9017561895
 40
0.9131504107
 40
0.9243816598
 40
0.9354667943
 40
0.9464239661
 40
0.9572725115
 40
0.9680328114
 40
0.9787261225
 40
0.9893743833
 40
1.0
 40
1.0
 40
1.0
 40
1.0
 10
15.2178399582
 20
12.7554970853
 30
0.0
 10
15.230984469
 20
12.7554970853
 30
0.0
 10
15.2575238221
 20
12.754913594
 30
0.0
 10
15.2975947905
 20
12.7523543315
 30
0.0
 10
15.3381668318
 20
12.7481128783
 30
0.0
 10
15.3790705632
 20
12.7422068543
 30
0.0
 10
15.4201364267
 20
12.73466081
 30
0.0
 10
15.4611937973
 20
12.725506072
 30
0.0
 10
15.5020721584
 20
12.7147806744
 30
0.0
 10
15.5426016932
 20
12.7025291763
 30
0.0
 10
15.5826140246
 20
12.6888024595
 30
0.0
 10
15.6219429474
 20
12.6736575599
 30
0.0
 10
15.6604250599
 20
12.6571573965
 30
0.0
 10
15.6979006543
 20
12.639370428
 30
0.0
 10
15.7342136816
 20
12.620370748
 30
0.0
 10
15.7635067393
 20
12.6035200064
 30
0.0
 10
15.7862251541
 20
12.5894929307
 30
0.0
 10
15.8028077956
 20
12.5787656198
 30
0.0
 10
15.8189899357
 20
12.5677974901
 30
0.0
 10
15.8347548114
 20
12.5565998882
 30
0.0
 10
15.8500859974
 20
12.5451844741
 30
0.0
 10
15.8649675494
 20
12.5335631163
 30
0.0
 10
15.8793839844
 20
12.5217478985
 30
0.0
 10
15.893320304
 20
12.5097511015
 30
0.0
 10
15.906762008
 20
12.497585192
 30
0.0
 10
15.919695109
 20
12.4852628075
 30
0.0
 10
15.9321061526
 20
12.4727967479
 30
0.0
 10
15.9439822268
 20
12.4601999584
 30
0.0
 10
15.9553109728
 20
12.4474855143
 30
0.0
 10
15.9660805975
 20
12.4346666084
 30
0.0
 10
15.9762798837
 20
12.4217565359
 30
0.0
 10
15.9858982056
 20
12.4087686833
 30
0.0
 10
15.994925539
 20
12.3957165146
 30
0.0
 10
16.0033524651
 20
12.3826135541
 30
0.0
 10
16.0111701789
 20
12.3694733749
 30
0.0
 10
16.0183704961
 20
12.3563095852
 30
0.0
 10
16.024945862
 20
12.3431358162
 30
0.0
 10
16.0308893635
 20
12.3299657123
 30
0.0
 10
16.0361947265
 20
12.316812916
 30
0.0
 10
16.0408563219
 20
12.3036910585
 30
0.0
 10
16.0448691703
 20
12.2906137499
 30
0.0
 10
16.0482289475
 20
12.2775945696
 30
0.0
 10
16.0509320004
 20
12.2646470592
 30
0.0
 10
16.0529753461
 20
12.2517847113
 30
0.0
 10
16.0543566785
 20
12.2390209614
 30
0.0
 10
16.0550743775
 20
12.2263691774
 30
0.0
 10
16.0551275186
 20
12.2138426518
 30
0.0
 10
16.0545158878
 20
12.2014545731
 30
0.0
 10
16.0532400069
 20
12.1892180647
 30
0.0
 10
16.0513010702
 20
12.1771459556
 30
0.0
 10
16.0487011973
 20
12.1652515402
 30
0.0
 10
16.0465279789
 20
12.1574448456
 30
0.0
 10
16.0453337277
 20
12.1535802418
 30
0.0
  0
SPLINE
  5
315
100
AcDbEntity
  8
LAYER_FEATURE
100
AcDbSpline
 62
7
  6
CONTINUOUS
 70
0
 71
3
 72
39
 73
35
 74
0
 42
0.0000001
 43
0.0000001
 44
0.0000000001
 40
0.0
 40
0.0
 40
0.0
 40
0.0
 40
0.0396652045
 40
0.0788627045
 40
0.1175691695
 40
0.1557638119
 40
0.1934266617
 40
0.2305396245
 40
0.2670862422
 40
0.3030519235
 40
0.3384240472
 40
0.3731920982
 40
0.407347807
 40
0.4408852942
 40
0.4738012217
 40
0.5060949489
 40
0.5377686923
 40
0.5688276893
 40
0.5992803563
 40
0.6291384448
 40
0.6584171896
 40
0.6871354435
 40
0.7153157905
 40
0.7429846322
 40
0.7701722372
 40
0.7969127389
 40
0.8232440788
 40
0.8492078819
 40
0.8748492571
 40
0.9002165157
 40
0.9253608063
 40
0.9503356672
 40
0.975196503
 40
1.0
 40
1.0
 40
1.0
 40
1.0
 10
15.1903353571
 20
13.3196348425
 30
0.0
 10
15.1794304099
 20
13.3196348425
 30
0.0
 10
15.1577482348
 20
13.3193903151
 30
0.0
 10
15.125441941
 20
13.3182757788
 30
0.0
 10
15.0935746119
 20
13.3164167949
 30
0.0
 10
15.0621825325
 20
13.3138155042
 30
0.0
 10
15.031300975
 20
13.3104747849
 30
0.0
 10
15.0009648347
 20
13.3063984059
 30
0.0
 10
14.9712083157
 20
13.3015909291
 30
0.0
 10
14.9420649865
 20
13.2960577465
 30
0.0
 10
14.9135677134
 20
13.2898050609
 30
0.0
 10
14.885748632
 20
13.2828398775
 30
0.0
 10
14.8586391116
 20
13.2751699936
 30
0.0
 10
14.8322697214
 20
13.2668039885
 30
0.0
 10
14.8066701985
 20
13.257751212
 30
0.0
 10
14.7818694164
 20
13.2480217725
 30
0.0
 10
14.7578953553
 20
13.2376265245
 30
0.0
 10
14.7347750719
 20
13.2265770605
 30
0.0
 10
14.7125346756
 20
13.2148856919
 30
0.0
 10
14.6911993055
 20
13.2025654369
 30
0.0
 10
14.6707931075
 20
13.1896300075
 30
0.0
 10
14.6513392144
 20
13.1760937981
 30
0.0
 10
14.6328597254
 20
13.1619718748
 30
0.0
 10
14.6153756863
 20
13.1472799667
 30
0.0
 10
14.5989070658
 20
13.1320344629
 30
0.0
 10
14.5834727395
 20
13.1162524005
 30
0.0
 10
14.5690904672
 20
13.0999514622
 30
0.0
 10
14.5557768673
 20
13.0831499687
 30
0.0
 10
14.5435473897
 20
13.0658668811
 30
0.0
 10
14.5324162744
 20
13.0481217633
 30
0.0
 10
14.5223965463
 20
13.0299348741
 30
0.0
 10
14.5134998516
 20
13.0113267623
 30
0.0
 10
14.5057368735
 20
12.992319665
 30
0.0
 10
14.5013210163
 20
12.9793896886
 30
0.0
 10
14.4993076991
 20
12.9728745816
 30
0.0
  0
SPLINE
  5
316
100
AcDbEntity
  8
LAYER_FEATURE
100
AcDbSpline
 62
7
  6
CONTINUOUS
 70
0
 71
3
 72
85
 73
81
 74
0
 42
0.0000001
 43
0.0000001
 44
0.0000000001
 40
0.0
 40
0.0
 40
0.0
 40
0.0
 40
0.0182107068
 40
0.0366794967
 40
0.0553828994
 40
0.0742960762
 40
0.0933932932
 40
0.1126479332
 40
0.1320326648
 40
0.1515195706
 40
0.1710802796
 40
0.190686096
 40
0.2103081266
 40
0.2299174072
 40
0.2494850294
 40
0.2689822671
 40
0.2883807037
 40
0.307652361
 40
0.3267698299
 40
0.3457064038
 40
0.3644362167
 40
0.3829343835
 40
0.4011771463
 40
0.4191420269
 40
0.4368079864
 40
0.4541555947
 40
0.471167208
 40
0.487827157
 40
0.5041219481
 40
0.5200404776
 40
0.5355742607
 40
0.5507176757
 40
0.5654682191
 40
0.5798267728
 40
0.5937978788
 40
0.6073900125
 40
0.6206158472
 40
0.6334924882
 40
0.646041658
 40
0.6522024133
 40
0.6582916221
 40
0.6643133297
 40
0.6702718707
 40
0.6761718562
 40
0.682018171
 40
0.6878159509
 40
0.6935705718
 40
0.6992876268
 40
0.7049729018
 40
0.7106323526
 40
0.716272072
 40
0.7218982615
 40
0.7275171969
 40
0.733135194
 40
0.7387585741
 40
0.7443936289
 40
0.7500465846
 40
0.7557235705
 40
0.7614305855
 40
0.7671734687
 40
0.7729578743
 40
0.7787892426
 40
0.784672785
 40
0.7906134607
 40
0.7966159633
 40
0.8026847124
 40
0.8088238363
 40
0.821326569
 40
0.8341531498
 40
0.8473259971
 40
0.8608628904
 40
0.8747771468
 40
0.8890778498
 40
0.9037701072
 40
0.9188553259
 40
0.9343314867
 40
0.9501934137
 40
0.9664330323
 40
0.9830396137
 40
1.0
 40
1.0
 40
1.0
 40
1.0
 10
15.1188676688
 20
12.9878199552
 30
0.0
 10
15.1333657274
 20
12.9878199552
 30
0.0
 10
15.1625692169
 20
12.9873548399
 30
0.0
 10
15.2066195817
 20
12.9853000888
 30
0.0
 10
15.2511467413
 20
12.981887626
 30
0.0
 10
15.2960525806
 20
12.9771249111
 30
0.0
 10
15.3412387747
 20
12.971022411
 30
0.0
 10
15.3866062283
 20
12.9635934986
 30
0.0
 10
15.432055476
 20
12.9548544667
 30
0.0
 10
15.4774868534
 20
12.9448244825
 30
0.0
 10
15.5228007321
 20
12.9335255426
 30
0.0
 10
15.5678977358
 20
12.9209824261
 30
0.0
 10
15.6126789608
 20
12.9072226399
 30
0.0
 10
15.6570461942
 20
12.8922763577
 30
0.0
 10
15.7009021335
 20
12.876176361
 30
0.0
 10
15.7441506004
 20
12.8589579607
 30
0.0
 10
15.7866967525
 20
12.840658917
 30
0.0
 10
15.8284472922
 20
12.8213193554
 30
0.0
 10
15.8693106724
 20
12.8009816769
 30
0.0
 10
15.9091972996
 20
12.7796904647
 30
0.0
 10
15.9480197348
 20
12.7574923888
 30
0.0
 10
15.9856928817
 20
12.7344360931
 30
0.0
 10
16.0221341737
 20
12.7105720866
 30
0.0
 10
16.0572637542
 20
12.6859526285
 30
0.0
 10
16.0910046505
 20
12.6606316074
 30
0.0
 10
16.1232829457
 20
12.6346644234
 30
0.0
 10
16.1540279368
 20
12.6081078579
 30
0.0
 10
16.1831722812
 20
12.5810199389
 30
0.0
 10
16.2106521366
 20
12.5534598072
 30
0.0
 10
16.2364072909
 20
12.5254875797
 30
0.0
 10
16.2603812806
 20
12.4971642094
 30
0.0
 10
16.2825215045
 20
12.468551353
 30
0.0
 10
16.3027793087
 20
12.4397112247
 30
0.0
 10
16.3211100607
 20
12.4107064739
 30
0.0
 10
16.3374732206
 20
12.3816000249
 30
0.0
 10
16.3518323647
 20
12.3524550892
 30
0.0
 10
16.3641553272
 20
12.3233346145
 30
0.0
 10
16.374413908
 20
12.2943028389
 30
0.0
 10
16.3812648014
 20
12.2700863913
 30
0.0
 10
16.3856694157
 20
12.2508373641
 30
0.0
 10
16.3884245806
 20
12.2365509605
 30
0.0
 10
16.390649807
 20
12.2223354498
 30
0.0
 10
16.3923439002
 20
12.2081984843
 30
0.0
 10
16.3935058105
 20
12.1941478855
 30
0.0
 10
16.3941349052
 20
12.1801913917
 30
0.0
 10
16.3942307404
 20
12.1663367027
 30
0.0
 10
16.3937932359
 20
12.1525914734
 30
0.0
 10
16.3928225995
 20
12.1389633033
 30
0.0
 10
16.3913192887
 20
12.1254597407
 30
0.0
 10
16.3892841574
 20
12.1120882615
 30
0.0
 10
16.3867182498
 20
12.0988562875
 30
0.0
 10
16.3836230062
 20
12.0857711538
 30
0.0
 10
16.380000121
 20
12.0728401215
 30
0.0
 10
16.3758515771
 20
12.060070374
 30
0.0
 10
16.3711797244
 20
12.0474689792
 30
0.0
 10
16.3659871093
 20
12.0350429444
 30
0.0
 10
16.3602766772
 20
12.0227991335
 30
0.0
 10
16.3540515908
 20
12.0107443321
 30
0.0
 10
16.3473153257
 20
11.998885206
 30
0.0
 10
16.3400716721
 20
11.9872282816
 30
0.0
 10
16.3323246284
 20
11.9757800131
 30
0.0
 10
16.3240785607
 20
11.9645466668
 30
0.0
 10
16.3153380303
 20
11.9535344418
 30
0.0
 10
16.3061079023
 20
11.9427493635
 30
0.0
 10
16.2963933509
 20
11.9321973603
 30
0.0
 10
16.2861995948
 20
11.9218841234
 30
0.0
 10
16.2718909984
 20
11.9083781045
 30
0.0
 10
16.2528022063
 20
11.8921215562
 30
0.0
 10
16.2282182014
 20
11.8737801101
 30
0.0
 10
16.2018712611
 20
11.8565244794
 30
0.0
 10
16.1738203933
 20
11.8403921529
 30
0.0
 10
16.1441271533
 20
11.8254173138
 30
0.0
 10
16.112856773
 20
11.8116319766
 30
0.0
 10
16.0800777407
 20
11.7990655939
 30
0.0
 10
16.0458617899
 20
11.787745094
 30
0.0
 10
16.0102837339
 20
11.7776947852
 30
0.0
 10
15.9734214035
 20
11.7689363033
 30
0.0
 10
15.9353552352
 20
11.7614885223
 30
0.0
 10
15.8961691151
 20
11.7553675958
 30
0.0
 10
15.869625608
 20
11.752212498
 30
0.0
 10
15.8561916384
 20
11.7508524128
 30
0.0
  0
SPLINE
  5
317
100
AcDbEntity
  8
LAYER_FEATURE
100
AcDbSpline
 62
7
  6
CONTINUOUS
 70
0
 71
3
 72
71
 73
67
 74
0
 42
0.0000001
 43
0.0000001
 44
0.0000000001
 40
0.0
 40
0.0
 40
0.0
 40
0.0
 40
0.0201884745
 40
0.0401555546
 40
0.0598905611
 40
0.0793843261
 40
0.0986277796
 40
0.117612672
 40
0.1363314247
 40
0.1547771986
 40
0.1729439523
 40
0.1908264834
 40
0.2084204882
 40
0.225722616
 40
0.242730523
 40
0.2594429309
 40
0.2758596883
 40
0.2919818356
 40
0.3078116666
 40
0.3233527877
 40
0.3386101791
 40
0.3535902538
 40
0.3683009143
 40
0.3827515964
 40
0.3969533053
 40
0.4109186406
 40
0.424661808
 40
0.4381986114
 40
0.4515464187
 40
0.464724104
 40
0.4777519636
 40
0.4906516018
 40
0.5034457856
 40
0.5161582685
 40
0.5288135878
 40
0.5414368412
 40
0.5540534444
 40
0.5666888796
 40
0.5793684411
 40
0.5921169882
 40
0.6049587109
 40
0.6179169133
 40
0.6310138253
 40
0.6442704424
 40
0.6577063945
 40
0.6713398447
 40
0.6851874158
 40
0.6992641486
 40
0.713583482
 40
0.7281572529
 40
0.7429957113
 40
0.7581075513
 40
0.773499956
 40
0.7891786484
 40
0.8051479462
 40
0.8214108186
 40
0.8379689489
 40
0.8548228003
 40
0.8719716771
 40
0.8894137857
 40
0.9071462905
 40
0.9251653757
 40
0.9434663025
 40
0.9620434627
 40
0.9808904286
 40
1.0
 40
1.0
 40
1.0
 40
1.0
 10
15.1188676688
 20
12.9878199552
 30
0.0
 10
15.1092777905
 20
12.9878199552
 30
0.0
 10
15.09020254
 20
12.9876189357
 30
0.0
 10
15.0617660404
 20
12.9867034974
 30
0.0
 10
15.0336860803
 20
12.9851765884
 30
0.0
 10
15.0059906275
 20
12.9830397722
 30
0.0
 10
14.9787067827
 20
12.9802950937
 30
0.0
 10
14.9518614676
 20
12.9769452565
 30
0.0
 10
14.9254810915
 20
12.9729935448
 30
0.0
 10
14.8995916205
 20
12.9684438294
 30
0.0
 10
14.8742185361
 20
12.9633005654
 30
0.0
 10
14.8493868101
 20
12.9575687794
 30
0.0
 10
14.8251208792
 20
12.9512540776
 30
0.0
 10
14.8014446187
 20
12.9443626391
 30
0.0
 10
14.7783813256
 20
12.9369011972
 30
0.0
 10
14.7559536971
 20
12.9288770357
 30
0.0
 10
14.7341838103
 20
12.9202979764
 30
0.0
 10
14.7130930949
 20
12.9111723877
 30
0.0
 10
14.692702317
 20
12.9015091656
 30
0.0
 10
14.6730315664
 20
12.8913177203
 30
0.0
 10
14.6541002399
 20
12.8806079686
 30
0.0
 10
14.6359270257
 20
12.869390324
 30
0.0
 10
14.618529877
 20
12.8576757048
 30
0.0
 10
14.6019260072
 20
12.8454755102
 30
0.0
 10
14.5861318794
 20
12.8328016142
 30
0.0
 10
14.5711631942
 20
12.8196663582
 30
0.0
 10
14.5570348716
 20
12.80608255
 30
0.0
 10
14.5437610257
 20
12.7920634684
 30
0.0
 10
14.5313549642
 20
12.7776228433
 30
0.0
 10
14.5198291702
 20
12.7627748554
 30
0.0
 10
14.5091952863
 20
12.7475341278
 30
0.0
 10
14.4994640813
 20
12.7319157276
 30
0.0
 10
14.4906454242
 20
12.7159351554
 30
0.0
 10
14.482748276
 20
12.6996083217
 30
0.0
 10
14.475780664
 20
12.6829515323
 30
0.0
 10
14.4697496646
 20
12.665981464
 30
0.0
 10
14.4646613632
 20
12.648715146
 30
0.0
 10
14.4605208515
 20
12.6311699219
 30
0.0
 10
14.457332228
 20
12.6133634161
 30
0.0
 10
14.4550985928
 20
12.5953135016
 30
0.0
 10
14.4538220508
 20
12.5770382697
 30
0.0
 10
14.4535036951
 20
12.5585560013
 30
0.0
 10
14.4541436398
 20
12.539885137
 30
0.0
 10
14.4557410322
 20
12.5210442544
 30
0.0
 10
14.4582940675
 20
12.5020520492
 30
0.0
 10
14.4617999949
 20
12.4829273205
 30
0.0
 10
14.4662551157
 20
12.4636889523
 30
0.0
 10
14.4716548172
 20
12.4443559032
 30
0.0
 10
14.4779935779
 20
12.4249471935
 30
0.0
 10
14.4852649796
 20
12.4054818955
 30
0.0
 10
14.4934617011
 20
12.3859791186
 30
0.0
 10
14.502575525
 20
12.3664579938
 30
0.0
 10
14.5125973597
 20
12.3469376649
 30
0.0
 10
14.523517243
 20
12.3274372717
 30
0.0
 10
14.5353243519
 20
12.307975938
 30
0.0
 10
14.5480069943
 20
12.288572747
 30
0.0
 10
14.5615526281
 20
12.2692467283
 30
0.0
 10
14.5759478782
 20
12.2500168429
 30
0.0
 10
14.5911785452
 20
12.2309019642
 30
0.0
 10
14.6072296172
 20
12.2119208618
 30
0.0
 10
14.6240852681
 20
12.1930921738
 30
0.0
 10
14.64172889
 20
12.1744343938
 30
0.0
 10
14.6601430925
 20
12.1559658651
 30
0.0
 10
14.6793097818
 20
12.1377047118
 30
0.0
 10
14.699209935
 20
12.1196690167
 30
0.0
 10
14.7128604461
 20
12.1078869086
 30
0.0
 10
14.7198011341
 20
12.1020366362
 30
0.0
  0
SPLINE
  5
318
100
AcDbEntity
  8
LAYER_FEATURE
100
AcDbSpline
 62
7
  6
CONTINUOUS
 70
0
 71
3
 72
68
 73
64
 74
0
 42
0.0000001
 43
0.0000001
 44
0.0000000001
 40
0.0
 40
0.0
 40
0.0
 40
0.0
 40
0.0171788537
 40
0.0345306493
 40
0.0520446784
 40
0.069710489
 40
0.0875169164
 40
0.1054526098
 40
0.1235058943
 40
0.141664841
 40
0.1599172928
 40
0.1782508912
 40
0.1966531056
 40
0.2151112603
 40
0.2521425355
 40
0.2892430599
 40
0.3263089876
 40
0.3447973805
 40
0.363238365
 40
0.3816191842
 40
0.3999272074
 40
0.4181499576
 40
0.4362751398
 40
0.4542906695
 40
0.4721847017
 40
0.4899456595
 40
0.5075622643
 40
0.5250235667
 40
0.5423189792
 40
0.5594383084
 40
0.5763717881
 40
0.5931101137
 40
0.6096444786
 40
0.6259666121
 40
0.6420688199
 40
0.6579440233
 40
0.6735858016
 40
0.6889884364
 40
0.7041469583
 40
0.7190571972
 40
0.7337158328
 40
0.7481204459
 40
0.7622695735
 40
0.7761627646
 40
0.7898006393
 40
0.8031849488
 40
0.8163186321
 40
0.8292058734
 40
0.8418521573
 40
0.8542643197
 40
0.8664505941
 40
0.8784206484
 40
0.8901856074
 40
0.9017580635
 40
0.9131520681
 40
0.9243831024
 40
0.9354680247
 40
0.9464249873
 40
0.9572733262
 40
0.9680334213
 40
0.9787265285
 40
0.989374586
 40
1.0
 40
1.0
 40
1.0
 40
1.0
 10
15.0939929604
 20
13.0078707324
 30
0.0
 10
15.1045770312
 20
13.0078707324
 30
0.0
 10
15.1258524035
 20
13.0076378437
 30
0.0
 10
15.1579032313
 20
13.0066030571
 30
0.0
 10
15.1902250843
 20
13.0048820231
 30
0.0
 10
15.222783991
 20
13.0024765979
 30
0.0
 10
15.2555462358
 20
12.9993892439
 30
0.0
 10
15.2884776596
 20
12.9956231931
 30
0.0
 10
15.3215440068
 20
12.9911823579
 30
0.0
 10
15.3547108543
 20
12.9860713671
 30
0.0
 10
15.387943691
 20
12.9802955406
 30
0.0
 10
15.4212078847
 20
12.9738608966
 30
0.0
 10
15.4544689629
 20
12.9667741086
 30
0.0
 10
15.4988116396
 20
12.9564548541
 30
0.0
 10
15.5540035676
 20
12.9419739138
 30
0.0
 10
15.6195970631
 20
12.9221459376
 30
0.0
 10
15.6736071525
 20
12.9036171653
 30
0.0
 10
15.7163026322
 20
12.8876273526
 30
0.0
 10
15.7479887568
 20
12.8750819843
 30
0.0
 10
15.7793313619
 20
12.8619873704
 30
0.0
 10
15.8102979622
 20
12.8483570751
 30
0.0
 10
15.8408562846
 20
12.8342053007
 30
0.0
 10
15.8709745311
 20
12.8195467729
 30
0.0
 10
15.9006213517
 20
12.8043967528
 30
0.0
 10
15.9297658909
 20
12.7887710084
 30
0.0
 10
15.9583778151
 20
12.772685801
 30
0.0
 10
15.9864273452
 20
12.7561578678
 30
0.0
 10
16.0138852876
 20
12.7392044037
 30
0.0
 10
16.0407230696
 20
12.72184305
 30
0.0
 10
16.0669127657
 20
12.7040918694
 30
0.0
 10
16.0924271247
 20
12.6859693263
 30
0.0
 10
16.117239598
 20
12.6674942681
 30
0.0
 10
16.1413243668
 20
12.6486859037
 30
0.0
 10
16.1646563712
 20
12.6295637862
 30
0.0
 10
16.1872113398
 20
12.6101477948
 30
0.0
 10
16.2089658086
 20
12.5904581071
 30
0.0
 10
16.2298971446
 20
12.5705151792
 30
0.0
 10
16.2499835687
 20
12.5503397242
 30
0.0
 10
16.2692041764
 20
12.5299526884
 30
0.0
 10
16.2875389664
 20
12.5093752348
 30
0.0
 10
16.3049688568
 20
12.488628717
 30
0.0
 10
16.3214756993
 20
12.4677346549
 30
0.0
 10
16.3370422968
 20
12.4467147133
 30
0.0
 10
16.3516524179
 20
12.4255906792
 30
0.0
 10
16.3652908133
 20
12.4043844393
 30
0.0
 10
16.3779432376
 20
12.3831179632
 30
0.0
 10
16.389596452
 20
12.3618132763
 30
0.0
 10
16.4002382342
 20
12.3404924408
 30
0.0
 10
16.4098573885
 20
12.3191775366
 30
0.0
 10
16.4184437531
 20
12.2978906421
 30
0.0
 10
16.4259882168
 20
12.276653819
 30
0.0
 10
16.4324827289
 20
12.2554890959
 30
0.0
 10
16.4379202999
 20
12.2344184506
 30
0.0
 10
16.4422950121
 20
12.2134637977
 30
0.0
 10
16.445602031
 20
12.192646974
 30
0.0
 10
16.4478376173
 20
12.1719897243
 30
0.0
 10
16.4489991549
 20
12.1515136844
 30
0.0
 10
16.4490851593
 20
12.1312403668
 30
0.0
 10
16.4480952836
 20
12.1111911145
 30
0.0
 10
16.4460303647
 20
12.0913871678
 30
0.0
 10
16.4428923293
 20
12.0718492909
 30
0.0
 10
16.4386846057
 20
12.0525990014
 30
0.0
 10
16.4351673979
 20
12.0399644056
 30
0.0
 10
16.4332345849
 20
12.0337098107
 30
0.0
  0
SPLINE
  5
319
100
AcDbEntity
  8
LAYER_CUT_FEAT
100
AcDbSpline
 62
7
  6
CONTINUOUS
 70
0
 71
3
 72
22
 73
18
 74
0
 42
0.0000001
 43
0.0000001
 44
0.0000000001
 40
0.0
 40
0.0
 40
0.0
 40
0.0
 40
0.1381197631
 40
0.2053664309
 40
0.2714549167
 40
0.336437138
 40
0.400372579
 40
0.4633278437
 40
0.5253764097
 40
0.5865986125
 40
0.6470813093
 40
0.7069174431
 40
0.7662055021
 40
0.8250488573
 40
0.8835549588
 40
0.9418344159
 40
1.0
 40
1.0
 40
1.0
 40
1.0
 10
16.131922214
 20
12.3474101411
 30
0.0
 10
16.1367093915
 20
12.337654899
 30
0.0
 10
16.1433057469
 20
12.3228825072
 30
0.0
 10
16.1508290956
 20
12.3028902964
 30
0.0
 10
16.1557211478
 20
12.288069377
 30
0.0
 10
16.1599072159
 20
12.2733045375
 30
0.0
 10
16.1633833477
 20
12.2586094708
 30
0.0
 10
16.1661460228
 20
12.2439983393
 30
0.0
 10
16.1681924301
 20
12.2294851033
 30
0.0
 10
16.1695204327
 20
12.2150837067
 30
0.0
 10
16.1701286052
 20
12.2008080062
 30
0.0
 10
16.1700162054
 20
12.1866717781
 30
0.0
 10
16.169183179
 20
12.172688688
 30
0.0
 10
16.1676302167
 20
12.1588723337
 30
0.0
 10
16.1653586897
 20
12.1452360044
 30
0.0
 10
16.162370887
 20
12.1317934733
 30
0.0
 10
16.1599021924
 20
12.1229655948
 30
0.0
 10
16.1585510958
 20
12.1185934289
 30
0.0
  0
SPLINE
  5
31A
100
AcDbEntity
  8
LAYER_FEATURE
100
AcDbSpline
 62
7
  6
CONTINUOUS
 70
0
 71
3
 72
22
 73
18
 74
0
 42
0.0000001
 43
0.0000001
 44
0.0000000001
 40
0.0
 40
0.0
 40
0.0
 40
0.0
 40
0.1522993377
 40
0.2266150442
 40
0.2993581782
 40
0.3702933336
 40
0.4392131109
 40
0.5059392347
 40
0.5703268287
 40
0.6322708239
 40
0.6917122799
 40
0.7486447582
 40
0.8031217346
 40
0.8552635553
 40
0.9052622021
 40
0.9533949046
 40
1.0
 40
1.0
 40
1.0
 40
1.0
 10
14.6664569765
 20
13.0068024508
 30
0.0
 10
14.6653031198
 20
13.0070186396
 30
0.0
 10
14.6635707035
 20
13.0072658131
 30
0.0
 10
14.6612684583
 20
13.0074301497
 30
0.0
 10
14.6595878397
 20
13.0074683035
 30
0.0
 10
14.6579490362
 20
13.0074221064
 30
0.0
 10
14.6563612159
 20
13.0072918182
 30
0.0
 10
14.6548333168
 20
13.0070781558
 30
0.0
 10
14.6533739093
 20
13.0067822777
 30
0.0
 10
14.6519911806
 20
13.0064057806
 30
0.0
 10
14.650692876
 20
13.0059506972
 30
0.0
 10
14.6494862735
 20
13.0054194606
 30
0.0
 10
14.6483781646
 20
13.0048148659
 30
0.0
 10
14.6473748859
 20
13.0041400852
 30
0.0
 10
14.64648215
 20
13.0033986194
 30
0.0
 10
14.6457054889
 20
13.0025945562
 30
0.0
 10
14.6452621365
 20
13.0020116157
 30
0.0
 10
14.6450631497
 20
13.0017125263
 30
0.0
  0
SPLINE
  5
31B
100
AcDbEntity
  8
LAYER_FEATURE
100
AcDbSpline
 62
7
  6
CONTINUOUS
 70
0
 71
3
 72
11
 73
7
 74
0
 42
0.0000001
 43
0.0000001
 44
0.0000000001
 40
0.0
 40
0.0
 40
0.0
 40
0.0
 40
0.2596511642
 40
0.511207233
 40
0.7570610836
 40
1.0
 40
1.0
 40
1.0
 40
1.0
 10
14.6969296588
 20
13.0632071869
 30
0.0
 10
14.696656346
 20
13.0629458287
 30
0.0
 10
14.6961463151
 20
13.0624006745
 30
0.0
 10
14.6954948697
 20
13.0615075816
 30
0.0
 10
14.6949753352
 20
13.0605593155
 30
0.0
 10
14.694718704
 20
13.0598925646
 30
0.0
 10
14.6946142403
 20
13.0595545135
 30
0.0
  0
SPLINE
  5
31C
100
AcDbEntity
  8
LAYER_FEATURE
100
AcDbSpline
 62
7
  6
CONTINUOUS
 70
0
 71
3
 72
19
 73
15
 74
0
 42
0.0000001
 43
0.0000001
 44
0.0000000001
 40
0.0
 40
0.0
 40
0.0
 40
0.0
 40
0.1440571181
 40
0.2860917627
 40
0.4240190798
 40
0.4908609933
 40
0.5559893092
 40
0.6192175798
 40
0.6803873367
 40
0.7393725431
 40
0.7960851493
 40
0.8504806531
 40
0.902562876
 40
1.0
 40
1.0
 40
1.0
 40
1.0
 10
14.7521377549
 20
13.0917349619
 30
0.0
 10
14.7509914781
 20
13.0920972664
 30
0.0
 10
14.7486828605
 20
13.0927194967
 30
0.0
 10
14.7451951691
 20
13.0933413708
 30
0.0
 10
14.7423069467
 20
13.0935899826
 30
0.0
 10
14.7400539673
 20
13.0936165414
 30
0.0
 10
14.7384255162
 20
13.0935518949
 30
0.0
 10
14.7368500717
 20
13.093403274
 30
0.0
 10
14.7353364536
 20
13.0931714905
 30
0.0
 10
14.7338931346
 20
13.0928577989
 30
0.0
 10
14.7325282976
 20
13.0924639508
 30
0.0
 10
14.7312492715
 20
13.0919918406
 30
0.0
 10
14.7297035606
 20
13.0912781272
 30
0.0
 10
14.7286376385
 20
13.0906110195
 30
0.0
 10
14.7279982709
 20
13.0901086481
 30
0.0
  0
SPLINE
  5
31D
100
AcDbEntity
  8
LAYER_FEATURE
100
AcDbSpline
 62
7
  6
CONTINUOUS
 70
0
 71
3
 72
15
 73
11
 74
0
 42
0.0000001
 43
0.0000001
 44
0.0000000001
 40
0.0
 40
0.0
 40
0.0
 40
0.0
 40
0.1390784273
 40
0.2730670199
 40
0.4023107859
 40
0.5273471089
 40
0.6488220415
 40
0.7674968148
 40
0.8842410509
 40
1.0
 40
1.0
 40
1.0
 40
1.0
 10
14.8033253367
 20
13.1387474239
 30
0.0
 10
14.8030102924
 20
13.1385802146
 30
0.0
 10
14.8024035419
 20
13.1382289069
 30
0.0
 10
14.8015545104
 20
13.1376406658
 30
0.0
 10
14.8007876051
 20
13.1370034495
 30
0.0
 10
14.8001062642
 20
13.1363198931
 30
0.0
 10
14.7995134521
 20
13.1355927621
 30
0.0
 10
14.7990119111
 20
13.1348250134
 30
0.0
 10
14.7986040528
 20
13.1340200806
 30
0.0
 10
14.7983954521
 20
13.1334598997
 30
0.0
 10
14.7983078073
 20
13.1331762678
 30
0.0
  0
SPLINE
  5
31E
100
AcDbEntity
  8
LAYER_FEATURE
100
AcDbSpline
 62
7
  6
CONTINUOUS
 70
0
 71
3
 72
19
 73
15
 74
0
 42
0.0000001
 43
0.0000001
 44
0.0000000001
 40
0.0
 40
0.0
 40
0.0
 40
0.0
 40
0.1349161238
 40
0.2707891272
 40
0.4055594966
 40
0.5372119115
 40
0.6012955898
 40
0.6639178788
 40
0.7248856269
 40
0.7840288299
 40
0.8412044354
 40
0.8962991828
 40
0.9492453647
 40
1.0
 40
1.0
 40
1.0
 40
1.0
 10
14.8708809945
 20
13.1569408508
 30
0.0
 10
14.8697932216
 20
13.1574363585
 30
0.0
 10
14.867564312
 20
13.1583335824
 30
0.0
 10
14.8641241583
 20
13.1593853484
 30
0.0
 10
14.8606344141
 20
13.1601315586
 30
0.0
 10
14.8577234658
 20
13.1604881337
 30
0.0
 10
14.8554366094
 20
13.1606031653
 30
0.0
 10
14.8537731423
 20
13.1606043678
 30
0.0
 10
14.8521555491
 20
13.1605212959
 30
0.0
 10
14.8505928848
 20
13.1603543863
 30
0.0
 10
14.8490939652
 20
13.1601045399
 30
0.0
 10
14.8476671117
 20
13.1597731351
 30
0.0
 10
14.8463205048
 20
13.1593619651
 30
0.0
 10
14.8454629988
 20
13.159029083
 30
0.0
 10
14.8450508646
 20
13.1588492253
 30
0.0
  0
SPLINE
  5
31F
100
AcDbEntity
  8
LAYER_FEATURE
100
AcDbSpline
 62
7
  6
CONTINUOUS
 70
0
 71
3
 72
15
 73
11
 74
0
 42
0.0000001
 43
0.0000001
 44
0.0000000001
 40
0.0
 40
0.0
 40
0.0
 40
0.0
 40
0.1316969759
 40
0.2644297119
 40
0.39664783
 40
0.5268118279
 40
0.6534575206
 40
0.7752515855
 40
0.8910561266
 40
1.0
 40
1.0
 40
1.0
 40
1.0
 10
14.8955745415
 20
13.1456923238
 30
0.0
 10
14.8965289945
 20
13.1452575467
 30
0.0
 10
14.8984805
 20
13.1444596044
 30
0.0
 10
14.901489161
 20
13.1434879252
 30
0.0
 10
14.9045508573
 20
13.1427485656
 30
0.0
 10
14.9076125613
 20
13.1422544029
 30
0.0
 10
14.9106215235
 20
13.1420139111
 30
0.0
 10
14.9135262147
 20
13.1420313509
 30
0.0
 10
14.9162764399
 20
13.1423064443
 30
0.0
 10
14.9180334435
 20
13.1426707914
 30
0.0
 10
14.9188704671
 20
13.1428991384
 30
0.0
  0
SPLINE
  5
320
100
AcDbEntity
  8
LAYER_FEATURE
100
AcDbSpline
 62
7
  6
CONTINUOUS
 70
0
 71
3
 72
15
 73
11
 74
0
 42
0.0000001
 43
0.0000001
 44
0.0000000001
 40
0.0
 40
0.0
 40
0.0
 40
0.0
 40
0.1470981737
 40
0.2868003705
 40
0.4192600712
 40
0.5449346944
 40
0.6645902095
 40
0.7793304072
 40
0.890575094
 40
1.0
 40
1.0
 40
1.0
 40
1.0
 10
14.940546333
 20
13.1925063686
 30
0.0
 10
14.9400060153
 20
13.1923558172
 30
0.0
 10
14.9389637466
 20
13.1920193899
 30
0.0
 10
14.9374915776
 20
13.1913899658
 30
0.0
 10
14.9361621615
 20
13.1906531743
 30
0.0
 10
14.9349866849
 20
13.1898145088
 30
0.0
 10
14.9339752473
 20
13.1888801356
 30
0.0
 10
14.9331370409
 20
13.18785706
 30
0.0
 10
14.9324803963
 20
13.1867539599
 30
0.0
 10
14.9321670134
 20
13.1859685547
 30
0.0
 10
14.9320438278
 20
13.1855699053
 30
0.0
  0
SPLINE
  5
321
100
AcDbEntity
  8
LAYER_FEATURE
100
AcDbSpline
 62
7
  6
CONTINUOUS
 70
0
 71
3
 72
18
 73
14
 74
0
 42
0.0000001
 43
0.0000001
 44
0.0000000001
 40
0.0
 40
0.0
 40
0.0
 40
0.0
 40
0.1257605915
 40
0.2551265761
 40
0.3861929077
 40
0.5169707695
 40
0.6454857147
 40
0.7083209913
 40
0.7699040364
 40
0.830033717
 40
0.8885259703
 40
0.9452292656
 40
1.0
 40
1.0
 40
1.0
 40
1.0
 10
15.0174970461
 20
13.1995703073
 30
0.0
 10
15.0165172316
 20
13.2001799116
 30
0.0
 10
15.0144671781
 20
13.2013187108
 30
0.0
 10
15.0112229256
 20
13.2027550228
 30
0.0
 10
15.0078227879
 20
13.2039202556
 30
0.0
 10
15.0043431994
 20
13.2047881681
 30
0.0
 10
15.0014194239
 20
13.20525117
 30
0.0
 10
14.9991066719
 20
13.2054540217
 30
0.0
 10
14.9974138955
 20
13.2055210786
 30
0.0
 10
14.9957597197
 20
13.205503811
 30
0.0
 10
14.9941533425
 20
13.2054023318
 30
0.0
 10
14.9926039567
 20
13.2052171597
 30
0.0
 10
14.9915965737
 20
13.2050353378
 30
0.0
 10
14.9911051708
 20
13.2049299651
 30
0.0
  0
SPLINE
  5
322
100
AcDbEntity
  8
LAYER_FEATURE
100
AcDbSpline
 62
7
  6
CONTINUOUS
 70
0
 71
3
 72
17
 73
13
 74
0
 42
0.0000001
 43
0.0000001
 44
0.0000000001
 40
0.0
 40
0.0
 40
0.0
 40
0.0
 40
0.1246745322
 40
0.2528190036
 40
0.3827666863
 40
0.512772256
 40
0.6410892241
 40
0.7660399305
 40
0.8267822938
 40
0.8861223034
 40
0.9439106007
 40
1.0
 40
1.0
 40
1.0
 40
1.0
 10
15.039505887
 20
13.1858772207
 30
0.0
 10
15.0404275039
 20
13.1853038248
 30
0.0
 10
15.0423514962
 20
13.1842277021
 30
0.0
 10
15.0453912592
 20
13.1828533016
 30
0.0
 10
15.0485770927
 20
13.1817164938
 30
0.0
 10
15.0518456455
 20
13.1808399488
 30
0.0
 10
15.0551320548
 20
13.180241051
 30
0.0
 10
15.0578573583
 20
13.1799806639
 30
0.0
 10
15.0599905686
 20
13.179924492
 30
0.0
 10
15.0615394254
 20
13.1799575545
 30
0.0
 10
15.0630442502
 20
13.1800652566
 30
0.0
 10
15.0640286039
 20
13.1801883774
 30
0.0
 10
15.0645112124
 20
13.1802628508
 30
0.0
  0
SPLINE
  5
323
100
AcDbEntity
  8
LAYER_FEATURE
100
AcDbSpline
 62
7
  6
CONTINUOUS
 70
0
 71
3
 72
18
 73
14
 74
0
 42
0.0000001
 43
0.0000001
 44
0.0000000001
 40
0.0
 40
0.0
 40
0.0
 40
0.0
 40
0.1531687805
 40
0.2978318117
 40
0.4335705648
 40
0.5604041773
 40
0.6789026207
 40
0.7354254416
 40
0.7903714733
 40
0.843994571
 40
0.8965871025
 40
0.9484730326
 40
1.0
 40
1.0
 40
1.0
 40
1.0
 10
15.1025954316
 20
13.222134497
 30
0.0
 10
15.1018014345
 20
13.2220559191
 30
0.0
 10
15.1002628911
 20
13.2218372587
 30
0.0
 10
15.0980644481
 20
13.2213033811
 30
0.0
 10
15.0960654714
 20
13.2205787318
 30
0.0
 10
15.0942932171
 20
13.2196720795
 30
0.0
 10
15.0930048647
 20
13.2187585017
 30
0.0
 10
15.0921210157
 20
13.2179479785
 30
0.0
 10
15.091539526
 20
13.2173127739
 30
0.0
 10
15.091031381
 20
13.216642964
 30
0.0
 10
15.0905983808
 20
13.2159408275
 30
0.0
 10
15.0902422389
 20
13.2152089108
 30
0.0
 10
15.0900566407
 20
13.2147020186
 30
0.0
 10
15.089977397
 20
13.2144455723
 30
0.0
  0
SPLINE
  5
324
100
AcDbEntity
  8
LAYER_FEATURE
100
AcDbSpline
 62
7
  6
CONTINUOUS
 70
0
 71
3
 72
17
 73
13
 74
0
 42
0.0000001
 43
0.0000001
 44
0.0000000001
 40
0.0
 40
0.0
 40
0.0
 40
0.0
 40
0.0576396315
 40
0.1169413356
 40
0.1777166266
 40
0.2397774492
 40
0.3668546474
 40
0.4963696688
 40
0.6263715081
 40
0.7548870186
 40
0.8800096608
 40
1.0
 40
1.0
 40
1.0
 40
1.0
 10
15.1855780846
 20
13.2177602196
 30
0.0
 10
15.1851708534
 20
13.2181048421
 30
0.0
 10
15.1843243891
 20
13.2187803989
 30
0.0
 10
15.1829854403
 20
13.2197369539
 30
0.0
 10
15.1815653998
 20
13.22064675
 30
0.0
 10
15.1795591876
 20
13.2217994708
 30
0.0
 10
15.1769013952
 20
13.2230880459
 30
0.0
 10
15.1735533628
 20
13.2243625736
 30
0.0
 10
15.1700955481
 20
13.2253492875
 30
0.0
 10
15.1666051607
 20
13.2260261326
 30
0.0
 10
15.1631603876
 20
13.2263780359
 30
0.0
 10
15.1608871609
 20
13.2263910428
 30
0.0
 10
15.1597779156
 20
13.2263369178
 30
0.0
  0
SPLINE
  5
325
100
AcDbEntity
  8
LAYER_FEATURE
100
AcDbSpline
 62
7
  6
CONTINUOUS
 70
0
 71
3
 72
15
 73
11
 74
0
 42
0.0000001
 43
0.0000001
 44
0.0000000001
 40
0.0
 40
0.0
 40
0.0
 40
0.0
 40
0.1163412652
 40
0.2383032884
 40
0.3644712321
 40
0.4932406897
 40
0.6229007279
 40
0.7517044464
 40
0.877938247
 40
1.0
 40
1.0
 40
1.0
 40
1.0
 10
15.2039403276
 20
13.202221027
 30
0.0
 10
15.204716711
 20
13.2015640064
 30
0.0
 10
15.2063813492
 20
13.2003043684
 30
0.0
 10
15.2090969238
 20
13.1986298062
 30
0.0
 10
15.212045998
 20
13.197151162
 30
0.0
 10
15.2151699447
 20
13.195897894
 30
0.0
 10
15.2184070124
 20
13.1948947496
 30
0.0
 10
15.2216931443
 20
13.1941615936
 30
0.0
 10
15.224962914
 20
13.1937129602
 30
0.0
 10
15.2271346087
 20
13.1936072771
 30
0.0
 10
15.2282016961
 20
13.1936072771
 30
0.0
  0
SPLINE
  5
326
100
AcDbEntity
  8
LAYER_FEATURE
100
AcDbSpline
 62
7
  6
CONTINUOUS
 70
0
 71
3
 72
15
 73
11
 74
0
 42
0.0000001
 43
0.0000001
 44
0.0000000001
 40
0.0
 40
0.0
 40
0.0
 40
0.0
 40
0.1439700766
 40
0.2831420437
 40
0.4170357646
 40
0.5452953205
 40
0.6676929453
 40
0.7841624539
 40
0.8948215946
 40
1.0
 40
1.0
 40
1.0
 40
1.0
 10
15.2460892785
 20
13.1936072771
 30
0.0
 10
15.2467243125
 20
13.1936072771
 30
0.0
 10
15.2479735923
 20
13.1936435427
 30
0.0
 10
15.2498065847
 20
13.1938121771
 30
0.0
 10
15.2515558465
 20
13.194092991
 30
0.0
 10
15.2532080822
 20
13.1944839318
 30
0.0
 10
15.2547508517
 20
13.1949821993
 30
0.0
 10
15.2561725784
 20
13.1955843147
 30
0.0
 10
15.2574622656
 20
13.1962859061
 30
0.0
 10
15.2582464906
 20
13.19683003
 30
0.0
 10
15.2586107404
 20
13.1971173487
 30
0.0
  0
SPLINE
  5
327
100
AcDbEntity
  8
LAYER_FEATURE
100
AcDbSpline
 62
7
  6
CONTINUOUS
 70
0
 71
3
 72
22
 73
18
 74
0
 42
0.0000001
 43
0.0000001
 44
0.0000000001
 40
0.0
 40
0.0
 40
0.0
 40
0.0
 40
0.1566145461
 40
0.2319409147
 40
0.3050209445
 40
0.3757034151
 40
0.4438756337
 40
0.5094673479
 40
0.5724547118
 40
0.632868391
 40
0.6907992561
 40
0.7464041376
 40
0.7999111233
 40
0.8516221982
 40
0.9019088033
 40
0.9512049144
 40
1.0
 40
1.0
 40
1.0
 40
1.0
 10
15.2823903094
 20
13.2263369178
 30
0.0
 10
15.281336885
 20
13.22638597
 30
0.0
 10
15.279771841
 20
13.2263883998
 30
0.0
 10
15.2777231196
 20
13.2262335325
 30
0.0
 10
15.2762593976
 20
13.2260432513
 30
0.0
 10
15.2748563015
 20
13.2257783123
 30
0.0
 10
15.273520907
 20
13.2254400209
 30
0.0
 10
15.2722600104
 20
13.2250300438
 30
0.0
 10
15.2710800162
 20
13.2245503564
 30
0.0
 10
15.2699869292
 20
13.22400329
 30
0.0
 10
15.2689863439
 20
13.2233914691
 30
0.0
 10
15.268083459
 20
13.2227178021
 30
0.0
 10
15.2672830481
 20
13.2219855169
 30
0.0
 10
15.2665894786
 20
13.2211981956
 30
0.0
 10
15.2660066511
 20
13.2203597361
 30
0.0
 10
15.2655380174
 20
13.2194746581
 30
0.0
 10
15.2653030672
 20
13.2188551788
 30
0.0
 10
15.2652060625
 20
13.2185412629
 30
0.0
  0
SPLINE
  5
328
100
AcDbEntity
  8
LAYER_FEATURE
100
AcDbSpline
 62
7
  6
CONTINUOUS
 70
0
 71
3
 72
18
 73
14
 74
0
 42
0.0000001
 43
0.0000001
 44
0.0000000001
 40
0.0
 40
0.0
 40
0.0
 40
0.0
 40
0.0532785569
 40
0.108607557
 40
0.1658738907
 40
0.2249512032
 40
0.2856765996
 40
0.3478661125
 40
0.4757744506
 40
0.6069149317
 40
0.7393345505
 40
0.871020706
 40
1.0
 40
1.0
 40
1.0
 40
1.0
 10
15.3677781621
 20
13.2107156011
 30
0.0
 10
15.3674682458
 20
13.2110877325
 30
0.0
 10
15.3668095058
 20
13.2118241817
 30
0.0
 10
15.3657338511
 20
13.2128819756
 30
0.0
 10
15.3645574088
 20
13.2139084814
 30
0.0
 10
15.3632869557
 20
13.2148978812
 30
0.0
 10
15.3619295384
 20
13.2158446761
 30
0.0
 10
15.3599960597
 20
13.2170542774
 30
0.0
 10
15.3574112849
 20
13.21842242
 30
0.0
 10
15.3541265526
 20
13.2198019481
 30
0.0
 10
15.3507023884
 20
13.2209040875
 30
0.0
 10
15.3472157886
 20
13.2217040924
 30
0.0
 10
15.344864925
 20
13.2220291723
 30
0.0
 10
15.3436972906
 20
13.222134497
 30
0.0
  0
SPLINE
  5
329
100
AcDbEntity
  8
LAYER_FEATURE
100
AcDbSpline
 62
7
  6
CONTINUOUS
 70
0
 71
3
 72
18
 73
14
 74
0
 42
0.0000001
 43
0.0000001
 44
0.0000000001
 40
0.0
 40
0.0
 40
0.0
 40
0.0
 40
0.0532974597
 40
0.1085327058
 40
0.1656079692
 40
0.2244149164
 40
0.2848135503
 40
0.3466456027
 40
0.4738635982
 40
0.6045437437
 40
0.7369787007
 40
0.8693886425
 40
1.0
 40
1.0
 40
1.0
 40
1.0
 10
15.381691289
 20
13.1940094398
 30
0.0
 10
15.3819827498
 20
13.1936594687
 30
0.0
 10
15.3826001035
 20
13.1929663685
 30
0.0
 10
15.3836041307
 20
13.1919679777
 30
0.0
 10
15.3846982018
 20
13.1909967012
 30
0.0
 10
15.3858767261
 20
13.1900574268
 30
0.0
 10
15.3871339048
 20
13.1891547835
 30
0.0
 10
15.3889233823
 20
13.1879952921
 30
0.0
 10
15.3913167644
 20
13.1866693783
 30
0.0
 10
15.3943646758
 20
13.1853053298
 30
0.0
 10
15.3975557729
 20
13.1841800706
 30
0.0
 10
15.4008263529
 20
13.1833160391
 30
0.0
 10
15.4030421362
 20
13.1829210253
 30
0.0
 10
15.4041483624
 20
13.1827727723
 30
0.0
  0
SPLINE
  5
32A
100
AcDbEntity
  8
LAYER_FEATURE
100
AcDbSpline
 62
7
  6
CONTINUOUS
 70
0
 71
3
 72
21
 73
17
 74
0
 42
0.0000001
 43
0.0000001
 44
0.0000000001
 40
0.0
 40
0.0
 40
0.0
 40
0.0
 40
0.1529368884
 40
0.2272466763
 40
0.2998234508
 40
0.3704749795
 40
0.4390366837
 40
0.5053725232
 40
0.5693787271
 40
0.6309893925
 40
0.6901818955
 40
0.8013736828
 40
0.853691546
 40
0.9040420386
 40
0.9527023724
 40
1.0
 40
1.0
 40
1.0
 40
1.0
 10
15.4228767488
 20
13.1802628508
 30
0.0
 10
15.4239532833
 20
13.1801185769
 30
0.0
 10
15.4255632781
 20
13.1799712908
 30
0.0
 10
15.4276926791
 20
13.1799244128
 30
0.0
 10
15.429237779
 20
13.1799643745
 30
0.0
 10
15.4307382078
 20
13.1800789407
 30
0.0
 10
15.4321865238
 20
13.1802675456
 30
0.0
 10
15.4335755174
 20
13.1805292757
 30
0.0
 10
15.4348982155
 20
13.1808628412
 30
0.0
 10
15.436148262
 20
13.1812667459
 30
0.0
 10
15.4376770698
 20
13.1818832345
 30
0.0
 10
15.4390760237
 20
13.1826400329
 30
0.0
 10
15.4403008777
 20
13.1835414717
 30
0.0
 10
15.441101189
 20
13.1842617218
 30
0.0
 10
15.4417970418
 20
13.1850360169
 30
0.0
 10
15.4421936064
 20
13.1855924785
 30
0.0
 10
15.442371809
 20
13.1858772207
 30
0.0
  0
SPLINE
  5
32B
100
AcDbEntity
  8
LAYER_FEATURE
100
AcDbSpline
 62
7
  6
CONTINUOUS
 70
0
 71
3
 72
22
 73
18
 74
0
 42
0.0000001
 43
0.0000001
 44
0.0000000001
 40
0.0
 40
0.0
 40
0.0
 40
0.0
 40
0.1528778218
 40
0.2273812868
 40
0.3002472112
 40
0.3712436404
 40
0.4401678168
 40
0.5068474001
 40
0.5711448893
 40
0.6329642061
 40
0.6922571967
 40
0.7490301615
 40
0.8033513619
 40
0.855357931
 40
0.9052603161
 40
0.9533551782
 40
1.0
 40
1.0
 40
1.0
 40
1.0
 10
15.4720730673
 20
13.2049299651
 30
0.0
 10
15.4709207985
 20
13.2051340896
 30
0.0
 10
15.4691921687
 20
13.2053630301
 30
0.0
 10
15.466897498
 20
13.2055023036
 30
0.0
 10
15.4652253715
 20
13.2055216748
 30
0.0
 10
15.4635971376
 20
13.2054567102
 30
0.0
 10
15.4620219021
 20
13.2053077728
 30
0.0
 10
15.4605085295
 20
13.2050756817
 30
0.0
 10
15.4590655065
 20
13.2047616949
 30
0.0
 10
15.4577009269
 20
13.2043675043
 30
0.0
 10
15.4564224345
 20
13.2038952339
 30
0.0
 10
15.4552372002
 20
13.203347403
 30
0.0
 10
15.4541519056
 20
13.2027268884
 30
0.0
 10
15.4531727776
 20
13.2020369434
 30
0.0
 10
15.4523054207
 20
13.2012811503
 30
0.0
 10
15.4515552539
 20
13.2004636973
 30
0.0
 10
15.4511308838
 20
13.1998729665
 30
0.0
 10
15.4509414681
 20
13.1995703073
 30
0.0
  0
SPLINE
  5
32C
100
AcDbEntity
  8
LAYER_FEATURE
100
AcDbSpline
 62
7
  6
CONTINUOUS
 70
0
 71
3
 72
20
 73
16
 74
0
 42
0.0000001
 43
0.0000001
 44
0.0000000001
 40
0.0
 40
0.0
 40
0.0
 40
0.0
 40
0.0495252025
 40
0.1012664908
 40
0.1552291314
 40
0.2113863328
 40
0.2696596821
 40
0.3299352008
 40
0.3920668409
 40
0.4558808277
 40
0.5211802039
 40
0.5877484312
 40
0.7237156075
 40
0.8618276899
 40
1.0
 40
1.0
 40
1.0
 40
1.0
 10
15.5561342609
 20
13.1787443356
 30
0.0
 10
15.5559365581
 20
13.1791270412
 30
0.0
 10
15.5554969224
 20
13.1798916983
 30
0.0
 10
15.5547313149
 20
13.1810052886
 30
0.0
 10
15.5538495372
 20
13.1821042903
 30
0.0
 10
15.5528567369
 20
13.1831824984
 30
0.0
 10
15.551758434
 20
13.1842339639
 30
0.0
 10
15.5505608451
 20
13.1852528141
 30
0.0
 10
15.5492707091
 20
13.186233357
 30
0.0
 10
15.5478952942
 20
13.1871700796
 30
0.0
 10
15.5464423154
 20
13.188057737
 30
0.0
 10
15.5443983962
 20
13.1891768829
 30
0.0
 10
15.5417036784
 20
13.1904190428
 30
0.0
 10
15.5383253705
 20
13.1916326971
 30
0.0
 10
15.5359991438
 20
13.1922494958
 30
0.0
 10
15.5348251365
 20
13.1925063686
 30
0.0
  0
SPLINE
  5
32D
100
AcDbEntity
  8
LAYER_FEATURE
100
AcDbSpline
 62
7
  6
CONTINUOUS
 70
0
 71
3
 72
18
 73
14
 74
0
 42
0.0000001
 43
0.0000001
 44
0.0000000001
 40
0.0
 40
0.0
 40
0.0
 40
0.0
 40
0.1015971429
 40
0.1555879904
 40
0.211667381
 40
0.2697727426
 40
0.3298106613
 40
0.3916595616
 40
0.4551732309
 40
0.5864742676
 40
0.7222175378
 40
0.8606720214
 40
1.0
 40
1.0
 40
1.0
 40
1.0
 10
15.5649902013
 20
13.161601345
 30
0.0
 10
15.5653695626
 20
13.1608669919
 30
0.0
 10
15.5660481688
 20
13.1597908422
 30
0.0
 10
15.5671119318
 20
13.1584359064
 30
0.0
 10
15.5680255881
 20
13.1574160571
 30
0.0
 10
15.5690339057
 20
13.1564188177
 30
0.0
 10
15.5701319753
 20
13.1554489242
 30
0.0
 10
15.5713142878
 20
13.1545112174
 30
0.0
 10
15.5730138259
 20
13.1532968033
 30
0.0
 10
15.5753123117
 20
13.1518927194
 30
0.0
 10
15.578270612
 20
13.1504239608
 30
0.0
 10
15.5814010377
 20
13.1491817496
 30
0.0
 10
15.5835649558
 20
13.1485200022
 30
0.0
 10
15.5846614977
 20
13.148232856
 30
0.0
  0
SPLINE
  5
32E
100
AcDbEntity
  8
LAYER_FEATURE
100
AcDbSpline
 62
7
  6
CONTINUOUS
 70
0
 71
3
 72
19
 73
15
 74
0
 42
0.0000001
 43
0.0000001
 44
0.0000000001
 40
0.0
 40
0.0
 40
0.0
 40
0.0
 40
0.1454997164
 40
0.2880059542
 40
0.4257154054
 40
0.4922812989
 40
0.5570722097
 40
0.6199378005
 40
0.6807542142
 40
0.7394278509
 40
0.7959001085
 40
0.850152031
 40
0.9022081058
 40
1.0
 40
1.0
 40
1.0
 40
1.0
 10
15.6034121678
 20
13.1433227087
 30
0.0
 10
15.6045007885
 20
13.1430376368
 30
0.0
 10
15.6066795715
 20
13.1425601385
 30
0.0
 10
15.6099469587
 20
13.1421249575
 30
0.0
 10
15.6126306153
 20
13.1420055943
 30
0.0
 10
15.6147115373
 20
13.1420641024
 30
0.0
 10
15.616209752
 20
13.1421821019
 30
0.0
 10
15.6176554826
 20
13.1423741047
 30
0.0
 10
15.619041554
 20
13.1426391798
 30
0.0
 10
15.6203610849
 20
13.1429760526
 30
0.0
 10
15.6216074356
 20
13.1433830555
 30
0.0
 10
15.6227746672
 20
13.1438584429
 30
0.0
 10
15.6241871668
 20
13.1445649211
 30
0.0
 10
15.625159168
 20
13.1452113985
 30
0.0
 10
15.6257429209
 20
13.1456923238
 30
0.0
  0
SPLINE
  5
32F
100
AcDbEntity
  8
LAYER_FEATURE
100
AcDbSpline
 62
7
  6
CONTINUOUS
 70
0
 71
3
 72
19
 73
15
 74
0
 42
0.0000001
 43
0.0000001
 44
0.0000000001
 40
0.0
 40
0.0
 40
0.0
 40
0.0
 40
0.1447685417
 40
0.2872624056
 40
0.4254014921
 40
0.4922620586
 40
0.557355221
 40
0.6204992862
 40
0.6815417353
 40
0.7403638061
 40
0.796886198
 40
0.8510747944
 40
0.902945581
 40
1.0
 40
1.0
 40
1.0
 40
1.0
 10
15.6633536588
 20
13.1588492253
 30
0.0
 10
15.6622048947
 20
13.1592002176
 30
0.0
 10
15.6598942606
 20
13.1597993471
 30
0.0
 10
15.6564092559
 20
13.1603853825
 30
0.0
 10
15.6535293494
 20
13.1606029749
 30
0.0
 10
15.6512874772
 20
13.1606042229
 30
0.0
 10
15.6496700425
 20
13.1605208253
 30
0.0
 10
15.6481076146
 20
13.1603535949
 30
0.0
 10
15.6466089376
 20
13.1601034446
 30
0.0
 10
15.6451823976
 20
13.1597717264
 30
0.0
 10
15.643836083
 20
13.1593602911
 30
0.0
 10
15.6425772177
 20
13.1588711064
 30
0.0
 10
15.6410597525
 20
13.1581359453
 30
0.0
 10
15.640018047
 20
13.1574528986
 30
0.0
 10
15.6393965173
 20
13.1569408508
 30
0.0
  0
SPLINE
  5
330
100
AcDbEntity
  8
LAYER_FEATURE
100
AcDbSpline
 62
7
  6
CONTINUOUS
 70
0
 71
3
 72
22
 73
18
 74
0
 42
0.0000001
 43
0.0000001
 44
0.0000000001
 40
0.0
 40
0.0
 40
0.0
 40
0.0
 40
0.047019306
 40
0.0960282732
 40
0.1472151324
 40
0.2007139421
 40
0.256585954
 40
0.3148359876
 40
0.375417733
 40
0.4382400131
 40
0.5031730209
 40
0.5700533895
 40
0.6386891869
 40
0.7088651104
 40
0.7803458136
 40
0.8528764149
 40
1.0
 40
1.0
 40
1.0
 40
1.0
 10
15.7424143157
 20
13.1232437208
 30
0.0
 10
15.7423383706
 20
13.1236183723
 30
0.0
 10
15.742139706
 20
13.1243752338
 30
0.0
 10
15.7417180261
 20
13.125497299
 30
0.0
 10
15.7411695249
 20
13.1266219509
 30
0.0
 10
15.7404976164
 20
13.1277428051
 30
0.0
 10
15.7397061305
 20
13.1288537723
 30
0.0
 10
15.7387996162
 20
13.129948715
 30
0.0
 10
15.7377832053
 20
13.1310215824
 30
0.0
 10
15.7366626223
 20
13.1320664057
 30
0.0
 10
15.7354441719
 20
13.1330773485
 30
0.0
 10
15.7341347213
 20
13.1340487543
 30
0.0
 10
15.7327416429
 20
13.1349751774
 30
0.0
 10
15.7312727976
 20
13.1358513951
 30
0.0
 10
15.7297364133
 20
13.1366724871
 30
0.0
 10
15.7275997721
 20
13.1376922196
 30
0.0
 10
15.7259375879
 20
13.1383533205
 30
0.0
 10
15.7248082494
 20
13.1387474239
 30
0.0
  0
SPLINE
  5
331
100
AcDbEntity
  8
LAYER_FEATURE
100
AcDbSpline
 62
7
  6
CONTINUOUS
 70
0
 71
3
 72
20
 73
16
 74
0
 42
0.0000001
 43
0.0000001
 44
0.0000000001
 40
0.0
 40
0.0
 40
0.0
 40
0.0
 40
0.0475047603
 40
0.0968911347
 40
0.1483335836
 40
0.2019612272
 40
0.2578403416
 40
0.3159883175
 40
0.3763777128
 40
0.438941314
 40
0.5035773076
 40
0.5701534676
 40
0.7084312937
 40
0.8523024726
 40
1.0
 40
1.0
 40
1.0
 40
1.0
 10
15.7458260225
 20
13.1064131318
 30
0.0
 10
15.7458974443
 20
13.1060607945
 30
0.0
 10
15.7460815808
 20
13.1053495067
 30
0.0
 10
15.7464676184
 20
13.1042937932
 30
0.0
 10
15.7469663942
 20
13.1032350433
 30
0.0
 10
15.7475751566
 20
13.102178607
 30
0.0
 10
15.7482908243
 20
13.1011295877
 30
0.0
 10
15.7491097422
 20
13.1000931358
 30
0.0
 10
15.7500277934
 20
13.0990743343
 30
0.0
 10
15.7510403824
 20
13.0980782187
 30
0.0
 10
15.7521424728
 20
13.0971096929
 30
0.0
 10
15.7537439993
 20
13.0958457431
 30
0.0
 10
15.7559369484
 20
13.0943695305
 30
0.0
 10
15.7587920748
 20
13.0928027729
 30
0.0
 10
15.7608123202
 20
13.0919079287
 30
0.0
 10
15.7618518119
 20
13.0914970886
 30
0.0
  0
SPLINE
  5
332
100
AcDbEntity
  8
LAYER_FEATURE
100
AcDbSpline
 62
7
  6
CONTINUOUS
 70
0
 71
3
 72
19
 73
15
 74
0
 42
0.0000001
 43
0.0000001
 44
0.0000000001
 40
0.0
 40
0.0
 40
0.0
 40
0.0
 40
0.1369364896
 40
0.2737602321
 40
0.4086397741
 40
0.5398175545
 40
0.6035277813
 40
0.6657312594
 40
0.7262671369
 40
0.7849960345
 40
0.8418032116
 40
0.8966008238
 40
0.9493415977
 40
1.0
 40
1.0
 40
1.0
 40
1.0
 10
15.7798052713
 20
13.0844013123
 30
0.0
 10
15.7808580654
 20
13.0839852147
 30
0.0
 10
15.7829979697
 20
13.0832395834
 30
0.0
 10
15.7862707511
 20
13.0823880865
 30
0.0
 10
15.789555567
 20
13.0818154807
 30
0.0
 10
15.7922752916
 20
13.0815778422
 30
0.0
 10
15.7944009842
 20
13.0815402258
 30
0.0
 10
15.7959422741
 20
13.0815871001
 30
0.0
 10
15.7974382035
 20
13.0817085225
 30
0.0
 10
15.7988813475
 20
13.0819039168
 30
0.0
 10
15.8002644846
 20
13.0821723409
 30
0.0
 10
15.8015808047
 20
13.0825124844
 30
0.0
 10
15.8028236057
 20
13.0829227048
 30
0.0
 10
15.8036150339
 20
13.0832481572
 30
0.0
 10
15.8039957563
 20
13.0834226091
 30
0.0
  0
SPLINE
  5
333
100
AcDbEntity
  8
LAYER_FEATURE
100
AcDbSpline
 62
7
  6
CONTINUOUS
 70
0
 71
3
 72
19
 73
15
 74
0
 42
0.0000001
 43
0.0000001
 44
0.0000000001
 40
0.0
 40
0.0
 40
0.0
 40
0.0
 40
0.1356549793
 40
0.2720402458
 40
0.4070891526
 40
0.5387899967
 40
0.6028162374
 40
0.6653303801
 40
0.7261433045
 40
0.7850900211
 40
0.8420335881
 40
0.8968680933
 40
0.9495344764
 40
1.0
 40
1.0
 40
1.0
 40
1.0
 10
15.8478722041
 20
13.0901086481
 30
0.0
 10
15.8467778907
 20
13.0905941127
 30
0.0
 10
15.8445388994
 20
13.0914703838
 30
0.0
 10
15.8410893966
 20
13.0924891565
 30
0.0
 10
15.8375989532
 20
13.093200172
 30
0.0
 10
15.8346934857
 20
13.0935260985
 30
0.0
 10
15.8324154787
 20
13.0936159533
 30
0.0
 10
15.8307614206
 20
13.0935983665
 30
0.0
 10
15.8291552876
 20
13.0934965664
 30
0.0
 10
15.827606068
 20
13.0933110916
 30
0.0
 10
15.8261224998
 20
13.0930429449
 30
0.0
 10
15.8247128151
 20
13.0926936009
 30
0.0
 10
15.8233851002
 20
13.0922649507
 30
0.0
 10
15.8225414427
 20
13.0919204834
 30
0.0
 10
15.8221365623
 20
13.0917349619
 30
0.0
  0
SPLINE
  5
334
100
AcDbEntity
  8
LAYER_FEATURE
100
AcDbSpline
 62
7
  6
CONTINUOUS
 70
0
 71
3
 72
21
 73
17
 74
0
 42
0.0000001
 43
0.0000001
 44
0.0000000001
 40
0.0
 40
0.0
 40
0.0
 40
0.0
 40
0.0469630742
 40
0.0950770898
 40
0.1447634316
 40
0.1963864875
 40
0.3063533562
 40
0.3651367938
 40
0.4265093343
 40
0.4904635574
 40
0.5569375693
 40
0.6258221161
 40
0.6969678011
 40
0.7701900546
 40
0.8452707564
 40
1.0
 40
1.0
 40
1.0
 40
1.0
 10
15.9184769942
 20
13.0466393998
 30
0.0
 10
15.9185250344
 20
13.0469869369
 30
0.0
 10
15.9185763126
 20
13.0476976529
 30
0.0
 10
15.9185191667
 20
13.0487801113
 30
0.0
 10
15.9183293749
 20
13.04988268
 30
0.0
 10
15.9178925801
 20
13.0514020551
 30
0.0
 10
15.9171953673
 20
13.0529059814
 30
0.0
 10
15.916284639
 20
13.0543652324
 30
0.0
 10
15.9154674762
 20
13.055473389
 30
0.0
 10
15.9145364627
 20
13.0565639634
 30
0.0
 10
15.9134967198
 20
13.0576312054
 30
0.0
 10
15.9123541499
 20
13.0586691025
 30
0.0
 10
15.9111151806
 20
13.0596718668
 30
0.0
 10
15.9097867399
 20
13.060633897
 30
0.0
 10
15.9078875365
 20
13.0618671971
 30
0.0
 10
15.9063801066
 20
13.0626958155
 30
0.0
 10
15.9053434556
 20
13.0632071869
 30
0.0
  0
SPLINE
  5
335
100
AcDbEntity
  8
LAYER_FEATURE
100
AcDbSpline
 62
7
  6
CONTINUOUS
 70
0
 71
3
 72
21
 73
17
 74
0
 42
0.0000001
 43
0.0000001
 44
0.0000000001
 40
0.0
 40
0.0
 40
0.0
 40
0.0
 40
0.0476754277
 40
0.0964254276
 40
0.1466347914
 40
0.1986418609
 40
0.3089280816
 40
0.3676471113
 40
0.4288287911
 40
0.492489876
 40
0.5585980386
 40
0.6270777379
 40
0.6978163355
 40
0.7706682994
 40
0.8454564542
 40
1.0
 40
1.0
 40
1.0
 40
1.0
 10
15.9162953594
 20
13.03085679
 30
0.0
 10
15.9162501537
 20
13.0305297579
 30
0.0
 10
15.9161993774
 20
13.0298620561
 30
0.0
 10
15.9162419554
 20
13.0288454351
 30
0.0
 10
15.9164021374
 20
13.0278102201
 30
0.0
 10
15.9167780909
 20
13.0263852787
 30
0.0
 10
15.9173862541
 20
13.0249701185
 30
0.0
 10
15.9181876416
 20
13.0235911964
 30
0.0
 10
15.9189082202
 20
13.0225424932
 30
0.0
 10
15.9197317892
 20
13.0215067865
 30
0.0
 10
15.9206543174
 20
13.0204889146
 30
0.0
 10
15.9216711544
 20
13.0194939624
 30
0.0
 10
15.9227772227
 20
13.018526847
 30
0.0
 10
15.9239670384
 20
13.017592352
 30
0.0
 10
15.9256755375
 20
13.0163830681
 30
0.0
 10
15.9270367296
 20
13.0155593777
 30
0.0
 10
15.927975238
 20
13.0150450951
 30
0.0
  0
SPLINE
  5
336
100
AcDbEntity
  8
LAYER_FEATURE
100
AcDbSpline
 62
7
  6
CONTINUOUS
 70
0
 71
3
 72
17
 73
13
 74
0
 42
0.0000001
 43
0.0000001
 44
0.0000000001
 40
0.0
 40
0.0
 40
0.0
 40
0.0
 40
0.1282466406
 40
0.2589717643
 40
0.3904381402
 40
0.5208734996
 40
0.6485482778
 40
0.771847908
 40
0.8314213796
 40
0.889387546
 40
0.9456201634
 40
1.0
 40
1.0
 40
1.0
 40
1.0
 10
15.9443468344
 20
13.0060738094
 30
0.0
 10
15.9453164943
 20
13.0055424565
 30
0.0
 10
15.9473230981
 20
13.0045559567
 30
0.0
 10
15.9504599467
 20
13.003324904
 30
0.0
 10
15.9537042908
 20
13.002345909
 30
0.0
 10
15.9569916388
 20
13.0016384895
 30
0.0
 10
15.9602567623
 20
13.0012166776
 30
0.0
 10
15.9629362465
 20
13.0011088117
 30
0.0
 10
15.9650123111
 20
13.0011766427
 30
0.0
 10
15.9665060237
 20
13.0013015002
 30
0.0
 10
15.967946495
 20
13.0015002937
 30
0.0
 10
15.968882853
 20
13.0016846541
 30
0.0
 10
15.969339811
 20
13.0017895619
 30
0.0
  0
SPLINE
  5
337
100
AcDbEntity
  8
LAYER_FEATURE
100
AcDbSpline
 62
7
  6
CONTINUOUS
 70
0
 71
3
 72
18
 73
14
 74
0
 42
0.0000001
 43
0.0000001
 44
0.0000000001
 40
0.0
 40
0.0
 40
0.0
 40
0.0
 40
0.1264861219
 40
0.2563780191
 40
0.3877538487
 40
0.5186180911
 40
0.6469997203
 40
0.7096901669
 40
0.7710796834
 40
0.8309707466
 40
0.8891837705
 40
0.9455725602
 40
1.0
 40
1.0
 40
1.0
 40
1.0
 10
16.0175643573
 20
13.0017125263
 30
0.0
 10
16.0165741454
 20
13.0023138332
 30
0.0
 10
16.014506222
 20
13.0034347924
 30
0.0
 10
16.0112409905
 20
13.0048423789
 30
0.0
 10
16.0078281761
 20
13.0059756759
 30
0.0
 10
16.0043445002
 20
13.006809162
 30
0.0
 10
16.0014233586
 20
13.0072419878
 30
0.0
 10
15.999117176
 20
13.0074198827
 30
0.0
 10
15.9974321672
 20
13.0074681761
 30
0.0
 10
15.9957878547
 20
13.0074321244
 30
0.0
 10
15.9941933781
 20
13.0073119432
 30
0.0
 10
15.9926578631
 20
13.0071082565
 30
0.0
 10
15.9916608474
 20
13.0069139941
 30
0.0
 10
15.9911749862
 20
13.0068024508
 30
0.0
  0
SPLINE
  5
338
100
AcDbEntity
  8
LAYER_FEATURE
100
AcDbSpline
 62
7
  6
CONTINUOUS
 70
0
 71
3
 72
15
 73
11
 74
0
 42
0.0000001
 43
0.0000001
 44
0.0000000001
 40
0.0
 40
0.0
 40
0.0
 40
0.0
 40
0.1197707925
 40
0.2443081909
 40
0.3720767599
 40
0.501399661
 40
0.630538183
 40
0.7577610362
 40
0.8814139093
 40
1.0
 40
1.0
 40
1.0
 40
1.0
 10
16.0898456012
 20
12.9117634878
 30
0.0
 10
16.0906874397
 20
12.9111381475
 30
0.0
 10
16.0924702758
 20
12.9099491727
 30
0.0
 10
16.0953360291
 20
12.9083916197
 30
0.0
 10
16.0983999077
 20
12.9070484596
 30
0.0
 10
16.1016009599
 20
12.905946481
 30
0.0
 10
16.1048758525
 20
12.9051074707
 30
0.0
 10
16.1081598173
 20
12.9045480396
 30
0.0
 10
16.1113874992
 20
12.9042792585
 30
0.0
 10
16.1135123574
 20
12.9042979182
 30
0.0
 10
16.1145487563
 20
12.9043609381
 30
0.0
  0
SPLINE
  5
339
100
AcDbEntity
  8
LAYER_FEATURE
100
AcDbSpline
 62
7
  6
CONTINUOUS
 70
0
 71
3
 72
19
 73
15
 74
0
 42
0.0000001
 43
0.0000001
 44
0.0000000001
 40
0.0
 40
0.0
 40
0.0
 40
0.0
 40
0.0580011114
 40
0.1176264381
 40
0.1786827497
 40
0.2409781869
 40
0.3683739072
 40
0.4979932644
 40
0.6278790478
 40
0.756061937
 40
0.818935284
 40
0.8806836948
 40
0.9411066368
 40
1.0
 40
1.0
 40
1.0
 40
1.0
 10
16.1650137571
 20
12.8975241948
 30
0.0
 10
16.1645995041
 20
12.8978659388
 30
0.0
 10
16.1637396002
 20
12.8985353126
 30
0.0
 10
16.162381943
 20
12.8994819003
 30
0.0
 10
16.1609449388
 20
12.9003805636
 30
0.0
 10
16.1589192733
 20
12.9015163583
 30
0.0
 10
16.1562423559
 20
12.902781472
 30
0.0
 10
16.1528783285
 20
12.9040252486
 30
0.0
 10
16.1494131583
 20
12.9049783809
 30
0.0
 10
16.1464863651
 20
12.9055163485
 30
0.0
 10
16.1441600323
 20
12.905781382
 30
0.0
 10
16.142449839
 20
12.9058953865
 30
0.0
 10
16.1407730045
 20
12.9059252061
 30
0.0
 10
16.1396682786
 20
12.9058883716
 30
0.0
 10
16.1391239989
 20
12.9058552758
 30
0.0
  0
SPLINE
  5
33A
100
AcDbEntity
  8
LAYER_FEATURE
100
AcDbSpline
 62
7
  6
CONTINUOUS
 70
0
 71
3
 72
17
 73
13
 74
0
 42
0.0000001
 43
0.0000001
 44
0.0000000001
 40
0.0
 40
0.0
 40
0.0
 40
0.0
 40
0.0549581963
 40
0.1117194631
 40
0.1701543874
 40
0.2301282747
 40
0.353997378
 40
0.4818985086
 40
0.6121929215
 40
0.7431430381
 40
0.872983772
 40
1.0
 40
1.0
 40
1.0
 40
1.0
 10
16.2099425773
 20
12.805592161
 30
0.0
 10
16.2102741472
 20
12.8052511005
 30
0.0
 10
16.2109693354
 20
12.8045780983
 30
0.0
 10
16.2120833313
 20
12.8036138207
 30
0.0
 10
16.2132805973
 20
12.8026825602
 30
0.0
 10
16.214998167
 20
12.8014783684
 30
0.0
 10
16.2173158813
 20
12.8000889508
 30
0.0
 10
16.2202925532
 20
12.7986399571
 30
0.0
 10
16.2234359567
 20
12.7974199337
 30
0.0
 10
16.2266837177
 20
12.7964530969
 30
0.0
 10
16.2299712319
 20
12.79575862
 30
0.0
 10
16.2321803949
 20
12.7954820973
 30
0.0
 10
16.2332762646
 20
12.7953948361
 30
0.0
  0
SPLINE
  5
33B
100
AcDbEntity
  8
LAYER_FEATURE
100
AcDbSpline
 62
7
  6
CONTINUOUS
 70
0
 71
3
 72
18
 73
14
 74
0
 42
0.0000001
 43
0.0000001
 44
0.0000000001
 40
0.0
 40
0.0
 40
0.0
 40
0.0
 40
0.0536105225
 40
0.1092469869
 40
0.1667889522
 40
0.2261039895
 40
0.2870240875
 40
0.3493611089
 40
0.4774108047
 40
0.6084736172
 40
0.740590233
 40
0.8717521085
 40
1.0
 40
1.0
 40
1.0
 40
1.0
 10
16.2837761571
 20
12.7820971835
 30
0.0
 10
16.2834578381
 20
12.7824677108
 30
0.0
 10
16.2827827967
 20
12.7832004411
 30
0.0
 10
16.2816841688
 20
12.7842517618
 30
0.0
 10
16.2804861812
 20
12.7852704985
 30
0.0
 10
16.2791957315
 20
12.7862508765
 30
0.0
 10
16.2778199793
 20
12.7871874429
 30
0.0
 10
16.27586504
 20
12.7883812208
 30
0.0
 10
16.2732585137
 20
12.7897271182
 30
0.0
 10
16.2699545854
 20
12.79107716
 30
0.0
 10
16.2665196062
 20
12.792146755
 30
0.0
 10
16.2630308187
 20
12.7929118902
 30
0.0
 10
16.2606823924
 20
12.7932125569
 30
0.0
 10
16.2595175186
 20
12.7933053128
 30
0.0
  0
SPLINE
  5
33C
100
AcDbEntity
  8
LAYER_FEATURE
100
AcDbSpline
 62
7
  6
CONTINUOUS
 70
0
 71
3
 72
15
 73
11
 74
0
 42
0.0000001
 43
0.0000001
 44
0.0000000001
 40
0.0
 40
0.0
 40
0.0
 40
0.0
 40
0.1155041167
 40
0.2351875202
 40
0.3583972635
 40
0.4844009579
 40
0.6124061696
 40
0.7415803217
 40
0.8710649581
 40
1.0
 40
1.0
 40
1.0
 40
1.0
 10
16.3037579868
 20
12.6873784831
 30
0.0
 10
16.3043025087
 20
12.6869216157
 30
0.0
 10
16.3054469309
 20
12.6860331929
 30
0.0
 10
16.3072792895
 20
12.6848029311
 30
0.0
 10
16.3092430369
 20
12.683660938
 30
0.0
 10
16.3113187347
 20
12.6826185312
 30
0.0
 10
16.3134859837
 20
12.6816859325
 30
0.0
 10
16.3157234463
 20
12.6808723391
 30
0.0
 10
16.3180089752
 20
12.6801857768
 30
0.0
 10
16.3195566436
 20
12.6798156187
 30
0.0
 10
16.320333374
 20
12.6796535973
 30
0.0
  0
SPLINE
  5
33D
100
AcDbEntity
  8
LAYER_FEATURE
100
AcDbSpline
 62
7
  6
CONTINUOUS
 70
0
 71
3
 72
20
 73
16
 74
0
 42
0.0000001
 43
0.0000001
 44
0.0000000001
 40
0.0
 40
0.0
 40
0.0
 40
0.0
 40
0.0497912804
 40
0.1017969585
 40
0.1560106867
 40
0.2123957795
 40
0.2708653801
 40
0.3312984444
 40
0.393543082
 40
0.4574207683
 40
0.5227307879
 40
0.5892537555
 40
0.7249558311
 40
0.8625647159
 40
1.0
 40
1.0
 40
1.0
 40
1.0
 10
16.3686610707
 20
12.6604762068
 30
0.0
 10
16.3684539469
 20
12.6608587322
 30
0.0
 10
16.3679958157
 20
12.6616224142
 30
0.0
 10
16.3672039535
 20
12.6627332663
 30
0.0
 10
16.3662969812
 20
12.6638281665
 30
0.0
 10
16.3652801822
 20
12.6649009319
 30
0.0
 10
16.3641592086
 20
12.665945636
 30
0.0
 10
16.3629404034
 20
12.6669564396
 30
0.0
 10
16.3616306252
 20
12.667927692
 30
0.0
 10
16.3602372539
 20
12.6688539296
 30
0.0
 10
16.3587681061
 20
12.6697299639
 30
0.0
 10
16.3567058872
 20
12.6708315915
 30
0.0
 10
16.3539935317
 20
12.6720496475
 30
0.0
 10
16.3506010972
 20
12.6732318723
 30
0.0
 10
16.3482691733
 20
12.6738263532
 30
0.0
 10
16.3470937706
 20
12.6740715353
 30
0.0
  0
SPLINE
  5
33E
100
AcDbEntity
  8
LAYER_FEATURE
100
AcDbSpline
 62
7
  6
CONTINUOUS
 70
0
 71
3
 72
22
 73
18
 74
0
 42
0.0000001
 43
0.0000001
 44
0.0000000001
 40
0.0
 40
0.0
 40
0.0
 40
0.0
 40
0.0471492441
 40
0.0963261643
 40
0.1477017513
 40
0.2013944071
 40
0.2574515321
 40
0.3158659847
 40
0.3765812926
 40
0.4394977611
 40
0.5044785511
 40
0.5713546006
 40
0.6399294774
 40
0.7099844514
 40
0.7812817296
 40
0.8535649143
 40
1.0
 40
1.0
 40
1.0
 40
1.0
 10
16.4159586197
 20
12.5379766848
 30
0.0
 10
16.4158727313
 20
12.5383526944
 30
0.0
 10
16.4156542366
 20
12.5391115773
 30
0.0
 10
16.4152040751
 20
12.5402347232
 30
0.0
 10
16.4146277694
 20
12.5413590737
 30
0.0
 10
16.4139288737
 20
12.5424782553
 30
0.0
 10
16.4131113534
 20
12.5435861824
 30
0.0
 10
16.4121798951
 20
12.5446767289
 30
0.0
 10
16.411139765
 20
12.5457438621
 30
0.0
 10
16.4099968192
 20
12.5467816396
 30
0.0
 10
16.4087574872
 20
12.5477842597
 30
0.0
 10
16.4074287543
 20
12.5487461088
 30
0.0
 10
16.4060181025
 20
12.5496617926
 30
0.0
 10
16.4045334926
 20
12.5505261469
 30
0.0
 10
16.4029832424
 20
12.5513343163
 30
0.0
 10
16.400831599
 20
12.5523349909
 30
0.0
 10
16.3991599911
 20
12.5529812525
 30
0.0
 10
16.3980252526
 20
12.5533650316
 30
0.0
  0
SPLINE
  5
33F
100
AcDbEntity
  8
LAYER_FEATURE
100
AcDbSpline
 62
7
  6
CONTINUOUS
 70
0
 71
3
 72
21
 73
17
 74
0
 42
0.0000001
 43
0.0000001
 44
0.0000000001
 40
0.0
 40
0.0
 40
0.0
 40
0.0
 40
0.0468420072
 40
0.0949278962
 40
0.144660758
 40
0.1963850695
 40
0.3066448818
 40
0.3655804431
 40
0.4270900494
 40
0.4911537203
 40
0.5576989797
 40
0.6266077937
 40
0.6977235989
 40
0.7708561041
 40
0.8457827879
 40
1.0
 40
1.0
 40
1.0
 40
1.0
 10
16.4236016743
 20
12.4199524347
 30
0.0
 10
16.4236398999
 20
12.4203027994
 30
0.0
 10
16.4236712146
 20
12.4210186157
 30
0.0
 10
16.4235844435
 20
12.4221060466
 30
0.0
 10
16.4233652997
 20
12.423212167
 30
0.0
 10
16.4228889942
 20
12.4247348771
 30
0.0
 10
16.4221545586
 20
12.4262383348
 30
0.0
 10
16.4212088722
 20
12.4276950856
 30
0.0
 10
16.4203658989
 20
12.428799896
 30
0.0
 10
16.419410199
 20
12.4298857818
 30
0.0
 10
16.4183470228
 20
12.4309469992
 30
0.0
 10
16.4171824038
 20
12.4319775678
 30
0.0
 10
16.4159228933
 20
12.4329717353
 30
0.0
 10
16.4145755355
 20
12.4339239448
 30
0.0
 10
16.4126540091
 20
12.4351419262
 30
0.0
 10
16.4111317496
 20
12.4359584238
 30
0.0
 10
16.4100860144
 20
12.436461255
 30
0.0
  0
SPLINE
  5
340
100
AcDbEntity
  8
LAYER_FEATURE
100
AcDbSpline
 62
7
  6
CONTINUOUS
 70
0
 71
3
 72
68
 73
64
 74
0
 42
0.0000001
 43
0.0000001
 44
0.0000000001
 40
0.0
 40
0.0
 40
0.0
 40
0.0
 40
0.0171788537
 40
0.0345306493
 40
0.0520446784
 40
0.069710489
 40
0.0875169164
 40
0.1054526098
 40
0.1235058943
 40
0.141664841
 40
0.1599172928
 40
0.1782508912
 40
0.1966531056
 40
0.2151112603
 40
0.2521425355
 40
0.2892430599
 40
0.3263089876
 40
0.3447973805
 40
0.363238365
 40
0.3816191842
 40
0.3999272074
 40
0.4181499576
 40
0.4362751398
 40
0.4542906695
 40
0.4721847017
 40
0.4899456595
 40
0.5075622643
 40
0.5250235667
 40
0.5423189792
 40
0.5594383084
 40
0.5763717881
 40
0.5931101137
 40
0.6096444786
 40
0.6259666121
 40
0.6420688199
 40
0.6579440233
 40
0.6735858016
 40
0.6889884364
 40
0.7041469583
 40
0.7190571972
 40
0.7337158328
 40
0.7481204459
 40
0.7622695735
 40
0.7761627646
 40
0.7898006393
 40
0.8031849488
 40
0.8163186321
 40
0.8292058734
 40
0.8418521573
 40
0.8542643197
 40
0.8664505941
 40
0.8784206484
 40
0.8901856074
 40
0.9017580635
 40
0.9131520681
 40
0.9243831024
 40
0.9354680247
 40
0.9464249873
 40
0.9572733262
 40
0.9680334213
 40
0.9787265285
 40
0.989374586
 40
1.0
 40
1.0
 40
1.0
 40
1.0
 10
15.1903353571
 20
13.3196348425
 30
0.0
 10
15.2009194279
 20
13.3196348425
 30
0.0
 10
15.2221948002
 20
13.3194019537
 30
0.0
 10
15.254245628
 20
13.3183671672
 30
0.0
 10
15.286567481
 20
13.3166461331
 30
0.0
 10
15.3191263877
 20
13.314240708
 30
0.0
 10
15.3518886325
 20
13.311153354
 30
0.0
 10
15.3848200563
 20
13.3073873031
 30
0.0
 10
15.4178864035
 20
13.3029464679
 30
0.0
 10
15.451053251
 20
13.2978354771
 30
0.0
 10
15.4842860877
 20
13.2920596507
 30
0.0
 10
15.5175502814
 20
13.2856250066
 30
0.0
 10
15.5508113596
 20
13.2785382186
 30
0.0
 10
15.5951540363
 20
13.2682189642
 30
0.0
 10
15.6503459643
 20
13.2537380239
 30
0.0
 10
15.7159394598
 20
13.2339100477
 30
0.0
 10
15.7699495493
 20
13.2153812754
 30
0.0
 10
15.8126450289
 20
13.1993914627
 30
0.0
 10
15.8443311535
 20
13.1868460944
 30
0.0
 10
15.8756737586
 20
13.1737514804
 30
0.0
 10
15.9066403589
 20
13.1601211852
 30
0.0
 10
15.9371986813
 20
13.1459694107
 30
0.0
 10
15.9673169278
 20
13.1313108829
 30
0.0
 10
15.9969637485
 20
13.1161608629
 30
0.0
 10
16.0261082876
 20
13.1005351184
 30
0.0
 10
16.0547202118
 20
13.084449911
 30
0.0
 10
16.0827697419
 20
13.0679219779
 30
0.0
 10
16.1102276843
 20
13.0509685137
 30
0.0
 10
16.1370654663
 20
13.03360716
 30
0.0
 10
16.1632551624
 20
13.0158559795
 30
0.0
 10
16.1887695214
 20
12.9977334364
 30
0.0
 10
16.2135819947
 20
12.9792583781
 30
0.0
 10
16.2376667635
 20
12.9604500137
 30
0.0
 10
16.2609987679
 20
12.9413278962
 30
0.0
 10
16.2835537365
 20
12.9219119049
 30
0.0
 10
16.3053082053
 20
12.9022222171
 30
0.0
 10
16.3262395413
 20
12.8822792892
 30
0.0
 10
16.3463259654
 20
12.8621038342
 30
0.0
 10
16.3655465731
 20
12.8417167984
 30
0.0
 10
16.3838813631
 20
12.8211393448
 30
0.0
 10
16.4013112535
 20
12.800392827
 30
0.0
 10
16.4178180961
 20
12.779498765
 30
0.0
 10
16.4333846935
 20
12.7584788234
 30
0.0
 10
16.4479948146
 20
12.7373547893
 30
0.0
 10
16.46163321
 20
12.7161485493
 30
0.0
 10
16.4742856343
 20
12.6948820732
 30
0.0
 10
16.4859388487
 20
12.6735773863
 30
0.0
 10
16.4965806309
 20
12.6522565508
 30
0.0
 10
16.5061997852
 20
12.6309416467
 30
0.0
 10
16.5147861498
 20
12.6096547522
 30
0.0
 10
16.5223306135
 20
12.588417929
 30
0.0
 10
16.5288251256
 20
12.5672532059
 30
0.0
 10
16.5342626967
 20
12.5461825607
 30
0.0
 10
16.5386374088
 20
12.5252279077
 30
0.0
 10
16.5419444278
 20
12.504411084
 30
0.0
 10
16.544180014
 20
12.4837538344
 30
0.0
 10
16.5453415516
 20
12.4632777944
 30
0.0
 10
16.5454275561
 20
12.4430044768
 30
0.0
 10
16.5444376803
 20
12.4229552246
 30
0.0
 10
16.5423727614
 20
12.4031512778
 30
0.0
 10
16.539234726
 20
12.383613401
 30
0.0
 10
16.5350270024
 20
12.3643631114
 30
0.0
 10
16.5315097946
 20
12.3517285156
 30
0.0
 10
16.5295769816
 20
12.3454739208
 30
0.0
  0
SPLINE
  5
341
100
AcDbEntity
  8
02___PRT_ALL_AXES
100
AcDbSpline
 62
7
  6
CONTINUOUS
 70
0
 71
3
 72
21
 73
17
 74
0
 42
0.0000001
 43
0.0000001
 44
0.0000000001
 40
0.0
 40
0.0
 40
0.0
 40
0.0
 40
0.1373841559
 40
0.2708108818
 40
0.3360600114
 40
0.400326902
 40
0.4636371612
 40
0.5260277208
 40
0.587546719
 40
0.6482531183
 40
0.7082164512
 40
0.7675164558
 40
0.826242447
 40
0.8844928225
 40
0.9423741109
 40
1.0
 40
1.0
 40
1.0
 40
1.0
 10
15.1961750223
 20
12.6853893269
 30
0.0
 10
15.1991981536
 20
12.6853893269
 30
0.0
 10
15.2051633866
 20
12.6850546343
 30
0.0
 10
15.2124634741
 20
12.6837545316
 30
0.0
 10
15.2180401059
 20
12.6821988718
 30
0.0
 10
15.2220473278
 20
12.6807941386
 30
0.0
 10
15.2258939199
 20
12.6791495829
 30
0.0
 10
15.2295651278
 20
12.6772728881
 30
0.0
 10
15.2330466275
 20
12.6751727559
 30
0.0
 10
15.2363248064
 20
12.6728588065
 30
0.0
 10
15.2393867389
 20
12.6703415192
 30
0.0
 10
15.2422202483
 20
12.6676321598
 30
0.0
 10
15.2448139221
 20
12.6647427472
 30
0.0
 10
15.2471572245
 20
12.6616858756
 30
0.0
 10
15.249240299
 20
12.6584751067
 30
0.0
 10
15.2504518616
 20
12.6562371001
 30
0.0
 10
15.2510104902
 20
12.6550987254
 30
0.0
  0
SPLINE
  5
342
100
AcDbEntity
  8
LAYER_FEATURE
100
AcDbSpline
 62
7
  6
CONTINUOUS
 70
0
 71
3
 72
22
 73
18
 74
0
 42
0.0000001
 43
0.0000001
 44
0.0000000001
 40
0.0
 40
0.0
 40
0.0
 40
0.0
 40
0.1381197631
 40
0.2053664309
 40
0.2714549167
 40
0.336437138
 40
0.400372579
 40
0.4633278437
 40
0.5253764097
 40
0.5865986125
 40
0.6470813093
 40
0.7069174431
 40
0.7662055021
 40
0.8250488573
 40
0.8835549588
 40
0.9418344159
 40
1.0
 40
1.0
 40
1.0
 40
1.0
 10
16.1377318058
 20
12.366209987
 30
0.0
 10
16.1425189833
 20
12.3564547448
 30
0.0
 10
16.1491153387
 20
12.341682353
 30
0.0
 10
16.1566386873
 20
12.3216901422
 30
0.0
 10
16.1615307396
 20
12.3068692229
 30
0.0
 10
16.1657168076
 20
12.2921043833
 30
0.0
 10
16.1691929395
 20
12.2774093166
 30
0.0
 10
16.1719556146
 20
12.2627981851
 30
0.0
 10
16.1740020218
 20
12.2482849492
 30
0.0
 10
16.1753300245
 20
12.2338835525
 30
0.0
 10
16.175938197
 20
12.2196078521
 30
0.0
 10
16.1758257972
 20
12.2054716239
 30
0.0
 10
16.1749927707
 20
12.1914885338
 30
0.0
 10
16.1734398085
 20
12.1776721796
 30
0.0
 10
16.1711682814
 20
12.1640358502
 30
0.0
 10
16.1681804788
 20
12.1505933191
 30
0.0
 10
16.1657117841
 20
12.1417654406
 30
0.0
 10
16.1643606876
 20
12.1373932747
 30
0.0
  0
SPLINE
  5
343
100
AcDbEntity
  8
LAYER_FEATURE
100
AcDbSpline
 62
7
  6
CONTINUOUS
 70
0
 71
3
 72
48
 73
44
 74
0
 42
0.0000001
 43
0.0000001
 44
0.0000000001
 40
0.0
 40
0.0
 40
0.0
 40
0.0
 40
0.0300549181
 40
0.0610936254
 40
0.0931020776
 40
0.1260304912
 40
0.1597997073
 40
0.1943050173
 40
0.2294208176
 40
0.2650050331
 40
0.3009034236
 40
0.3369538046
 40
0.3729902189
 40
0.4088470545
 40
0.4443631664
 40
0.4793860585
 40
0.5137761161
 40
0.5474109332
 40
0.5801897584
 40
0.6120380488
 40
0.6429119601
 40
0.6728026521
 40
0.7017400765
 40
0.7158778676
 40
0.7298077171
 40
0.7435452032
 40
0.7571084111
 40
0.7705178646
 40
0.7837963102
 40
0.796968425
 40
0.8100605483
 40
0.8231002695
 40
0.8361160128
 40
0.8491365986
 40
0.8621907691
 40
0.875306714
 40
0.8885116478
 40
0.9018314028
 40
0.9152900085
 40
0.928909525
 40
0.9427097527
 40
0.9709062192
 40
1.0
 40
1.0
 40
1.0
 40
1.0
 10
15.1159039825
 20
12.6211565203
 30
0.0
 10
15.116431973
 20
12.622865098
 30
0.0
 10
15.1176919627
 20
12.626282894
 30
0.0
 10
15.1201142066
 20
12.631273725
 30
0.0
 10
15.1230756081
 20
12.6361656361
 30
0.0
 10
15.1265472307
 20
12.6409115402
 30
0.0
 10
15.1304956634
 20
12.6454666756
 30
0.0
 10
15.1348829836
 20
12.6497877527
 30
0.0
 10
15.1396671613
 20
12.653833708
 30
0.0
 10
15.1448024093
 20
12.6575660059
 30
0.0
 10
15.1502396064
 20
12.6609490498
 30
0.0
 10
15.1559267436
 20
12.6639505516
 30
0.0
 10
15.1618094388
 20
12.6665418303
 30
0.0
 10
15.1678314591
 20
12.6686980898
 30
0.0
 10
15.173935263
 20
12.6703986544
 30
0.0
 10
15.180062552
 20
12.6716271863
 30
0.0
 10
15.1861548436
 20
12.6723717995
 30
0.0
 10
15.1921540235
 20
12.6726251505
 30
0.0
 10
15.1980029032
 20
12.6723844641
 30
0.0
 10
15.2036456816
 20
12.6716515868
 30
0.0
 10
15.2090286238
 20
12.6704327753
 30
0.0
 10
15.2140997523
 20
12.6687390651
 30
0.0
 10
15.2180569602
 20
12.666929711
 30
0.0
 10
15.2210108543
 20
12.6652593221
 30
0.0
 10
15.223102031
 20
12.6639095417
 30
0.0
 10
15.2250805905
 20
12.6624565424
 30
0.0
 10
15.2269417725
 20
12.6609037321
 30
0.0
 10
15.2286810255
 20
12.6592548548
 30
0.0
 10
15.2302941173
 20
12.6575138846
 30
0.0
 10
15.2317770626
 20
12.6556849943
 30
0.0
 10
15.2331262583
 20
12.6537726402
 30
0.0
 10
15.2343383831
 20
12.6517814543
 30
0.0
 10
15.2354104502
 20
12.6497162772
 30
0.0
 10
15.2363398787
 20
12.647582164
 30
0.0
 10
15.2371243701
 20
12.6453843062
 30
0.0
 10
15.2377620469
 20
12.6431280774
 30
0.0
 10
15.2382514018
 20
12.6408189838
 30
0.0
 10
15.2385912369
 20
12.6384626381
 30
0.0
 10
15.2387808226
 20
12.6360647953
 30
0.0
 10
15.2388197108
 20
12.63363119
 30
0.0
 10
15.2386695689
 20
12.630323592
 30
0.0
 10
15.2380967816
 20
12.626122424
 30
0.0
 10
15.2372582906
 20
12.6228104587
 30
0.0
 10
15.2367471849
 20
12.6211565203
 30
0.0
  0
SPLINE
  5
344
100
AcDbEntity
  8
LAYER_FEATURE
100
AcDbSpline
 62
7
  6
CONTINUOUS
 70
0
 71
3
 72
20
 73
16
 74
0
 42
0.0000001
 43
0.0000001
 44
0.0000000001
 40
0.0
 40
0.0
 40
0.0
 40
0.0
 40
0.1403771327
 40
0.2088744704
 40
0.2761844576
 40
0.407124203
 40
0.5332713892
 40
0.5946589231
 40
0.6549789746
 40
0.7143101498
 40
0.7727478688
 40
0.8304035148
 40
0.887403116
 40
0.9438855086
 40
1.0
 40
1.0
 40
1.0
 40
1.0
 10
15.2011777089
 20
12.6751949234
 30
0.0
 10
15.2039657948
 20
12.6751949234
 30
0.0
 10
15.2081186604
 20
12.6749995652
 30
0.0
 10
15.2135638813
 20
12.6743209964
 30
0.0
 10
15.2187815052
 20
12.6733894547
 30
0.0
 10
15.2250253461
 20
12.6717432782
 30
0.0
 10
15.2309261925
 20
12.6694178322
 30
0.0
 10
15.2353149476
 20
12.6671813784
 30
0.0
 10
15.2384069392
 20
12.665340624
 30
0.0
 10
15.2413185388
 20
12.6633273163
 30
0.0
 10
15.244040557
 20
12.661147702
 30
0.0
 10
15.2465642079
 20
12.6588086499
 30
0.0
 10
15.2488814003
 20
12.6563174699
 30
0.0
 10
15.2509844951
 20
12.6536822839
 30
0.0
 10
15.2522425712
 20
12.6518301977
 30
0.0
 10
15.2528324877
 20
12.6508846101
 30
0.0
  0
SPLINE
  5
345
100
AcDbEntity
  8
LAYER_FEATURE
100
AcDbSpline
 62
7
  6
CONTINUOUS
 70
0
 71
3
 72
23
 73
19
 74
0
 42
0.0000001
 43
0.0000001
 44
0.0000000001
 40
0.0
 40
0.0
 40
0.0
 40
0.0
 40
0.0549084683
 40
0.1116144743
 40
0.1700919154
 40
0.2302502056
 40
0.2919445326
 40
0.3549836729
 40
0.4191381541
 40
0.4841483935
 40
0.5497326125
 40
0.6155945094
 40
0.6814308885
 40
0.7469391822
 40
0.811825017
 40
0.8439521421
 40
0.8758210882
 40
1.0
 40
1.0
 40
1.0
 40
1.0
 10
15.1058012688
 20
12.6109621168
 30
0.0
 10
15.106461256
 20
12.613097836
 30
0.0
 10
15.1080362481
 20
12.6173700817
 30
0.0
 10
15.1110640397
 20
12.6236086257
 30
0.0
 10
15.1147657999
 20
12.6297235146
 30
0.0
 10
15.1191053349
 20
12.6356558859
 30
0.0
 10
15.1240408663
 20
12.6413498143
 30
0.0
 10
15.1295250166
 20
12.6467511606
 30
0.0
 10
15.1355052433
 20
12.6518085998
 30
0.0
 10
15.1419243013
 20
12.6564739743
 30
0.0
 10
15.1487208015
 20
12.6607027778
 30
0.0
 10
15.1558297109
 20
12.6644546579
 30
0.0
 10
15.1631831138
 20
12.6676937672
 30
0.0
 10
15.1707105194
 20
12.6703890395
 30
0.0
 10
15.1770901793
 20
12.6721664869
 30
0.0
 10
15.1822163722
 20
12.6732918843
 30
0.0
 10
15.1897550081
 20
12.6746527249
 30
0.0
 10
15.1961222806
 20
12.6751949234
 30
0.0
 10
15.2011777089
 20
12.6751949234
 30
0.0
  0
SPLINE
  5
346
100
AcDbEntity
  8
LAYER_FEATURE
100
AcDbSpline
 62
7
  6
CONTINUOUS
 70
0
 71
3
 72
48
 73
44
 74
0
 42
0.0000001
 43
0.0000001
 44
0.0000000001
 40
0.0
 40
0.0
 40
0.0
 40
0.0
 40
0.0290937808
 40
0.0572902473
 40
0.071090475
 40
0.0847099915
 40
0.0981685972
 40
0.1114883522
 40
0.124693286
 40
0.1378092309
 40
0.1508634014
 40
0.1638839872
 40
0.1768997305
 40
0.1899394517
 40
0.203031575
 40
0.2162036898
 40
0.2294821354
 40
0.2428915889
 40
0.2564547968
 40
0.2701922829
 40
0.2841221324
 40
0.2982599235
 40
0.3271973479
 40
0.3570880399
 40
0.3879619512
 40
0.4198102416
 40
0.4525890668
 40
0.4862238839
 40
0.5206139415
 40
0.5556368336
 40
0.5911529455
 40
0.6270097811
 40
0.6630461954
 40
0.6990965764
 40
0.7349949669
 40
0.7705791824
 40
0.8056949827
 40
0.8402002927
 40
0.8739695088
 40
0.9068979224
 40
0.9389063746
 40
0.9699450819
 40
1.0
 40
1.0
 40
1.0
 40
1.0
 10
15.1159039825
 20
12.6211565203
 30
0.0
 10
15.1153928769
 20
12.6195025819
 30
0.0
 10
15.1145543859
 20
12.6161906166
 30
0.0
 10
15.1139815986
 20
12.6119894487
 30
0.0
 10
15.1138314567
 20
12.6086818507
 30
0.0
 10
15.1138703449
 20
12.6062482453
 30
0.0
 10
15.1140599306
 20
12.6038504025
 30
0.0
 10
15.1143997657
 20
12.6014940568
 30
0.0
 10
15.1148891206
 20
12.5991849632
 30
0.0
 10
15.1155267974
 20
12.5969287345
 30
0.0
 10
15.1163112888
 20
12.5947308766
 30
0.0
 10
15.1172407173
 20
12.5925967634
 30
0.0
 10
15.1183127844
 20
12.5905315863
 30
0.0
 10
15.1195249092
 20
12.5885404004
 30
0.0
 10
15.1208741049
 20
12.5866280464
 30
0.0
 10
15.1223570502
 20
12.584799156
 30
0.0
 10
15.123970142
 20
12.5830581858
 30
0.0
 10
15.125709395
 20
12.5814093085
 30
0.0
 10
15.1275705769
 20
12.5798564982
 30
0.0
 10
15.1295491365
 20
12.5784034989
 30
0.0
 10
15.1316403132
 20
12.5770537185
 30
0.0
 10
15.1345942073
 20
12.5753833296
 30
0.0
 10
15.1385514151
 20
12.5735739755
 30
0.0
 10
15.1436225437
 20
12.5718802653
 30
0.0
 10
15.1490054859
 20
12.5706614538
 30
0.0
 10
15.1546482643
 20
12.5699285766
 30
0.0
 10
15.160497144
 20
12.5696878902
 30
0.0
 10
15.1664963239
 20
12.5699412412
 30
0.0
 10
15.1725886155
 20
12.5706858543
 30
0.0
 10
15.1787159044
 20
12.5719143862
 30
0.0
 10
15.1848197084
 20
12.5736149508
 30
0.0
 10
15.1908417286
 20
12.5757712103
 30
0.0
 10
15.1967244239
 20
12.578362489
 30
0.0
 10
15.2024115611
 20
12.5813639909
 30
0.0
 10
15.2078487582
 20
12.5847470348
 30
0.0
 10
15.2129840061
 20
12.5884793327
 30
0.0
 10
15.2177681839
 20
12.5925252879
 30
0.0
 10
15.2221555041
 20
12.5968463651
 30
0.0
 10
15.2261039368
 20
12.6014015004
 30
0.0
 10
15.2295755594
 20
12.6061474045
 30
0.0
 10
15.2325369608
 20
12.6110393156
 30
0.0
 10
15.2349592047
 20
12.6160301466
 30
0.0
 10
15.2362191945
 20
12.6194479427
 30
0.0
 10
15.2367471849
 20
12.6211565203
 30
0.0
  0
SPLINE
  5
347
100
AcDbEntity
  8
02___PRT_ALL_AXES
100
AcDbSpline
 62
7
  6
CONTINUOUS
 70
0
 71
3
 72
48
 73
44
 74
0
 42
0.0000001
 43
0.0000001
 44
0.0000000001
 40
0.0
 40
0.0
 40
0.0
 40
0.0
 40
0.0287080424
 40
0.059080152
 40
0.0910534785
 40
0.1245382796
 40
0.1594223284
 40
0.1955739279
 40
0.2328447293
 40
0.2710722057
 40
0.3100817111
 40
0.3496883662
 40
0.3896987485
 40
0.4299123019
 40
0.4701229896
 40
0.5101209409
 40
0.5496941298
 40
0.5886301955
 40
0.6267187581
 40
0.6637538058
 40
0.6995364721
 40
0.7338780726
 40
0.7666034164
 40
0.797554529
 40
0.8123219378
 40
0.8265965521
 40
0.8403654456
 40
0.853617706
 40
0.8663445995
 40
0.8785399741
 40
0.8902003985
 40
0.9013257509
 40
0.9119193947
 40
0.9219890434
 40
0.9315470508
 40
0.9406115449
 40
0.9492068921
 40
0.9573650148
 40
0.9725237878
 40
0.9796474425
 40
0.9865497333
 40
0.9933066258
 40
1.0
 40
1.0
 40
1.0
 40
1.0
 10
16.0011115503
 20
12.2773023827
 30
0.0
 10
16.0017754023
 20
12.2759495946
 30
0.0
 10
16.0030357536
 20
12.273112802
 30
0.0
 10
16.0046863926
 20
12.2686244351
 30
0.0
 10
16.0061435354
 20
12.2638071772
 30
0.0
 10
16.0074009538
 20
12.258690224
 30
0.0
 10
16.0084547102
 20
12.2533041195
 30
0.0
 10
16.0093028301
 20
12.2476810361
 30
0.0
 10
16.0099452995
 20
12.2418543757
 30
0.0
 10
16.0103839079
 20
12.2358585837
 30
0.0
 10
16.0106221005
 20
12.2297289287
 30
0.0
 10
16.0106648
 20
12.2235013248
 30
0.0
 10
16.0105182241
 20
12.2172121754
 30
0.0
 10
16.0101896968
 20
12.2108982279
 30
0.0
 10
16.0096874634
 20
12.2045964298
 30
0.0
 10
16.0090205068
 20
12.1983437738
 30
0.0
 10
16.0081983723
 20
12.1921771379
 30
0.0
 10
16.0072309971
 20
12.1861330978
 30
0.0
 10
16.0061285489
 20
12.1802477126
 30
0.0
 10
16.0049012727
 20
12.1745562702
 30
0.0
 10
16.003559344
 20
12.1690930305
 30
0.0
 10
16.0021127413
 20
12.1638908953
 30
0.0
 10
16.0005711102
 20
12.1589812587
 30
0.0
 10
15.9991942302
 20
12.1550994988
 30
0.0
 10
15.9980480252
 20
12.1521662105
 30
0.0
 10
15.9971834673
 20
12.1500917952
 30
0.0
 10
15.9963015481
 20
12.1481114378
 30
0.0
 10
15.9954032242
 20
12.1462280604
 30
0.0
 10
15.9944894235
 20
12.1444444291
 30
0.0
 10
15.9935610429
 20
12.1427631418
 30
0.0
 10
15.9926189216
 20
12.1411866325
 30
0.0
 10
15.9916638826
 20
12.1397171592
 30
0.0
 10
15.9906966713
 20
12.1383568217
 30
0.0
 10
15.9897180355
 20
12.1371075396
 30
0.0
 10
15.9887285989
 20
12.1359710782
 30
0.0
 10
15.9877290881
 20
12.1349490742
 30
0.0
 10
15.9867197764
 20
12.1340428687
 30
0.0
 10
15.985395049
 20
12.1330163694
 30
0.0
 10
15.9840165516
 20
12.1321882845
 30
0.0
 10
15.9825981032
 20
12.1316034802
 30
0.0
 10
15.9815492045
 20
12.1312956432
 30
0.0
 10
15.9804948032
 20
12.13111068
 30
0.0
 10
15.9797881114
 20
12.1310695753
 30
0.0
 10
15.9794367737
 20
12.1310695762
 30
0.0
  0
SPLINE
  5
348
100
AcDbEntity
  8
LAYER_FEATURE
100
AcDbSpline
 62
7
  6
CONTINUOUS
 70
0
 71
3
 72
77
 73
73
 74
0
 42
0.0000001
 43
0.0000001
 44
0.0000000001
 40
0.0
 40
0.0
 40
0.0
 40
0.0
 40
0.0053541179
 40
0.0107129251
 40
0.0160810907
 40
0.0214632432
 40
0.0268639518
 40
0.0322877068
 40
0.0377389028
 40
0.0432218216
 40
0.0487406176
 40
0.054299304
 40
0.0655501203
 40
0.0770047201
 40
0.0886891122
 40
0.1006262813
 40
0.1128361131
 40
0.1190492003
 40
0.1253364889
 40
0.1381389509
 40
0.1512553814
 40
0.1646937396
 40
0.178459304
 40
0.1925548268
 40
0.2069806933
 40
0.2217350801
 40
0.2368141099
 40
0.2522120008
 40
0.2679212083
 40
0.2839325604
 40
0.3002353859
 40
0.3168176342
 40
0.3336659906
 40
0.3507659831
 40
0.3681020858
 40
0.385657816
 40
0.4034158274
 40
0.4213579995
 40
0.4394655236
 40
0.4577189856
 40
0.4760984473
 40
0.4945835243
 40
0.5131534635
 40
0.5317872184
 40
0.5504635237
 40
0.569160969
 40
0.5878580722
 40
0.6065333523
 40
0.6251654024
 40
0.643732963
 40
0.6622149958
 40
0.6805907583
 40
0.6988398791
 40
0.7169424354
 40
0.7348790312
 40
0.7526308784
 40
0.7701798798
 40
0.7875087151
 40
0.8046009307
 40
0.8214410327
 40
0.8380145844
 40
0.8543083095
 40
0.8703101997
 40
0.8860096294
 40
0.9013974766
 40
0.9164662508
 40
0.9312102284
 40
0.9456255948
 40
0.9597105962
 40
0.9734656859
 40
0.9868937055
 40
1.0
 40
1.0
 40
1.0
 40
1.0
 10
14.6834583833
 20
12.5950266992
 30
0.0
 10
14.6843614077
 20
12.5979488979
 30
0.0
 10
14.6862740676
 20
12.6037637557
 30
0.0
 10
14.6894581057
 20
12.6123826597
 30
0.0
 10
14.6929564409
 20
12.6208962899
 30
0.0
 10
14.6967674895
 20
12.6293008399
 30
0.0
 10
14.7008896322
 20
12.6375927273
 30
0.0
 10
14.7053210633
 20
12.6457683827
 30
0.0
 10
14.7100598816
 20
12.6538242981
 30
0.0
 10
14.7151040027
 20
12.6617569988
 30
0.0
 10
14.7204513347
 20
12.6695631689
 30
0.0
 10
14.7280118087
 20
12.6798384795
 30
0.0
 10
14.7382277663
 20
12.6923578025
 30
0.0
 10
14.7516094594
 20
12.706757883
 30
0.0
 10
14.7661404339
 20
12.720572463
 30
0.0
 10
14.7817946517
 20
12.7337775944
 30
0.0
 10
14.7956725953
 20
12.7441950654
 30
0.0
 10
14.80729626
 20
12.7522065137
 30
0.0
 10
14.8194119204
 20
12.7600919451
 30
0.0
 10
14.835218716
 20
12.769522774
 30
0.0
 10
14.8550777749
 20
12.7800809718
 30
0.0
 10
14.8759075406
 20
12.7899306565
 30
0.0
 10
14.8976720935
 20
12.7990551256
 30
0.0
 10
14.9203344048
 20
12.8074391523
 30
0.0
 10
14.9438558157
 20
12.8150686501
 30
0.0
 10
14.9681962507
 20
12.8219308007
 30
0.0
 10
14.9933142335
 20
12.8280140521
 30
0.0
 10
15.0191669644
 20
12.8333081517
 30
0.0
 10
15.045710385
 20
12.8378041654
 30
0.0
 10
15.072899252
 20
12.841494499
 30
0.0
 10
15.1006872121
 20
12.8443729144
 30
0.0
 10
15.1290268803
 20
12.8464345447
 30
0.0
 10
15.1578699204
 20
12.8476759047
 30
0.0
 10
15.1871671278
 20
12.8480949006
 30
0.0
 10
15.2168685134
 20
12.8476908348
 30
0.0
 10
15.2469233901
 20
12.8464644098
 30
0.0
 10
15.2772804594
 20
12.8444177279
 30
0.0
 10
15.3078879002
 20
12.8415542893
 30
0.0
 10
15.3386934576
 20
12.8378789869
 30
0.0
 10
15.3696445336
 20
12.8333980985
 30
0.0
 10
15.4006882766
 20
12.8281192773
 30
0.0
 10
15.4317716735
 20
12.8220515386
 30
0.0
 10
15.4628416403
 20
12.8152052452
 30
0.0
 10
15.4938451133
 20
12.8075920898
 30
0.0
 10
15.524729141
 20
12.799225075
 30
0.0
 10
15.5554409746
 20
12.7901184913
 30
0.0
 10
15.5859281588
 20
12.7802878925
 30
0.0
 10
15.6161386224
 20
12.769750069
 30
0.0
 10
15.6460207668
 20
12.7585230192
 30
0.0
 10
15.6755235558
 20
12.7466259181
 30
0.0
 10
15.7045966025
 20
12.7340790843
 30
0.0
 10
15.7331902558
 20
12.7209039449
 30
0.0
 10
15.7612556862
 20
12.7071229982
 30
0.0
 10
15.788744969
 20
12.6927597751
 30
0.0
 10
15.8156111669
 20
12.6778387972
 30
0.0
 10
15.8418084102
 20
12.662385535
 30
0.0
 10
15.8672919752
 20
12.6464263626
 30
0.0
 10
15.8920183611
 20
12.6299885117
 30
0.0
 10
15.9159453636
 20
12.6131000237
 30
0.0
 10
15.939032147
 20
12.5957897003
 30
0.0
 10
15.9612393132
 20
12.5780870519
 30
0.0
 10
15.9825289682
 20
12.560022246
 30
0.0
 10
16.0028647848
 20
12.5416260527
 30
0.0
 10
16.0222120631
 20
12.52292979
 30
0.0
 10
16.0405377862
 20
12.5039652686
 30
0.0
 10
16.057810674
 20
12.4847647327
 30
0.0
 10
16.0740012278
 20
12.46536081
 30
0.0
 10
16.0890817878
 20
12.4457864304
 30
0.0
 10
16.103026525
 20
12.4260748558
 30
0.0
 10
16.1158116389
 20
12.4062593124
 30
0.0
 10
16.1274148249
 20
12.3863740558
 30
0.0
 10
16.1344334696
 20
12.3729312893
 30
0.0
 10
16.1377318058
 20
12.366209987
 30
0.0
  0
ENDSEC
  0
SECTION
  2
OBJECTS
  0
DICTIONARY
  5
C
100
AcDbDictionary
280
0
281
1
  3
ACAD_GROUP
350
D
  3
ACAD_MLINESTYLE
350
17
  3
ACAD_LAYOUT
350
1A
  3
ACAD_PLOTSETTINGS
350
19
  3
ACAD_PLOTSTYLENAME
350
E
  0
DICTIONARY
  5
D
102
{ACAD_REACTORS
330
C
102
}
100
AcDbDictionary
280
0
281
1
  0
ACDBDICTIONARYWDFLT
  5
E
102
{ACAD_REACTORS
330
C
102
}
100
AcDbDictionary
281
1
  3
Normal
350
F
100
AcDbDictionaryWithDefault
340
F
  0
DICTIONARY
  5
17
102
{ACAD_REACTORS
330
C
102
}
100
AcDbDictionary
280
0
281
1
  3
Standard
350
18
  0
DICTIONARY
  5
19
102
{ACAD_REACTORS
330
C
102
}
100
AcDbDictionary
281
1
  0
DICTIONARY
  5
1A
102
{ACAD_REACTORS
330
C
102
}
100
AcDbDictionary
281
1
  3
Model
350
349
  3
Layout1
350
34A
  0
ACDBPLACEHOLDER
  5
F
102
{ACAD_REACTORS
330
E
102
}
  0
MLINESTYLE
  5
18
102
{ACAD_REACTORS
330
17
102
}
100
AcDbMlineStyle
  2
STANDARD
 70
0
  3

 62
256
 51
90.0
 52
90.0
 71
2
 49
0.5
 62
256
  6
BYLAYER
 49
-0.5
 62
256
  6
BYLAYER
  0
LAYOUT
  5
349
102
{ACAD_REACTORS
330
1A
102
}
100
AcDbPlotSettings
  1

  2
none_device
  4
ANSI_C_(22.00_x_17.00_Inches)
  6

 40
0.0
 41
0.0
 42
0.0
 43
0.0
 44
558.8
 45
431.8
 46
0.0
 47
0.0
 48
0.0
 49
0.0
140
0.0
141
0.0
142
1.0
143
1.0
 70
1024
 72
0
 73
0
 74
0
  7

 75
0
147
1.0
148
0.0
149
0.0
100
AcDbLayout
  1
Model
 70
0
 71
0
 10
0.0
 20
0.0
 11
22.0
 21
17.0
 12
0.0
 22
0.0
 32
0.0
 14
0.0
 24
0.0
 34
0.0
 15
0.0
 25
0.0
 35
0.0
146
0.0
 13
0.0
 23
0.0
 33
0.0
 16
1.0
 26
0.0
 36
0.0
 17
0.0
 27
1.0
 37
0.0
 76
0
330
222
345
0
346
0
  0
LAYOUT
  5
34A
102
{ACAD_REACTORS
330
1A
102
}
100
AcDbPlotSettings
  1

  2
none_device
  4
ANSI_C_(22.00_x_17.00_Inches)
  6

 40
0.0
 41
0.0
 42
0.0
 43
0.0
 44
558.8
 45
431.8
 46
0.0
 47
0.0
 48
0.0
 49
0.0
140
0.0
141
0.0
142
1.0
143
1.0
 70
0
 72
0
 73
0
 74
0
  7

 75
0
147
1.0
148
0.0
149
0.0
100
AcDbLayout
  1
Layout1
 70
0
 71
1
 10
0.0
 20
0.0
 11
22.0
 21
17.0
 12
0.0
 22
0.0
 32
0.0
 14
0.0
 24
0.0
 34
0.0
 15
0.0
 25
0.0
 35
0.0
146
0.0
 13
0.0
 23
0.0
 33
0.0
 16
1.0
 26
0.0
 36
0.0
 17
0.0
 27
1.0
 37
0.0
 76
0
330
223
345
0
346
0
  0
ENDSEC
  0
EOF