999
DXF file: _cgs_temp_output.dxf
999
Pro/ENGINEER 2016360 by Parametric Technology Corporation
  0
SECTION
  2
HEADER
  9
$ACADVER
  1
AC1021
  9
$DWGCODEPAGE
  3
ANSI_1252
  9
$EXTMAX
 10
22.0
 20
17.0
 30
0.0
  9
$EXTMIN
 10
0.0
 20
0.0
 30
0.0
  9
$LIMMIN
 10
0.0
 20
0.0
  9
$LIMMAX
 10
22.0
 20
17.0
  9
$VIEWCTR
 10
11.0
 20
8.5
  9
$VIEWSIZE
 40
17.0
  9
$CLAYER
  8
0
  9
$LTSCALE
 40
1.21
  9
$CELTYPE
  6
BYLAYER
  9
$DIMSCALE
 40
1.0
  9
$DIMASZ
 40
0.1875
  9
$DIMEXO
 40
0.0625
  9
$DIMDLI
 40
0.836
  9
$DIMEXE
 40
0.125
  9
$DIMCEN
 40
0.198
  9
$DIMLFAC
 40
1.0
  9
$DIMBLK
  1
_CLOSED
  9
$DIMALT
 70
0
  9
$DIMALTF
 40
25.4
  9
$DIMTXT
 40
0.15625
  9
$DIMTOL
 70
0
  9
$DIMLIM
 70
0
  9
$DIMTFAC
 40
1.0
  9
$DIMGAP
 40
0.09
  9
$DIMDSEP
 70
46
  9
$AUNITS
 70
0
  9
$PDMODE
 70
3
  9
$PDSIZE
 40
0.3125
  9
$HANDSEED
  5
304
  9
$TILEMODE
 70
1
  9
$MEASUREMENT
 70
0
  9
$INSUNITS
 70
1
  0
ENDSEC
  0
SECTION
  2
CLASSES
  0
CLASS
  1
ACDBDICTIONARYWDFLT
  2
AcDbDictionaryWithDefault
  3
AutoCAD 2000
 90
0
 91
1
280
0
281
0
  0
CLASS
  1
ACDBPLACEHOLDER
  2
AcDbPlaceHolder
  3
AutoCAD 2000
 90
0
 91
1
280
0
281
0
  0
CLASS
  1
LAYOUT
  2
AcDbLayout
  3
AutoCAD 2000
 90
0
 91
0
280
0
281
0
  0
ENDSEC
  0
SECTION
  2
TABLES
  0
TABLE
  2
VPORT
  5
8
100
AcDbSymbolTable
 70
2
  0
VPORT
  5
1F4
100
AcDbSymbolTableRecord
100
AcDbViewportTableRecord
  2
*ACTIVE
 70
0
 10
0.0
 20
0.0
 11
1.0
 21
1.0
 12
11.0
 22
8.5
 13
0.0
 23
0.0
 14
1.0
 24
1.0
 15
0.0
 25
0.0
 16
0.0
 26
0.0
 36
1.0
 17
0.0
 27
0.0
 37
0.0
 40
17.0
 41
1.2941176471
 42
50.0
 43
0.0
 44
0.0
 50
0.0
 51
0.0
 71
0
 72
100
 73
1
 74
1
 75
0
 76
0
 77
0
 78
0
  0
ENDTAB
  0
TABLE
  2
LTYPE
  5
5
100
AcDbSymbolTable
 70
6
  0
LTYPE
  5
14
100
AcDbSymbolTableRecord
100
AcDbLinetypeTableRecord
  2
BYBLOCK
 70
0
  3

 72
65
 73
0
 40
0.0
  0
LTYPE
  5
15
100
AcDbSymbolTableRecord
100
AcDbLinetypeTableRecord
  2
BYLAYER
 70
0
  3

 72
65
 73
0
 40
0.0
  0
LTYPE
  5
16
100
AcDbSymbolTableRecord
100
AcDbLinetypeTableRecord
  2
CONTINUOUS
 70
64
  3
Solid line
 72
65
 73
0
 40
0.0
  0
LTYPE
  5
1F5
100
AcDbSymbolTableRecord
100
AcDbLinetypeTableRecord
  2
CENTER
 70
64
  3
____ _ ____ _ ____ _ ____ _ ____ _ ____ _ ____
 72
65
 73
4
 40
0.6
 49
0.375
 74
0
 49
-0.075
 74
0
 49
0.075
 74
0
 49
-0.075
 74
0
  0
LTYPE
  5
1F6
100
AcDbSymbolTableRecord
100
AcDbLinetypeTableRecord
  2
HIDDEN
 70
64
  3
- - - - - - - - - - - - - - - - - - - -
 72
65
 73
2
 40
0.2
 49
0.1
 74
0
 49
-0.1
 74
0
  0
LTYPE
  5
1F7
100
AcDbSymbolTableRecord
100
AcDbLinetypeTableRecord
  2
PHANTOM
 70
64
  3
_____ _ _ _____ _ _ _____ _ _ _____
 72
65
 73
6
 40
0.8
 49
0.45
 74
0
 49
-0.05
 74
0
 49
0.1
 74
0
 49
-0.05
 74
0
 49
0.1
 74
0
 49
-0.05
 74
0
  0
LTYPE
  5
1F8
100
AcDbSymbolTableRecord
100
AcDbLinetypeTableRecord
  2
DOT
 70
64
  3
. . . . . . . . . . . . . . . . . . . .
 72
65
 73
2
 40
0.2
 49
0.1
 74
0
 49
-0.1
 74
0
  0
LTYPE
  5
1F9
100
AcDbSymbolTableRecord
100
AcDbLinetypeTableRecord
  2
DASHED
 70
64
  3
- - - - - - - - - - - - - - - - - - - -
 72
65
 73
2
 40
0.2
 49
0.1
 74
0
 49
-0.1
 74
0
  0
ENDTAB
  0
TABLE
  2
LAYER
  5
2
100
AcDbSymbolTable
 70
36
  0
LAYER
  5
10
100
AcDbSymbolTableRecord
100
AcDbLayerTableRecord
  2
0
 70
0
 62
7
  6
CONTINUOUS
370
-3
390
F
  0
LAYER
  5
1FA
100
AcDbSymbolTableRecord
100
AcDbLayerTableRecord
  2
DEFAULT_1
 70
0
 62
7
  6
CENTER
370
-3
390
F
  0
LAYER
  5
1FB
100
AcDbSymbolTableRecord
100
AcDbLayerTableRecord
  2
DEFAULT_2
 70
0
 62
8
  6
HIDDEN
370
-3
390
F
  0
LAYER
  5
1FC
100
AcDbSymbolTableRecord
100
AcDbLayerTableRecord
  2
DEFAULT_3
 70
0
 62
7
  6
PHANTOM
370
-3
390
F
  0
LAYER
  5
1FD
100
AcDbSymbolTableRecord
100
AcDbLayerTableRecord
  2
01_ALL_DTM_PLN
 70
0
 62
7
  6
CONTINUOUS
370
-3
390
F
  0
LAYER
  5
1FE
100
AcDbSymbolTableRecord
100
AcDbLayerTableRecord
  2
01__ASM_ALL_DTM_PLN
 70
0
 62
7
  6
CONTINUOUS
370
-3
390
F
  0
LAYER
  5
1FF
100
AcDbSymbolTableRecord
100
AcDbLayerTableRecord
  2
01__ASM_DEF_DTM_PLN
 70
0
 62
7
  6
CONTINUOUS
370
-3
390
F
  0
LAYER
  5
200
100
AcDbSymbolTableRecord
100
AcDbLayerTableRecord
  2
01___PRT_ALL_DTM_PLN
 70
0
 62
7
  6
CONTINUOUS
370
-3
390
F
  0
LAYER
  5
201
100
AcDbSymbolTableRecord
100
AcDbLayerTableRecord
  2
01___PRT_DEF_DTM_PLN
 70
0
 62
7
  6
CONTINUOUS
370
-3
390
F
  0
LAYER
  5
202
100
AcDbSymbolTableRecord
100
AcDbLayerTableRecord
  2
02_ALL_AXES
 70
0
 62
7
  6
CONTINUOUS
370
-3
390
F
  0
LAYER
  5
203
100
AcDbSymbolTableRecord
100
AcDbLayerTableRecord
  2
02__ASM_ALL_AXES
 70
0
 62
7
  6
CONTINUOUS
370
-3
390
F
  0
LAYER
  5
204
100
AcDbSymbolTableRecord
100
AcDbLayerTableRecord
  2
02___PRT_ALL_AXES
 70
0
 62
7
  6
CONTINUOUS
370
-3
390
F
  0
LAYER
  5
205
100
AcDbSymbolTableRecord
100
AcDbLayerTableRecord
  2
03_ALL_CURVES
 70
0
 62
7
  6
CONTINUOUS
370
-3
390
F
  0
LAYER
  5
206
100
AcDbSymbolTableRecord
100
AcDbLayerTableRecord
  2
03__ASM_ALL_CURVES
 70
0
 62
7
  6
CONTINUOUS
370
-3
390
F
  0
LAYER
  5
207
100
AcDbSymbolTableRecord
100
AcDbLayerTableRecord
  2
03___PRT_ALL_CURVES
 70
0
 62
7
  6
CONTINUOUS
370
-3
390
F
  0
LAYER
  5
208
100
AcDbSymbolTableRecord
100
AcDbLayerTableRecord
  2
04_ALL_DTM_PNT
 70
0
 62
7
  6
CONTINUOUS
370
-3
390
F
  0
LAYER
  5
209
100
AcDbSymbolTableRecord
100
AcDbLayerTableRecord
  2
04__ASM_ALL_DTM_PNT
 70
0
 62
7
  6
CONTINUOUS
370
-3
390
F
  0
LAYER
  5
20A
100
AcDbSymbolTableRecord
100
AcDbLayerTableRecord
  2
04___PRT_ALL_DTM_PNT
 70
0
 62
7
  6
CONTINUOUS
370
-3
390
F
  0
LAYER
  5
20B
100
AcDbSymbolTableRecord
100
AcDbLayerTableRecord
  2
05_ALL_DTM_CSYS
 70
0
 62
7
  6
CONTINUOUS
370
-3
390
F
  0
LAYER
  5
20C
100
AcDbSymbolTableRecord
100
AcDbLayerTableRecord
  2
05__ASM_ALL_DTM_CSYS
 70
0
 62
7
  6
CONTINUOUS
370
-3
390
F
  0
LAYER
  5
20D
100
AcDbSymbolTableRecord
100
AcDbLayerTableRecord
  2
05__ASM_DEF_DTM_CSYS
 70
0
 62
7
  6
CONTINUOUS
370
-3
390
F
  0
LAYER
  5
20E
100
AcDbSymbolTableRecord
100
AcDbLayerTableRecord
  2
05___PRT_ALL_DTM_CSYS
 70
0
 62
7
  6
CONTINUOUS
370
-3
390
F
  0
LAYER
  5
20F
100
AcDbSymbolTableRecord
100
AcDbLayerTableRecord
  2
05___PRT_DEF_DTM_CSYS
 70
0
 62
7
  6
CONTINUOUS
370
-3
390
F
  0
LAYER
  5
210
100
AcDbSymbolTableRecord
100
AcDbLayerTableRecord
  2
06_ALL_SURFS
 70
0
 62
7
  6
CONTINUOUS
370
-3
390
F
  0
LAYER
  5
211
100
AcDbSymbolTableRecord
100
AcDbLayerTableRecord
  2
06__ASM_ALL_SURFS
 70
0
 62
7
  6
CONTINUOUS
370
-3
390
F
  0
LAYER
  5
212
100
AcDbSymbolTableRecord
100
AcDbLayerTableRecord
  2
06___PRT_ALL_SURFS
 70
0
 62
7
  6
CONTINUOUS
370
-3
390
F
  0
LAYER
  5
213
100
AcDbSymbolTableRecord
100
AcDbLayerTableRecord
  2
07__ASM_ALL_SKELETONS
 70
0
 62
7
  6
CONTINUOUS
370
-3
390
F
  0
LAYER
  5
214
100
AcDbSymbolTableRecord
100
AcDbLayerTableRecord
  2
ANNOTATIONS
 70
0
 62
7
  6
CONTINUOUS
370
-3
390
F
  0
LAYER
  5
215
100
AcDbSymbolTableRecord
100
AcDbLayerTableRecord
  2
ASM_DATUMS
 70
0
 62
7
  6
CONTINUOUS
370
-3
390
F
  0
LAYER
  5
216
100
AcDbSymbolTableRecord
100
AcDbLayerTableRecord
  2
ASM_DEF_DATUMS
 70
0
 62
7
  6
CONTINUOUS
370
-3
390
F
  0
LAYER
  5
217
100
AcDbSymbolTableRecord
100
AcDbLayerTableRecord
  2
AXIS
 70
0
 62
7
  6
CONTINUOUS
370
-3
390
F
  0
LAYER
  5
218
100
AcDbSymbolTableRecord
100
AcDbLayerTableRecord
  2
CSYS
 70
0
 62
7
  6
CONTINUOUS
370
-3
390
F
  0
LAYER
  5
219
100
AcDbSymbolTableRecord
100
AcDbLayerTableRecord
  2
CURVES
 70
0
 62
7
  6
CONTINUOUS
370
-3
390
F
  0
LAYER
  5
21A
100
AcDbSymbolTableRecord
100
AcDbLayerTableRecord
  2
DATUMS
 70
0
 62
7
  6
CONTINUOUS
370
-3
390
F
  0
LAYER
  5
21B
100
AcDbSymbolTableRecord
100
AcDbLayerTableRecord
  2
DEF_CSYS
 70
0
 62
7
  6
CONTINUOUS
370
-3
390
F
  0
LAYER
  5
21C
100
AcDbSymbolTableRecord
100
AcDbLayerTableRecord
  2
DEF_DATUMS
 70
0
 62
7
  6
CONTINUOUS
370
-3
390
F
  0
LAYER
  5
21D
100
AcDbSymbolTableRecord
100
AcDbLayerTableRecord
  2
GTOL
 70
0
 62
7
  6
CONTINUOUS
370
-3
390
F
  0
LAYER
  5
21E
100
AcDbSymbolTableRecord
100
AcDbLayerTableRecord
  2
POINTS
 70
0
 62
7
  6
CONTINUOUS
370
-3
390
F
  0
LAYER
  5
21F
100
AcDbSymbolTableRecord
100
AcDbLayerTableRecord
  2
SKELETONS
 70
0
 62
7
  6
CONTINUOUS
370
-3
390
F
  0
LAYER
  5
220
100
AcDbSymbolTableRecord
100
AcDbLayerTableRecord
  2
SURFACES
 70
0
 62
7
  6
CONTINUOUS
370
-3
390
F
  0
LAYER
  5
221
100
AcDbSymbolTableRecord
100
AcDbLayerTableRecord
  2
XSEC_DATUMS
 70
0
 62
7
  6
CONTINUOUS
370
-3
390
F
  0
ENDTAB
  0
TABLE
  2
STYLE
  5
3
100
AcDbSymbolTable
 70
1
  0
STYLE
  5
11
100
AcDbSymbolTableRecord
100
AcDbTextStyleTableRecord
  2
STANDARD
 70
0
 40
0.0
 41
0.8
 50
0.0
 71
0
 42
0.2
  3
txt
  4

  0
STYLE
  5
222
100
AcDbSymbolTableRecord
100
AcDbTextStyleTableRecord
  2
TEXTSTYLE_1
 70
0
 40
0.0
 41
0.8
 50
0.0
 71
0
 42
0.2
  3
gdt
  4

  0
ENDTAB
  0
TABLE
  2
VIEW
  5
6
100
AcDbSymbolTable
 70
0
  0
ENDTAB
  0
TABLE
  2
UCS
  5
7
100
AcDbSymbolTable
 70
0
  0
ENDTAB
  0
TABLE
  2
APPID
  5
9
100
AcDbSymbolTable
 70
1
  0
APPID
  5
223
100
AcDbSymbolTableRecord
100
AcDbRegAppTableRecord
  2
ACAD
 70
0
  0
ENDTAB
  0
TABLE
  2
BLOCK_RECORD
  5
1
100
AcDbSymbolTable
 70
0
  0
BLOCK_RECORD
  5
224
100
AcDbSymbolTableRecord
100
AcDbBlockTableRecord
  2
*Model_Space
  0
BLOCK_RECORD
  5
225
100
AcDbSymbolTableRecord
100
AcDbBlockTableRecord
  2
*Paper_Space
  0
ENDTAB
  0
TABLE
  2
DIMSTYLE
  5
A
100
AcDbSymbolTable
 70
1
100
AcDbDimStyleTable
 71
0
  0
DIMSTYLE
105
226
100
AcDbSymbolTableRecord
100
AcDbDimStyleTableRecord
  2
STANDARD
 70
0
  3

  4

 40
1.0
 41
0.1875
 42
0.0625
 43
0.38
 44
0.125
 45
0.0
 46
0.0
 47
0.0001
 48
0.0001
140
0.15625
141
0.09
142
0.0
143
25.4
144
1.0
145
0.0
146
1.0
147
0.09
 71
0.0
 72
0.0
 73
1
 74
1
 75
0
 76
0
 77
0
 78
4
 79
1
170
0
171
3
172
0
173
0
174
0
175
0
176
0
177
0
178
0
270
2
179
4
271
4
272
4
273
2
274
2
275
0
280
0
281
0
282
0
283
1
284
4
285
0
286
0
287
3
288
0
340
11
278
46
  0
ENDTAB
  0
ENDSEC
  0
SECTION
  2
BLOCKS
  0
BLOCK
  5
20
100
AcDbEntity
  8
0
100
AcDbBlockBegin
  2
*Model_Space
 70
0
 10
0.0
 20
0.0
 30
0.0
  3
*Model_Space
  1

  0
ENDBLK
  5
21
100
AcDbEntity
  8
0
100
AcDbBlockEnd
  0
BLOCK
  5
1C
100
AcDbEntity
  8
0
100
AcDbBlockBegin
  2
*Paper_Space
 70
0
 10
0.0
 20
0.0
 30
0.0
  3
*Paper_Space
  1

  0
ENDBLK
  5
1D
100
AcDbEntity
  8
0
100
AcDbBlockEnd
  0
ENDSEC
  0
SECTION
  2
ENTITIES
  0
MTEXT
  5
227
100
AcDbEntity
  8
0
100
AcDbMText
 62
7
  6
CONTINUOUS
  7
STANDARD
 71
1
 72
1
 10
15.9560215477
 20
0.9479130325
 30
0.0
 11
1.0
 21
0.0
 31
0.0
 44
0.9
  1
SCALE: 1:1.000
 40
0.3
 41
3.36
  0
LINE
  5
228
100
AcDbEntity
  8
0
100
AcDbLine
 62
7
  6
CONTINUOUS
 10
0.0
 20
0.0
 11
0.0
 21
17.0
  0
LINE
  5
229
100
AcDbEntity
  8
0
100
AcDbLine
 62
7
  6
CONTINUOUS
 10
0.0
 20
0.0
 11
22.0
 21
0.0
  0
LINE
  5
22A
100
AcDbEntity
  8
0
100
AcDbLine
 62
7
  6
CONTINUOUS
 10
0.0
 20
17.0
 11
22.0
 21
17.0
  0
LINE
  5
22B
100
AcDbEntity
  8
0
100
AcDbLine
 62
7
  6
CONTINUOUS
 10
22.0
 20
0.0
 11
22.0
 21
17.0
  0
LINE
  5
22C
100
AcDbEntity
  8
02___PRT_ALL_AXES
100
AcDbLine
 62
7
  6
CONTINUOUS
 10
4.9951832123
 20
6.7996198968
 11
4.9091157843
 21
6.7733064433
  0
LINE
  5
22D
100
AcDbEntity
  8
02___PRT_ALL_AXES
100
AcDbLine
 62
7
  6
CONTINUOUS
 10
4.9951832123
 20
4.2406198968
 11
4.9091157843
 21
4.2669333502
  0
LINE
  5
22E
100
AcDbEntity
  8
02___PRT_ALL_AXES
100
AcDbLine
 62
7
  6
CONTINUOUS
 10
4.9091157843
 20
6.7733064433
 11
4.9091157843
 21
4.2669333502
  0
LINE
  5
22F
100
AcDbEntity
  8
02___PRT_ALL_AXES
100
AcDbLine
 62
7
  6
CONTINUOUS
 10
4.9951832123
 20
6.7996198968
 11
4.9951832123
 21
4.2406198968
  0
LINE
  5
230
100
AcDbEntity
  8
02___PRT_ALL_AXES
100
AcDbLine
 62
7
  6
CONTINUOUS
 10
5.0341157843
 20
6.6722771918
 11
5.0341157843
 21
4.3679626017
  0
LINE
  5
231
100
AcDbEntity
  8
0
100
AcDbLine
 62
7
  6
CONTINUOUS
 10
5.0341157843
 20
4.4561525091
 11
6.6459907843
 21
4.4561525091
  0
LINE
  5
232
100
AcDbEntity
  8
0
100
AcDbLine
 62
7
  6
CONTINUOUS
 10
5.0341157843
 20
4.5355096675
 11
6.6459907843
 21
4.5355096675
  0
LINE
  5
233
100
AcDbEntity
  8
0
100
AcDbLine
 62
7
  6
CONTINUOUS
 10
7.3216157843
 20
4.6361198968
 11
6.7736157843
 21
4.6361198968
  0
LINE
  5
234
100
AcDbEntity
  8
0
100
AcDbLine
 62
7
  6
CONTINUOUS
 10
5.0341157843
 20
4.6921695351
 11
6.6459907843
 21
4.6921695351
  0
LINE
  5
235
100
AcDbEntity
  8
AXIS
100
AcDbLine
 62
7
  6
CONTINUOUS
 10
6.7736157843
 20
4.6373073968
 11
6.7709907843
 21
4.6373343923
  0
LINE
  5
236
100
AcDbEntity
  8
02___PRT_ALL_AXES
100
AcDbLine
 62
7
  6
CONTINUOUS
 10
5.0341157843
 20
4.3679626017
 11
4.9951832123
 21
4.2406198968
  0
LINE
  5
237
100
AcDbEntity
  8
02___PRT_ALL_AXES
100
AcDbLine
 62
7
  6
CONTINUOUS
 10
5.0341157843
 20
6.6722771918
 11
4.9951832123
 21
6.7996198968
  0
LINE
  5
238
100
AcDbEntity
  8
0
100
AcDbLine
 62
7
  6
CONTINUOUS
 10
5.0341157843
 20
4.9134460629
 11
6.6459907843
 21
4.9134460629
  0
LINE
  5
239
100
AcDbEntity
  8
0
100
AcDbLine
 62
7
  6
CONTINUOUS
 10
5.0341157843
 20
5.1813408713
 11
6.6459907843
 21
5.1813408713
  0
LINE
  5
23A
100
AcDbEntity
  8
02___PRT_ALL_AXES
100
AcDbLine
 62
7
  6
CONTINUOUS
 10
6.6459907843
 20
6.6722771918
 11
6.6849233563
 21
6.7996198968
  0
LINE
  5
23B
100
AcDbEntity
  8
02___PRT_ALL_AXES
100
AcDbLine
 62
7
  6
CONTINUOUS
 10
6.6459907843
 20
4.3679626017
 11
6.6849233563
 21
4.2406198968
  0
LINE
  5
23C
100
AcDbEntity
  8
0
100
AcDbLine
 62
7
  6
CONTINUOUS
 10
5.0341157843
 20
5.8568321415
 11
6.6459907843
 21
5.8568321415
  0
LINE
  5
23D
100
AcDbEntity
  8
02___PRT_ALL_AXES
100
AcDbLine
 62
7
  6
CONTINUOUS
 10
6.6459907843
 20
4.3679626017
 11
6.6459907843
 21
6.6722771918
  0
LINE
  5
23E
100
AcDbEntity
  8
02___PRT_ALL_AXES
100
AcDbLine
 62
7
  6
CONTINUOUS
 10
6.6849233563
 20
4.2406198968
 11
6.6849233563
 21
6.7996198968
  0
LINE
  5
23F
100
AcDbEntity
  8
0
100
AcDbLine
 62
7
  6
CONTINUOUS
 10
6.6459907843
 20
6.1249735316
 11
5.0341157843
 21
6.1249735316
  0
LINE
  5
240
100
AcDbEntity
  8
02___PRT_ALL_AXES
100
AcDbLine
 62
7
  6
CONTINUOUS
 10
6.7709907843
 20
4.2669333502
 11
6.7709907843
 21
6.7733064433
  0
LINE
  5
241
100
AcDbEntity
  8
AXIS
100
AcDbLine
 62
7
  6
CONTINUOUS
 10
6.7736157843
 20
6.4041198968
 11
6.7736157843
 21
4.6361198968
  0
LINE
  5
242
100
AcDbEntity
  8
0
100
AcDbLine
 62
7
  6
CONTINUOUS
 10
6.6459907843
 20
6.3466634192
 11
5.0341157843
 21
6.3466634192
  0
LINE
  5
243
100
AcDbEntity
  8
AXIS
100
AcDbLine
 62
7
  6
CONTINUOUS
 10
6.7736157843
 20
6.4029323968
 11
6.7709907843
 21
6.4029054012
  0
LINE
  5
244
100
AcDbEntity
  8
0
100
AcDbLine
 62
7
  6
CONTINUOUS
 10
7.3216157843
 20
6.4041198968
 11
6.7736157843
 21
6.4041198968
  0
LINE
  5
245
100
AcDbEntity
  8
0
100
AcDbLine
 62
7
  6
CONTINUOUS
 10
6.6459907843
 20
6.50385057
 11
5.0341157843
 21
6.50385057
  0
LINE
  5
246
100
AcDbEntity
  8
0
100
AcDbLine
 62
7
  6
CONTINUOUS
 10
6.6459907843
 20
6.5839941057
 11
5.0341157843
 21
6.5839941057
  0
LINE
  5
247
100
AcDbEntity
  8
0
100
AcDbLine
 62
7
  6
CONTINUOUS
 10
7.3216157843
 20
4.6361198968
 11
7.3216157843
 21
6.4041198968
  0
LINE
  5
248
100
AcDbEntity
  8
0
100
AcDbLine
 62
7
  6
CONTINUOUS
 10
7.3516157843
 20
4.6661198968
 11
7.3516157843
 21
6.3741198968
  0
LINE
  5
249
100
AcDbEntity
  8
02___PRT_ALL_AXES
100
AcDbLine
 62
7
  6
CONTINUOUS
 10
6.6849233563
 20
4.2406198968
 11
6.7709907843
 21
4.2669333502
  0
LINE
  5
24A
100
AcDbEntity
  8
02___PRT_ALL_AXES
100
AcDbLine
 62
7
  6
CONTINUOUS
 10
6.6849233563
 20
6.7996198968
 11
6.7709907843
 21
6.7733064433
  0
LINE
  5
24B
100
AcDbEntity
  8
0
100
AcDbLine
 62
7
  6
CONTINUOUS
 10
7.3216159916
 20
4.6361196895
 11
7.3516159845
 21
4.6661196966
  0
LINE
  5
24C
100
AcDbEntity
  8
0
100
AcDbLine
 62
7
  6
CONTINUOUS
 10
7.3216159916
 20
6.404120104
 11
7.3516159845
 21
6.3741200969
  0
LINE
  5
24D
100
AcDbEntity
  8
02___PRT_ALL_AXES
100
AcDbLine
 62
7
  6
CONTINUOUS
 10
4.849620592
 20
13.8532343279
 11
4.93568802
 21
13.8795477814
  0
LINE
  5
24E
100
AcDbEntity
  8
02___PRT_ALL_AXES
100
AcDbLine
 62
7
  6
CONTINUOUS
 10
4.849620592
 20
11.3468612348
 11
4.93568802
 21
11.3205477814
  0
LINE
  5
24F
100
AcDbEntity
  8
02___PRT_ALL_AXES
100
AcDbLine
 62
7
  6
CONTINUOUS
 10
4.849620592
 20
11.3468612348
 11
4.849620592
 21
13.8532343279
  0
LINE
  5
250
100
AcDbEntity
  8
02___PRT_ALL_AXES
100
AcDbLine
 62
7
  6
CONTINUOUS
 10
4.93568802
 20
11.3205477814
 11
4.93568802
 21
13.8795477814
  0
LINE
  5
251
100
AcDbEntity
  8
02___PRT_ALL_AXES
100
AcDbLine
 62
7
  6
CONTINUOUS
 10
4.974620592
 20
11.4478904863
 11
4.974620592
 21
13.7522050764
  0
LINE
  5
252
100
AcDbEntity
  8
AXIS
100
AcDbLine
 62
7
  6
CONTINUOUS
 10
6.586495592
 20
11.5275477814
 11
4.974620592
 21
11.5275477814
  0
LINE
  5
253
100
AcDbEntity
  8
0
100
AcDbLine
 62
7
  6
CONTINUOUS
 10
4.974620592
 20
11.5654417757
 11
6.586495592
 21
11.5654417757
  0
LINE
  5
254
100
AcDbEntity
  8
0
100
AcDbLine
 62
7
  6
CONTINUOUS
 10
4.974620592
 20
11.6845684219
 11
6.586495592
 21
11.6845684219
  0
LINE
  5
255
100
AcDbEntity
  8
AXIS
100
AcDbLine
 62
7
  6
CONTINUOUS
 10
7.2621210065
 20
11.7160477814
 11
6.714120592
 21
11.7160477814
  0
LINE
  5
256
100
AcDbEntity
  8
AXIS
100
AcDbLine
 62
7
  6
CONTINUOUS
 10
6.714120592
 20
11.7172352814
 11
6.711495592
 21
11.717262277
  0
LINE
  5
257
100
AcDbEntity
  8
02___PRT_ALL_AXES
100
AcDbLine
 62
7
  6
CONTINUOUS
 10
4.93568802
 20
11.3205477814
 11
4.974620592
 21
11.4478904863
  0
LINE
  5
258
100
AcDbEntity
  8
0
100
AcDbLine
 62
7
  6
CONTINUOUS
 10
4.974620592
 20
11.8753996774
 11
6.586495592
 21
11.8753996774
  0
LINE
  5
259
100
AcDbEntity
  8
02___PRT_ALL_AXES
100
AcDbLine
 62
7
  6
CONTINUOUS
 10
4.93568802
 20
13.8795477814
 11
4.974620592
 21
13.7522050764
  0
LINE
  5
25A
100
AcDbEntity
  8
0
100
AcDbLine
 62
7
  6
CONTINUOUS
 10
4.974620592
 20
12.1224823523
 11
6.586495592
 21
12.1224823523
  0
LINE
  5
25B
100
AcDbEntity
  8
02___PRT_ALL_AXES
100
AcDbLine
 62
7
  6
CONTINUOUS
 10
6.625428164
 20
13.8795477814
 11
6.586495592
 21
13.7522050764
  0
LINE
  5
25C
100
AcDbEntity
  8
02___PRT_ALL_AXES
100
AcDbLine
 62
7
  6
CONTINUOUS
 10
6.625428164
 20
11.3205477814
 11
6.586495592
 21
11.4478904863
  0
LINE
  5
25D
100
AcDbEntity
  8
0
100
AcDbLine
 62
7
  6
CONTINUOUS
 10
6.586495592
 20
13.0762981413
 11
4.974620592
 21
13.0762981413
  0
LINE
  5
25E
100
AcDbEntity
  8
02___PRT_ALL_AXES
100
AcDbLine
 62
7
  6
CONTINUOUS
 10
6.586495592
 20
11.4478904863
 11
6.586495592
 21
13.7522050764
  0
LINE
  5
25F
100
AcDbEntity
  8
02___PRT_ALL_AXES
100
AcDbLine
 62
7
  6
CONTINUOUS
 10
6.625428164
 20
11.3205477814
 11
6.625428164
 21
13.8795477814
  0
LINE
  5
260
100
AcDbEntity
  8
02___PRT_ALL_AXES
100
AcDbLine
 62
7
  6
CONTINUOUS
 10
6.711495592
 20
11.3468612348
 11
6.711495592
 21
13.8532343279
  0
LINE
  5
261
100
AcDbEntity
  8
AXIS
100
AcDbLine
 62
7
  6
CONTINUOUS
 10
6.714120592
 20
11.7160581394
 11
6.714120592
 21
13.4840374234
  0
LINE
  5
262
100
AcDbEntity
  8
0
100
AcDbLine
 62
7
  6
CONTINUOUS
 10
6.586495592
 20
13.3236098257
 11
4.974620592
 21
13.3236098257
  0
LINE
  5
263
100
AcDbEntity
  8
AXIS
100
AcDbLine
 62
7
  6
CONTINUOUS
 10
6.714120592
 20
13.4828602814
 11
6.711495592
 21
13.4828332858
  0
LINE
  5
264
100
AcDbEntity
  8
AXIS
100
AcDbLine
 62
7
  6
CONTINUOUS
 10
7.2621210065
 20
13.4840477814
 11
6.714120592
 21
13.4840477814
  0
LINE
  5
265
100
AcDbEntity
  8
0
100
AcDbLine
 62
7
  6
CONTINUOUS
 10
6.586495592
 20
13.5147580379
 11
4.974620592
 21
13.5147580379
  0
LINE
  5
266
100
AcDbEntity
  8
0
100
AcDbLine
 62
7
  6
CONTINUOUS
 10
6.586495592
 20
13.6342639216
 11
4.974620592
 21
13.6342639216
  0
LINE
  5
267
100
AcDbEntity
  8
AXIS
100
AcDbLine
 62
7
  6
CONTINUOUS
 10
6.586495592
 20
13.6725477814
 11
4.974620592
 21
13.6725477814
  0
LINE
  5
268
100
AcDbEntity
  8
0
100
AcDbLine
 62
7
  6
CONTINUOUS
 10
7.2621205936
 20
11.7160477814
 11
7.2621205936
 21
13.4840477814
  0
LINE
  5
269
100
AcDbEntity
  8
0
100
AcDbLine
 62
7
  6
CONTINUOUS
 10
7.292120592
 20
11.7460576405
 11
7.292120592
 21
13.4540379222
  0
LINE
  5
26A
100
AcDbEntity
  8
02___PRT_ALL_AXES
100
AcDbLine
 62
7
  6
CONTINUOUS
 10
6.711495592
 20
11.3468612348
 11
6.625428164
 21
11.3205477814
  0
LINE
  5
26B
100
AcDbEntity
  8
02___PRT_ALL_AXES
100
AcDbLine
 62
7
  6
CONTINUOUS
 10
6.711495592
 20
13.8532343279
 11
6.625428164
 21
13.8795477814
  0
LINE
  5
26C
100
AcDbEntity
  8
0
100
AcDbLine
 62
7
  6
CONTINUOUS
 10
7.292120592
 20
11.746047381
 11
7.2621210065
 21
11.7160477814
  0
LINE
  5
26D
100
AcDbEntity
  8
0
100
AcDbLine
 62
7
  6
CONTINUOUS
 10
7.292120592
 20
13.4540481818
 11
7.2621210065
 21
13.4840477814
  0
LINE
  5
26E
100
AcDbEntity
  8
02___PRT_ALL_AXES
100
AcDbLine
 62
7
  6
CONTINUOUS
 10
14.3611456585
 20
13.7534780868
 11
14.4390944809
 21
13.7795707868
  0
LINE
  5
26F
100
AcDbEntity
  8
02___PRT_ALL_AXES
100
AcDbLine
 62
7
  6
CONTINUOUS
 10
14.3611456585
 20
11.268131899
 11
14.4390944809
 21
11.242039199
  0
LINE
  5
270
100
AcDbEntity
  8
0
100
AcDbLine
 62
7
  6
CONTINUOUS
 10
14.5050398248
 20
11.4420368257
 11
15.7859727438
 21
11.4420368257
  0
LINE
  5
271
100
AcDbEntity
  8
0
100
AcDbLine
 62
7
  6
CONTINUOUS
 10
14.5050398233
 20
11.4420456204
 11
14.504052212
 21
11.4421442166
  0
LINE
  5
272
100
AcDbEntity
  8
0
100
AcDbLine
 62
7
  6
CONTINUOUS
 10
14.3924888757
 20
11.5089194636
 11
15.7499587815
 21
11.5089194636
  0
LINE
  5
273
100
AcDbEntity
  8
AXIS
100
AcDbLine
 62
7
  6
CONTINUOUS
 10
16.6462867748
 20
11.6268049929
 11
16.1415449683
 21
11.6268049929
  0
LINE
  5
274
100
AcDbEntity
  8
0
100
AcDbLine
 62
7
  6
CONTINUOUS
 10
14.2918312489
 20
11.654503735
 11
15.6898391002
 21
11.654503735
  0
LINE
  5
275
100
AcDbEntity
  8
0
100
AcDbLine
 62
7
  6
CONTINUOUS
 10
14.2112180273
 20
11.8670004738
 11
15.6296917938
 21
11.8670004738
  0
LINE
  5
276
100
AcDbEntity
  8
0
100
AcDbLine
 62
7
  6
CONTINUOUS
 10
14.1571771323
 20
12.1292020563
 11
15.5845349224
 21
12.1292020563
  0
LINE
  5
277
100
AcDbEntity
  8
02___PRT_ALL_AXES
100
AcDbLine
 62
7
  6
CONTINUOUS
 10
15.7822391027
 20
11.65607158
 11
15.7813122738
 21
11.6586306801
  0
LINE
  5
278
100
AcDbEntity
  8
02___PRT_ALL_AXES
100
AcDbLine
 62
7
  6
CONTINUOUS
 10
15.700996001
 20
13.0599658386
 11
15.7011827562
 21
13.0609678357
  0
LINE
  5
279
100
AcDbEntity
  8
02___PRT_ALL_AXES
100
AcDbLine
 62
7
  6
CONTINUOUS
 10
15.7005674531
 20
13.0605029842
 11
15.7007575527
 21
13.0615019889
  0
LINE
  5
27A
100
AcDbEntity
  8
02___PRT_ALL_AXES
100
AcDbLine
 62
7
  6
CONTINUOUS
 10
15.7824371018
 20
11.656545775
 11
15.7815393955
 21
11.6591715881
  0
LINE
  5
27B
100
AcDbEntity
  8
0
100
AcDbLine
 62
7
  6
CONTINUOUS
 10
14.1584347742
 20
12.8048813518
 11
15.574986805
 21
12.8048813518
  0
LINE
  5
27C
100
AcDbEntity
  8
0
100
AcDbLine
 62
7
  6
CONTINUOUS
 10
15.6138609259
 20
13.0786391559
 11
14.191588804
 21
13.0786391559
  0
LINE
  5
27D
100
AcDbEntity
  8
0
100
AcDbLine
 62
7
  6
CONTINUOUS
 10
15.670314342
 20
13.3084099578
 11
14.2646637512
 21
13.3084099578
  0
LINE
  5
27E
100
AcDbEntity
  8
AXIS
100
AcDbLine
 62
7
  6
CONTINUOUS
 10
16.6462867748
 20
13.3948049929
 11
16.1415449683
 21
13.3948049929
  0
LINE
  5
27F
100
AcDbEntity
  8
0
100
AcDbLine
 62
7
  6
CONTINUOUS
 10
15.7330591329
 20
13.476021418
 11
14.3599830814
 21
13.476021418
  0
LINE
  5
280
100
AcDbEntity
  8
0
100
AcDbLine
 62
7
  6
CONTINUOUS
 10
15.7799693748
 20
13.5679006463
 11
14.4698279976
 21
13.5679006463
  0
LINE
  5
281
100
AcDbEntity
  8
0
100
AcDbLine
 62
7
  6
CONTINUOUS
 10
14.5739613103
 20
13.5795113804
 11
15.7866559963
 21
13.5795113804
  0
LINE
  5
282
100
AcDbEntity
  8
0
100
AcDbLine
 62
7
  6
CONTINUOUS
 10
14.4678270948
 20
13.5674573557
 11
14.4698280022
 21
13.5678948169
  0
LINE
  5
283
100
AcDbEntity
  8
02___PRT_ALL_AXES
100
AcDbLine
 62
7
  6
CONTINUOUS
 10
16.2022082697
 20
11.268131899
 11
16.1242594473
 21
11.242039199
  0
LINE
  5
284
100
AcDbEntity
  8
02___PRT_ALL_AXES
100
AcDbLine
 62
7
  6
CONTINUOUS
 10
16.2022082697
 20
13.7534780868
 11
16.1242594473
 21
13.7795707868
  0
LINE
  5
285
100
AcDbEntity
  8
0
100
AcDbLine
 62
7
  6
CONTINUOUS
 10
16.8145238476
 20
11.736887549
 11
16.791831639
 21
11.7097011292
  0
LINE
  5
286
100
AcDbEntity
  8
0
100
AcDbLine
 62
7
  6
CONTINUOUS
 10
16.8145238476
 20
13.2847224368
 11
16.791831639
 21
13.3119088566
  0
CIRCLE
  5
287
100
AcDbEntity
  8
02___PRT_ALL_AXES
100
AcDbCircle
 62
7
  6
CONTINUOUS
 10
15.5603552569
 20
5.4606247044
 40
1.2795
  0
CIRCLE
  5
288
100
AcDbEntity
  8
02___PRT_ALL_AXES
100
AcDbCircle
 62
7
  6
CONTINUOUS
 10
15.5603552569
 20
5.4606247044
 40
1.2531865466
  0
CIRCLE
  5
289
100
AcDbEntity
  8
02___PRT_ALL_AXES
100
AcDbCircle
 62
7
  6
CONTINUOUS
 10
15.5603552569
 20
5.4606247044
 40
1.1387067049
  0
CIRCLE
  5
28A
100
AcDbEntity
  8
0
100
AcDbCircle
 62
7
  6
CONTINUOUS
 10
15.5603552569
 20
5.4606247044
 40
0.884
  0
CIRCLE
  5
28B
100
AcDbEntity
  8
0
100
AcDbCircle
 62
7
  6
CONTINUOUS
 10
15.5603552569
 20
5.4606247044
 40
0.8540001355
  0
CIRCLE
  5
28C
100
AcDbEntity
  8
0
100
AcDbCircle
 62
7
  6
CONTINUOUS
 10
15.5603552569
 20
5.4606247044
 40
0.2802471588
  0
CIRCLE
  5
28D
100
AcDbEntity
  8
0
100
AcDbCircle
 62
7
  6
CONTINUOUS
 10
15.5603552569
 20
5.4606247044
 40
0.25025
  0
ARC
  5
28E
100
AcDbEntity
  8
0
100
AcDbCircle
 62
7
  6
CONTINUOUS
 10
16.8680372581
 20
12.5107142215
 40
2.7463284937
100
AcDbArc
 50
180.6782388073
 51
181.3059445294
  0
ARC
  5
28F
100
AcDbEntity
  8
0
100
AcDbCircle
 62
7
  6
CONTINUOUS
 10
16.6824509521
 20
12.5228276626
 40
2.5603213668
100
AcDbArc
 50
174.2019285978
 51
174.859304066
  0
ARC
  5
290
100
AcDbEntity
  8
0
100
AcDbCircle
 62
7
  6
CONTINUOUS
 10
16.5128150068
 20
12.47923094
 40
2.3895528055
100
AcDbArc
 50
187.2524136942
 51
187.9415407839
  0
ARC
  5
291
100
AcDbEntity
  8
0
100
AcDbCircle
 62
7
  6
CONTINUOUS
 10
16.0534643752
 20
12.6252645412
 40
1.922638358
100
AcDbArc
 50
166.805640779
 51
167.6403441837
  0
ARC
  5
292
100
AcDbEntity
  8
02___PRT_ALL_AXES
100
AcDbCircle
 62
7
  6
CONTINUOUS
 10
17.4255757668
 20
12.774167051
 40
1.7465714412
100
AcDbArc
 50
162.3776296611
 51
162.8289825997
  0
ARC
  5
293
100
AcDbEntity
  8
0
100
AcDbCircle
 62
7
  6
CONTINUOUS
 10
15.8046687257
 20
12.3339653472
 40
1.6661196965
100
AcDbArc
 50
194.9579424489
 51
195.8349139932
  0
ARC
  5
294
100
AcDbEntity
  8
02___PRT_ALL_AXES
100
AcDbCircle
 62
7
  6
CONTINUOUS
 10
17.2044351201
 20
12.7728695205
 40
1.5120976189
100
AcDbArc
 50
160.8507871043
 51
162.8544339747
  0
ARC
  5
295
100
AcDbEntity
  8
02___PRT_ALL_AXES
100
AcDbCircle
 62
7
  6
CONTINUOUS
 10
17.1337708742
 20
12.7971584281
 40
1.4373759447
100
AcDbArc
 50
160.7200509677
 51
160.8414192876
  0
ARC
  5
296
100
AcDbEntity
  8
0
100
AcDbCircle
 62
7
  6
CONTINUOUS
 10
15.7462142456
 20
13.4757818743
 40
1.3005845049
100
AcDbArc
 50
177.3446914542
 51
179.9894467096
  0
ARC
  5
297
100
AcDbEntity
  8
0
100
AcDbCircle
 62
7
  6
CONTINUOUS
 10
15.6416777411
 20
11.513179087
 40
1.2720027855
100
AcDbArc
 50
175.5181751706
 51
178.2389103573
  0
ARC
  5
298
100
AcDbEntity
  8
0
100
AcDbCircle
 62
7
  6
CONTINUOUS
 10
15.7454043804
 20
11.5714617641
 40
1.2673093563
100
AcDbArc
 50
182.8287328732
 51
184.6473956136
  0
ARC
  5
299
100
AcDbEntity
  8
02___PRT_ALL_AXES
100
AcDbCircle
 62
7
  6
CONTINUOUS
 10
16.9534087037
 20
12.157228899
 40
1.2448782197
100
AcDbArc
 50
201.631497315
 51
201.7974828632
  0
ARC
  5
29A
100
AcDbEntity
  8
0
100
AcDbCircle
 62
7
  6
CONTINUOUS
 10
15.5680424348
 20
13.5082487043
 40
1.232365973
100
AcDbArc
 50
183.745817674
 51
186.5159711766
  0
ARC
  5
29B
100
AcDbEntity
  8
02___PRT_ALL_AXES
100
AcDbCircle
 62
7
  6
CONTINUOUS
 10
16.9351127983
 20
12.1498926278
 40
1.2251662766
100
AcDbArc
 50
201.7966420615
 51
202.1512145904
  0
ARC
  5
29C
100
AcDbEntity
  8
0
100
AcDbCircle
 62
7
  6
CONTINUOUS
 10
15.3021970633
 20
12.8576839667
 40
1.1353530303
100
AcDbArc
 50
157.0439846439
 51
158.1729815796
  0
ARC
  5
29D
100
AcDbEntity
  8
0
100
AcDbCircle
 62
7
  6
CONTINUOUS
 10
15.2856102853
 20
11.5634952392
 40
1.0246502476
100
AcDbArc
 50
168.4378197234
 51
171.5885963717
  0
ARC
  5
29E
100
AcDbEntity
  8
0
100
AcDbCircle
 62
7
  6
CONTINUOUS
 10
15.1717836356
 20
13.4200830616
 40
0.9422836172
100
AcDbArc
 50
190.6964596091
 51
194.0010163888
  0
ARC
  5
29F
100
AcDbEntity
  8
0
100
AcDbCircle
 62
7
  6
CONTINUOUS
 10
15.0933110499
 20
12.0699917917
 40
0.9062768596
100
AcDbArc
 50
205.5287714683
 51
206.8458093795
  0
ARC
  5
2A0
100
AcDbEntity
  8
0
100
AcDbCircle
 62
7
  6
CONTINUOUS
 10
14.7615453244
 20
13.1516067133
 40
0.5183395003
100
AcDbArc
 50
141.6899348838
 51
143.5928755703
  0
ARC
  5
2A1
100
AcDbEntity
  8
0
100
AcDbCircle
 62
7
  6
CONTINUOUS
 10
14.6602322546
 20
11.7837855764
 40
0.3852350236
100
AcDbArc
 50
222.7599524855
 51
225.0908831132
  0
ARC
  5
2A2
100
AcDbEntity
  8
0
100
AcDbCircle
 62
7
  6
CONTINUOUS
 10
14.554709779
 20
13.3731165852
 40
0.2128777487
100
AcDbArc
 50
114.0876803181
 51
117.5335206575
  0
ARC
  5
2A3
100
AcDbEntity
  8
0
100
AcDbCircle
 62
7
  6
CONTINUOUS
 10
14.5414265575
 20
11.6135928157
 40
0.1754749664
100
AcDbArc
 50
253.770168646
 51
257.7023909219
  0
ARC
  5
2A4
100
AcDbEntity
  8
AXIS
100
AcDbCircle
 62
7
  6
CONTINUOUS
 10
16.1415466103
 20
11.7606674514
 40
0.1338624533
100
AcDbArc
 50
269.287826723
 51
269.9992971764
  0
ARC
  5
2A5
100
AcDbEntity
  8
AXIS
100
AcDbCircle
 62
7
  6
CONTINUOUS
 10
16.1415434445
 20
13.2609770592
 40
0.1338279286
100
AcDbArc
 50
89.9993476158
 51
90.7124334931
  0
ARC
  5
2A6
100
AcDbEntity
  8
0
100
AcDbCircle
 62
7
  6
CONTINUOUS
 10
14.1584460132
 20
12.7269654599
 40
0.0779158959
100
AcDbArc
 50
90.0082646342
 51
99.3492783698
  0
ARC
  5
2A7
100
AcDbEntity
  8
0
100
AcDbCircle
 62
7
  6
CONTINUOUS
 10
14.2975990531
 20
11.6185049972
 40
0.0761964129
100
AcDbArc
 50
355.5379527706
 51
2.9634725715
  0
ARC
  5
2A8
100
AcDbEntity
  8
0
100
AcDbCircle
 62
7
  6
CONTINUOUS
 10
16.6476143121
 20
12.7173483495
 40
0.0438752749
100
AcDbArc
 50
106.79863278
 51
111.1589936268
  0
SPLINE
  5
2A9
100
AcDbEntity
  8
02___PRT_ALL_AXES
100
AcDbSpline
 62
7
  6
CONTINUOUS
 70
0
 71
3
 72
41
 73
37
 74
0
 42
0.0000001
 43
0.0000001
 44
0.0000000001
 40
0.0
 40
0.0
 40
0.0
 40
0.0
 40
0.032027984
 40
0.06523626
 40
0.0995132372
 40
0.1347486352
 40
0.1708206164
 40
0.2076023662
 40
0.2449624806
 40
0.2827655305
 40
0.3208732439
 40
0.3591453853
 40
0.3974407022
 40
0.4356177718
 40
0.4735359112
 40
0.5110561355
 40
0.5480420174
 40
0.5843605871
 40
0.6198834288
 40
0.654487665
 40
0.688056953
 40
0.7204826993
 40
0.7516655555
 40
0.7815167724
 40
0.8099598848
 40
0.8369329594
 40
0.8623913221
 40
0.8863106089
 40
0.9086908683
 40
0.9295620004
 40
0.9489902115
 40
0.9581991841
 40
0.9670929312
 40
0.9840167973
 40
0.9921110624
 40
1.0
 40
1.0
 40
1.0
 40
1.0
 10
14.0419523816
 20
13.2897982424
 30
0.0
 10
14.035147314
 20
13.2677770355
 30
0.0
 10
14.0221578696
 20
13.2226498944
 30
0.0
 10
14.0047867058
 20
13.1531613216
 30
0.0
 10
13.9892332569
 20
13.0808807794
 30
0.0
 10
13.9755650881
 20
13.0061254991
 30
0.0
 10
13.9638421852
 20
12.9292174199
 30
0.0
 10
13.9541155529
 20
12.850491217
 30
0.0
 10
13.9464276053
 20
12.7702887596
 30
0.0
 10
13.9408121999
 20
12.6889584168
 30
0.0
 10
13.9372938911
 20
12.6068536862
 30
0.0
 10
13.9358878644
 20
12.5243314475
 30
0.0
 10
13.9366002806
 20
12.4417504076
 30
0.0
 10
13.939428243
 20
12.3594695485
 30
0.0
 10
13.9443593002
 20
12.2778465227
 30
0.0
 10
13.9513717373
 20
12.1972360526
 30
0.0
 10
13.9604349335
 20
12.1179884161
 30
0.0
 10
13.9715095055
 20
12.0404479049
 30
0.0
 10
13.9845468721
 20
11.9649511734
 30
0.0
 10
13.9994899816
 20
11.8918257851
 30
0.0
 10
14.0162736901
 20
11.8213888503
 30
0.0
 10
14.0348250223
 20
11.7539455208
 30
0.0
 10
14.0550629842
 20
11.6897873803
 30
0.0
 10
14.076899655
 20
11.6291912722
 30
0.0
 10
14.1002407911
 20
11.5724181097
 30
0.0
 10
14.1249862221
 20
11.5197114824
 30
0.0
 10
14.1510304993
 20
11.4712961685
 30
0.0
 10
14.17826419
 20
11.4273780018
 30
0.0
 10
14.2065767993
 20
11.3881419741
 30
0.0
 10
14.2358530277
 20
11.3537570983
 30
0.0
 10
14.2614047263
 20
11.3288339172
 30
0.0
 10
14.2822248793
 20
11.311607034
 30
0.0
 10
14.3025444709
 20
11.2966756322
 30
0.0
 10
14.3235149498
 20
11.2840273851
 30
0.0
 10
14.3449935359
 20
11.2740148499
 30
0.0
 10
14.3557620725
 20
11.2699342332
 30
0.0
 10
14.3611456691
 20
11.2681321081
 30
0.0
  0
SPLINE
  5
2AA
100
AcDbEntity
  8
02___PRT_ALL_AXES
100
AcDbSpline
 62
7
  6
CONTINUOUS
 70
0
 71
3
 72
23
 73
19
 74
0
 42
0.0000001
 43
0.0000001
 44
0.0000000001
 40
0.0
 40
0.0
 40
0.0
 40
0.0
 40
0.0535885569
 40
0.1061051413
 40
0.1580999713
 40
0.21014419
 40
0.2628069168
 40
0.3166327075
 40
0.3721234933
 40
0.429724545
 40
0.4898194478
 40
0.5527266332
 40
0.6187044191
 40
0.6879526918
 40
0.760621942
 40
0.8368154306
 40
0.9165986148
 40
1.0
 40
1.0
 40
1.0
 40
1.0
 10
14.439094484
 20
13.7795707244
 30
0.0
 10
14.4463214579
 20
13.7819899898
 30
0.0
 10
14.4608919039
 20
13.7860443211
 30
0.0
 10
14.4831293622
 20
13.7896606401
 30
0.0
 10
14.5054180996
 20
13.7907204501
 30
0.0
 10
14.527701592
 20
13.7892203932
 30
0.0
 10
14.5499272975
 20
13.7851646698
 30
0.0
 10
14.5720443696
 20
13.778568471
 30
0.0
 10
14.5940049476
 20
13.7694507701
 30
0.0
 10
14.6157657271
 20
13.7578383345
 30
0.0
 10
14.6372846681
 20
13.7437586719
 30
0.0
 10
14.658523247
 20
13.7272451614
 30
0.0
 10
14.6794418427
 20
13.7083317408
 30
0.0
 10
14.7000035268
 20
13.6870581479
 30
0.0
 10
14.7201692025
 20
13.6634657484
 30
0.0
 10
14.739902629
 20
13.6376016749
 30
0.0
 10
14.7591648627
 20
13.6095163353
 30
0.0
 10
14.7713983574
 20
13.5897846628
 30
0.0
 10
14.7774380249
 20
13.5795765207
 30
0.0
  0
SPLINE
  5
2AB
100
AcDbEntity
  8
02___PRT_ALL_AXES
100
AcDbSpline
 62
7
  6
CONTINUOUS
 70
0
 71
3
 72
23
 73
19
 74
0
 42
0.0000001
 43
0.0000001
 44
0.0000000001
 40
0.0
 40
0.0
 40
0.0
 40
0.0
 40
0.0838346687
 40
0.1650436693
 40
0.2434895293
 40
0.3190804931
 40
0.3917410857
 40
0.4614081462
 40
0.528039855
 40
0.591620661
 40
0.6521628064
 40
0.7097098985
 40
0.7643437711
 40
0.8161881557
 40
0.8654171491
 40
0.9122586948
 40
0.95700246
 40
1.0
 40
1.0
 40
1.0
 40
1.0
 10
14.0419523816
 20
13.2897982424
 30
0.0
 10
14.0467471829
 20
13.305314225
 30
0.0
 10
14.0566066404
 20
13.3357326745
 30
0.0
 10
14.0724732298
 20
13.3801587088
 30
0.0
 10
14.0891541803
 20
13.4225751845
 30
0.0
 10
14.1066088276
 20
13.4628816627
 30
0.0
 10
14.1247980162
 20
13.5009871761
 30
0.0
 10
14.1436799253
 20
13.536804914
 30
0.0
 10
14.1632119193
 20
13.5702522834
 30
0.0
 10
14.1833496804
 20
13.6012528906
 30
0.0
 10
14.2040479853
 20
13.6297362964
 30
0.0
 10
14.225261721
 20
13.6556371225
 30
0.0
 10
14.2469439271
 20
13.6788965349
 30
0.0
 10
14.2690493709
 20
13.6994596725
 30
0.0
 10
14.2915299465
 20
13.7172785322
 30
0.0
 10
14.3143410996
 20
13.7323073114
 30
0.0
 10
14.3374289294
 20
13.7445056004
 30
0.0
 10
14.3532472311
 20
13.7508339032
 30
0.0
 10
14.3611456686
 20
13.7534778876
 30
0.0
  0
SPLINE
  5
2AC
100
AcDbEntity
  8
02___PRT_ALL_AXES
100
AcDbSpline
 62
7
  6
CONTINUOUS
 70
0
 71
3
 72
24
 73
20
 74
0
 42
0.0000001
 43
0.0000001
 44
0.0000000001
 40
0.0
 40
0.0
 40
0.0
 40
0.0
 40
0.0536246135
 40
0.1061774616
 40
0.1582071706
 40
0.2102830403
 40
0.2629725817
 40
0.3168191108
 40
0.372323315
 40
0.4299302448
 40
0.4596514832
 40
0.4900363043
 40
0.5529333606
 40
0.6188927443
 40
0.688115812
 40
0.760752446
 40
0.8369079184
 40
0.9166468877
 40
1.0
 40
1.0
 40
1.0
 40
1.0
 10
14.4390944849
 20
11.2420392785
 30
0.0
 10
14.44630849
 20
11.2396245525
 30
0.0
 10
14.4608521895
 20
11.2355758192
 30
0.0
 10
14.4830484605
 20
11.2319595576
 30
0.0
 10
14.5052958986
 20
11.2308897929
 30
0.0
 10
14.5275384139
 20
11.2323710249
 30
0.0
 10
14.5497238161
 20
11.2363979082
 30
0.0
 10
14.5718014835
 20
11.2429568844
 30
0.0
 10
14.593723399
 20
11.2520272354
 30
0.0
 10
14.6116396118
 20
11.2615589977
 30
0.0
 10
14.6258352245
 20
11.2703617211
 30
0.0
 10
14.6402637579
 20
11.2801840307
 30
0.0
 10
14.6581363992
 20
11.2940421122
 30
0.0
 10
14.6790229473
 20
11.3128742649
 30
0.0
 10
14.6995547662
 20
11.3340601996
 30
0.0
 10
14.7196934737
 20
11.3575566295
 30
0.0
 10
14.739401589
 20
11.3833182953
 30
0.0
 10
14.7586420614
 20
11.4112939044
 30
0.0
 10
14.7708628577
 20
11.4309504319
 30
0.0
 10
14.776896692
 20
11.4411199634
 30
0.0
  0
SPLINE
  5
2AD
100
AcDbEntity
  8
02___PRT_ALL_AXES
100
AcDbSpline
 62
7
  6
CONTINUOUS
 70
0
 71
3
 72
37
 73
33
 74
0
 42
0.0000001
 43
0.0000001
 44
0.0000000001
 40
0.0
 40
0.0
 40
0.0
 40
0.0
 40
0.0939467956
 40
0.1390293502
 40
0.182786549
 40
0.2251864559
 40
0.2662008367
 40
0.3058055978
 40
0.3439827439
 40
0.380724046
 40
0.4160288708
 40
0.4499071703
 40
0.4823791273
 40
0.5134775725
 40
0.5432496122
 40
0.5717572886
 40
0.5990809
 40
0.6505470659
 40
0.6749905722
 40
0.6987661798
 40
0.7220516312
 40
0.7450391452
 40
0.7679305229
 40
0.7909306557
 40
0.8142408082
 40
0.8380526072
 40
0.8625426806
 40
0.8878693046
 40
0.9141708534
 40
0.9415644743
 40
0.9701481414
 40
1.0
 40
1.0
 40
1.0
 40
1.0
 10
14.1879031573
 20
13.2269974525
 30
0.0
 10
14.1951613817
 20
13.2504850754
 30
0.0
 10
14.2066882361
 20
13.2850116629
 30
0.0
 10
14.2235962997
 20
13.3297587156
 30
0.0
 10
14.236609034
 20
13.3615451899
 30
0.0
 10
14.2501059617
 20
13.3919681822
 30
0.0
 10
14.2640664975
 20
13.4209805774
 30
0.0
 10
14.2784677049
 20
13.4485364294
 30
0.0
 10
14.2932878606
 20
13.4745910585
 30
0.0
 10
14.3085022667
 20
13.4991035478
 30
0.0
 10
14.3240881668
 20
13.5220345653
 30
0.0
 10
14.3400204647
 20
13.5433482169
 30
0.0
 10
14.3562748101
 20
13.5630104202
 30
0.0
 10
14.3728266868
 20
13.5809898037
 30
0.0
 10
14.3896493151
 20
13.5972575819
 30
0.0
 10
14.4067218058
 20
13.6117881768
 30
0.0
 10
14.4293184453
 20
13.6284757964
 30
0.0
 10
14.4528124015
 20
13.642097091
 30
0.0
 10
14.4769479439
 20
13.6520731235
 30
0.0
 10
14.4948572158
 20
13.6575918134
 30
0.0
 10
14.5128472759
 20
13.661259562
 30
0.0
 10
14.5308872471
 20
13.6630664948
 30
0.0
 10
14.5489430935
 20
13.6630096334
 30
0.0
 10
14.5669808327
 20
13.6610869656
 30
0.0
 10
14.5849670918
 20
13.657305582
 30
0.0
 10
14.6028694868
 20
13.6516734302
 30
0.0
 10
14.620657705
 20
13.6442042912
 30
0.0
 10
14.6383031799
 20
13.6349140194
 30
0.0
 10
14.6557779583
 20
13.6238200694
 30
0.0
 10
14.6730566522
 20
13.6109436152
 30
0.0
 10
14.6901115681
 20
13.5963061922
 30
0.0
 10
14.7010722221
 20
13.585628422
 30
0.0
 10
14.7065111778
 20
13.5800215421
 30
0.0
  0
SPLINE
  5
2AE
100
AcDbEntity
  8
02___PRT_ALL_AXES
100
AcDbSpline
 62
7
  6
CONTINUOUS
 70
0
 71
3
 72
23
 73
19
 74
0
 42
0.0000001
 43
0.0000001
 44
0.0000000001
 40
0.0
 40
0.0
 40
0.0
 40
0.0
 40
0.0838355116
 40
0.1650438588
 40
0.2434892108
 40
0.3190803759
 40
0.3917412439
 40
0.461408081
 40
0.5280398503
 40
0.5916205888
 40
0.6521628369
 40
0.7097098466
 40
0.7643437255
 40
0.8161881423
 40
0.8654170381
 40
0.912258705
 40
0.9570023237
 40
1.0
 40
1.0
 40
1.0
 40
1.0
 10
14.1131990274
 20
13.3061549473
 30
0.0
 10
14.1180945559
 20
13.3219968831
 30
0.0
 10
14.1281610044
 20
13.3530540886
 30
0.0
 10
14.1443607983
 20
13.3984128655
 30
0.0
 10
14.1613918984
 20
13.4417198116
 30
0.0
 10
14.1792131211
 20
13.482872576
 30
0.0
 10
14.1977840999
 20
13.521778325
 30
0.0
 10
14.2170626633
 20
13.558348065
 30
0.0
 10
14.2370045892
 20
13.5924977971
 30
0.0
 10
14.2575653566
 20
13.6241492469
 30
0.0
 10
14.2786981146
 20
13.6532308281
 30
0.0
 10
14.3003573915
 20
13.6796754241
 30
0.0
 10
14.3224948321
 20
13.7034232305
 30
0.0
 10
14.3450643695
 20
13.7244182045
 30
0.0
 10
14.3680171293
 20
13.7426110147
 30
0.0
 10
14.3913070284
 20
13.7579556823
 30
0.0
 10
14.4148798986
 20
13.7704096518
 30
0.0
 10
14.4310301925
 20
13.7768711627
 30
0.0
 10
14.439094484
 20
13.7795707244
 30
0.0
  0
SPLINE
  5
2AF
100
AcDbEntity
  8
02___PRT_ALL_AXES
100
AcDbSpline
 62
7
  6
CONTINUOUS
 70
0
 71
3
 72
42
 73
38
 74
0
 42
0.0000001
 43
0.0000001
 44
0.0000000001
 40
0.0
 40
0.0
 40
0.0
 40
0.0
 40
0.032027988
 40
0.0652357846
 40
0.0995126316
 40
0.134747838
 40
0.170819558
 40
0.2076011088
 40
0.2449610003
 40
0.2827638081
 40
0.3208712931
 40
0.3591432079
 40
0.3974382857
 40
0.4356151255
 40
0.473533048
 40
0.5110530333
 40
0.5480386696
 40
0.5843570468
 40
0.6198796949
 40
0.6544836836
 40
0.6880527387
 40
0.7204783451
 40
0.7516610362
 40
0.7815120076
 40
0.8099549229
 40
0.8369279088
 40
0.8623861361
 40
0.8863051984
 40
0.9086853121
 40
0.9295563885
 40
0.9394478891
 40
0.9489905497
 40
0.9581994309
 40
0.9670930949
 40
0.9840168605
 40
0.9921110945
 40
1.0
 40
1.0
 40
1.0
 40
1.0
 10
14.1131990274
 20
13.3061549473
 30
0.0
 10
14.1062510291
 20
13.2836712165
 30
0.0
 10
14.0929888136
 20
13.2375965985
 30
0.0
 10
14.0752529699
 20
13.1666489411
 30
0.0
 10
14.0593729734
 20
13.0928508346
 30
0.0
 10
14.0454177719
 20
13.0165258633
 30
0.0
 10
14.0334486993
 20
12.9380029265
 30
0.0
 10
14.0235178557
 20
12.8576236975
 30
0.0
 10
14.0156685478
 20
12.7757371923
 30
0.0
 10
14.0099351673
 20
12.6926991464
 30
0.0
 10
14.006342932
 20
12.6088704472
 30
0.0
 10
14.004907449
 20
12.5246154656
 30
0.0
 10
14.0056349043
 20
12.4403004527
 30
0.0
 10
14.0085221327
 20
12.3562919132
 30
0.0
 10
14.0135566778
 20
12.2729550217
 30
0.0
 10
14.0207164532
 20
12.1906519754
 30
0.0
 10
14.0299700417
 20
12.1097403724
 30
0.0
 10
14.0412769958
 20
12.0305716822
 30
0.0
 10
14.0545880628
 20
11.9534897076
 30
0.0
 10
14.0698450664
 20
11.8788289464
 30
0.0
 10
14.0869812705
 20
11.8069130606
 30
0.0
 10
14.1059219489
 20
11.7380535189
 30
0.0
 10
14.1265848047
 20
11.6725482044
 30
0.0
 10
14.1488801579
 20
11.6106798494
 30
0.0
 10
14.1727114383
 20
11.5527146653
 30
0.0
 10
14.19797631
 20
11.4989011378
 30
0.0
 10
14.2245672405
 20
11.4494694035
 30
0.0
 10
14.2523735167
 20
11.4046285405
 30
0.0
 10
14.2812787829
 20
11.3645711467
 30
0.0
 10
14.306626945
 20
11.3347986043
 30
0.0
 10
14.3273782185
 20
11.313655599
 30
0.0
 10
14.3428574463
 20
11.2993831635
 30
0.0
 10
14.3585167951
 20
11.2864270963
 30
0.0
 10
14.3792627939
 20
11.2711824846
 30
0.0
 10
14.4006736662
 20
11.2582685232
 30
0.0
 10
14.4226032324
 20
11.2480457453
 30
0.0
 10
14.4335978098
 20
11.2438791668
 30
0.0
 10
14.4390944849
 20
11.2420392785
 30
0.0
  0
SPLINE
  5
2B0
100
AcDbEntity
  8
02___PRT_ALL_AXES
100
AcDbSpline
 62
7
  6
CONTINUOUS
 70
0
 71
3
 72
53
 73
49
 74
0
 42
0.0000001
 43
0.0000001
 44
0.0000000001
 40
0.0
 40
0.0
 40
0.0
 40
0.0
 40
0.0354753105
 40
0.0725289495
 40
0.1109736767
 40
0.1506103497
 40
0.1912243559
 40
0.2325918669
 40
0.2744810399
 40
0.3166549418
 40
0.3588738053
 40
0.4008974246
 40
0.4424875108
 40
0.4834100745
 40
0.5234378575
 40
0.5623528614
 40
0.5999490321
 40
0.6360351818
 40
0.6704382714
 40
0.6869618302
 40
0.7030101648
 40
0.7185684008
 40
0.7336240898
 40
0.7481666605
 40
0.7621882981
 40
0.7756838355
 40
0.7886512095
 40
0.8010920363
 40
0.813011598
 40
0.8244200504
 40
0.8353321869
 40
0.8457689088
 40
0.8557571582
 40
0.8745170845
 40
0.8833952567
 40
0.8920077794
 40
0.9004192821
 40
0.9087006411
 40
0.9169268725
 40
0.9251749217
 40
0.9335209779
 40
0.942037951
 40
0.9507933657
 40
0.9598479595
 40
0.9692546261
 40
0.9790585786
 40
0.9892969595
 40
1.0
 40
1.0
 40
1.0
 40
1.0
 10
14.1879031573
 20
13.2269974525
 30
0.0
 10
14.1801009281
 20
13.2017494295
 30
0.0
 10
14.1653979628
 20
13.1497377972
 30
0.0
 10
14.1463478022
 20
13.0692743942
 30
0.0
 10
14.1299152751
 20
12.9850756859
 30
0.0
 10
14.116211083
 20
12.8977069247
 30
0.0
 10
14.1053279235
 20
12.8077498
 30
0.0
 10
14.097339029
 20
12.7158062319
 30
0.0
 10
14.0922984688
 20
12.6224908938
 30
0.0
 10
14.0902402398
 20
12.5284281775
 30
0.0
 10
14.0911782817
 20
12.4342475145
 30
0.0
 10
14.0951062679
 20
12.3405791775
 30
0.0
 10
14.1019976483
 20
12.2480499154
 30
0.0
 10
14.1118058737
 20
12.1572786717
 30
0.0
 10
14.1244647237
 20
12.0688722555
 30
0.0
 10
14.1398887842
 20
11.9834213782
 30
0.0
 10
14.1579740904
 20
11.9014956664
 30
0.0
 10
14.1785989296
 20
11.823642632
 30
0.0
 10
14.198039953
 20
11.7617806515
 30
0.0
 10
14.214815378
 20
11.7147896244
 30
0.0
 10
14.227771052
 20
11.6813544434
 30
0.0
 10
14.2412489459
 20
11.6493090638
 30
0.0
 10
14.2552257322
 20
11.6187064996
 30
0.0
 10
14.2696789202
 20
11.5895980249
 30
0.0
 10
14.2845840407
 20
11.5620319227
 30
0.0
 10
14.2999165136
 20
11.5360539971
 30
0.0
 10
14.3156514776
 20
11.5117075997
 30
0.0
 10
14.3317624242
 20
11.4890326443
 30
0.0
 10
14.3482242453
 20
11.4680674997
 30
0.0
 10
14.3650094174
 20
11.4488459469
 30
0.0
 10
14.3820915395
 20
11.4314017202
 30
0.0
 10
14.3994459787
 20
11.4157611828
 30
0.0
 10
14.4224199545
 20
11.3977333729
 30
0.0
 10
14.4463505923
 20
11.3828611358
 30
0.0
 10
14.4710063753
 20
11.3717695295
 30
0.0
 10
14.4892925863
 20
11.3655173876
 30
0.0
 10
14.5076744022
 20
11.3611997205
 30
0.0
 10
14.5261183386
 20
11.3588248983
 30
0.0
 10
14.5445885845
 20
11.3584019264
 30
0.0
 10
14.5630484383
 20
11.3599300081
 30
0.0
 10
14.5814615396
 20
11.3634062594
 30
0.0
 10
14.5997929614
 20
11.3688205877
 30
0.0
 10
14.6180098281
 20
11.3761595015
 30
0.0
 10
14.6360807043
 20
11.3854069774
 30
0.0
 10
14.6539768454
 20
11.3965425682
 30
0.0
 10
14.6716690733
 20
11.4095464461
 30
0.0
 10
14.6891302372
 20
11.4243927383
 30
0.0
 10
14.700342833
 20
11.4352550443
 30
0.0
 10
14.7059060901
 20
11.4409661316
 30
0.0
  0
SPLINE
  5
2B1
100
AcDbEntity
  8
02___PRT_ALL_AXES
100
AcDbSpline
 62
7
  6
CONTINUOUS
 70
0
 71
3
 72
28
 73
24
 74
0
 42
0.0000001
 43
0.0000001
 44
0.0000000001
 40
0.0
 40
0.0
 40
0.0
 40
0.0
 40
0.022910253
 40
0.0454449955
 40
0.0677236623
 40
0.0898711362
 40
0.112014933
 40
0.1342827335
 40
0.1567994808
 40
0.1796851489
 40
0.2030525826
 40
0.2270056094
 40
0.2770098096
 40
0.3303593094
 40
0.3875243486
 40
0.4488308955
 40
0.5144813152
 40
0.5845749623
 40
0.6591273658
 40
0.7380837637
 40
0.8213278067
 40
0.9087067175
 40
1.0
 40
1.0
 40
1.0
 40
1.0
 10
16.1242594433
 20
13.7795707074
 30
0.0
 10
16.1190132857
 20
13.7813267406
 30
0.0
 10
16.1084716143
 20
13.7844217633
 30
0.0
 10
16.0924508566
 20
13.7877860677
 30
0.0
 10
16.0763917694
 20
13.7898215867
 30
0.0
 10
16.0603139629
 20
13.7905258872
 30
0.0
 10
16.0442355078
 20
13.7898981057
 30
0.0
 10
16.028175133
 20
13.787938103
 30
0.0
 10
16.0121509081
 20
13.7846500475
 30
0.0
 10
15.9961808834
 20
13.7800379006
 30
0.0
 10
15.980282018
 20
13.7741073611
 30
0.0
 10
15.9588982743
 20
13.7643157975
 30
0.0
 10
15.9323527947
 20
13.7486223081
 30
0.0
 10
15.9015594552
 20
13.7249504531
 30
0.0
 10
15.8714704716
 20
13.6962840579
 30
0.0
 10
15.8421965397
 20
13.6627489981
 30
0.0
 10
15.8138419437
 20
13.6244822577
 30
0.0
 10
15.7865137615
 20
13.5816384566
 30
0.0
 10
15.7603182347
 20
13.5343896932
 30
0.0
 10
15.7353601691
 20
13.4829271973
 30
0.0
 10
15.7117387328
 20
13.4274583332
 30
0.0
 10
15.6895526709
 20
13.3682118393
 30
0.0
 10
15.6760615052
 20
13.3272172415
 30
0.0
 10
15.669552764
 20
13.3061549473
 30
0.0
  0
SPLINE
  5
2B2
100
AcDbEntity
  8
02___PRT_ALL_AXES
100
AcDbSpline
 62
7
  6
CONTINUOUS
 70
0
 71
3
 72
23
 73
19
 74
0
 42
0.0000001
 43
0.0000001
 44
0.0000000001
 40
0.0
 40
0.0
 40
0.0
 40
0.0
 40
0.0820868017
 40
0.1615845373
 40
0.2384361911
 40
0.3125927799
 40
0.384018198
 40
0.4526950745
 40
0.518621537
 40
0.5818169928
 40
0.6423208666
 40
0.7001996165
 40
0.7555465301
 40
0.8084876916
 40
0.8591838185
 40
0.9078341943
 40
0.9546791481
 40
1.0
 40
1.0
 40
1.0
 40
1.0
 10
16.4847702036
 20
11.6261218191
 30
0.0
 10
16.4801238537
 20
11.6141511739
 30
0.0
 10
16.4706559395
 20
11.590710532
 30
0.0
 10
16.4556725199
 20
11.5565480724
 30
0.0
 10
16.4401553752
 20
11.5239927898
 30
0.0
 10
16.4241311027
 20
11.4930992458
 30
0.0
 10
16.4076254375
 20
11.4639198707
 30
0.0
 10
16.3906670589
 20
11.4365029533
 30
0.0
 10
16.373282625
 20
11.410894784
 30
0.0
 10
16.3555019502
 20
11.3871373129
 30
0.0
 10
16.3373526563
 20
11.3652710239
 30
0.0
 10
16.3188650578
 20
11.3453318385
 30
0.0
 10
16.3000677994
 20
11.3273540526
 30
0.0
 10
16.2809910121
 20
11.3113680872
 30
0.0
 10
16.2616646562
 20
11.2974022976
 30
0.0
 10
16.2421182366
 20
11.2854824234
 30
0.0
 10
16.2223859813
 20
11.2756318565
 30
0.0
 10
16.2089310853
 20
11.2703825492
 30
0.0
 10
16.2022082596
 20
11.2681320982
 30
0.0
  0
SPLINE
  5
2B3
100
AcDbEntity
  8
02___PRT_ALL_AXES
100
AcDbSpline
 62
7
  6
CONTINUOUS
 70
0
 71
3
 72
23
 73
19
 74
0
 42
0.0000001
 43
0.0000001
 44
0.0000000001
 40
0.0
 40
0.0
 40
0.0
 40
0.0
 40
0.0820897086
 40
0.1615916405
 40
0.238444883
 40
0.3126022889
 40
0.3840287653
 40
0.4527067089
 40
0.5186337924
 40
0.5818293432
 40
0.6423330567
 40
0.7002111411
 40
0.7555571267
 40
0.8084967935
 40
0.859191179
 40
0.9078393376
 40
0.9546818688
 40
1.0
 40
1.0
 40
1.0
 40
1.0
 10
16.4848109666
 20
13.3953829333
 30
0.0
 10
16.4801642595
 20
13.4073572392
 30
0.0
 10
16.4706954835
 20
13.430805284
 30
0.0
 10
16.4557108552
 20
13.464978493
 30
0.0
 10
16.4401920045
 20
13.4975437144
 30
0.0
 10
16.4241660242
 20
13.5284464079
 30
0.0
 10
16.4076583924
 20
13.55763446
 30
0.0
 10
16.3906978322
 20
13.5850596454
 30
0.0
 10
16.3733110261
 20
13.6106755391
 30
0.0
 10
16.355527694
 20
13.6344400399
 30
0.0
 10
16.3373757316
 20
13.6563128485
 30
0.0
 10
16.3188851156
 20
13.6762577764
 30
0.0
 10
16.300084906
 20
13.6942408316
 30
0.0
 10
16.2810048167
 20
13.710231162
 30
0.0
 10
16.2616752555
 20
13.7242008555
 30
0.0
 10
16.2421253473
 20
13.7361236769
 30
0.0
 10
16.2223896638
 20
13.745976677
 30
0.0
 10
16.2089323056
 20
13.7512270454
 30
0.0
 10
16.2022082591
 20
13.7534778777
 30
0.0
  0
SPLINE
  5
2B4
100
AcDbEntity
  8
02___PRT_ALL_AXES
100
AcDbSpline
 62
7
  6
CONTINUOUS
 70
0
 71
3
 72
51
 73
47
 74
0
 42
0.0000001
 43
0.0000001
 44
0.0000000001
 40
0.0
 40
0.0
 40
0.0
 40
0.0
 40
0.0081714454
 40
0.0161957385
 40
0.0241301345
 40
0.0320343358
 40
0.0399688934
 40
0.0479935344
 40
0.0561654719
 40
0.0645381762
 40
0.0731603068
 40
0.0820750813
 40
0.0913202393
 40
0.1009276876
 40
0.1109242538
 40
0.1213315067
 40
0.1321665922
 40
0.1434424753
 40
0.1551682523
 40
0.1673499345
 40
0.1799901888
 40
0.193089343
 40
0.2066450501
 40
0.2206529291
 40
0.2351066795
 40
0.2499980496
 40
0.2810512447
 40
0.3137205666
 40
0.3478916827
 40
0.3834338098
 40
0.4202023121
 40
0.4580409341
 40
0.4967837796
 40
0.5362571118
 40
0.5762810488
 40
0.616671197
 40
0.6572402064
 40
0.6977992945
 40
0.7381597508
 40
0.7781344514
 40
0.8175394108
 40
0.8561952607
 40
0.8939293
 40
0.9305756893
 40
0.9659813465
 40
1.0
 40
1.0
 40
1.0
 40
1.0
 10
16.1242594442
 20
11.2420392614
 30
0.0
 10
16.1182272072
 20
11.2400199401
 30
0.0
 10
16.1060912355
 20
11.2365307957
 30
0.0
 10
16.0876155936
 20
11.2329982038
 30
0.0
 10
16.0690950368
 20
11.2312306463
 30
0.0
 10
16.0505602486
 20
11.2312336226
 30
0.0
 10
16.0320399804
 20
11.2330052677
 30
0.0
 10
16.013563478
 20
11.2365436975
 30
0.0
 10
15.9951585107
 20
11.241840067
 30
0.0
 10
15.9768521314
 20
11.2488851387
 30
0.0
 10
15.9586699968
 20
11.2576660382
 30
0.0
 10
15.940636298
 20
11.2681675798
 30
0.0
 10
15.9227755094
 20
11.2803742613
 30
0.0
 10
15.9051098844
 20
11.2942665883
 30
0.0
 10
15.8876632645
 20
11.3098257
 30
0.0
 10
15.8704574679
 20
11.3270288561
 30
0.0
 10
15.8535153221
 20
11.3458526934
 30
0.0
 10
15.8368591609
 20
11.3662714083
 30
0.0
 10
15.8205104423
 20
11.3882568204
 30
0.0
 10
15.8044918713
 20
11.4117795743
 30
0.0
 10
15.7888238325
 20
11.4368070843
 30
0.0
 10
15.7735284087
 20
11.463305828
 30
0.0
 10
15.758625597
 20
11.4912394087
 30
0.0
 10
15.7441359114
 20
11.5205698819
 30
0.0
 10
15.7300790729
 20
11.5512574291
 30
0.0
 10
15.7116821281
 20
11.5945327969
 30
0.0
 10
15.6899713712
 20
11.6517806616
 30
0.0
 10
15.6662865432
 20
11.7242393575
 30
0.0
 10
15.644747279
 20
11.8009988148
 30
0.0
 10
15.6254718522
 20
11.8816396631
 30
0.0
 10
15.6085661832
 20
11.9657228279
 30
0.0
 10
15.5941233839
 20
12.0527891052
 30
0.0
 10
15.5822230866
 20
12.1423626657
 30
0.0
 10
15.5729309405
 20
12.233953521
 30
0.0
 10
15.5662981558
 20
12.3270603794
 30
0.0
 10
15.5623613089
 20
12.4211734792
 30
0.0
 10
15.5611421129
 20
12.515777456
 30
0.0
 10
15.562647304
 20
12.6103542073
 30
0.0
 10
15.5668685955
 20
12.70438577
 30
0.0
 10
15.5737827316
 20
12.7973572251
 30
0.0
 10
15.5833515914
 20
12.8887595014
 30
0.0
 10
15.5955222423
 20
12.9780926278
 30
0.0
 10
15.6102277787
 20
13.0648672781
 30
0.0
 10
15.627386855
 20
13.1486110504
 30
0.0
 10
15.6469051774
 20
13.2288631744
 30
0.0
 10
15.6617338407
 20
13.2808529023
 30
0.0
 10
15.669552764
 20
13.3061549473
 30
0.0
  0
SPLINE
  5
2B5
100
AcDbEntity
  8
02___PRT_ALL_AXES
100
AcDbSpline
 62
7
  6
CONTINUOUS
 70
0
 71
3
 72
31
 73
27
 74
0
 42
0.0000001
 43
0.0000001
 44
0.0000000001
 40
0.0
 40
0.0
 40
0.0
 40
0.0
 40
0.023059711
 40
0.0457447738
 40
0.0681723838
 40
0.0904647511
 40
0.1127468248
 40
0.1351438111
 40
0.1577784785
 40
0.1807690581
 40
0.2042266934
 40
0.2282543948
 40
0.2783590946
 40
0.3046194201
 40
0.3317650887
 40
0.3598501503
 40
0.3889205307
 40
0.4190135551
 40
0.4501586083
 40
0.5156792444
 40
0.5856053416
 40
0.6599625998
 40
0.7387070699
 40
0.8217328203
 40
0.9088969202
 40
1.0
 40
1.0
 40
1.0
 40
1.0
 10
16.2022082591
 20
13.7534778777
 30
0.0
 10
16.1971364863
 20
13.7551756218
 30
0.0
 10
16.1869462981
 20
13.7581732045
 30
0.0
 10
16.1714618009
 20
13.7614494366
 30
0.0
 10
16.1559405602
 20
13.7634588104
 30
0.0
 10
16.1404007683
 20
13.7641988106
 30
0.0
 10
16.1248594623
 20
13.763667158
 30
0.0
 10
16.1093341857
 20
13.7618655507
 30
0.0
 10
16.0938418984
 20
13.758796668
 30
0.0
 10
16.0783999045
 20
13.7544637031
 30
0.0
 10
16.0630235074
 20
13.7488730896
 30
0.0
 10
16.042347154
 20
13.7396248975
 30
0.0
 10
16.0221249638
 20
13.7279263759
 30
0.0
 10
16.0024940094
 20
13.7140915323
 30
0.0
 10
15.9876781859
 20
13.7023386212
 30
0.0
 10
15.9730192464
 20
13.6893872854
 30
0.0
 10
15.9585303168
 20
13.6752492447
 30
0.0
 10
15.9442255769
 20
13.659939188
 30
0.0
 10
15.9250932598
 20
13.6376062303
 30
0.0
 10
15.9017747609
 20
13.6067459094
 30
0.0
 10
15.8752150442
 20
13.5659325192
 30
0.0
 10
15.8497201871
 20
13.5208892719
 30
0.0
 10
15.8253909033
 20
13.4717962019
 30
0.0
 10
15.8023207253
 20
13.4188456206
 30
0.0
 10
15.7806028276
 20
13.3622487038
 30
0.0
 10
15.7673636224
 20
13.3230661092
 30
0.0
 10
15.7609664887
 20
13.3029276307
 30
0.0
  0
SPLINE
  5
2B6
100
AcDbEntity
  8
02___PRT_ALL_AXES
100
AcDbSpline
 62
7
  6
CONTINUOUS
 70
0
 71
3
 72
30
 73
26
 74
0
 42
0.0000001
 43
0.0000001
 44
0.0000000001
 40
0.0
 40
0.0
 40
0.0
 40
0.0
 40
0.0877006703
 40
0.1702786707
 40
0.2477021653
 40
0.3200297354
 40
0.3874310649
 40
0.4502093908
 40
0.5088271637
 40
0.5367863519
 40
0.5639644747
 40
0.5904731558
 40
0.6164350896
 40
0.6419837482
 40
0.6672607839
 40
0.6924135197
 40
0.7175921349
 40
0.7429461213
 40
0.7686213687
 40
0.7947567332
 40
0.8214821983
 40
0.8771356403
 40
0.9062983477
 40
0.9364552365
 40
1.0
 40
1.0
 40
1.0
 40
1.0
 10
16.3862187874
 20
13.3951903227
 30
0.0
 10
16.3789184607
 20
13.4103953836
 30
0.0
 10
16.3639944243
 20
13.439567159
 30
0.0
 10
16.3398478433
 20
13.4806667445
 30
0.0
 10
16.3146999373
 20
13.517645045
 30
0.0
 10
16.2886510804
 20
13.5503464138
 30
0.0
 10
16.2617993332
 20
13.5786352915
 30
0.0
 10
16.2342478265
 20
13.6023872019
 30
0.0
 10
16.2104092644
 20
13.6185590167
 30
0.0
 10
16.1911513973
 20
13.6289719349
 30
0.0
 10
16.1768376603
 20
13.6354616113
 30
0.0
 10
16.1624441281
 20
13.6407455303
 30
0.0
 10
16.1479856335
 20
13.6448156898
 30
0.0
 10
16.1334788452
 20
13.6476668431
 30
0.0
 10
16.1189405031
 20
13.6492953305
 30
0.0
 10
16.1043876921
 20
13.6496973386
 30
0.0
 10
16.0898379418
 20
13.6488733439
 30
0.0
 10
16.0753084046
 20
13.6468245886
 30
0.0
 10
16.0608165965
 20
13.6435532226
 30
0.0
 10
16.0463781148
 20
13.6390648232
 30
0.0
 10
16.0269633369
 20
13.631364487
 30
0.0
 10
16.0079444105
 20
13.6212684644
 30
0.0
 10
15.9894816486
 20
13.6090833615
 30
0.0
 10
15.9705717125
 20
13.5948938749
 30
0.0
 10
15.9571060441
 20
13.5828512583
 30
0.0
 10
15.9483899103
 20
13.5742848338
 30
0.0
  0
SPLINE
  5
2B7
100
AcDbEntity
  8
02___PRT_ALL_AXES
100
AcDbSpline
 62
7
  6
CONTINUOUS
 70
0
 71
3
 72
11
 73
7
 74
0
 42
0.0000001
 43
0.0000001
 44
0.0000000001
 40
0.0
 40
0.0
 40
0.0
 40
0.0
 40
0.2289697789
 40
0.4717200796
 40
0.7286637661
 40
1.0
 40
1.0
 40
1.0
 40
1.0
 10
15.9483899103
 20
13.5742848338
 30
0.0
 10
15.9406859266
 20
13.5667131745
 30
0.0
 10
15.9254594746
 20
13.5504481723
 30
0.0
 10
15.9038157136
 20
13.5237102575
 30
0.0
 10
15.8827726793
 20
13.4940139317
 30
0.0
 10
15.8695445775
 20
13.4728753092
 30
0.0
 10
15.8630283674
 20
13.4618573947
 30
0.0
  0
SPLINE
  5
2B8
100
AcDbEntity
  8
02___PRT_ALL_AXES
100
AcDbSpline
 62
7
  6
CONTINUOUS
 70
0
 71
3
 72
11
 73
7
 74
0
 42
0.0000001
 43
0.0000001
 44
0.0000000001
 40
0.0
 40
0.0
 40
0.0
 40
0.0
 40
0.2301577433
 40
0.47380197
 40
0.7305722883
 40
1.0
 40
1.0
 40
1.0
 40
1.0
 10
15.8630283674
 20
13.4618573947
 30
0.0
 10
15.854867219
 20
13.4480581412
 30
0.0
 10
15.8389561546
 20
13.4191185282
 30
0.0
 10
15.8168781493
 20
13.3732451774
 30
0.0
 10
15.7959870951
 20
13.3238371357
 30
0.0
 10
15.7832046251
 20
13.2894719067
 30
0.0
 10
15.7770079183
 20
13.2717570881
 30
0.0
  0
SPLINE
  5
2B9
100
AcDbEntity
  8
02___PRT_ALL_AXES
100
AcDbSpline
 62
7
  6
CONTINUOUS
 70
0
 71
3
 72
37
 73
33
 74
0
 42
0.0000001
 43
0.0000001
 44
0.0000000001
 40
0.0
 40
0.0
 40
0.0
 40
0.0
 40
0.0857459747
 40
0.1264677325
 40
0.1657417973
 40
0.2035695507
 40
0.2399622596
 40
0.2749399023
 40
0.3085339494
 40
0.3717329542
 40
0.4014949072
 40
0.4301354173
 40
0.4577607917
 40
0.4844954283
 40
0.5104812728
 40
0.5358778263
 40
0.560858722
 40
0.5856090245
 40
0.6103201491
 40
0.6351847199
 40
0.6603908298
 40
0.6861174854
 40
0.7125300802
 40
0.739777841
 40
0.7679927044
 40
0.7972876758
 40
0.827758939
 40
0.8594850693
 40
0.8925293283
 40
0.9269411746
 40
0.9627562653
 40
1.0
 40
1.0
 40
1.0
 40
1.0
 10
16.3859795856
 20
11.6259221394
 30
0.0
 10
16.3776653478
 20
11.6086302076
 30
0.0
 10
16.3646642932
 20
11.5834653968
 30
0.0
 10
16.345953074
 20
11.5514374043
 30
0.0
 10
16.3318267754
 20
11.5291686973
 30
0.0
 10
16.3173849736
 20
11.508270036
 30
0.0
 10
16.3026483565
 20
11.4887699065
 30
0.0
 10
16.2876349775
 20
11.4706941022
 30
0.0
 10
16.2676849259
 20
11.4489727986
 30
0.0
 10
16.2468828022
 20
11.4296425967
 30
0.0
 10
16.2252370753
 20
11.4131261439
 30
0.0
 10
16.2091528899
 20
11.4025191206
 30
0.0
 10
16.1929177626
 20
11.3934618492
 30
0.0
 10
16.1765532196
 20
11.3859680348
 30
0.0
 10
16.1600815136
 20
11.3800522434
 30
0.0
 10
16.1435270128
 20
11.3757238562
 30
0.0
 10
16.1269141839
 20
11.372992928
 30
0.0
 10
16.1102692697
 20
11.3718647503
 30
0.0
 10
16.0936188506
 20
11.3723412742
 30
0.0
 10
16.0769899073
 20
11.3744229019
 30
0.0
 10
16.0604085248
 20
11.3781032679
 30
0.0
 10
16.0439003956
 20
11.3833763886
 30
0.0
 10
16.0274895917
 20
11.3902312097
 30
0.0
 10
16.0111990272
 20
11.3986553549
 30
0.0
 10
15.9950515046
 20
11.4086356447
 30
0.0
 10
15.9790676373
 20
11.4201550582
 30
0.0
 10
15.9632694274
 20
11.4331974982
 30
0.0
 10
15.9476770748
 20
11.4477432293
 30
0.0
 10
15.9323112313
 20
11.4637716793
 30
0.0
 10
15.917192846
 20
11.4812608671
 30
0.0
 10
15.9023414885
 20
11.5001853027
 30
0.0
 10
15.8928193304
 20
11.5134808168
 30
0.0
 10
15.8881026515
 20
11.520351451
 30
0.0
  0
SPLINE
  5
2BA
100
AcDbEntity
  8
02___PRT_ALL_AXES
100
AcDbSpline
 62
7
  6
CONTINUOUS
 70
0
 71
3
 72
11
 73
7
 74
0
 42
0.0000001
 43
0.0000001
 44
0.0000000001
 40
0.0
 40
0.0
 40
0.0
 40
0.0
 40
0.2292146
 40
0.4724226016
 40
0.7294614164
 40
1.0
 40
1.0
 40
1.0
 40
1.0
 10
15.8881026515
 20
11.520351451
 30
0.0
 10
15.8799082395
 20
11.5322879868
 30
0.0
 10
15.8638644922
 20
11.5574773655
 30
0.0
 10
15.8414440178
 20
11.5977574518
 30
0.0
 10
15.8200336596
 20
11.6415069193
 30
0.0
 10
15.8068171091
 20
11.6721133385
 30
0.0
 10
15.8003736338
 20
11.6879408621
 30
0.0
  0
SPLINE
  5
2BB
100
AcDbEntity
  8
02___PRT_ALL_AXES
100
AcDbSpline
 62
7
  6
CONTINUOUS
 70
0
 71
3
 72
27
 73
23
 74
0
 42
0.0000001
 43
0.0000001
 44
0.0000000001
 40
0.0
 40
0.0
 40
0.0
 40
0.0
 40
0.0258735554
 40
0.0525861641
 40
0.0801037165
 40
0.1083881488
 40
0.1373986287
 40
0.1670910616
 40
0.2283304137
 40
0.2917122177
 40
0.3568091101
 40
0.4231713237
 40
0.4903330858
 40
0.5578187177
 40
0.6251485703
 40
0.6918449043
 40
0.7574377796
 40
0.8214711313
 40
0.883508913
 40
0.943142116
 40
0.9719433813
 40
1.0
 40
1.0
 40
1.0
 40
1.0
 10
15.7962023078
 20
11.6983224387
 30
0.0
 10
15.7912916154
 20
11.7107054136
 30
0.0
 10
15.7817114093
 20
11.7360333599
 30
0.0
 10
15.7682561996
 20
11.7750240976
 30
0.0
 10
15.7555092703
 20
11.815555205
 30
0.0
 10
15.7434967947
 20
11.8575413785
 30
0.0
 10
15.732244488
 20
11.9008953502
 30
0.0
 10
15.7181413085
 20
11.9610211536
 30
0.0
 10
15.7026378893
 20
12.0389711045
 30
0.0
 10
15.6875792723
 20
12.1355065048
 30
0.0
 10
15.676007125
 20
12.2351765969
 30
0.0
 10
15.6680190415
 20
12.3371482598
 30
0.0
 10
15.6636825391
 20
12.4405705993
 30
0.0
 10
15.6630342516
 20
12.5445796491
 30
0.0
 10
15.6660796589
 20
12.6483065431
 30
0.0
 10
15.672793027
 20
12.7508848462
 30
0.0
 10
15.6831176407
 20
12.851457842
 30
0.0
 10
15.6969662656
 20
12.9491867722
 30
0.0
 10
15.7142221864
 20
13.0432550517
 30
0.0
 10
15.7315153812
 20
13.1188026285
 30
0.0
 10
15.7470045142
 20
13.176749212
 30
0.0
 10
15.7552719488
 20
13.2048352725
 30
0.0
 10
15.7595368296
 20
13.2186364316
 30
0.0
  0
SPLINE
  5
2BC
100
AcDbEntity
  8
02___PRT_ALL_AXES
100
AcDbSpline
 62
7
  6
CONTINUOUS
 70
0
 71
3
 72
28
 73
24
 74
0
 42
0.0000001
 43
0.0000001
 44
0.0000000001
 40
0.0
 40
0.0
 40
0.0
 40
0.0
 40
0.0238340759
 40
0.047299199
 40
0.0705006391
 40
0.0935481037
 40
0.1165539923
 40
0.1396315454
 40
0.1628925971
 40
0.1864459089
 40
0.2103951218
 40
0.2348373595
 40
0.2855278904
 40
0.3391660643
 40
0.3962383959
 40
0.4571051264
 40
0.5220143248
 40
0.591119537
 40
0.6644938103
 40
0.7421425052
 40
0.8240154721
 40
0.9100144193
 40
1.0
 40
1.0
 40
1.0
 40
1.0
 10
16.2022082596
 20
11.2681320982
 30
0.0
 10
16.1974645345
 20
11.2665441468
 30
0.0
 10
16.1879378899
 20
11.2637169603
 30
0.0
 10
16.1734726082
 20
11.2605409337
 30
0.0
 10
16.1589737446
 20
11.2584706938
 30
0.0
 10
16.1444559626
 20
11.2575084402
 30
0.0
 10
16.1299329381
 20
11.2576563072
 30
0.0
 10
16.1154188686
 20
11.2589136178
 30
0.0
 10
16.1009275098
 20
11.2612783482
 30
0.0
 10
16.0864728825
 20
11.2647486627
 30
0.0
 10
16.0720679238
 20
11.2693204565
 30
0.0
 10
16.0527140781
 20
11.2769679284
 30
0.0
 10
16.028629301
 20
11.2894053499
 30
0.0
 10
16.0005314992
 20
11.3084499005
 30
0.0
 10
15.9729650655
 20
11.3317136718
 30
0.0
 10
15.9460177348
 20
11.3591058761
 30
0.0
 10
15.9197704912
 20
11.3905283028
 30
0.0
 10
15.8943075799
 20
11.4258720872
 30
0.0
 10
15.8697122817
 20
11.4650156457
 30
0.0
 10
15.8460665192
 20
11.5078239697
 30
0.0
 10
15.8234512179
 20
11.5541498628
 30
0.0
 10
15.8019447467
 20
11.6038319079
 30
0.0
 10
15.7886864274
 20
11.6383193488
 30
0.0
 10
15.7822391027
 20
11.65607158
 30
0.0
  0
SPLINE
  5
2BD
100
AcDbEntity
  8
02___PRT_ALL_AXES
100
AcDbSpline
 62
7
  6
CONTINUOUS
 70
0
 71
3
 72
11
 73
7
 74
0
 42
0.0000001
 43
0.0000001
 44
0.0000000001
 40
0.0
 40
0.0
 40
0.0
 40
0.0
 40
0.2374006564
 40
0.4835681508
 40
0.7379639441
 40
1.0
 40
1.0
 40
1.0
 40
1.0
 10
15.7813122738
 20
11.6586306801
 30
0.0
 10
15.7748767312
 20
11.6764498471
 30
0.0
 10
15.7624418988
 20
11.7129925842
 30
0.0
 10
15.745363
 20
11.7693650802
 30
0.0
 10
15.7295605137
 20
11.8281462582
 30
0.0
 10
15.720044317
 20
11.8682530992
 30
0.0
 10
15.7154984284
 20
11.8886647197
 30
0.0
  0
SPLINE
  5
2BE
100
AcDbEntity
  8
02___PRT_ALL_AXES
100
AcDbSpline
 62
7
  6
CONTINUOUS
 70
0
 71
3
 72
23
 73
19
 74
0
 42
0.0000001
 43
0.0000001
 44
0.0000000001
 40
0.0
 40
0.0
 40
0.0
 40
0.0
 40
0.0582818458
 40
0.1180141953
 40
0.1790221632
 40
0.2411230587
 40
0.3041279685
 40
0.3678430136
 40
0.4320702333
 40
0.4966089236
 40
0.5612567385
 40
0.6258106582
 40
0.6900682446
 40
0.7538286397
 40
0.816893657
 40
0.8790689687
 40
0.9401653871
 40
1.0
 40
1.0
 40
1.0
 40
1.0
 10
15.7154984284
 20
11.8886647197
 30
0.0
 10
15.7105177396
 20
11.9110286488
 30
0.0
 10
15.7011186977
 20
11.9564684869
 30
0.0
 10
15.6888217181
 20
12.025771898
 30
0.0
 10
15.6781855313
 20
12.0968681021
 30
0.0
 10
15.6692495155
 20
12.1694937045
 30
0.0
 10
15.6620466231
 20
12.2433806625
 30
0.0
 10
15.6566039743
 20
12.3182559665
 30
0.0
 10
15.652941689
 20
12.3938429404
 30
0.0
 10
15.6510731048
 20
12.4698622091
 30
0.0
 10
15.6510054782
 20
12.546032809
 30
0.0
 10
15.6527390663
 20
12.6220732014
 30
0.0
 10
15.6562671055
 20
12.6977023382
 30
0.0
 10
15.6615767567
 20
12.7726407175
 30
0.0
 10
15.6686484046
 20
12.8466113182
 30
0.0
 10
15.6774554203
 20
12.9193411174
 30
0.0
 10
15.6879651729
 20
12.9905608129
 30
0.0
 10
15.6961750945
 20
13.0373944496
 30
0.0
 10
15.7005674531
 20
13.0605029842
 30
0.0
  0
SPLINE
  5
2BF
100
AcDbEntity
  8
02___PRT_ALL_AXES
100
AcDbSpline
 62
7
  6
CONTINUOUS
 70
0
 71
3
 72
11
 73
7
 74
0
 42
0.0000001
 43
0.0000001
 44
0.0000000001
 40
0.0
 40
0.0
 40
0.0
 40
0.0
 40
0.2599365127
 40
0.5136107081
 40
0.7604925674
 40
1.0
 40
1.0
 40
1.0
 40
1.0
 10
15.7007575527
 20
13.0615019889
 30
0.0
 10
15.7045712348
 20
13.0815210014
 30
0.0
 10
15.7125979122
 20
13.1209852655
 30
0.0
 10
15.7260133658
 20
13.1790862591
 30
0.0
 10
15.7406276201
 20
13.235244269
 30
0.0
 10
15.7513088438
 20
13.2718579293
 30
0.0
 10
15.7568528198
 20
13.2897982424
 30
0.0
  0
SPLINE
  5
2C0
100
AcDbEntity
  8
AXIS
100
AcDbSpline
 62
7
  6
CONTINUOUS
 70
0
 71
3
 72
25
 73
21
 74
0
 42
0.0000001
 43
0.0000001
 44
0.0000000001
 40
0.0
 40
0.0
 40
0.0
 40
0.0
 40
0.0877945444
 40
0.17239909
 40
0.2536073464
 40
0.3312625635
 40
0.4052798144
 40
0.4756016302
 40
0.5422063389
 40
0.6051112395
 40
0.6643825883
 40
0.7201626339
 40
0.7726634343
 40
0.7977817277
 40
0.8222014014
 40
0.8691429201
 40
0.914003612
 40
0.9573858781
 40
0.9787472739
 40
1.0
 40
1.0
 40
1.0
 40
1.0
 10
15.8718879582
 20
13.0603082049
 30
0.0
 10
15.8758067623
 20
13.0729894595
 30
0.0
 10
15.8838996342
 20
13.097770835
 30
0.0
 10
15.8970611809
 20
13.1337903373
 30
0.0
 10
15.9109863129
 20
13.1678728563
 30
0.0
 10
15.9256318128
 20
13.1999013292
 30
0.0
 10
15.9409478921
 20
13.2297781702
 30
0.0
 10
15.9568920831
 20
13.2574139105
 30
0.0
 10
15.9734153674
 20
13.2827260526
 30
0.0
 10
15.9904664307
 20
13.3056379667
 30
0.0
 10
16.0080005125
 20
13.3260753869
 30
0.0
 10
16.0259617724
 20
13.343976533
 30
0.0
 10
16.0414702221
 20
13.3569205628
 30
0.0
 10
16.0540341459
 20
13.3658829772
 30
0.0
 10
16.0663431613
 20
13.3737184308
 30
0.0
 10
16.0819311697
 20
13.3819205548
 30
0.0
 10
16.1011043578
 20
13.3891525934
 30
0.0
 10
16.1173085679
 20
13.3928850078
 30
0.0
 10
16.1302249315
 20
13.3944420324
 30
0.0
 10
16.1366666489
 20
13.3947546919
 30
0.0
 10
16.1398794294
 20
13.3947946422
 30
0.0
  0
SPLINE
  5
2C1
100
AcDbEntity
  8
AXIS
100
AcDbSpline
 62
7
  6
CONTINUOUS
 70
0
 71
3
 72
41
 73
37
 74
0
 42
0.0000001
 43
0.0000001
 44
0.0000000001
 40
0.0
 40
0.0
 40
0.0
 40
0.0
 40
0.0330042354
 40
0.0673046218
 40
0.1027544163
 40
0.1392187181
 40
0.176564082
 40
0.2146434653
 40
0.2533015276
 40
0.2923800494
 40
0.3317184976
 40
0.3711547042
 40
0.4105249533
 40
0.4496663946
 40
0.4884178589
 40
0.5266206552
 40
0.5641208978
 40
0.6007686823
 40
0.6364224607
 40
0.6709465759
 40
0.7042172486
 40
0.7361195603
 40
0.7665541187
 40
0.7954351429
 40
0.8226968462
 40
0.8482945572
 40
0.8722105037
 40
0.894459869
 40
0.9150967168
 40
0.9342259734
 40
0.9520099311
 40
0.9686818272
 40
0.9766996086
 40
0.9845594501
 40
0.9923094098
 40
1.0
 40
1.0
 40
1.0
 40
1.0
 10
15.8718879582
 20
13.0603082049
 30
0.0
 10
15.8667997434
 20
13.0438427357
 30
0.0
 10
15.8571165392
 20
13.0100478286
 30
0.0
 10
15.8442595466
 20
12.9579449462
 30
0.0
 10
15.8328486452
 20
12.9036588609
 30
0.0
 10
15.8229380963
 20
12.8474648468
 30
0.0
 10
15.8145779399
 20
12.7896322293
 30
0.0
 10
15.8078050111
 20
12.7304397228
 30
0.0
 10
15.8026556774
 20
12.6701759294
 30
0.0
 10
15.7991543106
 20
12.6091357106
 30
0.0
 10
15.7973179601
 20
12.5476163719
 30
0.0
 10
15.7971564027
 20
12.4859175827
 30
0.0
 10
15.7986686271
 20
12.4243399663
 30
0.0
 10
15.8018501028
 20
12.3631839112
 30
0.0
 10
15.806681489
 20
12.3027473238
 30
0.0
 10
15.8131435057
 20
12.2433249053
 30
0.0
 10
15.8211994289
 20
12.1852058073
 30
0.0
 10
15.8308151917
 20
12.1286734017
 30
0.0
 10
15.8419380426
 20
12.0740022661
 30
0.0
 10
15.8545190552
 20
12.021458729
 30
0.0
 10
15.8684914474
 20
11.9712972089
 30
0.0
 10
15.8837917173
 20
11.9237614711
 30
0.0
 10
15.9003415167
 20
11.879080608
 30
0.0
 10
15.9180636926
 20
11.8374704163
 30
0.0
 10
15.9368714658
 20
11.7991301136
 30
0.0
 10
15.9566762006
 20
11.76424238
 30
0.0
 10
15.9773870515
 20
11.7329733441
 30
0.0
 10
15.9989085605
 20
11.7054687919
 30
0.0
 10
16.0211515857
 20
11.6818626272
 30
0.0
 10
16.0440222809
 20
11.6622660792
 30
0.0
 10
16.0674311604
 20
11.6467937686
 30
0.0
 10
16.0875769781
 20
11.6372915817
 30
0.0
 10
16.1037373357
 20
11.6319716974
 30
0.0
 10
16.115754453
 20
11.6291094774
 30
0.0
 10
16.1278052932
 20
11.6273292762
 30
0.0
 10
16.1358673089
 20
11.6268652507
 30
0.0
 10
16.1398827739
 20
11.6268153388
 30
0.0
  0
SPLINE
  5
2C2
100
AcDbEntity
  8
0
100
AcDbSpline
 62
7
  6
CONTINUOUS
 70
0
 71
3
 72
17
 73
13
 74
0
 42
0.0000001
 43
0.0000001
 44
0.0000000001
 40
0.0
 40
0.0
 40
0.0
 40
0.0
 40
0.0371462057
 40
0.0755557581
 40
0.1597591226
 40
0.2072407874
 40
0.2588242626
 40
0.3749789127
 40
0.5087842497
 40
0.6591616765
 40
0.8240635579
 40
1.0
 40
1.0
 40
1.0
 40
1.0
 10
14.1571771401
 20
12.1292021861
 30
0.0
 10
14.156877891
 20
12.1292024282
 30
0.0
 10
14.1562676759
 20
12.1292644283
 30
0.0
 10
14.1550292453
 20
12.1296377929
 30
0.0
 10
14.153847376
 20
12.1303811441
 30
0.0
 10
14.1527676065
 20
12.1313896859
 30
0.0
 10
14.1516347627
 20
12.1327068394
 30
0.0
 10
14.1503230672
 20
12.1347651135
 30
0.0
 10
14.1489668844
 20
12.1376984468
 30
0.0
 10
14.1477960359
 20
12.1411274247
 30
0.0
 10
14.1468425379
 20
12.1449720043
 30
0.0
 10
14.146374923
 20
12.1476802409
 30
0.0
 10
14.1461790823
 20
12.1490839862
 30
0.0
  0
SPLINE
  5
2C3
100
AcDbEntity
  8
0
100
AcDbSpline
 62
7
  6
CONTINUOUS
 70
0
 71
3
 72
15
 73
11
 74
0
 42
0.0000001
 43
0.0000001
 44
0.0000000001
 40
0.0
 40
0.0
 40
0.0
 40
0.0
 40
0.0843025794
 40
0.1746557384
 40
0.2757925667
 40
0.3906787796
 40
0.5206963009
 40
0.666256275
 40
0.8265643143
 40
1.0
 40
1.0
 40
1.0
 40
1.0
 10
14.2112180273
 20
11.8670004934
 30
0.0
 10
14.2107554671
 20
11.8670001406
 30
0.0
 10
14.2097920043
 20
11.8671523067
 30
0.0
 10
14.2084103238
 20
11.8678077051
 30
0.0
 10
14.2070875188
 20
11.8688640043
 30
0.0
 10
14.2058337757
 20
11.8702999615
 30
0.0
 10
14.204656146
 20
11.8720960516
 30
0.0
 10
14.2035709516
 20
11.8742316943
 30
0.0
 10
14.2025902364
 20
11.8766747931
 30
0.0
 10
14.2020348055
 20
11.8784215293
 30
0.0
 10
14.201775111
 20
11.8793370344
 30
0.0
  0
SPLINE
  5
2C4
100
AcDbEntity
  8
0
100
AcDbSpline
 62
7
  6
CONTINUOUS
 70
0
 71
3
 72
14
 73
10
 74
0
 42
0.0000001
 43
0.0000001
 44
0.0000000001
 40
0.0
 40
0.0
 40
0.0
 40
0.0
 40
0.0969242204
 40
0.1973906025
 40
0.3044893901
 40
0.4206751293
 40
0.547739084
 40
0.6865717128
 40
1.0
 40
1.0
 40
1.0
 40
1.0
 10
14.2918312484
 20
11.6545037925
 30
0.0
 10
14.291510815
 20
11.6545036996
 30
0.0
 10
14.2908562951
 20
11.6545740112
 30
0.0
 10
14.2898926971
 20
11.6548855933
 30
0.0
 10
14.2889468072
 20
11.655397646
 30
0.0
 10
14.2880245285
 20
11.6561049896
 30
0.0
 10
14.287131459
 20
11.6570028096
 30
0.0
 10
14.2859369591
 20
11.6585034858
 30
0.0
 10
14.2851761412
 20
11.6598007906
 30
0.0
 10
14.2847081375
 20
11.6607252815
 30
0.0
  0
SPLINE
  5
2C5
100
AcDbEntity
  8
0
100
AcDbSpline
 62
7
  6
CONTINUOUS
 70
0
 71
3
 72
11
 73
7
 74
0
 42
0.0000001
 43
0.0000001
 44
0.0000000001
 40
0.0
 40
0.0
 40
0.0
 40
0.0
 40
0.2264059448
 40
0.4633981607
 40
0.7192829592
 40
1.0
 40
1.0
 40
1.0
 40
1.0
 10
14.3924888738
 20
11.5089193836
 30
0.0
 10
14.3921261663
 20
11.5089192799
 30
0.0
 10
14.391381025
 20
11.5090105351
 30
0.0
 10
14.3902919722
 20
11.5094124422
 30
0.0
 10
14.3892310466
 20
11.510065893
 30
0.0
 10
14.3885809369
 20
11.5106340926
 30
0.0
 10
14.3882623867
 20
11.5109515347
 30
0.0
  0
SPLINE
  5
2C6
100
AcDbEntity
  8
0
100
AcDbSpline
 62
7
  6
CONTINUOUS
 70
0
 71
3
 72
17
 73
13
 74
0
 42
0.0000001
 43
0.0000001
 44
0.0000000001
 40
0.0
 40
0.0
 40
0.0
 40
0.0
 40
0.1718243311
 40
0.334681889
 40
0.4848657952
 40
0.619978881
 40
0.7384254547
 40
0.8398236926
 40
0.8845234188
 40
0.925680722
 40
0.9639014447
 40
1.0
 40
1.0
 40
1.0
 40
1.0
 10
14.1352279082
 20
12.7814785192
 30
0.0
 10
14.1353783277
 20
12.7829594956
 30
0.0
 10
14.1357630123
 20
12.7858358536
 30
0.0
 10
14.1366056071
 20
12.7899549142
 30
0.0
 10
14.1376873443
 20
12.7936886601
 30
0.0
 10
14.1389771344
 20
12.7969474821
 30
0.0
 10
14.1404479032
 20
12.7996573108
 30
0.0
 10
14.1418554016
 20
12.8014869646
 30
0.0
 10
14.1430584174
 20
12.802581384
 30
0.0
 10
14.1439470262
 20
12.803193155
 30
0.0
 10
14.1448537292
 20
12.8036263857
 30
0.0
 10
14.1454797555
 20
12.8037957813
 30
0.0
 10
14.1457883791
 20
12.8038463492
 30
0.0
  0
SPLINE
  5
2C7
100
AcDbEntity
  8
0
100
AcDbSpline
 62
7
  6
CONTINUOUS
 70
0
 71
3
 72
15
 73
11
 74
0
 42
0.0000001
 43
0.0000001
 44
0.0000000001
 40
0.0
 40
0.0
 40
0.0
 40
0.0
 40
0.0934610133
 40
0.2000460254
 40
0.3181364341
 40
0.4456923549
 40
0.5804038937
 40
0.7196729671
 40
0.8606696796
 40
1.0
 40
1.0
 40
1.0
 40
1.0
 10
14.1377451694
 20
12.7198439531
 30
0.0
 10
14.137185252
 20
12.7207174276
 30
0.0
 10
14.1361452815
 20
12.7226892473
 30
0.0
 10
14.1348689746
 20
12.7259879977
 30
0.0
 10
14.1338074502
 20
12.7297566078
 30
0.0
 10
14.1329827814
 20
12.7339014322
 30
0.0
 10
14.1324173812
 20
12.7383262283
 30
0.0
 10
14.1321229356
 20
12.7429265449
 30
0.0
 10
14.1321108894
 20
12.7475872219
 30
0.0
 10
14.1322894289
 20
12.7506964037
 30
0.0
 10
14.1324280313
 20
12.7522369133
 30
0.0
  0
SPLINE
  5
2C8
100
AcDbEntity
  8
0
100
AcDbSpline
 62
7
  6
CONTINUOUS
 70
0
 71
3
 72
9
 73
5
 74
0
 42
0.0000001
 43
0.0000001
 44
0.0000000001
 40
0.0
 40
0.0
 40
0.0
 40
0.0
 40
0.5155232647
 40
1.0
 40
1.0
 40
1.0
 40
1.0
 10
14.1377451694
 20
12.7198439531
 30
0.0
 10
14.1410247475
 20
12.7147277915
 30
0.0
 10
14.1476816424
 20
12.704988474
 30
0.0
 10
14.1549943513
 20
12.6957269407
 30
0.0
 10
14.1587110935
 20
12.6913907756
 30
0.0
  0
SPLINE
  5
2C9
100
AcDbEntity
  8
0
100
AcDbSpline
 62
7
  6
CONTINUOUS
 70
0
 71
3
 72
9
 73
5
 74
0
 42
0.0000001
 43
0.0000001
 44
0.0000000001
 40
0.0
 40
0.0
 40
0.0
 40
0.0
 40
0.5389069232
 40
1.0
 40
1.0
 40
1.0
 40
1.0
 10
14.161902062
 20
12.6858836583
 30
0.0
 10
14.16146506
 20
12.6869439362
 30
0.0
 10
14.1605489162
 20
12.6888707901
 30
0.0
 10
14.1593496626
 20
12.6906457842
 30
0.0
 10
14.1587110935
 20
12.6913907756
 30
0.0
  0
SPLINE
  5
2CA
100
AcDbEntity
  8
0
100
AcDbSpline
 62
7
  6
CONTINUOUS
 70
0
 71
3
 72
9
 73
5
 74
0
 42
0.0000001
 43
0.0000001
 44
0.0000000001
 40
0.0
 40
0.0
 40
0.0
 40
0.0
 40
0.455593884
 40
1.0
 40
1.0
 40
1.0
 40
1.0
 10
14.152307368
 20
12.524691078
 30
0.0
 10
14.1529888136
 20
12.5251004049
 30
0.0
 10
14.1543252748
 20
12.5262634711
 30
0.0
 10
14.1553549724
 20
12.5276838741
 30
0.0
 10
14.1558558629
 20
12.5284909718
 30
0.0
  0
SPLINE
  5
2CB
100
AcDbEntity
  8
0
100
AcDbSpline
 62
7
  6
CONTINUOUS
 70
0
 71
3
 72
9
 73
5
 74
0
 42
0.0000001
 43
0.0000001
 44
0.0000000001
 40
0.0
 40
0.0
 40
0.0
 40
0.0
 40
0.2386711125
 40
1.0
 40
1.0
 40
1.0
 40
1.0
 10
14.152307368
 20
12.524691078
 30
0.0
 10
14.150353833
 20
12.5235176398
 30
0.0
 10
14.1423174232
 20
12.5183543725
 30
0.0
 10
14.1348898832
 20
12.5122713019
 30
0.0
 10
14.1295805802
 20
12.5073060264
 30
0.0
  0
SPLINE
  5
2CC
100
AcDbEntity
  8
0
100
AcDbSpline
 62
7
  6
CONTINUOUS
 70
0
 71
3
 72
15
 73
11
 74
0
 42
0.0000001
 43
0.0000001
 44
0.0000000001
 40
0.0
 40
0.0
 40
0.0
 40
0.0
 40
0.1522253753
 40
0.3023060457
 40
0.4466335277
 40
0.5824093828
 40
0.7072170734
 40
0.8191521692
 40
0.9168711871
 40
1.0
 40
1.0
 40
1.0
 40
1.0
 10
14.1219011788
 20
12.4782053164
 30
0.0
 10
14.1218827088
 20
12.4797649859
 30
0.0
 10
14.1219409827
 20
12.4828642495
 30
0.0
 10
14.1223036718
 20
12.4874291508
 30
0.0
 10
14.1229385923
 20
12.4917944706
 30
0.0
 10
14.123825491
 20
12.4958516123
 30
0.0
 10
14.1249450734
 20
12.4995057608
 30
0.0
 10
14.1262687893
 20
12.5026751022
 30
0.0
 10
14.1277697308
 20
12.5052822946
 30
0.0
 10
14.1289584623
 20
12.5067242199
 30
0.0
 10
14.1295805802
 20
12.5073060264
 30
0.0
  0
SPLINE
  5
2CD
100
AcDbEntity
  8
0
100
AcDbSpline
 62
7
  6
CONTINUOUS
 70
0
 71
3
 72
15
 73
11
 74
0
 42
0.0000001
 43
0.0000001
 44
0.0000000001
 40
0.0
 40
0.0
 40
0.0
 40
0.0
 40
0.0790696431
 40
0.172767337
 40
0.2816456376
 40
0.40488551
 40
0.5408861926
 40
0.6873866443
 40
0.8416504954
 40
1.0
 40
1.0
 40
1.0
 40
1.0
 10
14.1310770973
 20
12.4208870511
 30
0.0
 10
14.1304387662
 20
12.421323772
 30
0.0
 10
14.1291949654
 20
12.4224986431
 30
0.0
 10
14.1276073788
 20
12.4247635375
 30
0.0
 10
14.1261801417
 20
12.4276236197
 30
0.0
 10
14.1249407335
 20
12.4310104235
 30
0.0
 10
14.123919177
 20
12.434850246
 30
0.0
 10
14.1231377772
 20
12.4390541811
 30
0.0
 10
14.1226205321
 20
12.4435182136
 30
0.0
 10
14.1224574269
 20
12.4465739775
 30
0.0
 10
14.122422123
 20
12.4481224885
 30
0.0
  0
SPLINE
  5
2CE
100
AcDbEntity
  8
0
100
AcDbSpline
 62
7
  6
CONTINUOUS
 70
0
 71
3
 72
9
 73
5
 74
0
 42
0.0000001
 43
0.0000001
 44
0.0000000001
 40
0.0
 40
0.0
 40
0.0
 40
0.0
 40
0.51330157
 40
1.0
 40
1.0
 40
1.0
 40
1.0
 10
14.1310770973
 20
12.4208870511
 30
0.0
 10
14.1347864868
 20
12.4183492335
 30
0.0
 10
14.142289102
 20
12.4137919319
 30
0.0
 10
14.1503109416
 20
12.410209349
 30
0.0
 10
14.1543151044
 20
12.4087508608
 30
0.0
  0
SPLINE
  5
2CF
100
AcDbEntity
  8
0
100
AcDbSpline
 62
7
  6
CONTINUOUS
 70
0
 71
3
 72
9
 73
5
 74
0
 42
0.0000001
 43
0.0000001
 44
0.0000000001
 40
0.0
 40
0.0
 40
0.0
 40
0.0
 40
0.285176739
 40
1.0
 40
1.0
 40
1.0
 40
1.0
 10
14.1579809385
 20
12.4057747934
 30
0.0
 10
14.1577066277
 20
12.4061339419
 30
0.0
 10
14.1566918446
 20
12.4073436982
 30
0.0
 10
14.1553794837
 20
12.4083631681
 30
0.0
 10
14.1543151044
 20
12.4087508608
 30
0.0
  0
SPLINE
  5
2D0
100
AcDbEntity
  8
0
100
AcDbSpline
 62
7
  6
CONTINUOUS
 70
0
 71
3
 72
9
 73
5
 74
0
 42
0.0000001
 43
0.0000001
 44
0.0000000001
 40
0.0
 40
0.0
 40
0.0
 40
0.0
 40
0.4649086765
 40
1.0
 40
1.0
 40
1.0
 40
1.0
 10
14.1664556352
 20
12.2441687889
 30
0.0
 10
14.1670622618
 20
12.2450510533
 30
0.0
 10
14.1681872602
 20
12.2470729072
 30
0.0
 10
14.1690418251
 20
12.2492165296
 30
0.0
 10
14.1694436514
 20
12.2503815035
 30
0.0
  0
SPLINE
  5
2D1
100
AcDbEntity
  8
0
100
AcDbSpline
 62
7
  6
CONTINUOUS
 70
0
 71
3
 72
9
 73
5
 74
0
 42
0.0000001
 43
0.0000001
 44
0.0000000001
 40
0.0
 40
0.0
 40
0.0
 40
0.0
 40
0.4856448636
 40
1.0
 40
1.0
 40
1.0
 40
1.0
 10
14.1664556352
 20
12.2441687889
 30
0.0
 10
14.1629103407
 20
12.2390125897
 30
0.0
 10
14.1559633153
 20
12.2281499161
 30
0.0
 10
14.1496538325
 20
12.2169078124
 30
0.0
 10
14.1465559692
 20
12.2110490439
 30
0.0
  0
SPLINE
  5
2D2
100
AcDbEntity
  8
0
100
AcDbSpline
 62
7
  6
CONTINUOUS
 70
0
 71
3
 72
15
 73
11
 74
0
 42
0.0000001
 43
0.0000001
 44
0.0000000001
 40
0.0
 40
0.0
 40
0.0
 40
0.0
 40
0.1338173073
 40
0.2708492725
 40
0.4078183048
 40
0.5419123171
 40
0.6704975238
 40
0.7911532193
 40
0.9016453071
 40
1.0
 40
1.0
 40
1.0
 40
1.0
 10
14.1423795021
 20
12.1775719798
 30
0.0
 10
14.1421870282
 20
12.1790840064
 30
0.0
 10
14.1419012051
 20
12.1821582905
 30
0.0
 10
14.1417537465
 20
12.1868038312
 30
0.0
 10
14.1418897028
 20
12.1914531175
 30
0.0
 10
14.1423017165
 20
12.1959896228
 30
0.0
 10
14.1429818114
 20
12.200306027
 30
0.0
 10
14.1439110476
 20
12.2043012618
 30
0.0
 10
14.1450703285
 20
12.207875702
 30
0.0
 10
14.1460323033
 20
12.2100586719
 30
0.0
 10
14.1465559692
 20
12.2110490439
 30
0.0
  0
SPLINE
  5
2D3
100
AcDbEntity
  8
0
100
AcDbSpline
 62
7
  6
CONTINUOUS
 70
0
 71
3
 72
9
 73
5
 74
0
 42
0.0000001
 43
0.0000001
 44
0.0000000001
 40
0.0
 40
0.0
 40
0.0
 40
0.0
 40
0.4774037921
 40
1.0
 40
1.0
 40
1.0
 40
1.0
 10
14.2108010112
 20
11.985238245
 30
0.0
 10
14.2112742832
 20
11.986491736
 30
0.0
 10
14.2121169043
 20
11.9891743122
 30
0.0
 10
14.2127225374
 20
11.9919179536
 30
0.0
 10
14.2129865842
 20
11.9933606854
 30
0.0
  0
SPLINE
  5
2D4
100
AcDbEntity
  8
0
100
AcDbSpline
 62
7
  6
CONTINUOUS
 70
0
 71
3
 72
9
 73
5
 74
0
 42
0.0000001
 43
0.0000001
 44
0.0000000001
 40
0.0
 40
0.0
 40
0.0
 40
0.0
 40
0.4902044035
 40
1.0
 40
1.0
 40
1.0
 40
1.0
 10
14.2108010112
 20
11.985238245
 30
0.0
 10
14.2079901491
 20
11.9777934979
 30
0.0
 10
14.2025611775
 20
11.9624900224
 30
0.0
 10
14.1976911662
 20
11.9470004934
 30
0.0
 10
14.1953399079
 20
11.9390657872
 30
0.0
  0
SPLINE
  5
2D5
100
AcDbEntity
  8
0
100
AcDbSpline
 62
7
  6
CONTINUOUS
 70
0
 71
3
 72
15
 73
11
 74
0
 42
0.0000001
 43
0.0000001
 44
0.0000000001
 40
0.0
 40
0.0
 40
0.0
 40
0.0
 40
0.1170781151
 40
0.2418365398
 40
0.3714537555
 40
0.5032727471
 40
0.6346629432
 40
0.7630094682
 40
0.8856972576
 40
1.0
 40
1.0
 40
1.0
 40
1.0
 10
14.1950045783
 20
11.9039232846
 30
0.0
 10
14.1946466445
 20
11.9052625667
 30
0.0
 10
14.1940272245
 20
11.9080617581
 30
0.0
 10
14.1933815798
 20
11.9124154771
 30
0.0
 10
14.1930074734
 20
11.916976084
 30
0.0
 10
14.1929105078
 20
11.9216292381
 30
0.0
 10
14.193095191
 20
11.9262646998
 30
0.0
 10
14.1935548435
 20
11.9307727098
 30
0.0
 10
14.1942817274
 20
11.9350402856
 30
0.0
 10
14.1949553804
 20
11.9377681362
 30
0.0
 10
14.1953399079
 20
11.9390657872
 30
0.0
  0
SPLINE
  5
2D6
100
AcDbEntity
  8
0
100
AcDbSpline
 62
7
  6
CONTINUOUS
 70
0
 71
3
 72
9
 73
5
 74
0
 42
0.0000001
 43
0.0000001
 44
0.0000000001
 40
0.0
 40
0.0
 40
0.0
 40
0.0
 40
0.4885932943
 40
1.0
 40
1.0
 40
1.0
 40
1.0
 10
14.281752483
 20
11.7688672005
 30
0.0
 10
14.2820616979
 20
11.7703761434
 30
0.0
 10
14.2825702447
 20
11.7734907218
 30
0.0
 10
14.2828614719
 20
11.7766323363
 30
0.0
 10
14.2829586288
 20
11.7782416253
 30
0.0
  0
SPLINE
  5
2D7
100
AcDbEntity
  8
0
100
AcDbSpline
 62
7
  6
CONTINUOUS
 70
0
 71
3
 72
15
 73
11
 74
0
 42
0.0000001
 43
0.0000001
 44
0.0000000001
 40
0.0
 40
0.0
 40
0.0
 40
0.0
 40
0.1010715648
 40
0.2136889878
 40
0.3357152468
 40
0.4648288931
 40
0.5985607059
 40
0.7342658264
 40
0.8691485121
 40
1.0
 40
1.0
 40
1.0
 40
1.0
 10
14.2755149186
 20
11.6794188357
 30
0.0
 10
14.2750128754
 20
11.6804694745
 30
0.0
 10
14.2740965014
 20
11.6827608178
 30
0.0
 10
14.2730056281
 20
11.6864759241
 30
0.0
 10
14.2721525415
 20
11.6905831328
 30
0.0
 10
14.2715545594
 20
11.6949798848
 30
0.0
 10
14.2712286071
 20
11.6995628916
 30
0.0
 10
14.2711805669
 20
11.7042236461
 30
0.0
 10
14.2714155392
 20
11.708845289
 30
0.0
 10
14.2717601166
 20
11.7118898933
 30
0.0
 10
14.2719819562
 20
11.7133809969
 30
0.0
  0
SPLINE
  5
2D8
100
AcDbEntity
  8
0
100
AcDbSpline
 62
7
  6
CONTINUOUS
 70
0
 71
3
 72
15
 73
11
 74
0
 42
0.0000001
 43
0.0000001
 44
0.0000000001
 40
0.0
 40
0.0
 40
0.0
 40
0.0
 40
0.0855864377
 40
0.1855338814
 40
0.2990751885
 40
0.4246457885
 40
0.5602124514
 40
0.703296174
 40
0.8510792456
 40
1.0
 40
1.0
 40
1.0
 40
1.0
 10
14.3773909328
 20
11.5222386207
 30
0.0
 10
14.3767814254
 20
11.5228971434
 30
0.0
 10
14.3756264882
 20
11.5244789162
 30
0.0
 10
14.3741770743
 20
11.5272676694
 30
0.0
 10
14.3729144863
 20
11.5305979215
 30
0.0
 10
14.3718647474
 20
11.5343878526
 30
0.0
 10
14.3710551718
 20
11.5385515734
 30
0.0
 10
14.3705032571
 20
11.5429914376
 30
0.0
 10
14.3702271137
 20
11.5475967538
 30
0.0
 10
14.3702274195
 20
11.5507096817
 30
0.0
 10
14.3702757717
 20
11.5522702425
 30
0.0
  0
SPLINE
  5
2D9
100
AcDbEntity
  8
0
100
AcDbSpline
 62
7
  6
CONTINUOUS
 70
0
 71
3
 72
16
 73
12
 74
0
 42
0.0000001
 43
0.0000001
 44
0.0000000001
 40
0.0
 40
0.0
 40
0.0
 40
0.0
 40
0.0745164239
 40
0.1164657737
 40
0.1621249863
 40
0.2654818962
 40
0.3853568244
 40
0.5209651825
 40
0.6704877937
 40
0.8314069935
 40
1.0
 40
1.0
 40
1.0
 40
1.0
 10
14.4923828748
 20
11.4451108255
 30
0.0
 10
14.4917427664
 20
11.4452968922
 30
0.0
 10
14.4907985182
 20
11.4457934539
 30
0.0
 10
14.4896800539
 20
11.446718247
 30
0.0
 10
14.4885009179
 20
11.4479604211
 30
0.0
 10
14.4871346697
 20
11.4499566912
 30
0.0
 10
14.4857168336
 20
11.4528448436
 30
0.0
 10
14.4844898332
 20
11.4562604085
 30
0.0
 10
14.4834794058
 20
11.4601251283
 30
0.0
 10
14.4827152564
 20
11.4643453262
 30
0.0
 10
14.4823840964
 20
11.4672767883
 30
0.0
 10
14.4822616887
 20
11.4687799983
 30
0.0
  0
SPLINE
  5
2DA
100
AcDbEntity
  8
0
100
AcDbSpline
 62
7
  6
CONTINUOUS
 70
0
 71
3
 72
11
 73
7
 74
0
 42
0.0000001
 43
0.0000001
 44
0.0000000001
 40
0.0
 40
0.0
 40
0.0
 40
0.0
 40
0.2346469945
 40
0.4819973639
 40
0.7386015117
 40
1.0
 40
1.0
 40
1.0
 40
1.0
 10
14.3377963748
 20
13.3083189011
 30
0.0
 10
14.3387761382
 20
13.3121677109
 30
0.0
 10
14.3405055018
 20
13.3201475211
 30
0.0
 10
14.3424040506
 20
13.3325105841
 30
0.0
 10
14.3436456768
 20
13.3454113302
 30
0.0
 10
14.3440252331
 20
13.3541753237
 30
0.0
 10
14.3441015017
 20
13.3585990113
 30
0.0
  0
SPLINE
  5
2DB
100
AcDbEntity
  8
0
100
AcDbSpline
 62
7
  6
CONTINUOUS
 70
0
 71
3
 72
15
 73
11
 74
0
 42
0.0000001
 43
0.0000001
 44
0.0000000001
 40
0.0
 40
0.0
 40
0.0
 40
0.0
 40
0.0978701861
 40
0.2073081295
 40
0.326829024
 40
0.4545337391
 40
0.5881538752
 40
0.7253185126
 40
0.8635660757
 40
1.0
 40
1.0
 40
1.0
 40
1.0
 10
14.2439380934
 20
13.0779624166
 30
0.0
 10
14.2456068233
 20
13.0810447194
 30
0.0
 10
14.2486964641
 20
13.0878174914
 30
0.0
 10
14.2524627977
 20
13.0989145031
 30
0.0
 10
14.2555614908
 20
13.111319418
 30
0.0
 10
14.2579185581
 20
13.1247636658
 30
0.0
 10
14.2594855494
 20
13.1389574568
 30
0.0
 10
14.2602253067
 20
13.153595956
 30
0.0
 10
14.2601174302
 20
13.1683526699
 30
0.0
 10
14.2594805044
 20
13.1781760083
 30
0.0
 10
14.2590144019
 20
13.1830398441
 30
0.0
  0
SPLINE
  5
2DC
100
AcDbEntity
  8
0
100
AcDbSpline
 62
7
  6
CONTINUOUS
 70
0
 71
3
 72
26
 73
22
 74
0
 42
0.0000001
 43
0.0000001
 44
0.0000000001
 40
0.0
 40
0.0
 40
0.0
 40
0.0
 40
0.0202800844
 40
0.0417808505
 40
0.0645104196
 40
0.0884637937
 40
0.1136251308
 40
0.139962191
 40
0.1959802571
 40
0.2561101953
 40
0.3198156905
 40
0.3864842507
 40
0.4554386489
 40
0.5259558804
 40
0.5972840537
 40
0.66865654
 40
0.7393027167
 40
0.8084557314
 40
0.8754002402
 40
0.9394801891
 40
1.0
 40
1.0
 40
1.0
 40
1.0
 10
16.6277777993
 20
12.2568344887
 30
0.0
 10
16.6258616352
 20
12.2591297314
 30
0.0
 10
16.6220891899
 20
12.2640065739
 30
0.0
 10
16.61676137
 20
12.2718916604
 30
0.0
 10
16.6116146591
 20
12.2805325563
 30
0.0
 10
16.6066656151
 20
12.2899021728
 30
0.0
 10
16.6019310568
 20
12.2999725089
 30
0.0
 10
16.5957960783
 20
12.3145928478
 30
0.0
 10
16.5888130475
 20
12.3344265089
 30
0.0
 10
16.5816652409
 20
12.3599776379
 30
0.0
 10
16.5756722086
 20
12.3874320235
 30
0.0
 10
16.5709119874
 20
12.4164439345
 30
0.0
 10
16.5674460857
 20
12.4466487531
 30
0.0
 10
16.5653168543
 20
12.4776650565
 30
0.0
 10
16.5645565495
 20
12.5091013295
 30
0.0
 10
16.5651694909
 20
12.5405597757
 30
0.0
 10
16.5671508312
 20
12.5716407803
 30
0.0
 10
16.5704738453
 20
12.6019509926
 30
0.0
 10
16.5750990716
 20
12.6311117363
 30
0.0
 10
16.580962901
 20
12.658749134
 30
0.0
 10
16.5857958601
 20
12.6764863319
 30
0.0
 10
16.5884302397
 20
12.6850111865
 30
0.0
  0
SPLINE
  5
2DD
100
AcDbEntity
  8
0
100
AcDbSpline
 62
7
  6
CONTINUOUS
 70
0
 71
3
 72
9
 73
5
 74
0
 42
0.0000001
 43
0.0000001
 44
0.0000000001
 40
0.0
 40
0.0
 40
0.0
 40
0.0
 40
0.5182365758
 40
1.0
 40
1.0
 40
1.0
 40
1.0
 10
16.6171916697
 20
12.7496414121
 30
0.0
 10
16.6194804796
 20
12.7514798894
 30
0.0
 10
16.6241281043
 20
12.7547545017
 30
0.0
 10
16.62923185
 20
12.7572811237
 30
0.0
 10
16.6317772149
 20
12.7582656577
 30
0.0
  0
SPLINE
  5
2DE
100
AcDbEntity
  8
0
100
AcDbSpline
 62
7
  6
CONTINUOUS
 70
0
 71
3
 72
9
 73
5
 74
0
 42
0.0000001
 43
0.0000001
 44
0.0000000001
 40
0.0
 40
0.0
 40
0.0
 40
0.0
 40
0.5046284928
 40
1.0
 40
1.0
 40
1.0
 40
1.0
 10
16.6349339648
 20
12.7593513083
 30
0.0
 10
16.6367878241
 20
12.7599096603
 30
0.0
 10
16.6405435308
 20
12.7607636317
 30
0.0
 10
16.6443855353
 20
12.761053896
 30
0.0
 10
16.6462861364
 20
12.7610540409
 30
0.0
  0
SPLINE
  5
2DF
100
AcDbEntity
  8
0
100
AcDbSpline
 62
7
  6
CONTINUOUS
 70
0
 71
3
 72
17
 73
13
 74
0
 42
0.0000001
 43
0.0000001
 44
0.0000000001
 40
0.0
 40
0.0
 40
0.0
 40
0.0
 40
0.1491118903
 40
0.2896357269
 40
0.4221318809
 40
0.4856262889
 40
0.5474288852
 40
0.6664601311
 40
0.7805240915
 40
0.8911218254
 40
0.9456737807
 40
1.0
 40
1.0
 40
1.0
 40
1.0
 10
16.7918310301
 20
11.709701254
 30
0.0
 10
16.7863218734
 20
11.7031013436
 30
0.0
 10
16.7751804209
 20
11.6906383041
 30
0.0
 10
16.7575681526
 20
11.67380333
 30
0.0
 10
16.7423863246
 20
11.6616713464
 30
0.0
 10
16.7301010046
 20
11.6532946897
 30
0.0
 10
16.7180568063
 20
11.6459789332
 30
0.0
 10
16.7028126769
 20
11.6383557132
 30
0.0
 10
16.6840912204
 20
11.6317070902
 30
0.0
 10
16.6682907044
 20
11.6283530054
 30
0.0
 10
16.6556983903
 20
11.6270257844
 30
0.0
 10
16.6494185464
 20
11.6268049428
 30
0.0
 10
16.6462863592
 20
11.6268050142
 30
0.0
  0
SPLINE
  5
2E0
100
AcDbEntity
  8
0
100
AcDbSpline
 62
7
  6
CONTINUOUS
 70
0
 71
3
 72
31
 73
27
 74
0
 42
0.0000001
 43
0.0000001
 44
0.0000000001
 40
0.0
 40
0.0
 40
0.0
 40
0.0
 40
0.0202802884
 40
0.0417792083
 40
0.0645076913
 40
0.08846188
 40
0.1136213917
 40
0.1399567057
 40
0.1674273091
 40
0.1959828037
 40
0.225567578
 40
0.2561170612
 40
0.3198213739
 40
0.3864883438
 40
0.4207258828
 40
0.4554457208
 40
0.5259609042
 40
0.5972857564
 40
0.6686522199
 40
0.739291897
 40
0.8084495979
 40
0.8753924633
 40
0.9078249834
 40
0.9394597219
 40
0.9702137244
 40
1.0
 40
1.0
 40
1.0
 40
1.0
 10
16.8145237715
 20
13.2847220176
 30
0.0
 10
16.8203626033
 20
13.2777270544
 30
0.0
 10
16.8318569684
 20
13.2628651582
 30
0.0
 10
16.8480944547
 20
13.2388389374
 30
0.0
 10
16.8637781262
 20
13.212507672
 30
0.0
 10
16.8788557261
 20
13.1839538292
 30
0.0
 10
16.8932852512
 20
13.1532681222
 30
0.0
 10
16.9070182365
 20
13.1205455022
 30
0.0
 10
16.9200119309
 20
13.0858891615
 30
0.0
 10
16.9322276496
 20
13.0494090034
 30
0.0
 10
16.9436230341
 20
13.0112190072
 30
0.0
 10
16.9578771091
 20
12.9574294712
 30
0.0
 10
16.9733019357
 20
12.8867537189
 30
0.0
 10
16.9852825403
 20
12.8137421127
 30
0.0
 10
16.9929767919
 20
12.7532911161
 30
0.0
 10
16.9994240106
 20
12.6909557744
 30
0.0
 10
17.0048537596
 20
12.6117868705
 30
0.0
 10
17.0071760711
 20
12.5159948235
 30
0.0
 10
17.0053068281
 20
12.4201359583
 30
0.0
 10
16.9992697443
 20
12.3254236505
 30
0.0
 10
16.989142033
 20
12.2330596995
 30
0.0
 10
16.9772816078
 20
12.1582397589
 30
0.0
 10
16.965785338
 20
12.1005064612
 30
0.0
 10
16.9563261608
 20
12.0589621929
 30
0.0
 10
16.9459739463
 20
12.0188584088
 30
0.0
 10
16.9383751251
 20
11.9927360002
 30
0.0
 10
16.9344239769
 20
11.97995008
 30
0.0
  0
SPLINE
  5
2E1
100
AcDbEntity
  8
0
100
AcDbSpline
 62
7
  6
CONTINUOUS
 70
0
 71
3
 72
9
 73
5
 74
0
 42
0.0000001
 43
0.0000001
 44
0.0000000001
 40
0.0
 40
0.0
 40
0.0
 40
0.0
 40
0.4920438881
 40
1.0
 40
1.0
 40
1.0
 40
1.0
 10
16.6462861363
 20
12.2605559449
 30
0.0
 10
16.6437725224
 20
12.2605557532
 30
0.0
 10
16.6386516742
 20
12.2610692034
 30
0.0
 10
16.6337321699
 20
12.2625618717
 30
0.0
 10
16.6313221608
 20
12.2635238337
 30
0.0
  0
SPLINE
  5
2E2
100
AcDbEntity
  8
0
100
AcDbSpline
 62
7
  6
CONTINUOUS
 70
0
 71
3
 72
9
 73
5
 74
0
 42
0.0000001
 43
0.0000001
 44
0.0000000001
 40
0.0
 40
0.0
 40
0.0
 40
0.0
 40
0.4831326088
 40
1.0
 40
1.0
 40
1.0
 40
1.0
 10
16.6313221608
 20
12.2635238337
 30
0.0
 10
16.6289708954
 20
12.2644623479
 30
0.0
 10
16.6242608324
 20
12.2668121585
 30
0.0
 10
16.619939929
 20
12.2698059933
 30
0.0
 10
16.6178092703
 20
12.2714780739
 30
0.0
  0
SPLINE
  5
2E3
100
AcDbEntity
  8
0
100
AcDbSpline
 62
7
  6
CONTINUOUS
 70
0
 71
3
 72
15
 73
11
 74
0
 42
0.0000001
 43
0.0000001
 44
0.0000000001
 40
0.0
 40
0.0
 40
0.0
 40
0.0
 40
0.1730804437
 40
0.3322689323
 40
0.4767804462
 40
0.6062458188
 40
0.7211309282
 40
0.8228891889
 40
0.9143576996
 40
1.0
 40
1.0
 40
1.0
 40
1.0
 10
14.5647693719
 20
13.568026142
 30
0.0
 10
14.5650316
 20
13.5688855595
 30
0.0
 10
14.5655868808
 20
13.5705204192
 30
0.0
 10
14.5665581327
 20
13.5727999207
 30
0.0
 10
14.5676215162
 20
13.5747854534
 30
0.0
 10
14.5687671567
 20
13.5764537789
 30
0.0
 10
14.5699830361
 20
13.577786222
 30
0.0
 10
14.5712608413
 20
13.5787665802
 30
0.0
 10
14.5725928864
 20
13.5793701938
 30
0.0
 10
14.5735167054
 20
13.5795098591
 30
0.0
 10
14.5739613102
 20
13.579510418
 30
0.0
  0
SPLINE
  5
2E4
100
AcDbEntity
  8
0
100
AcDbSpline
 62
7
  6
CONTINUOUS
 70
0
 71
3
 72
15
 73
11
 74
0
 42
0.0000001
 43
0.0000001
 44
0.0000000001
 40
0.0
 40
0.0
 40
0.0
 40
0.0
 40
0.1625525441
 40
0.3196139156
 40
0.4674747782
 40
0.6034666264
 40
0.7254745342
 40
0.8321722789
 40
0.9232188426
 40
1.0
 40
1.0
 40
1.0
 40
1.0
 10
14.4470261591
 20
13.536034429
 30
0.0
 10
14.4470973765
 20
13.5375684676
 30
0.0
 10
14.4473300492
 20
13.5405812928
 30
0.0
 10
14.4479496311
 20
13.54495723
 30
0.0
 10
14.4488267261
 20
13.5490333483
 30
0.0
 10
14.4499349357
 20
13.5527093063
 30
0.0
 10
14.45125019
 20
13.555900802
 30
0.0
 10
14.4527421813
 20
13.5585400261
 30
0.0
 10
14.4543843889
 20
13.5605649426
 30
0.0
 10
14.4556600356
 20
13.5615487131
 30
0.0
 10
14.4563033194
 20
13.5618839145
 30
0.0
  0
SPLINE
  5
2E5
100
AcDbEntity
  8
0
100
AcDbSpline
 62
7
  6
CONTINUOUS
 70
0
 71
3
 72
11
 73
7
 74
0
 42
0.0000001
 43
0.0000001
 44
0.0000000001
 40
0.0
 40
0.0
 40
0.0
 40
0.0
 40
0.2918553265
 40
0.550669341
 40
0.7829493176
 40
1.0
 40
1.0
 40
1.0
 40
1.0
 10
14.3548211738
 20
13.4729341209
 30
0.0
 10
14.3551959662
 20
13.4734081565
 30
0.0
 10
14.3559639233
 20
13.474258136
 30
0.0
 10
14.3572534808
 20
13.4752578392
 30
0.0
 10
14.3585982648
 20
13.4758795027
 30
0.0
 10
14.3595336667
 20
13.4760212243
 30
0.0
 10
14.3599830805
 20
13.4760211079
 30
0.0
  0
SPLINE
  5
2E6
100
AcDbEntity
  8
0
100
AcDbSpline
 62
7
  6
CONTINUOUS
 70
0
 71
3
 72
15
 73
11
 74
0
 42
0.0000001
 43
0.0000001
 44
0.0000000001
 40
0.0
 40
0.0
 40
0.0
 40
0.0
 40
0.1431711096
 40
0.2869042546
 40
0.4277328703
 40
0.5628248755
 40
0.6896201752
 40
0.8059049442
 40
0.9098049537
 40
1.0
 40
1.0
 40
1.0
 40
1.0
 10
14.3383091718
 20
13.4277378779
 30
0.0
 10
14.3382073136
 20
13.429290682
 30
0.0
 10
14.3381015711
 20
13.4324095636
 30
0.0
 10
14.3382216224
 20
13.4370597886
 30
0.0
 10
14.3386221118
 20
13.4416065113
 30
0.0
 10
14.3392888499
 20
13.4459360594
 30
0.0
 10
14.3402077212
 20
13.4499464465
 30
0.0
 10
14.3413541483
 20
13.4535452944
 30
0.0
 10
14.342704268
 20
13.4566434866
 30
0.0
 10
14.3437933807
 20
13.458462112
 30
0.0
 10
14.3443753265
 20
13.4592510378
 30
0.0
  0
SPLINE
  5
2E7
100
AcDbEntity
  8
0
100
AcDbSpline
 62
7
  6
CONTINUOUS
 70
0
 71
3
 72
9
 73
5
 74
0
 42
0.0000001
 43
0.0000001
 44
0.0000000001
 40
0.0
 40
0.0
 40
0.0
 40
0.0
 40
0.2525243135
 40
1.0
 40
1.0
 40
1.0
 40
1.0
 10
14.3441015017
 20
13.3585990113
 30
0.0
 10
14.3441157444
 20
13.3594251045
 30
0.0
 10
14.3441192363
 20
13.362697057
 30
0.0
 10
14.3439158184
 20
13.3659699165
 30
0.0
 10
14.3436372235
 20
13.3683996077
 30
0.0
  0
SPLINE
  5
2E8
100
AcDbEntity
  8
0
100
AcDbSpline
 62
7
  6
CONTINUOUS
 70
0
 71
3
 72
14
 73
10
 74
0
 42
0.0000001
 43
0.0000001
 44
0.0000000001
 40
0.0
 40
0.0
 40
0.0
 40
0.0
 40
0.3211169187
 40
0.4622427395
 40
0.590103639
 40
0.7055658011
 40
0.8104302896
 40
0.9073572707
 40
1.0
 40
1.0
 40
1.0
 40
1.0
 10
14.2567588413
 20
13.3004993093
 30
0.0
 10
14.2572506768
 20
13.3016599586
 30
0.0
 10
14.258062248
 20
13.3032944021
 30
0.0
 10
14.2593746349
 20
13.3052073683
 30
0.0
 10
14.2603646758
 20
13.3063516115
 30
0.0
 10
14.2613955221
 20
13.3072568751
 30
0.0
 10
14.2624605186
 20
13.307915963
 30
0.0
 10
14.2635531012
 20
13.3083188666
 30
0.0
 10
14.2643000751
 20
13.3084096402
 30
0.0
 10
14.2646637483
 20
13.308409601
 30
0.0
  0
SPLINE
  5
2E9
100
AcDbEntity
  8
0
100
AcDbSpline
 62
7
  6
CONTINUOUS
 70
0
 71
3
 72
15
 73
11
 74
0
 42
0.0000001
 43
0.0000001
 44
0.0000000001
 40
0.0
 40
0.0
 40
0.0
 40
0.0
 40
0.1256660529
 40
0.2567649364
 40
0.3902195064
 40
0.5232737834
 40
0.6532759378
 40
0.7776876968
 40
0.8940579264
 40
1.0
 40
1.0
 40
1.0
 40
1.0
 10
14.2458728867
 20
13.2451896647
 30
0.0
 10
14.2455994551
 20
13.2466343116
 30
0.0
 10
14.245151189
 20
13.2496076614
 30
0.0
 10
14.2447615179
 20
13.2541593767
 30
0.0
 10
14.2446524442
 20
13.2588130525
 30
0.0
 10
14.2448228787
 20
13.2634519707
 30
0.0
 10
14.2452707427
 20
13.2679662076
 30
0.0
 10
14.2459828255
 20
13.2722492701
 30
0.0
 10
14.2469451835
 20
13.2761940124
 30
0.0
 10
14.2477758863
 20
13.2786639773
 30
0.0
 10
14.248236809
 20
13.279814617
 30
0.0
  0
SPLINE
  5
2EA
100
AcDbEntity
  8
0
100
AcDbSpline
 62
7
  6
CONTINUOUS
 70
0
 71
3
 72
9
 73
5
 74
0
 42
0.0000001
 43
0.0000001
 44
0.0000000001
 40
0.0
 40
0.0
 40
0.0
 40
0.0
 40
0.514696179
 40
1.0
 40
1.0
 40
1.0
 40
1.0
 10
14.2590144019
 20
13.1830398441
 30
0.0
 10
14.2588638181
 20
13.184611204
 30
0.0
 10
14.2584707686
 20
13.1876555812
 30
0.0
 10
14.2578557815
 20
13.1906640502
 30
0.0
 10
14.2574939129
 20
13.1921078038
 30
0.0
  0
SPLINE
  5
2EB
100
AcDbEntity
  8
0
100
AcDbSpline
 62
7
  6
CONTINUOUS
 70
0
 71
3
 72
17
 73
13
 74
0
 42
0.0000001
 43
0.0000001
 44
0.0000000001
 40
0.0
 40
0.0
 40
0.0
 40
0.0
 40
0.0543263735
 40
0.1088784291
 40
0.2194758469
 40
0.3335400795
 40
0.4525704516
 40
0.5143722225
 40
0.5778662945
 40
0.710364706
 40
0.8508891419
 40
1.0
 40
1.0
 40
1.0
 40
1.0
 10
16.6462863592
 20
13.3948049716
 30
0.0
 10
16.649418556
 20
13.3948049002
 30
0.0
 10
16.6556984046
 20
13.3945838923
 30
0.0
 10
16.668290718
 20
13.3932568019
 30
0.0
 10
16.684091401
 20
13.3899033235
 30
0.0
 10
16.7028125636
 20
13.3832539491
 30
0.0
 10
16.7180566784
 20
13.3756309654
 30
0.0
 10
16.7301009225
 20
13.3683154957
 30
0.0
 10
16.7423863655
 20
13.3599388842
 30
0.0
 10
16.7575678371
 20
13.3478062164
 30
0.0
 10
16.7751805586
 20
13.3309716064
 30
0.0
 10
16.7863221719
 20
13.3185087099
 30
0.0
 10
16.7918312429
 20
13.3119088026
 30
0.0
  0
SPLINE
  5
2EC
100
AcDbEntity
  8
0
100
AcDbSpline
 62
7
  6
CONTINUOUS
 70
0
 71
3
 72
16
 73
12
 74
0
 42
0.0000001
 43
0.0000001
 44
0.0000000001
 40
0.0
 40
0.0
 40
0.0
 40
0.0
 40
0.1749435007
 40
0.3371005642
 40
0.4842845431
 40
0.6153770523
 40
0.7303930191
 40
0.8304622926
 40
0.9185414722
 40
0.959718649
 40
1.0
 40
1.0
 40
1.0
 40
1.0
 10
14.1815810179
 20
13.064116398
 30
0.0
 10
14.1818302717
 20
13.0651792024
 30
0.0
 10
14.1823752019
 20
13.0672128632
 30
0.0
 10
14.1833685854
 20
13.0700700455
 30
0.0
 10
14.1844962411
 20
13.0725810957
 30
0.0
 10
14.1857404487
 20
13.0747031844
 30
0.0
 10
14.187082743
 20
13.0764071009
 30
0.0
 10
14.1885113471
 20
13.0776664374
 30
0.0
 10
14.1897980163
 20
13.0783379872
 30
0.0
 10
14.1908280987
 20
13.0785964061
 30
0.0
 10
14.1913374482
 20
13.0786381792
 30
0.0
 10
14.1915888022
 20
13.0786379111
 30
0.0
  0
SPLINE
  5
2ED
100
AcDbEntity
  8
0
100
AcDbSpline
 62
7
  6
CONTINUOUS
 70
0
 71
3
 72
15
 73
11
 74
0
 42
0.0000001
 43
0.0000001
 44
0.0000000001
 40
0.0
 40
0.0
 40
0.0
 40
0.0
 40
0.1093059872
 40
0.228234241
 40
0.3542503578
 40
0.4848296282
 40
0.6173972629
 40
0.7493052011
 40
0.8778325461
 40
1.0
 40
1.0
 40
1.0
 40
1.0
 10
14.1769352747
 20
13.0018732365
 30
0.0
 10
14.176504311
 20
13.0030868474
 30
0.0
 10
14.1757354534
 20
13.0056681641
 30
0.0
 10
14.174865852
 20
13.00975397
 30
0.0
 10
14.1742540517
 20
13.0141394256
 30
0.0
 10
14.1739115511
 20
13.0187147239
 30
0.0
 10
14.173848945
 20
13.0233717238
 30
0.0
 10
14.1740656627
 20
13.028000054
 30
0.0
 10
14.174560063
 20
13.0324836348
 30
0.0
 10
14.1750784117
 20
13.0353945659
 30
0.0
 10
14.1753865456
 20
13.0368005926
 30
0.0
  0
SPLINE
  5
2EE
100
AcDbEntity
  8
0
100
AcDbSpline
 62
7
  6
CONTINUOUS
 70
0
 71
3
 72
9
 73
5
 74
0
 42
0.0000001
 43
0.0000001
 44
0.0000000001
 40
0.0
 40
0.0
 40
0.0
 40
0.0
 40
0.5112219308
 40
1.0
 40
1.0
 40
1.0
 40
1.0
 10
14.1769352747
 20
13.0018732365
 30
0.0
 10
14.1795441781
 20
12.994526461
 30
0.0
 10
14.1849134958
 20
12.9802481409
 30
0.0
 10
14.1908653963
 20
12.9662014074
 30
0.0
 10
14.1939313312
 20
12.9594071616
 30
0.0
  0
SPLINE
  5
2EF
100
AcDbEntity
  8
0
100
AcDbSpline
 62
7
  6
CONTINUOUS
 70
0
 71
3
 72
9
 73
5
 74
0
 42
0.0000001
 43
0.0000001
 44
0.0000000001
 40
0.0
 40
0.0
 40
0.0
 40
0.0
 40
0.5263751155
 40
1.0
 40
1.0
 40
1.0
 40
1.0
 10
14.1963890347
 20
12.9518149512
 30
0.0
 10
14.1960783919
 20
12.9531819861
 30
0.0
 10
14.195387242
 20
12.9557576171
 30
0.0
 10
14.1944501633
 20
12.9582574071
 30
0.0
 10
14.1939313312
 20
12.9594071616
 30
0.0
  0
SPLINE
  5
2F0
100
AcDbEntity
  8
0
100
AcDbSpline
 62
7
  6
CONTINUOUS
 70
0
 71
3
 72
15
 73
11
 74
0
 42
0.0000001
 43
0.0000001
 44
0.0000000001
 40
0.0
 40
0.0
 40
0.0
 40
0.0
 40
0.145994829
 40
0.2864755649
 40
0.4210807341
 40
0.5495512414
 40
0.6717395416
 40
0.7875483475
 40
0.896952786
 40
1.0
 40
1.0
 40
1.0
 40
1.0
 10
16.9344239769
 20
11.97995008
 30
0.0
 10
16.9305062427
 20
11.9672722872
 30
0.0
 10
16.9224075479
 20
11.9425198837
 30
0.0
 10
16.909202056
 20
11.9065895455
 30
0.0
 10
16.8952085392
 20
11.8726738394
 30
0.0
 10
16.8804748757
 20
11.8408952581
 30
0.0
 10
16.8650529746
 20
11.8113574904
 30
0.0
 10
16.8489873362
 20
11.7841561982
 30
0.0
 10
16.8323348267
 20
11.7593795986
 30
0.0
 10
16.820525537
 20
11.7440783312
 30
0.0
 10
16.8145237261
 20
11.7368882253
 30
0.0
  0
SPLINE
  5
2F1
100
AcDbEntity
  8
0
100
AcDbSpline
 62
7
  6
CONTINUOUS
 70
0
 71
3
 72
14
 73
10
 74
0
 42
0.0000001
 43
0.0000001
 44
0.0000000001
 40
0.0
 40
0.0
 40
0.0
 40
0.0
 40
0.2863440686
 40
0.4209931148
 40
0.5495150694
 40
0.6717298531
 40
0.787553507
 40
0.8969566492
 40
1.0
 40
1.0
 40
1.0
 40
1.0
 10
16.5884302397
 20
12.6850111865
 30
0.0
 10
16.590951719
 20
12.6931706973
 30
0.0
 10
16.5950475314
 20
12.7050556881
 30
0.0
 10
16.6012991243
 20
12.7202097334
 30
0.0
 10
16.6061351561
 20
12.7306414738
 30
0.0
 10
16.6111971151
 20
12.7403366074
 30
0.0
 10
16.6164680318
 20
12.7492646214
 30
0.0
 10
16.6219322777
 20
12.7573955931
 30
0.0
 10
16.6258083346
 20
12.7624158152
 30
0.0
 10
16.6277778818
 20
12.7647750297
 30
0.0
  0
SPLINE
  5
2F2
100
AcDbEntity
  8
0
100
AcDbSpline
 62
7
  6
CONTINUOUS
 70
0
 71
3
 72
21
 73
17
 74
0
 42
0.0000001
 43
0.0000001
 44
0.0000000001
 40
0.0
 40
0.0
 40
0.0
 40
0.0
 40
0.036393574
 40
0.0776318558
 40
0.1239769669
 40
0.1754133573
 40
0.231733891
 40
0.2925558896
 40
0.3573395624
 40
0.4254727401
 40
0.56889353
 40
0.7167175264
 40
0.7902799617
 40
0.862563189
 40
0.9327618102
 40
1.0
 40
1.0
 40
1.0
 40
1.0
 10
14.1733235346
 20
12.8051682598
 30
0.0
 10
14.174834621
 20
12.8062624495
 30
0.0
 10
14.1778033635
 20
12.8089531191
 30
0.0
 10
14.1817884142
 20
12.8139273531
 30
0.0
 10
14.1855199175
 20
12.8200172486
 30
0.0
 10
14.188954959
 20
12.8271427204
 30
0.0
 10
14.1920542021
 20
12.8352186806
 30
0.0
 10
14.194778809
 20
12.8441447037
 30
0.0
 10
14.1970962862
 20
12.853807954
 30
0.0
 10
14.199639276
 20
12.8677496627
 30
0.0
 10
14.2015687546
 20
12.8861007729
 30
0.0
 10
14.2018695154
 20
12.9048247433
 30
0.0
 10
14.2011136872
 20
12.9198644223
 30
0.0
 10
14.2000539679
 20
12.9308929725
 30
0.0
 10
14.1985143889
 20
12.9415370651
 30
0.0
 10
14.1971528162
 20
12.9484538045
 30
0.0
 10
14.1963890347
 20
12.9518149512
 30
0.0
  0
SPLINE
  5
2F3
100
AcDbEntity
  8
0
100
AcDbSpline
 62
7
  6
CONTINUOUS
 70
0
 71
3
 72
21
 73
17
 74
0
 42
0.0000001
 43
0.0000001
 44
0.0000000001
 40
0.0
 40
0.0
 40
0.0
 40
0.0
 40
0.0464842666
 40
0.0978225075
 40
0.1536275737
 40
0.213435441
 40
0.2767235346
 40
0.3428789339
 40
0.4809084713
 40
0.6216003732
 40
0.691031505
 40
0.7588135765
 40
0.8242412085
 40
0.8866688241
 40
0.9454638243
 40
1.0
 40
1.0
 40
1.0
 40
1.0
 10
14.1558558629
 20
12.5284909718
 30
0.0
 10
14.1571770861
 20
12.5306198928
 30
0.0
 10
14.1596916726
 20
12.5352669332
 30
0.0
 10
14.1629651524
 20
12.5428822556
 30
0.0
 10
14.1658819118
 20
12.5514035737
 30
0.0
 10
14.1684047104
 20
12.5607168382
 30
0.0
 10
14.1705016998
 20
12.5707052879
 30
0.0
 10
14.1727246214
 20
12.5849555473
 30
0.0
 10
14.1742467259
 20
12.6035108825
 30
0.0
 10
14.1741349203
 20
12.6223021142
 30
0.0
 10
14.17304286
 20
12.6372462502
 30
0.0
 10
14.1717407842
 20
12.6480953884
 30
0.0
 10
14.1699692635
 20
12.6584952718
 30
0.0
 10
14.1677508595
 20
12.6683140618
 30
0.0
 10
14.165114105
 20
12.6774193521
 30
0.0
 10
14.1630222248
 20
12.683165858
 30
0.0
 10
14.161902062
 20
12.6858836583
 30
0.0
  0
SPLINE
  5
2F4
100
AcDbEntity
  8
0
100
AcDbSpline
 62
7
  6
CONTINUOUS
 70
0
 71
3
 72
21
 73
17
 74
0
 42
0.0000001
 43
0.0000001
 44
0.0000000001
 40
0.0
 40
0.0
 40
0.0
 40
0.0
 40
0.0583647841
 40
0.1206334621
 40
0.1860942535
 40
0.2540544121
 40
0.3238245481
 40
0.3946667534
 40
0.5363734599
 40
0.6729955612
 40
0.7375833373
 40
0.7987758949
 40
0.8560154355
 40
0.9088532873
 40
0.9569281499
 40
1.0
 40
1.0
 40
1.0
 40
1.0
 10
14.1694436514
 20
12.2503815035
 30
0.0
 10
14.170459908
 20
12.2533278329
 30
0.0
 10
14.1723373117
 20
12.2594958031
 30
0.0
 10
14.1746516473
 20
12.2691650803
 30
0.0
 10
14.1765245748
 20
12.2794506582
 30
0.0
 10
14.1779320931
 20
12.2902135284
 30
0.0
 10
14.1788563298
 20
12.3013169545
 30
0.0
 10
14.1794280003
 20
12.3163861086
 30
0.0
 10
14.1789061012
 20
12.3350496385
 30
0.0
 10
14.1767547711
 20
12.3532651536
 30
0.0
 10
14.1740388804
 20
12.3670178149
 30
0.0
 10
14.1716075916
 20
12.3764899111
 30
0.0
 10
14.1687756192
 20
12.3851933567
 30
0.0
 10
14.1655781972
 20
12.3930201118
 30
0.0
 10
14.1620556116
 20
12.3998659779
 30
0.0
 10
14.159377025
 20
12.4039469309
 30
0.0
 10
14.1579809385
 20
12.4057747934
 30
0.0
  0
SPLINE
  5
2F5
100
AcDbEntity
  8
0
100
AcDbSpline
 62
7
  6
CONTINUOUS
 70
0
 71
3
 72
21
 73
17
 74
0
 42
0.0000001
 43
0.0000001
 44
0.0000000001
 40
0.0
 40
0.0
 40
0.0
 40
0.0
 40
0.0683798507
 40
0.138984994
 40
0.2838732958
 40
0.4292906689
 40
0.5005944997
 40
0.5700759616
 40
0.6371236419
 40
0.7011750997
 40
0.7617072895
 40
0.8182893989
 40
0.8705548816
 40
0.918273096
 40
0.9613840469
 40
1.0
 40
1.0
 40
1.0
 40
1.0
 10
14.2129865842
 20
11.9933606854
 30
0.0
 10
14.2135706495
 20
11.9965519743
 30
0.0
 10
14.2145992137
 20
12.0030683242
 30
0.0
 10
14.2161112145
 20
12.0164550022
 30
0.0
 10
14.2169494365
 20
12.033578594
 30
0.0
 10
14.2164189633
 20
12.0507469054
 30
0.0
 10
14.2151567694
 20
12.0642705684
 30
0.0
 10
14.2138155414
 20
12.0740430236
 30
0.0
 10
14.212087778
 20
12.0834050822
 30
0.0
 10
14.2099951473
 20
12.0922572478
 30
0.0
 10
14.2075558481
 20
12.1005043992
 30
0.0
 10
14.2048007924
 20
12.1080599609
 30
0.0
 10
14.201757658
 20
12.1148444681
 30
0.0
 10
14.1984552735
 20
12.1207879892
 30
0.0
 10
14.1949294609
 20
12.1258312844
 30
0.0
 10
14.1923063962
 20
12.1287092725
 30
0.0
 10
14.1909623752
 20
12.1299544036
 30
0.0
  0
SPLINE
  5
2F6
100
AcDbEntity
  8
0
100
AcDbSpline
 62
7
  6
CONTINUOUS
 70
0
 71
3
 72
15
 73
11
 74
0
 42
0.0000001
 43
0.0000001
 44
0.0000000001
 40
0.0
 40
0.0
 40
0.0
 40
0.0
 40
0.1349854615
 40
0.2706516289
 40
0.4049410186
 40
0.5361442333
 40
0.6626938385
 40
0.7830867008
 40
0.8959060156
 40
1.0
 40
1.0
 40
1.0
 40
1.0
 10
14.2829586288
 20
11.7782416253
 30
0.0
 10
14.2832046604
 20
11.7823168486
 30
0.0
 10
14.2834959327
 20
11.7905012768
 30
0.0
 10
14.2833520299
 20
11.802752292
 30
0.0
 10
14.2826239578
 20
11.8148683823
 30
0.0
 10
14.2813273028
 20
11.8266597703
 30
0.0
 10
14.2794790101
 20
11.8379521665
 30
0.0
 10
14.2771114393
 20
11.8485794244
 30
0.0
 10
14.2742572209
 20
11.8583814126
 30
0.0
 10
14.2719600947
 20
11.8645359284
 30
0.0
 10
14.2707245309
 20
11.8674316764
 30
0.0
  0
SPLINE
  5
2F7
100
AcDbEntity
  8
0
100
AcDbSpline
 62
7
  6
CONTINUOUS
 70
0
 71
3
 72
9
 73
5
 74
0
 42
0.0000001
 43
0.0000001
 44
0.0000000001
 40
0.0
 40
0.0
 40
0.0
 40
0.0
 40
0.510807543
 40
1.0
 40
1.0
 40
1.0
 40
1.0
 10
14.3736935683
 20
11.6224442981
 30
0.0
 10
14.3734071308
 20
11.6279958477
 30
0.0
 10
14.3724855256
 20
11.6388486381
 30
0.0
 10
14.3708015377
 20
11.6496122203
 30
0.0
 10
14.369761826
 20
11.6548334112
 30
0.0
  0
SPLINE
  5
2F8
100
AcDbEntity
  8
0
100
AcDbSpline
 62
7
  6
CONTINUOUS
 70
0
 71
3
 72
41
 73
37
 74
0
 42
0.0000001
 43
0.0000001
 44
0.0000000001
 40
0.0
 40
0.0
 40
0.0
 40
0.0
 40
0.0223634364
 40
0.0427862046
 40
0.0615333992
 40
0.0704066585
 40
0.0790199036
 40
0.0874428054
 40
0.095751475
 40
0.1040253385
 40
0.1123449718
 40
0.1207898046
 40
0.1294348622
 40
0.1475720694
 40
0.1672309732
 40
0.1887313719
 40
0.2122703813
 40
0.237953975
 40
0.2658034128
 40
0.2957886752
 40
0.3278264295
 40
0.3617985121
 40
0.3975570569
 40
0.4349247484
 40
0.4737094361
 40
0.5136966712
 40
0.554662554
 40
0.5963704077
 40
0.6810182006
 40
0.7234696548
 40
0.7656663072
 40
0.8482783071
 40
0.8882280355
 40
0.9269804456
 40
0.9643160719
 40
1.0
 40
1.0
 40
1.0
 40
1.0
 10
16.6277778818
 20
12.7647750297
 30
0.0
 10
16.6304145982
 20
12.7679334104
 30
0.0
 10
16.6357735688
 20
12.7737279258
 30
0.0
 10
16.6444843708
 20
12.7810115273
 30
0.0
 10
16.6520938207
 20
12.7855990736
 30
0.0
 10
16.6582295426
 20
12.788227389
 30
0.0
 10
16.6627795994
 20
12.7896748567
 30
0.0
 10
16.6673522353
 20
12.7906294264
 30
0.0
 10
16.6719382706
 20
12.7910903132
 30
0.0
 10
16.6765283975
 20
12.7910565069
 30
0.0
 10
16.6811131676
 20
12.7905278944
 30
0.0
 10
16.6856831954
 20
12.7895041641
 30
0.0
 10
16.6918407863
 20
12.7874523802
 30
0.0
 10
16.699513432
 20
12.7835785902
 30
0.0
 10
16.708337721
 20
12.7770968903
 30
0.0
 10
16.7168886253
 20
12.7687709795
 30
0.0
 10
16.7251215317
 20
12.7586649865
 30
0.0
 10
16.7329855385
 20
12.7468440639
 30
0.0
 10
16.7404377954
 20
12.7333905147
 30
0.0
 10
16.7474240443
 20
12.7183918261
 30
0.0
 10
16.7539011834
 20
12.7019515493
 30
0.0
 10
16.7598229905
 20
12.6841813785
 30
0.0
 10
16.7651474358
 20
12.6652038522
 30
0.0
 10
16.7698403485
 20
12.6451507762
 30
0.0
 10
16.7738645022
 20
12.6241607937
 30
0.0
 10
16.7771962595
 20
12.6023804901
 30
0.0
 10
16.7798085185
 20
12.5799607006
 30
0.0
 10
16.7823222743
 20
12.5492759382
 30
0.0
 10
16.7833081827
 20
12.518208632
 30
0.0
 10
16.782787827
 20
12.4870622502
 30
0.0
 10
16.7812644217
 20
12.4563241543
 30
0.0
 10
16.7782722004
 20
12.4261318322
 30
0.0
 10
16.7737505639
 20
12.3967950232
 30
0.0
 10
16.7697030069
 20
12.3758282698
 30
0.0
 10
16.7649913745
 20
12.3558063586
 30
0.0
 10
16.7613444945
 20
12.3428711027
 30
0.0
 10
16.759406206
 20
12.3365987993
 30
0.0
  0
SPLINE
  5
2F9
100
AcDbEntity
  8
0
100
AcDbSpline
 62
7
  6
CONTINUOUS
 70
0
 71
3
 72
9
 73
5
 74
0
 42
0.0000001
 43
0.0000001
 44
0.0000000001
 40
0.0
 40
0.0
 40
0.0
 40
0.0
 40
0.2582963617
 40
1.0
 40
1.0
 40
1.0
 40
1.0
 10
16.8145237261
 20
11.7368882253
 30
0.0
 10
16.8125215828
 20
11.734489679
 30
0.0
 10
16.80465195
 20
11.7253036828
 30
0.0
 10
16.7962953717
 20
11.7165298432
 30
0.0
 10
16.7898063492
 20
11.7103344236
 30
0.0
  0
SPLINE
  5
2FA
100
AcDbEntity
  8
0
100
AcDbSpline
 62
7
  6
CONTINUOUS
 70
0
 71
3
 72
51
 73
47
 74
0
 42
0.0000001
 43
0.0000001
 44
0.0000000001
 40
0.0
 40
0.0
 40
0.0
 40
0.0
 40
0.0203371664
 40
0.0298812555
 40
0.0390575432
 40
0.047914186
 40
0.056507013
 40
0.0648995676
 40
0.0731609696
 40
0.0813644045
 40
0.0895852512
 40
0.0978981266
 40
0.1063745698
 40
0.1150814424
 40
0.1240787509
 40
0.1334187182
 40
0.1431463746
 40
0.1532996685
 40
0.1639084177
 40
0.1749959873
 40
0.1865806479
 40
0.1986753733
 40
0.2112873573
 40
0.2244202191
 40
0.2380747283
 40
0.2522476999
 40
0.2669324235
 40
0.2977979126
 40
0.330579885
 40
0.3651517444
 40
0.4013619791
 40
0.4390388317
 40
0.4779924911
 40
0.5180202839
 40
0.5589070077
 40
0.6004299976
 40
0.6423593617
 40
0.6844619858
 40
0.7265023252
 40
0.7682461313
 40
0.8094621622
 40
0.8499229971
 40
0.8894068007
 40
0.9277104895
 40
0.9646435636
 40
1.0
 40
1.0
 40
1.0
 40
1.0
 10
16.7898063492
 20
11.7103344236
 30
0.0
 10
16.781736766
 20
11.7026299575
 30
0.0
 10
16.7691817008
 20
11.6919843169
 30
0.0
 10
16.7513678619
 20
11.6800464963
 30
0.0
 10
16.7381515092
 20
11.6726468411
 30
0.0
 10
16.7248205972
 20
11.6666292556
 30
0.0
 10
16.7113951391
 20
11.6620086737
 30
0.0
 10
16.6978996506
 20
11.6587932839
 30
0.0
 10
16.6843583406
 20
11.6569901788
 30
0.0
 10
16.6707965109
 20
11.6566065401
 30
0.0
 10
16.6572409206
 20
11.657644575
 30
0.0
 10
16.6437175753
 20
11.6600981714
 30
0.0
 10
16.6302512134
 20
11.6639610841
 30
0.0
 10
16.6168665841
 20
11.6692268581
 30
0.0
 10
16.6035860622
 20
11.6758823378
 30
0.0
 10
16.5904300822
 20
11.6839120661
 30
0.0
 10
16.5774193017
 20
11.6933018104
 30
0.0
 10
16.5645752648
 20
11.7040367895
 30
0.0
 10
16.5519162639
 20
11.7160964027
 30
0.0
 10
16.5394613662
 20
11.7294599496
 30
0.0
 10
16.5272308271
 20
11.7441066547
 30
0.0
 10
16.5152447531
 20
11.760013222
 30
0.0
 10
16.5035204752
 20
11.7771521133
 30
0.0
 10
16.4920767384
 20
11.7954954883
 30
0.0
 10
16.4809334126
 20
11.8150146358
 30
0.0
 10
16.4701080779
 20
11.8356775821
 30
0.0
 10
16.4558839161
 20
11.8651985971
 30
0.0
 10
16.4390867719
 20
11.9047827463
 30
0.0
 10
16.4207863271
 20
11.9554871167
 30
0.0
 10
16.4041396475
 20
12.0098305736
 30
0.0
 10
16.3892547466
 20
12.0674574338
 30
0.0
 10
16.3762323126
 20
12.1279927345
 30
0.0
 10
16.3651546952
 20
12.1910398791
 30
0.0
 10
16.3560996912
 20
12.2561863452
 30
0.0
 10
16.349122265
 20
12.3230044908
 30
0.0
 10
16.3442737968
 20
12.3910560992
 30
0.0
 10
16.3415814364
 20
12.4598942663
 30
0.0
 10
16.3410674785
 20
12.5290668438
 30
0.0
 10
16.3427316605
 20
12.5981195186
 30
0.0
 10
16.3465657991
 20
12.666598874
 30
0.0
 10
16.3525428501
 20
12.734055108
 30
0.0
 10
16.3606231255
 20
12.8000436576
 30
0.0
 10
16.3707537088
 20
12.8641324729
 30
0.0
 10
16.3828679118
 20
12.9259068567
 30
0.0
 10
16.3968866793
 20
12.9849524266
 30
0.0
 10
16.4076857139
 20
13.0231281205
 30
0.0
 10
16.4134124687
 20
13.0416599058
 30
0.0
  0
SPLINE
  5
2FB
100
AcDbEntity
  8
0
100
AcDbSpline
 62
7
  6
CONTINUOUS
 70
0
 71
3
 72
25
 73
21
 74
0
 42
0.0000001
 43
0.0000001
 44
0.0000000001
 40
0.0
 40
0.0
 40
0.0
 40
0.0
 40
0.0879368859
 40
0.172657328
 40
0.253954301
 40
0.3316744672
 40
0.4057313955
 40
0.4760655719
 40
0.5426558581
 40
0.6055207625
 40
0.6647313438
 40
0.7204350548
 40
0.7728492809
 40
0.7979237333
 40
0.8223008558
 40
0.8691663705
 40
0.9139753336
 40
0.9573452098
 40
0.9787195756
 40
1.0
 40
1.0
 40
1.0
 40
1.0
 10
16.3766293829
 20
13.0603082049
 30
0.0
 10
16.3805689363
 20
13.073056604
 30
0.0
 10
16.3887053184
 20
13.0979656356
 30
0.0
 10
16.4019424694
 20
13.1341634242
 30
0.0
 10
16.4159520691
 20
13.1684016382
 30
0.0
 10
16.4306898083
 20
13.2005623864
 30
0.0
 10
16.446104735
 20
13.2305470741
 30
0.0
 10
16.4621532061
 20
13.2582645556
 30
0.0
 10
16.4787844518
 20
13.2836312869
 30
0.0
 10
16.4959479359
 20
13.3065687206
 30
0.0
 10
16.5135979601
 20
13.32700185
 30
0.0
 10
16.531677138
 20
13.3448689184
 30
0.0
 10
16.5472878292
 20
13.3577578662
 30
0.0
 10
16.5599324274
 20
13.3666591945
 30
0.0
 10
16.5723197089
 20
13.374425048
 30
0.0
 10
16.5880076134
 20
13.3825216248
 30
0.0
 10
16.6073000871
 20
13.3895909532
 30
0.0
 10
16.6235968051
 20
13.3931591669
 30
0.0
 10
16.636582374
 20
13.3945702704
 30
0.0
 10
16.6430573436
 20
13.3948050453
 30
0.0
 10
16.6462863592
 20
13.3948049716
 30
0.0
  0
SPLINE
  5
2FC
100
AcDbEntity
  8
0
100
AcDbSpline
 62
7
  6
CONTINUOUS
 70
0
 71
3
 72
42
 73
38
 74
0
 42
0.0000001
 43
0.0000001
 44
0.0000000001
 40
0.0
 40
0.0
 40
0.0
 40
0.0
 40
0.0076948624
 40
0.0154422496
 40
0.0232932172
 40
0.0312964679
 40
0.03949754
 40
0.0479374667
 40
0.0656648756
 40
0.0847298713
 40
0.105299615
 40
0.127482572
 40
0.1513357637
 40
0.1768761626
 40
0.2040876416
 40
0.2329262388
 40
0.2633269781
 40
0.2952041701
 40
0.3284586561
 40
0.3629752707
 40
0.3986300234
 40
0.4352868066
 40
0.4728034997
 40
0.511029645
 40
0.5498105675
 40
0.5889869206
 40
0.6283966709
 40
0.6678761933
 40
0.7072608734
 40
0.7463875144
 40
0.7850946576
 40
0.8232231353
 40
0.8606168585
 40
0.8971271152
 40
0.9326194332
 40
0.9669592262
 40
1.0
 40
1.0
 40
1.0
 40
1.0
 10
16.6462863592
 20
11.6268050142
 30
0.0
 10
16.642264047
 20
11.6268051059
 30
0.0
 10
16.6341873286
 20
11.6271702264
 30
0.0
 10
16.6221066393
 20
11.6288077885
 30
0.0
 10
16.6100580806
 20
11.6315322877
 30
0.0
 10
16.5980589115
 20
11.6353396311
 30
0.0
 10
16.5861244746
 20
11.6402259735
 30
0.0
 10
16.5700577983
 20
11.6482977462
 30
0.0
 10
16.5501567892
 20
11.6612139532
 30
0.0
 10
16.5272058293
 20
11.6806101013
 30
0.0
 10
16.5048752141
 20
11.7040416919
 30
0.0
 10
16.4832654221
 20
11.7313944596
 30
0.0
 10
16.4624647965
 20
11.762535778
 30
0.0
 10
16.4425690785
 20
11.797319152
 30
0.0
 10
16.4236705765
 20
11.8355788054
 30
0.0
 10
16.40585772
 20
11.8771313355
 30
0.0
 10
16.3892190026
 20
11.9217773257
 30
0.0
 10
16.3738314272
 20
11.9693000143
 30
0.0
 10
16.3597748889
 20
12.0194696152
 30
0.0
 10
16.3471129051
 20
12.0720411532
 30
0.0
 10
16.3359134095
 20
12.1267590845
 30
0.0
 10
16.3262256654
 20
12.1833556395
 30
0.0
 10
16.3181030483
 20
12.2415547709
 30
0.0
 10
16.3115802998
 20
12.3010714738
 30
0.0
 10
16.3066941414
 20
12.3616149023
 30
0.0
 10
16.3034648726
 20
12.4228885932
 30
0.0
 10
16.3019114773
 20
12.4845928248
 30
0.0
 10
16.3020395178
 20
12.5464253141
 30
0.0
 10
16.3038489007
 20
12.6080834721
 30
0.0
 10
16.3073310741
 20
12.6692655578
 30
0.0
 10
16.3124684252
 20
12.7296722242
 30
0.0
 10
16.3192377946
 20
12.7890065432
 30
0.0
 10
16.3276005099
 20
12.8469778367
 30
0.0
 10
16.3375196853
 20
12.9033050983
 30
0.0
 10
16.3489458904
 20
12.9577170921
 30
0.0
 10
16.3618263204
 20
13.0099372892
 30
0.0
 10
16.3715300759
 20
13.043806841
 30
0.0
 10
16.3766293829
 20
13.0603082049
 30
0.0
  0
SPLINE
  5
2FD
100
AcDbEntity
  8
0
100
AcDbSpline
 62
7
  6
CONTINUOUS
 70
0
 71
3
 72
32
 73
28
 74
0
 42
0.0000001
 43
0.0000001
 44
0.0000000001
 40
0.0
 40
0.0
 40
0.0
 40
0.0
 40
0.0154287565
 40
0.0312709031
 40
0.0479009677
 40
0.0656293155
 40
0.0846967645
 40
0.1052684846
 40
0.1274527786
 40
0.1513097406
 40
0.1768522718
 40
0.204066186
 40
0.2329091442
 40
0.2633119987
 40
0.2951930255
 40
0.3284513326
 40
0.398618538
 40
0.4727895618
 40
0.5497967364
 40
0.5889770055
 40
0.6283914704
 40
0.7072594224
 40
0.7850962751
 40
0.860610273
 40
0.9326251694
 40
0.9669694289
 40
1.0
 40
1.0
 40
1.0
 40
1.0
 10
16.6462861364
 20
12.7610540409
 30
0.0
 10
16.6485690187
 20
12.761054215
 30
0.0
 10
16.6532063507
 20
12.7606327964
 30
0.0
 10
16.6600723872
 20
12.7587466894
 30
0.0
 10
16.6668480663
 20
12.755631398
 30
0.0
 10
16.6734990267
 20
12.7513147728
 30
0.0
 10
16.679996408
 20
12.7458228847
 30
0.0
 10
16.6863177151
 20
12.7391900183
 30
0.0
 10
16.6924360777
 20
12.7314472626
 30
0.0
 10
16.6983233732
 20
12.7226307977
 30
0.0
 10
16.7039563815
 20
12.7127844167
 30
0.0
 10
16.7093065398
 20
12.7019535169
 30
0.0
 10
16.7143482014
 20
12.6901900706
 30
0.0
 10
16.7190595298
 20
12.6775515963
 30
0.0
 10
16.7234151093
 20
12.664098203
 30
0.0
 10
16.7288173107
 20
12.6448159505
 30
0.0
 10
16.7344842368
 20
12.6191327025
 30
0.0
 10
16.7394747165
 20
12.5867449725
 30
0.0
 10
16.7421217759
 20
12.5586869038
 30
0.0
 10
16.7433345352
 20
12.53569319
 30
0.0
 10
16.74392119
 20
12.5123994178
 30
0.0
 10
16.7434701393
 20
12.4833689975
 30
0.0
 10
16.7410503936
 20
12.4490769342
 30
0.0
 10
16.7368160414
 20
12.4159825502
 30
0.0
 10
16.7317561785
 20
12.3895298847
 30
0.0
 10
16.726813185
 20
12.3695026901
 30
0.0
 10
16.7240660813
 20
12.3599165233
 30
0.0
 10
16.7226231201
 20
12.3552470983
 30
0.0
  0
SPLINE
  5
2FE
100
AcDbEntity
  8
0
100
AcDbSpline
 62
7
  6
CONTINUOUS
 70
0
 71
3
 72
32
 73
28
 74
0
 42
0.0000001
 43
0.0000001
 44
0.0000000001
 40
0.0
 40
0.0
 40
0.0
 40
0.0
 40
0.093904685
 40
0.1828584183
 40
0.2664920625
 40
0.3446106181
 40
0.3815746941
 40
0.417134539
 40
0.4512962231
 40
0.4840743971
 40
0.5154983219
 40
0.5456108454
 40
0.57446699
 40
0.6021367189
 40
0.6542557754
 40
0.678978109
 40
0.7029829155
 40
0.7264349551
 40
0.7495133335
 40
0.7724077973
 40
0.7953144694
 40
0.8184288432
 40
0.8419395892
 40
0.8660245428
 40
0.8908459338
 40
0.9432105307
 40
1.0
 40
1.0
 40
1.0
 40
1.0
 10
16.4134124687
 20
13.0416599058
 30
0.0
 10
16.4186837013
 20
13.0587176208
 30
0.0
 10
16.4296858942
 20
13.0917127481
 30
0.0
 10
16.4481040846
 20
13.1389382297
 30
0.0
 10
16.467906969
 20
13.1823251777
 30
0.0
 10
16.4857740455
 20
13.2156524378
 30
0.0
 10
16.5007150351
 20
13.2400949003
 30
0.0
 10
16.51198091
 20
13.2569692993
 30
0.0
 10
16.523496184
 20
13.2726991056
 30
0.0
 10
16.5352452488
 20
13.2872586705
 30
0.0
 10
16.5472102197
 20
13.300626106
 30
0.0
 10
16.5593720563
 20
13.3127817388
 30
0.0
 10
16.5717155207
 20
13.3237079752
 30
0.0
 10
16.5880595232
 20
13.336354079
 30
0.0
 10
16.6050485449
 20
13.3468429664
 30
0.0
 10
16.622529075
 20
13.3547704862
 30
0.0
 10
16.6355010632
 20
13.3593085917
 30
0.0
 10
16.648538958
 20
13.3625340722
 30
0.0
 10
16.6616218028
 20
13.3644410303
 30
0.0
 10
16.6747268806
 20
13.3650231555
 30
0.0
 10
16.6878304346
 20
13.3642769256
 30
0.0
 10
16.7009089749
 20
13.3622073616
 30
0.0
 10
16.7139400099
 20
13.3588198904
 30
0.0
 10
16.7269018684
 20
13.3541198285
 30
0.0
 10
16.7443711653
 20
13.3459722138
 30
0.0
 10
16.7660103329
 20
13.332327532
 30
0.0
 10
16.7818701613
 20
13.3188431462
 30
0.0
 10
16.7896840613
 20
13.3113919649
 30
0.0
  0
SPLINE
  5
2FF
100
AcDbEntity
  8
0
100
AcDbSpline
 62
7
  6
CONTINUOUS
 70
0
 71
3
 72
9
 73
5
 74
0
 42
0.0000001
 43
0.0000001
 44
0.0000000001
 40
0.0
 40
0.0
 40
0.0
 40
0.0
 40
0.2418639978
 40
1.0
 40
1.0
 40
1.0
 40
1.0
 10
16.7896840613
 20
13.3113919649
 30
0.0
 10
16.7918111846
 20
13.3093635819
 30
0.0
 10
16.8004743857
 20
13.3008396288
 30
0.0
 10
16.8086198829
 20
13.2917949195
 30
0.0
 10
16.8145237715
 20
13.2847220176
 30
0.0
  0
SPLINE
  5
300
100
AcDbEntity
  8
0
100
AcDbSpline
 62
7
  6
CONTINUOUS
 70
0
 71
3
 72
26
 73
22
 74
0
 42
0.0000001
 43
0.0000001
 44
0.0000000001
 40
0.0
 40
0.0
 40
0.0
 40
0.0
 40
0.0937776646
 40
0.1823044997
 40
0.2651468761
 40
0.3420691077
 40
0.412997664
 40
0.4780164187
 40
0.5374167138
 40
0.5917395799
 40
0.641878642
 40
0.6657830179
 40
0.6891389624
 40
0.7121548021
 40
0.7350487369
 40
0.7580428333
 40
0.7813568072
 40
0.8297051312
 40
0.8815947901
 40
0.9381194329
 40
1.0
 40
1.0
 40
1.0
 40
1.0
 10
16.759406206
 20
12.3365987993
 30
0.0
 10
16.7575687817
 20
12.3306528915
 30
0.0
 10
16.7537229484
 20
12.3191758046
 30
0.0
 10
16.7472447001
 20
12.3028060854
 30
0.0
 10
16.740257039
 20
12.2878709577
 30
0.0
 10
16.7328106953
 20
12.2744780703
 30
0.0
 10
16.7249524748
 20
12.2627165807
 30
0.0
 10
16.7167281365
 20
12.2526650581
 30
0.0
 10
16.7081883396
 20
12.2443865272
 30
0.0
 10
16.6993750811
 20
12.237948879
 30
0.0
 10
16.6917164017
 20
12.2341039923
 30
0.0
 10
16.6855697731
 20
12.2320737021
 30
0.0
 10
16.6810077421
 20
12.2310649899
 30
0.0
 10
16.6764315366
 20
12.2305481729
 30
0.0
 10
16.671850188
 20
12.2305239786
 30
0.0
 10
16.6672727852
 20
12.2309929745
 30
0.0
 10
16.6611161328
 20
12.2322901051
 30
0.0
 10
16.6533973023
 20
12.2352186826
 30
0.0
 10
16.6444528293
 20
12.2406218198
 30
0.0
 10
16.6357586749
 20
12.2478984121
 30
0.0
 10
16.6304095608
 20
12.2536820804
 30
0.0
 10
16.6277777993
 20
12.2568344887
 30
0.0
  0
SPLINE
  5
301
100
AcDbEntity
  8
0
100
AcDbSpline
 62
7
  6
CONTINUOUS
 70
0
 71
3
 72
21
 73
17
 74
0
 42
0.0000001
 43
0.0000001
 44
0.0000000001
 40
0.0
 40
0.0
 40
0.0
 40
0.0
 40
0.1725855723
 40
0.3316310052
 40
0.4057057487
 40
0.4760508075
 40
0.5426445467
 40
0.6055083227
 40
0.6647268671
 40
0.7204414932
 40
0.7728631936
 40
0.8223042225
 40
0.8691784788
 40
0.9139960661
 40
0.9573696075
 40
1.0
 40
1.0
 40
1.0
 40
1.0
 10
16.7226231201
 20
12.3552470983
 30
0.0
 10
16.7204345661
 20
12.3481649364
 30
0.0
 10
16.7158036791
 20
12.3346821068
 30
0.0
 10
16.7089204258
 20
12.3186502394
 30
0.0
 10
16.7029577984
 20
12.3070549481
 30
0.0
 10
16.6984136843
 20
12.2992084624
 30
0.0
 10
16.6937051605
 20
12.2920280951
 30
0.0
 10
16.6888452724
 20
12.2855360846
 30
0.0
 10
16.6838494302
 20
12.2797513744
 30
0.0
 10
16.6787319308
 20
12.2746918416
 30
0.0
 10
16.6735051554
 20
12.270376208
 30
0.0
 10
16.6681839526
 20
12.2668194538
 30
0.0
 10
16.6627846057
 20
12.2640331717
 30
0.0
 10
16.6573222588
 20
12.2620305289
 30
0.0
 10
16.6518163575
 20
12.2608253888
 30
0.0
 10
16.6481171264
 20
12.2605560845
 30
0.0
 10
16.6462861363
 20
12.2605559449
 30
0.0
  0
ENDSEC
  0
SECTION
  2
OBJECTS
  0
DICTIONARY
  5
C
100
AcDbDictionary
280
0
281
1
  3
ACAD_GROUP
350
D
  3
ACAD_MLINESTYLE
350
17
  3
ACAD_LAYOUT
350
1A
  3
ACAD_PLOTSETTINGS
350
19
  3
ACAD_PLOTSTYLENAME
350
E
  0
DICTIONARY
  5
D
102
{ACAD_REACTORS
330
C
102
}
100
AcDbDictionary
280
0
281
1
  0
ACDBDICTIONARYWDFLT
  5
E
102
{ACAD_REACTORS
330
C
102
}
100
AcDbDictionary
281
1
  3
Normal
350
F
100
AcDbDictionaryWithDefault
340
F
  0
DICTIONARY
  5
17
102
{ACAD_REACTORS
330
C
102
}
100
AcDbDictionary
280
0
281
1
  3
Standard
350
18
  0
DICTIONARY
  5
19
102
{ACAD_REACTORS
330
C
102
}
100
AcDbDictionary
281
1
  0
DICTIONARY
  5
1A
102
{ACAD_REACTORS
330
C
102
}
100
AcDbDictionary
281
1
  3
Model
350
302
  3
Layout1
350
303
  0
ACDBPLACEHOLDER
  5
F
102
{ACAD_REACTORS
330
E
102
}
  0
MLINESTYLE
  5
18
102
{ACAD_REACTORS
330
17
102
}
100
AcDbMlineStyle
  2
STANDARD
 70
0
  3

 62
256
 51
90.0
 52
90.0
 71
2
 49
0.5
 62
256
  6
BYLAYER
 49
-0.5
 62
256
  6
BYLAYER
  0
LAYOUT
  5
302
102
{ACAD_REACTORS
330
1A
102
}
100
AcDbPlotSettings
  1

  2
none_device
  4
ANSI_C_(22.00_x_17.00_Inches)
  6

 40
0.0
 41
0.0
 42
0.0
 43
0.0
 44
558.8
 45
431.8
 46
0.0
 47
0.0
 48
0.0
 49
0.0
140
0.0
141
0.0
142
1.0
143
1.0
 70
1024
 72
0
 73
0
 74
0
  7

 75
0
147
1.0
148
0.0
149
0.0
100
AcDbLayout
  1
Model
 70
0
 71
0
 10
0.0
 20
0.0
 11
22.0
 21
17.0
 12
0.0
 22
0.0
 32
0.0
 14
0.0
 24
0.0
 34
0.0
 15
0.0
 25
0.0
 35
0.0
146
0.0
 13
0.0
 23
0.0
 33
0.0
 16
1.0
 26
0.0
 36
0.0
 17
0.0
 27
1.0
 37
0.0
 76
0
330
224
345
0
346
0
  0
LAYOUT
  5
303
102
{ACAD_REACTORS
330
1A
102
}
100
AcDbPlotSettings
  1

  2
none_device
  4
ANSI_C_(22.00_x_17.00_Inches)
  6

 40
0.0
 41
0.0
 42
0.0
 43
0.0
 44
558.8
 45
431.8
 46
0.0
 47
0.0
 48
0.0
 49
0.0
140
0.0
141
0.0
142
1.0
143
1.0
 70
0
 72
0
 73
0
 74
0
  7

 75
0
147
1.0
148
0.0
149
0.0
100
AcDbLayout
  1
Layout1
 70
0
 71
1
 10
0.0
 20
0.0
 11
22.0
 21
17.0
 12
0.0
 22
0.0
 32
0.0
 14
0.0
 24
0.0
 34
0.0
 15
0.0
 25
0.0
 35
0.0
146
0.0
 13
0.0
 23
0.0
 33
0.0
 16
1.0
 26
0.0
 36
0.0
 17
0.0
 27
1.0
 37
0.0
 76
0
330
225
345
0
346
0
  0
ENDSEC
  0
EOF