999
DXF file: _cgs_temp_output.dxf
999
Pro/ENGINEER 2016360 by Parametric Technology Corporation
  0
SECTION
  2
HEADER
  9
$ACADVER
  1
AC1021
  9
$DWGCODEPAGE
  3
ANSI_1252
  9
$EXTMAX
 10
22.0
 20
17.0
 30
0.0
  9
$EXTMIN
 10
0.0
 20
0.0
 30
0.0
  9
$LIMMIN
 10
0.0
 20
0.0
  9
$LIMMAX
 10
22.0
 20
17.0
  9
$VIEWCTR
 10
11.0
 20
8.5
  9
$VIEWSIZE
 40
17.0
  9
$CLAYER
  8
0
  9
$LTSCALE
 40
1.21
  9
$CELTYPE
  6
BYLAYER
  9
$DIMSCALE
 40
1.0
  9
$DIMASZ
 40
0.1875
  9
$DIMEXO
 40
0.0625
  9
$DIMDLI
 40
0.836
  9
$DIMEXE
 40
0.125
  9
$DIMCEN
 40
0.198
  9
$DIMLFAC
 40
1.0
  9
$DIMBLK
  1
_CLOSED
  9
$DIMALT
 70
0
  9
$DIMALTF
 40
25.4
  9
$DIMTXT
 40
0.15625
  9
$DIMTOL
 70
0
  9
$DIMLIM
 70
0
  9
$DIMTFAC
 40
1.0
  9
$DIMGAP
 40
0.09
  9
$DIMDSEP
 70
46
  9
$AUNITS
 70
0
  9
$PDMODE
 70
3
  9
$PDSIZE
 40
0.3125
  9
$HANDSEED
  5
320
  9
$TILEMODE
 70
1
  9
$MEASUREMENT
 70
0
  9
$INSUNITS
 70
1
  0
ENDSEC
  0
SECTION
  2
CLASSES
  0
CLASS
  1
ACDBDICTIONARYWDFLT
  2
AcDbDictionaryWithDefault
  3
AutoCAD 2000
 90
0
 91
1
280
0
281
0
  0
CLASS
  1
ACDBPLACEHOLDER
  2
AcDbPlaceHolder
  3
AutoCAD 2000
 90
0
 91
1
280
0
281
0
  0
CLASS
  1
LAYOUT
  2
AcDbLayout
  3
AutoCAD 2000
 90
0
 91
0
280
0
281
0
  0
ENDSEC
  0
SECTION
  2
TABLES
  0
TABLE
  2
VPORT
  5
8
100
AcDbSymbolTable
 70
2
  0
VPORT
  5
1F4
100
AcDbSymbolTableRecord
100
AcDbViewportTableRecord
  2
*ACTIVE
 70
0
 10
0.0
 20
0.0
 11
1.0
 21
1.0
 12
11.0
 22
8.5
 13
0.0
 23
0.0
 14
1.0
 24
1.0
 15
0.0
 25
0.0
 16
0.0
 26
0.0
 36
1.0
 17
0.0
 27
0.0
 37
0.0
 40
17.0
 41
1.2941176471
 42
50.0
 43
0.0
 44
0.0
 50
0.0
 51
0.0
 71
0
 72
100
 73
1
 74
1
 75
0
 76
0
 77
0
 78
0
  0
ENDTAB
  0
TABLE
  2
LTYPE
  5
5
100
AcDbSymbolTable
 70
6
  0
LTYPE
  5
14
100
AcDbSymbolTableRecord
100
AcDbLinetypeTableRecord
  2
BYBLOCK
 70
0
  3

 72
65
 73
0
 40
0.0
  0
LTYPE
  5
15
100
AcDbSymbolTableRecord
100
AcDbLinetypeTableRecord
  2
BYLAYER
 70
0
  3

 72
65
 73
0
 40
0.0
  0
LTYPE
  5
16
100
AcDbSymbolTableRecord
100
AcDbLinetypeTableRecord
  2
CONTINUOUS
 70
64
  3
Solid line
 72
65
 73
0
 40
0.0
  0
LTYPE
  5
1F5
100
AcDbSymbolTableRecord
100
AcDbLinetypeTableRecord
  2
CENTER
 70
64
  3
____ _ ____ _ ____ _ ____ _ ____ _ ____ _ ____
 72
65
 73
4
 40
0.6
 49
0.375
 74
0
 49
-0.075
 74
0
 49
0.075
 74
0
 49
-0.075
 74
0
  0
LTYPE
  5
1F6
100
AcDbSymbolTableRecord
100
AcDbLinetypeTableRecord
  2
HIDDEN
 70
64
  3
- - - - - - - - - - - - - - - - - - - -
 72
65
 73
2
 40
0.2
 49
0.1
 74
0
 49
-0.1
 74
0
  0
LTYPE
  5
1F7
100
AcDbSymbolTableRecord
100
AcDbLinetypeTableRecord
  2
PHANTOM
 70
64
  3
_____ _ _ _____ _ _ _____ _ _ _____
 72
65
 73
6
 40
0.8
 49
0.45
 74
0
 49
-0.05
 74
0
 49
0.1
 74
0
 49
-0.05
 74
0
 49
0.1
 74
0
 49
-0.05
 74
0
  0
LTYPE
  5
1F8
100
AcDbSymbolTableRecord
100
AcDbLinetypeTableRecord
  2
DOT
 70
64
  3
. . . . . . . . . . . . . . . . . . . .
 72
65
 73
2
 40
0.2
 49
0.1
 74
0
 49
-0.1
 74
0
  0
LTYPE
  5
1F9
100
AcDbSymbolTableRecord
100
AcDbLinetypeTableRecord
  2
DASHED
 70
64
  3
- - - - - - - - - - - - - - - - - - - -
 72
65
 73
2
 40
0.2
 49
0.1
 74
0
 49
-0.1
 74
0
  0
ENDTAB
  0
TABLE
  2
LAYER
  5
2
100
AcDbSymbolTable
 70
36
  0
LAYER
  5
10
100
AcDbSymbolTableRecord
100
AcDbLayerTableRecord
  2
0
 70
0
 62
7
  6
CONTINUOUS
370
-3
390
F
  0
LAYER
  5
1FA
100
AcDbSymbolTableRecord
100
AcDbLayerTableRecord
  2
DEFAULT_1
 70
0
 62
7
  6
CENTER
370
-3
390
F
  0
LAYER
  5
1FB
100
AcDbSymbolTableRecord
100
AcDbLayerTableRecord
  2
DEFAULT_2
 70
0
 62
8
  6
HIDDEN
370
-3
390
F
  0
LAYER
  5
1FC
100
AcDbSymbolTableRecord
100
AcDbLayerTableRecord
  2
DEFAULT_3
 70
0
 62
7
  6
PHANTOM
370
-3
390
F
  0
LAYER
  5
1FD
100
AcDbSymbolTableRecord
100
AcDbLayerTableRecord
  2
01_ALL_DTM_PLN
 70
0
 62
7
  6
CONTINUOUS
370
-3
390
F
  0
LAYER
  5
1FE
100
AcDbSymbolTableRecord
100
AcDbLayerTableRecord
  2
01__ASM_ALL_DTM_PLN
 70
0
 62
7
  6
CONTINUOUS
370
-3
390
F
  0
LAYER
  5
1FF
100
AcDbSymbolTableRecord
100
AcDbLayerTableRecord
  2
01__ASM_DEF_DTM_PLN
 70
0
 62
7
  6
CONTINUOUS
370
-3
390
F
  0
LAYER
  5
200
100
AcDbSymbolTableRecord
100
AcDbLayerTableRecord
  2
01___PRT_ALL_DTM_PLN
 70
0
 62
7
  6
CONTINUOUS
370
-3
390
F
  0
LAYER
  5
201
100
AcDbSymbolTableRecord
100
AcDbLayerTableRecord
  2
01___PRT_DEF_DTM_PLN
 70
0
 62
7
  6
CONTINUOUS
370
-3
390
F
  0
LAYER
  5
202
100
AcDbSymbolTableRecord
100
AcDbLayerTableRecord
  2
02_ALL_AXES
 70
0
 62
7
  6
CONTINUOUS
370
-3
390
F
  0
LAYER
  5
203
100
AcDbSymbolTableRecord
100
AcDbLayerTableRecord
  2
02__ASM_ALL_AXES
 70
0
 62
7
  6
CONTINUOUS
370
-3
390
F
  0
LAYER
  5
204
100
AcDbSymbolTableRecord
100
AcDbLayerTableRecord
  2
02___PRT_ALL_AXES
 70
0
 62
7
  6
CONTINUOUS
370
-3
390
F
  0
LAYER
  5
205
100
AcDbSymbolTableRecord
100
AcDbLayerTableRecord
  2
03_ALL_CURVES
 70
0
 62
7
  6
CONTINUOUS
370
-3
390
F
  0
LAYER
  5
206
100
AcDbSymbolTableRecord
100
AcDbLayerTableRecord
  2
03__ASM_ALL_CURVES
 70
0
 62
7
  6
CONTINUOUS
370
-3
390
F
  0
LAYER
  5
207
100
AcDbSymbolTableRecord
100
AcDbLayerTableRecord
  2
03___PRT_ALL_CURVES
 70
0
 62
7
  6
CONTINUOUS
370
-3
390
F
  0
LAYER
  5
208
100
AcDbSymbolTableRecord
100
AcDbLayerTableRecord
  2
04_ALL_DTM_PNT
 70
0
 62
7
  6
CONTINUOUS
370
-3
390
F
  0
LAYER
  5
209
100
AcDbSymbolTableRecord
100
AcDbLayerTableRecord
  2
04__ASM_ALL_DTM_PNT
 70
0
 62
7
  6
CONTINUOUS
370
-3
390
F
  0
LAYER
  5
20A
100
AcDbSymbolTableRecord
100
AcDbLayerTableRecord
  2
04___PRT_ALL_DTM_PNT
 70
0
 62
7
  6
CONTINUOUS
370
-3
390
F
  0
LAYER
  5
20B
100
AcDbSymbolTableRecord
100
AcDbLayerTableRecord
  2
05_ALL_DTM_CSYS
 70
0
 62
7
  6
CONTINUOUS
370
-3
390
F
  0
LAYER
  5
20C
100
AcDbSymbolTableRecord
100
AcDbLayerTableRecord
  2
05__ASM_ALL_DTM_CSYS
 70
0
 62
7
  6
CONTINUOUS
370
-3
390
F
  0
LAYER
  5
20D
100
AcDbSymbolTableRecord
100
AcDbLayerTableRecord
  2
05__ASM_DEF_DTM_CSYS
 70
0
 62
7
  6
CONTINUOUS
370
-3
390
F
  0
LAYER
  5
20E
100
AcDbSymbolTableRecord
100
AcDbLayerTableRecord
  2
05___PRT_ALL_DTM_CSYS
 70
0
 62
7
  6
CONTINUOUS
370
-3
390
F
  0
LAYER
  5
20F
100
AcDbSymbolTableRecord
100
AcDbLayerTableRecord
  2
05___PRT_DEF_DTM_CSYS
 70
0
 62
7
  6
CONTINUOUS
370
-3
390
F
  0
LAYER
  5
210
100
AcDbSymbolTableRecord
100
AcDbLayerTableRecord
  2
06_ALL_SURFS
 70
0
 62
7
  6
CONTINUOUS
370
-3
390
F
  0
LAYER
  5
211
100
AcDbSymbolTableRecord
100
AcDbLayerTableRecord
  2
06__ASM_ALL_SURFS
 70
0
 62
7
  6
CONTINUOUS
370
-3
390
F
  0
LAYER
  5
212
100
AcDbSymbolTableRecord
100
AcDbLayerTableRecord
  2
06___PRT_ALL_SURFS
 70
0
 62
7
  6
CONTINUOUS
370
-3
390
F
  0
LAYER
  5
213
100
AcDbSymbolTableRecord
100
AcDbLayerTableRecord
  2
07__ASM_ALL_SKELETONS
 70
0
 62
7
  6
CONTINUOUS
370
-3
390
F
  0
LAYER
  5
214
100
AcDbSymbolTableRecord
100
AcDbLayerTableRecord
  2
ANNOTATIONS
 70
0
 62
7
  6
CONTINUOUS
370
-3
390
F
  0
LAYER
  5
215
100
AcDbSymbolTableRecord
100
AcDbLayerTableRecord
  2
ASM_DATUMS
 70
0
 62
7
  6
CONTINUOUS
370
-3
390
F
  0
LAYER
  5
216
100
AcDbSymbolTableRecord
100
AcDbLayerTableRecord
  2
ASM_DEF_DATUMS
 70
0
 62
7
  6
CONTINUOUS
370
-3
390
F
  0
LAYER
  5
217
100
AcDbSymbolTableRecord
100
AcDbLayerTableRecord
  2
AXIS
 70
0
 62
7
  6
CONTINUOUS
370
-3
390
F
  0
LAYER
  5
218
100
AcDbSymbolTableRecord
100
AcDbLayerTableRecord
  2
CSYS
 70
0
 62
7
  6
CONTINUOUS
370
-3
390
F
  0
LAYER
  5
219
100
AcDbSymbolTableRecord
100
AcDbLayerTableRecord
  2
CURVES
 70
0
 62
7
  6
CONTINUOUS
370
-3
390
F
  0
LAYER
  5
21A
100
AcDbSymbolTableRecord
100
AcDbLayerTableRecord
  2
DATUMS
 70
0
 62
7
  6
CONTINUOUS
370
-3
390
F
  0
LAYER
  5
21B
100
AcDbSymbolTableRecord
100
AcDbLayerTableRecord
  2
DEF_CSYS
 70
0
 62
7
  6
CONTINUOUS
370
-3
390
F
  0
LAYER
  5
21C
100
AcDbSymbolTableRecord
100
AcDbLayerTableRecord
  2
DEF_DATUMS
 70
0
 62
7
  6
CONTINUOUS
370
-3
390
F
  0
LAYER
  5
21D
100
AcDbSymbolTableRecord
100
AcDbLayerTableRecord
  2
GTOL
 70
0
 62
7
  6
CONTINUOUS
370
-3
390
F
  0
LAYER
  5
21E
100
AcDbSymbolTableRecord
100
AcDbLayerTableRecord
  2
POINTS
 70
0
 62
7
  6
CONTINUOUS
370
-3
390
F
  0
LAYER
  5
21F
100
AcDbSymbolTableRecord
100
AcDbLayerTableRecord
  2
SKELETONS
 70
0
 62
7
  6
CONTINUOUS
370
-3
390
F
  0
LAYER
  5
220
100
AcDbSymbolTableRecord
100
AcDbLayerTableRecord
  2
SURFACES
 70
0
 62
7
  6
CONTINUOUS
370
-3
390
F
  0
LAYER
  5
221
100
AcDbSymbolTableRecord
100
AcDbLayerTableRecord
  2
XSEC_DATUMS
 70
0
 62
7
  6
CONTINUOUS
370
-3
390
F
  0
ENDTAB
  0
TABLE
  2
STYLE
  5
3
100
AcDbSymbolTable
 70
1
  0
STYLE
  5
11
100
AcDbSymbolTableRecord
100
AcDbTextStyleTableRecord
  2
STANDARD
 70
0
 40
0.0
 41
0.8
 50
0.0
 71
0
 42
0.2
  3
txt
  4

  0
STYLE
  5
222
100
AcDbSymbolTableRecord
100
AcDbTextStyleTableRecord
  2
TEXTSTYLE_1
 70
0
 40
0.0
 41
0.8
 50
0.0
 71
0
 42
0.2
  3
gdt
  4

  0
ENDTAB
  0
TABLE
  2
VIEW
  5
6
100
AcDbSymbolTable
 70
0
  0
ENDTAB
  0
TABLE
  2
UCS
  5
7
100
AcDbSymbolTable
 70
0
  0
ENDTAB
  0
TABLE
  2
APPID
  5
9
100
AcDbSymbolTable
 70
1
  0
APPID
  5
223
100
AcDbSymbolTableRecord
100
AcDbRegAppTableRecord
  2
ACAD
 70
0
  0
ENDTAB
  0
TABLE
  2
BLOCK_RECORD
  5
1
100
AcDbSymbolTable
 70
0
  0
BLOCK_RECORD
  5
224
100
AcDbSymbolTableRecord
100
AcDbBlockTableRecord
  2
*Model_Space
  0
BLOCK_RECORD
  5
225
100
AcDbSymbolTableRecord
100
AcDbBlockTableRecord
  2
*Paper_Space
  0
ENDTAB
  0
TABLE
  2
DIMSTYLE
  5
A
100
AcDbSymbolTable
 70
1
100
AcDbDimStyleTable
 71
0
  0
DIMSTYLE
105
226
100
AcDbSymbolTableRecord
100
AcDbDimStyleTableRecord
  2
STANDARD
 70
0
  3

  4

 40
1.0
 41
0.1875
 42
0.0625
 43
0.38
 44
0.125
 45
0.0
 46
0.0
 47
0.0001
 48
0.0001
140
0.15625
141
0.09
142
0.0
143
25.4
144
1.0
145
0.0
146
1.0
147
0.09
 71
0.0
 72
0.0
 73
1
 74
1
 75
0
 76
0
 77
0
 78
4
 79
1
170
0
171
3
172
0
173
0
174
0
175
0
176
0
177
0
178
0
270
2
179
4
271
4
272
4
273
2
274
2
275
0
280
0
281
0
282
0
283
1
284
4
285
0
286
0
287
3
288
0
340
11
278
46
  0
ENDTAB
  0
ENDSEC
  0
SECTION
  2
BLOCKS
  0
BLOCK
  5
20
100
AcDbEntity
  8
0
100
AcDbBlockBegin
  2
*Model_Space
 70
0
 10
0.0
 20
0.0
 30
0.0
  3
*Model_Space
  1

  0
ENDBLK
  5
21
100
AcDbEntity
  8
0
100
AcDbBlockEnd
  0
BLOCK
  5
1C
100
AcDbEntity
  8
0
100
AcDbBlockBegin
  2
*Paper_Space
 70
0
 10
0.0
 20
0.0
 30
0.0
  3
*Paper_Space
  1

  0
ENDBLK
  5
1D
100
AcDbEntity
  8
0
100
AcDbBlockEnd
  0
ENDSEC
  0
SECTION
  2
ENTITIES
  0
MTEXT
  5
227
100
AcDbEntity
  8
0
100
AcDbMText
 62
7
  6
CONTINUOUS
  7
STANDARD
 71
1
 72
1
 10
15.9560215477
 20
0.9479130325
 30
0.0
 11
1.0
 21
0.0
 31
0.0
 44
0.9
  1
SCALE: 1:1.000
 40
0.3
 41
3.36
  0
LINE
  5
228
100
AcDbEntity
  8
0
100
AcDbLine
 62
7
  6
CONTINUOUS
 10
0.0
 20
0.0
 11
0.0
 21
17.0
  0
LINE
  5
229
100
AcDbEntity
  8
0
100
AcDbLine
 62
7
  6
CONTINUOUS
 10
0.0
 20
0.0
 11
22.0
 21
0.0
  0
LINE
  5
22A
100
AcDbEntity
  8
0
100
AcDbLine
 62
7
  6
CONTINUOUS
 10
0.0
 20
17.0
 11
22.0
 21
17.0
  0
LINE
  5
22B
100
AcDbEntity
  8
0
100
AcDbLine
 62
7
  6
CONTINUOUS
 10
22.0
 20
0.0
 11
22.0
 21
17.0
  0
LINE
  5
22C
100
AcDbEntity
  8
02___PRT_ALL_AXES
100
AcDbLine
 62
7
  6
CONTINUOUS
 10
5.3901832064
 20
6.9966198968
 11
5.3041157784
 21
6.9703064433
  0
LINE
  5
22D
100
AcDbEntity
  8
02___PRT_ALL_AXES
100
AcDbLine
 62
7
  6
CONTINUOUS
 10
5.3901832064
 20
4.0436198968
 11
5.3041157784
 21
4.0699333502
  0
LINE
  5
22E
100
AcDbEntity
  8
AXIS
100
AcDbLine
 62
7
  6
CONTINUOUS
 10
6.3872407784
 20
4.2976198968
 11
5.4291157784
 21
4.2976198968
  0
LINE
  5
22F
100
AcDbEntity
  8
0
100
AcDbLine
 62
7
  6
CONTINUOUS
 10
5.4291157784
 20
4.3313889255
 11
6.3872407784
 21
4.3313889255
  0
LINE
  5
230
100
AcDbEntity
  8
0
100
AcDbLine
 62
7
  6
CONTINUOUS
 10
5.4291157784
 20
4.4378679045
 11
6.3872407784
 21
4.4378679045
  0
LINE
  5
231
100
AcDbEntity
  8
0
100
AcDbLine
 62
7
  6
CONTINUOUS
 10
6.9266157784
 20
4.4810573968
 11
6.5122407784
 21
4.4810573968
  0
LINE
  5
232
100
AcDbEntity
  8
0
100
AcDbLine
 62
7
  6
CONTINUOUS
 10
5.4291157784
 20
4.610463746
 11
6.3872407784
 21
4.610463746
  0
LINE
  5
233
100
AcDbEntity
  8
02___PRT_ALL_AXES
100
AcDbLine
 62
7
  6
CONTINUOUS
 10
5.3041157784
 20
6.9703064433
 11
5.3041157784
 21
4.0699333502
  0
LINE
  5
234
100
AcDbEntity
  8
02___PRT_ALL_AXES
100
AcDbLine
 62
7
  6
CONTINUOUS
 10
5.3901832064
 20
6.9966198968
 11
5.3901832064
 21
4.0436198968
  0
LINE
  5
235
100
AcDbEntity
  8
02___PRT_ALL_AXES
100
AcDbLine
 62
7
  6
CONTINUOUS
 10
5.4291157784
 20
6.8692771918
 11
5.4291157784
 21
4.1709626017
  0
LINE
  5
236
100
AcDbEntity
  8
0
100
AcDbLine
 62
7
  6
CONTINUOUS
 10
5.4291157784
 20
4.8383316187
 11
6.3872407784
 21
4.8383316187
  0
LINE
  5
237
100
AcDbEntity
  8
02___PRT_ALL_AXES
100
AcDbLine
 62
7
  6
CONTINUOUS
 10
5.4291157784
 20
4.1709626017
 11
5.3901832064
 21
4.0436198968
  0
LINE
  5
238
100
AcDbEntity
  8
02___PRT_ALL_AXES
100
AcDbLine
 62
7
  6
CONTINUOUS
 10
5.4291157784
 20
6.8692771918
 11
5.3901832064
 21
6.9966198968
  0
LINE
  5
239
100
AcDbEntity
  8
02___PRT_ALL_AXES
100
AcDbLine
 62
7
  6
CONTINUOUS
 10
6.3872407784
 20
6.8692771918
 11
6.4261733504
 21
6.9966198968
  0
LINE
  5
23A
100
AcDbEntity
  8
02___PRT_ALL_AXES
100
AcDbLine
 62
7
  6
CONTINUOUS
 10
6.3872407784
 20
4.1709626017
 11
6.4261733504
 21
4.0436198968
  0
LINE
  5
23B
100
AcDbEntity
  8
02___PRT_ALL_AXES
100
AcDbLine
 62
7
  6
CONTINUOUS
 10
6.3872407784
 20
4.1709626017
 11
6.3872407784
 21
6.8692771918
  0
LINE
  5
23C
100
AcDbEntity
  8
02___PRT_ALL_AXES
100
AcDbLine
 62
7
  6
CONTINUOUS
 10
6.4261733504
 20
4.0436198968
 11
6.4261733504
 21
6.9966198968
  0
LINE
  5
23D
100
AcDbEntity
  8
02___PRT_ALL_AXES
100
AcDbLine
 62
7
  6
CONTINUOUS
 10
6.5122407784
 20
4.0699333502
 11
6.5122407784
 21
6.9703064433
  0
LINE
  5
23E
100
AcDbEntity
  8
0
100
AcDbLine
 62
7
  6
CONTINUOUS
 10
6.3872407784
 20
6.0716092102
 11
5.4291157784
 21
6.0716092102
  0
LINE
  5
23F
100
AcDbEntity
  8
0
100
AcDbLine
 62
7
  6
CONTINUOUS
 10
6.9266157784
 20
4.4810573968
 11
6.9266157784
 21
6.5591823968
  0
LINE
  5
240
100
AcDbEntity
  8
0
100
AcDbLine
 62
7
  6
CONTINUOUS
 10
6.3872407784
 20
6.321928049
 11
5.4291157784
 21
6.321928049
  0
LINE
  5
241
100
AcDbEntity
  8
0
100
AcDbLine
 62
7
  6
CONTINUOUS
 10
6.9566157784
 20
4.5110573968
 11
6.9566157784
 21
6.5291823968
  0
LINE
  5
242
100
AcDbEntity
  8
0
100
AcDbLine
 62
7
  6
CONTINUOUS
 10
6.3872407784
 20
6.523751343
 11
5.4291157784
 21
6.523751343
  0
LINE
  5
243
100
AcDbEntity
  8
0
100
AcDbLine
 62
7
  6
CONTINUOUS
 10
6.9266157784
 20
6.5591823968
 11
6.5122407784
 21
6.5591823968
  0
LINE
  5
244
100
AcDbEntity
  8
0
100
AcDbLine
 62
7
  6
CONTINUOUS
 10
6.3872407784
 20
6.6643977925
 11
5.4291157784
 21
6.6643977925
  0
LINE
  5
245
100
AcDbEntity
  8
0
100
AcDbLine
 62
7
  6
CONTINUOUS
 10
6.3872407784
 20
6.7350300638
 11
5.4291157784
 21
6.7350300638
  0
LINE
  5
246
100
AcDbEntity
  8
0
100
AcDbLine
 62
7
  6
CONTINUOUS
 10
6.9266158463
 20
4.4810573288
 11
6.9566158444
 21
4.5110573308
  0
LINE
  5
247
100
AcDbEntity
  8
0
100
AcDbLine
 62
7
  6
CONTINUOUS
 10
6.9266158463
 20
6.5591824647
 11
6.9566158444
 21
6.5291824627
  0
LINE
  5
248
100
AcDbEntity
  8
02___PRT_ALL_AXES
100
AcDbLine
 62
7
  6
CONTINUOUS
 10
6.4261733504
 20
4.0436198968
 11
6.5122407784
 21
4.0699333502
  0
LINE
  5
249
100
AcDbEntity
  8
02___PRT_ALL_AXES
100
AcDbLine
 62
7
  6
CONTINUOUS
 10
6.4261733504
 20
6.9966198968
 11
6.5122407784
 21
6.9703064433
  0
LINE
  5
24A
100
AcDbEntity
  8
02___PRT_ALL_AXES
100
AcDbLine
 62
7
  6
CONTINUOUS
 10
5.2446205861
 20
14.0502343279
 11
5.3306880141
 21
14.0765477814
  0
LINE
  5
24B
100
AcDbEntity
  8
02___PRT_ALL_AXES
100
AcDbLine
 62
7
  6
CONTINUOUS
 10
5.2446205861
 20
11.1498612348
 11
5.3306880141
 21
11.1235477814
  0
LINE
  5
24C
100
AcDbEntity
  8
0
100
AcDbLine
 62
7
  6
CONTINUOUS
 10
6.3277455861
 20
11.3790412075
 11
5.3696205861
 21
11.3790412075
  0
LINE
  5
24D
100
AcDbEntity
  8
0
100
AcDbLine
 62
7
  6
CONTINUOUS
 10
5.3696205861
 20
11.3959103201
 11
6.3277455861
 21
11.3959103201
  0
LINE
  5
24E
100
AcDbEntity
  8
0
100
AcDbLine
 62
7
  6
CONTINUOUS
 10
5.3696205861
 20
11.4846410351
 11
6.3277455861
 21
11.4846410351
  0
LINE
  5
24F
100
AcDbEntity
  8
AXIS
100
AcDbLine
 62
7
  6
CONTINUOUS
 10
6.8671207219
 20
11.5609852814
 11
6.4527455861
 21
11.5609852814
  0
LINE
  5
250
100
AcDbEntity
  8
0
100
AcDbLine
 62
7
  6
CONTINUOUS
 10
5.3696205861
 20
11.6415718477
 11
6.3277455861
 21
11.6415718477
  0
LINE
  5
251
100
AcDbEntity
  8
02___PRT_ALL_AXES
100
AcDbLine
 62
7
  6
CONTINUOUS
 10
5.2446205861
 20
11.1498612348
 11
5.2446205861
 21
14.0502343279
  0
LINE
  5
252
100
AcDbEntity
  8
02___PRT_ALL_AXES
100
AcDbLine
 62
7
  6
CONTINUOUS
 10
5.3306880141
 20
11.1235477814
 11
5.3306880141
 21
14.0765477814
  0
LINE
  5
253
100
AcDbEntity
  8
02___PRT_ALL_AXES
100
AcDbLine
 62
7
  6
CONTINUOUS
 10
5.3696205861
 20
11.2508904863
 11
5.3696205861
 21
13.9492050764
  0
LINE
  5
254
100
AcDbEntity
  8
0
100
AcDbLine
 62
7
  6
CONTINUOUS
 10
5.3696205861
 20
11.856842218
 11
6.3277455861
 21
11.856842218
  0
LINE
  5
255
100
AcDbEntity
  8
0
100
AcDbLine
 62
7
  6
CONTINUOUS
 10
5.3696205861
 20
12.1169259168
 11
6.3277455861
 21
12.1169259168
  0
LINE
  5
256
100
AcDbEntity
  8
02___PRT_ALL_AXES
100
AcDbLine
 62
7
  6
CONTINUOUS
 10
5.3306880141
 20
11.1235477814
 11
5.3696205861
 21
11.2508904863
  0
LINE
  5
257
100
AcDbEntity
  8
02___PRT_ALL_AXES
100
AcDbLine
 62
7
  6
CONTINUOUS
 10
5.3306880141
 20
14.0765477814
 11
5.3696205861
 21
13.9492050764
  0
LINE
  5
258
100
AcDbEntity
  8
02___PRT_ALL_AXES
100
AcDbLine
 62
7
  6
CONTINUOUS
 10
6.3666781581
 20
14.0765477814
 11
6.3277455861
 21
13.9492050764
  0
LINE
  5
259
100
AcDbEntity
  8
02___PRT_ALL_AXES
100
AcDbLine
 62
7
  6
CONTINUOUS
 10
6.3666781581
 20
11.1235477814
 11
6.3277455861
 21
11.2508904863
  0
LINE
  5
25A
100
AcDbEntity
  8
02___PRT_ALL_AXES
100
AcDbLine
 62
7
  6
CONTINUOUS
 10
6.3277455861
 20
11.2508904863
 11
6.3277455861
 21
13.9492050764
  0
LINE
  5
25B
100
AcDbEntity
  8
02___PRT_ALL_AXES
100
AcDbLine
 62
7
  6
CONTINUOUS
 10
6.3666781581
 20
11.1235477814
 11
6.3666781581
 21
14.0765477814
  0
LINE
  5
25C
100
AcDbEntity
  8
02___PRT_ALL_AXES
100
AcDbLine
 62
7
  6
CONTINUOUS
 10
6.4527455861
 20
11.1498612348
 11
6.4527455861
 21
14.0502343279
  0
LINE
  5
25D
100
AcDbEntity
  8
0
100
AcDbLine
 62
7
  6
CONTINUOUS
 10
6.3277455861
 20
13.083169646
 11
5.3696205861
 21
13.083169646
  0
LINE
  5
25E
100
AcDbEntity
  8
0
100
AcDbLine
 62
7
  6
CONTINUOUS
 10
6.867120586
 20
11.5609852814
 11
6.867120586
 21
13.6391102814
  0
LINE
  5
25F
100
AcDbEntity
  8
0
100
AcDbLine
 62
7
  6
CONTINUOUS
 10
6.3277455861
 20
13.3432533448
 11
5.3696205861
 21
13.3432533448
  0
LINE
  5
260
100
AcDbEntity
  8
0
100
AcDbLine
 62
7
  6
CONTINUOUS
 10
6.8971205861
 20
11.5909852814
 11
6.8971205861
 21
13.6091102813
  0
LINE
  5
261
100
AcDbEntity
  8
0
100
AcDbLine
 62
7
  6
CONTINUOUS
 10
6.3277455861
 20
13.558523715
 11
5.3696205861
 21
13.558523715
  0
LINE
  5
262
100
AcDbEntity
  8
AXIS
100
AcDbLine
 62
7
  6
CONTINUOUS
 10
6.8671207219
 20
13.6391102814
 11
6.4527455861
 21
13.6391102814
  0
LINE
  5
263
100
AcDbEntity
  8
0
100
AcDbLine
 62
7
  6
CONTINUOUS
 10
6.3277455861
 20
13.7154545277
 11
5.3696205861
 21
13.7154545277
  0
LINE
  5
264
100
AcDbEntity
  8
0
100
AcDbLine
 62
7
  6
CONTINUOUS
 10
6.3277455861
 20
13.8041852426
 11
5.3696205861
 21
13.8041852426
  0
LINE
  5
265
100
AcDbEntity
  8
0
100
AcDbLine
 62
7
  6
CONTINUOUS
 10
5.3696205861
 20
13.8210543552
 11
6.3277455861
 21
13.8210543552
  0
LINE
  5
266
100
AcDbEntity
  8
0
100
AcDbLine
 62
7
  6
CONTINUOUS
 10
6.8971205861
 20
11.5909851495
 11
6.8671207219
 21
11.5609852814
  0
LINE
  5
267
100
AcDbEntity
  8
0
100
AcDbLine
 62
7
  6
CONTINUOUS
 10
6.8971205861
 20
13.6091104133
 11
6.8671207219
 21
13.6391102814
  0
LINE
  5
268
100
AcDbEntity
  8
02___PRT_ALL_AXES
100
AcDbLine
 62
7
  6
CONTINUOUS
 10
6.4527455861
 20
11.1498612348
 11
6.3666781581
 21
11.1235477814
  0
LINE
  5
269
100
AcDbEntity
  8
02___PRT_ALL_AXES
100
AcDbLine
 62
7
  6
CONTINUOUS
 10
6.4527455861
 20
14.0502343279
 11
6.3666781581
 21
14.0765477814
  0
LINE
  5
26A
100
AcDbEntity
  8
02___PRT_ALL_AXES
100
AcDbLine
 62
7
  6
CONTINUOUS
 10
14.7228869513
 20
13.9488253798
 11
14.8008357737
 21
13.9749180798
  0
LINE
  5
26B
100
AcDbEntity
  8
02___PRT_ALL_AXES
100
AcDbLine
 62
7
  6
CONTINUOUS
 10
14.7228869513
 20
11.072784606
 11
14.8008357737
 21
11.046691906
  0
LINE
  5
26C
100
AcDbEntity
  8
0
100
AcDbLine
 62
7
  6
CONTINUOUS
 10
14.7891355023
 20
13.6925611727
 11
14.7921264587
 21
13.6935601564
  0
LINE
  5
26D
100
AcDbEntity
  8
0
100
AcDbLine
 62
7
  6
CONTINUOUS
 10
14.8681090535
 20
11.2934146739
 11
14.8670296091
 21
11.2935346583
  0
LINE
  5
26E
100
AcDbEntity
  8
AXIS
100
AcDbLine
 62
7
  6
CONTINUOUS
 10
15.9426516407
 20
11.4343370549
 11
15.9437415092
 21
11.4345831527
  0
LINE
  5
26F
100
AcDbEntity
  8
AXIS
100
AcDbLine
 62
7
  6
CONTINUOUS
 10
15.9425801987
 20
11.4364549347
 11
15.9436683632
 21
11.4366879215
  0
LINE
  5
270
100
AcDbEntity
  8
0
100
AcDbLine
 62
7
  6
CONTINUOUS
 10
14.8681090534
 20
11.293406323
 11
15.504633134
 21
11.293406323
  0
LINE
  5
271
100
AcDbEntity
  8
0
100
AcDbLine
 62
7
  6
CONTINUOUS
 10
14.7544641682
 20
11.3581124344
 11
15.4702103501
 21
11.3581124344
  0
LINE
  5
272
100
AcDbEntity
  8
AXIS
100
AcDbLine
 62
7
  6
CONTINUOUS
 10
16.2903059259
 20
11.4717424929
 11
15.9063384989
 21
11.4717424929
  0
LINE
  5
273
100
AcDbEntity
  8
0
100
AcDbLine
 62
7
  6
CONTINUOUS
 10
14.6506560709
 20
11.4933614482
 11
15.4134274615
 21
11.4933614482
  0
LINE
  5
274
100
AcDbEntity
  8
0
100
AcDbLine
 62
7
  6
CONTINUOUS
 10
14.5632074058
 20
11.6906551714
 11
15.3519032252
 21
11.6906551714
  0
LINE
  5
275
100
AcDbEntity
  8
0
100
AcDbLine
 62
7
  6
CONTINUOUS
 10
14.4976128944
 20
11.937596914
 11
15.299945134
 21
11.937596914
  0
LINE
  5
276
100
AcDbEntity
  8
0
100
AcDbLine
 62
7
  6
CONTINUOUS
 10
14.4795291671
 20
12.2154741914
 11
15.2660232966
 21
12.2154741914
  0
LINE
  5
277
100
AcDbEntity
  8
02___PRT_ALL_AXES
100
AcDbLine
 62
7
  6
CONTINUOUS
 10
15.538673121
 20
11.4949534712
 11
15.5376213113
 21
11.4972656313
  0
LINE
  5
278
100
AcDbEntity
  8
02___PRT_ALL_AXES
100
AcDbLine
 62
7
  6
CONTINUOUS
 10
15.539015408
 20
11.4959830193
 11
15.5379727743
 21
11.4983171006
  0
LINE
  5
279
100
AcDbEntity
  8
02___PRT_ALL_AXES
100
AcDbLine
 62
7
  6
CONTINUOUS
 10
15.4434761972
 20
11.6900267741
 11
15.4432229136
 21
11.6909174867
  0
LINE
  5
27A
100
AcDbEntity
  8
02___PRT_ALL_AXES
100
AcDbLine
 62
7
  6
CONTINUOUS
 10
15.4206774711
 20
13.1546752657
 11
15.4208585859
 21
13.1555198735
  0
LINE
  5
27B
100
AcDbEntity
  8
02___PRT_ALL_AXES
100
AcDbLine
 62
7
  6
CONTINUOUS
 10
15.420969475
 20
13.1542627089
 11
15.4211599565
 21
13.1550933548
  0
LINE
  5
27C
100
AcDbEntity
  8
02___PRT_ALL_AXES
100
AcDbLine
 62
7
  6
CONTINUOUS
 10
15.443198966
 20
11.6895375968
 11
15.4429558293
 21
11.6904469814
  0
LINE
  5
27D
100
AcDbEntity
  8
02___PRT_ALL_AXES
100
AcDbLine
 62
7
  6
CONTINUOUS
 10
15.4043662018
 20
11.9497546005
 11
15.4042780183
 21
11.9502441114
  0
LINE
  5
27E
100
AcDbEntity
  8
02___PRT_ALL_AXES
100
AcDbLine
 62
7
  6
CONTINUOUS
 10
15.3898915804
 20
11.9376438597
 11
15.3896605847
 21
11.9390244745
  0
LINE
  5
27F
100
AcDbEntity
  8
02___PRT_ALL_AXES
100
AcDbLine
 62
7
  6
CONTINUOUS
 10
15.4044598345
 20
11.9498658888
 11
15.40437958
 21
11.9503646958
  0
LINE
  5
280
100
AcDbEntity
  8
02___PRT_ALL_AXES
100
AcDbLine
 62
7
  6
CONTINUOUS
 10
15.3898915804
 20
11.9376438597
 11
15.3896844555
 21
11.9390507738
  0
LINE
  5
281
100
AcDbEntity
  8
0
100
AcDbLine
 62
7
  6
CONTINUOUS
 10
14.4739919339
 20
12.9009302912
 11
15.27536024
 21
12.9009302912
  0
LINE
  5
282
100
AcDbEntity
  8
0
100
AcDbLine
 62
7
  6
CONTINUOUS
 10
14.4739919339
 20
12.9009302895
 11
14.4679333881
 21
12.9006929326
  0
LINE
  5
283
100
AcDbEntity
  8
0
100
AcDbLine
 62
7
  6
CONTINUOUS
 10
15.3158559722
 20
13.1721338355
 11
14.517053347
 21
13.1721338355
  0
LINE
  5
284
100
AcDbEntity
  8
0
100
AcDbLine
 62
7
  6
CONTINUOUS
 10
15.3719964461
 20
13.4038920631
 11
14.5905711036
 21
13.4038920631
  0
LINE
  5
285
100
AcDbEntity
  8
AXIS
100
AcDbLine
 62
7
  6
CONTINUOUS
 10
16.2903059259
 20
13.5498674929
 11
15.9063384989
 21
13.5498674929
  0
LINE
  5
286
100
AcDbEntity
  8
0
100
AcDbLine
 62
7
  6
CONTINUOUS
 10
15.4341655144
 20
13.5814193558
 11
14.6842236521
 21
13.5814193558
  0
LINE
  5
287
100
AcDbEntity
  8
0
100
AcDbLine
 62
7
  6
CONTINUOUS
 10
15.4853267398
 20
13.693561021
 11
14.7921264584
 21
13.693561021
  0
LINE
  5
288
100
AcDbEntity
  8
0
100
AcDbLine
 62
7
  6
CONTINUOUS
 10
15.5078948357
 20
13.7332699249
 11
14.9074111049
 21
13.7332699249
  0
LINE
  5
289
100
AcDbEntity
  8
0
100
AcDbLine
 62
7
  6
CONTINUOUS
 10
16.4840731896
 20
11.5963660419
 11
16.4613807668
 21
11.5691793768
  0
LINE
  5
28A
100
AcDbEntity
  8
0
100
AcDbLine
 62
7
  6
CONTINUOUS
 10
16.4840731896
 20
13.4252439439
 11
16.4613807668
 21
13.4524306091
  0
LINE
  5
28B
100
AcDbEntity
  8
02___PRT_ALL_AXES
100
AcDbLine
 62
7
  6
CONTINUOUS
 10
15.9816385381
 20
11.072784606
 11
15.9036897158
 21
11.046691906
  0
LINE
  5
28C
100
AcDbEntity
  8
02___PRT_ALL_AXES
100
AcDbLine
 62
7
  6
CONTINUOUS
 10
15.9816385381
 20
13.9488253798
 11
15.9036897158
 21
13.9749180798
  0
CIRCLE
  5
28D
100
AcDbEntity
  8
02___PRT_ALL_AXES
100
AcDbCircle
 62
7
  6
CONTINUOUS
 10
15.5603552569
 20
5.4606247044
 40
1.4765
  0
CIRCLE
  5
28E
100
AcDbEntity
  8
02___PRT_ALL_AXES
100
AcDbCircle
 62
7
  6
CONTINUOUS
 10
15.5603552569
 20
5.4606247044
 40
1.4501865466
  0
CIRCLE
  5
28F
100
AcDbEntity
  8
02___PRT_ALL_AXES
100
AcDbCircle
 62
7
  6
CONTINUOUS
 10
15.5603552569
 20
5.4606247044
 40
1.3357067049
  0
CIRCLE
  5
290
100
AcDbEntity
  8
AXIS
100
AcDbCircle
 62
7
  6
CONTINUOUS
 10
15.5603552569
 20
5.4606247044
 40
1.0805
  0
CIRCLE
  5
291
100
AcDbEntity
  8
0
100
AcDbCircle
 62
7
  6
CONTINUOUS
 10
15.5603552569
 20
5.4606247044
 40
1.0390625
  0
CIRCLE
  5
292
100
AcDbEntity
  8
0
100
AcDbCircle
 62
7
  6
CONTINUOUS
 10
15.5603552569
 20
5.4606247044
 40
1.0090625121
  0
CIRCLE
  5
293
100
AcDbEntity
  8
0
100
AcDbCircle
 62
7
  6
CONTINUOUS
 10
15.5603552569
 20
5.4606247044
 40
0.2802471464
  0
CIRCLE
  5
294
100
AcDbEntity
  8
0
100
AcDbCircle
 62
7
  6
CONTINUOUS
 10
15.5603552569
 20
5.4606247044
 40
0.25025
  0
ARC
  5
295
100
AcDbEntity
  8
02___PRT_ALL_AXES
100
AcDbCircle
 62
7
  6
CONTINUOUS
 10
18.6417725791
 20
12.4782809242
 40
3.2965178511
100
AcDbArc
 50
184.5836452042
 51
189.4149661778
  0
ARC
  5
296
100
AcDbEntity
  8
0
100
AcDbCircle
 62
7
  6
CONTINUOUS
 10
17.5676408798
 20
12.5108710329
 40
3.13268748
100
AcDbArc
 50
178.7662336049
 51
179.3372671618
  0
ARC
  5
297
100
AcDbEntity
  8
0
100
AcDbCircle
 62
7
  6
CONTINUOUS
 10
17.4008779302
 20
12.5012898932
 40
2.9656308087
100
AcDbArc
 50
184.4218432432
 51
185.0143961232
  0
ARC
  5
298
100
AcDbEntity
  8
0
100
AcDbCircle
 62
7
  6
CONTINUOUS
 10
17.2507377284
 20
12.5354514399
 40
2.8147238613
100
AcDbArc
 50
172.973726873
 51
173.5867104911
  0
ARC
  5
299
100
AcDbEntity
  8
02___PRT_ALL_AXES
100
AcDbCircle
 62
7
  6
CONTINUOUS
 10
18.0427668963
 20
12.4253013171
 40
2.680914565
100
AcDbArc
 50
190.217321529
 51
190.3359790838
  0
ARC
  5
29A
100
AcDbEntity
  8
0
100
AcDbCircle
 62
7
  6
CONTINUOUS
 10
16.8203997912
 20
12.4188084399
 40
2.3790486179
100
AcDbArc
 50
190.5816936437
 51
191.2683624806
  0
ARC
  5
29B
100
AcDbEntity
  8
0
100
AcDbCircle
 62
7
  6
CONTINUOUS
 10
16.5823013634
 20
12.6538554475
 40
2.1355241215
100
AcDbArc
 50
166.3445313312
 51
167.0810573976
  0
ARC
  5
29C
100
AcDbEntity
  8
02___PRT_ALL_AXES
100
AcDbCircle
 62
7
  6
CONTINUOUS
 10
17.435694482
 20
12.803666037
 40
2.0613102304
100
AcDbArc
 50
162.8278339056
 51
162.9960768136
  0
ARC
  5
29D
100
AcDbEntity
  8
02___PRT_ALL_AXES
100
AcDbCircle
 62
7
  6
CONTINUOUS
 10
17.1672766985
 20
12.8170874912
 40
1.7773211098
100
AcDbArc
 50
160.9145745347
 51
162.8527061734
  0
ARC
  5
29E
100
AcDbEntity
  8
0
100
AcDbCircle
 62
7
  6
CONTINUOUS
 10
16.061608061
 20
12.2199483132
 40
1.5940644689
100
AcDbArc
 50
198.110141353
 51
199.0073938439
  0
ARC
  5
29F
100
AcDbEntity
  8
02___PRT_ALL_AXES
100
AcDbCircle
 62
7
  6
CONTINUOUS
 10
14.841640512
 20
12.9655151364
 40
1.5734780799
100
AcDbArc
 50
21.778743478
 51
21.9992787775
  0
ARC
  5
2A0
100
AcDbEntity
  8
02___PRT_ALL_AXES
100
AcDbCircle
 62
7
  6
CONTINUOUS
 10
14.8435684672
 20
12.0553175477
 40
1.5713994542
100
AcDbArc
 50
338.0013880101
 51
338.1862951009
  0
ARC
  5
2A1
100
AcDbEntity
  8
0
100
AcDbCircle
 62
7
  6
CONTINUOUS
 10
15.8274155298
 20
12.8873143547
 40
1.3446747439
100
AcDbArc
 50
157.7899842344
 51
158.7919998468
  0
ARC
  5
2A2
100
AcDbEntity
  8
0
100
AcDbCircle
 62
7
  6
CONTINUOUS
 10
16.0767252986
 20
13.6301306349
 40
1.3079740294
100
AcDbArc
 50
178.824643922
 51
181.5457531358
  0
ARC
  5
2A3
100
AcDbEntity
  8
0
100
AcDbCircle
 62
7
  6
CONTINUOUS
 10
16.0223967282
 20
11.3836762528
 40
1.2908308703
100
AcDbArc
 50
176.5405565947
 51
179.2877288167
  0
ARC
  5
2A4
100
AcDbEntity
  8
0
100
AcDbCircle
 62
7
  6
CONTINUOUS
 10
16.0993517231
 20
11.4286487573
 40
1.2591376961
100
AcDbArc
 50
183.2116823479
 51
184.9458908668
  0
ARC
  5
2A5
100
AcDbEntity
  8
0
100
AcDbCircle
 62
7
  6
CONTINUOUS
 10
15.8671361153
 20
13.6245431235
 40
1.2083303514
100
AcDbArc
 50
184.4745386492
 51
187.3366259134
  0
ARC
  5
2A6
100
AcDbEntity
  8
0
100
AcDbCircle
 62
7
  6
CONTINUOUS
 10
16.0527813745
 20
13.5689398769
 40
1.1769767257
100
AcDbArc
 50
173.0366711265
 51
173.9215400205
  0
ARC
  5
2A7
100
AcDbEntity
  8
0
100
AcDbCircle
 62
7
  6
CONTINUOUS
 10
15.7354909307
 20
11.4244203587
 40
1.1128069402
100
AcDbArc
 50
170.52382985
 51
173.5635830309
  0
ARC
  5
2A8
100
AcDbEntity
  8
02___PRT_ALL_AXES
100
AcDbCircle
 62
7
  6
CONTINUOUS
 10
16.4991793278
 20
13.0939799629
 40
1.0533637988
100
AcDbArc
 50
152.3751644788
 51
152.5514681095
  0
ARC
  5
2A9
100
AcDbEntity
  8
0
100
AcDbCircle
 62
7
  6
CONTINUOUS
 10
15.4993683278
 20
13.5137000051
 40
0.9440078221
100
AcDbArc
 50
190.6319821716
 51
193.998407694
  0
ARC
  5
2AA
100
AcDbEntity
  8
0
100
AcDbCircle
 62
7
  6
CONTINUOUS
 10
15.4027324012
 20
11.9347615806
 40
0.8751116935
100
AcDbArc
 50
208.5616254364
 51
209.9006819419
  0
ARC
  5
2AB
100
AcDbEntity
  8
0
100
AcDbCircle
 62
7
  6
CONTINUOUS
 10
15.2465332073
 20
13.1825909289
 40
0.691861217
100
AcDbArc
 50
145.1845863479
 51
146.7442735749
  0
ARC
  5
2AC
100
AcDbEntity
  8
0
100
AcDbCircle
 62
7
  6
CONTINUOUS
 10
15.0223747014
 20
11.6554254839
 40
0.4015666013
100
AcDbArc
 50
225.1409880385
 51
227.3925978978
  0
ARC
  5
2AD
100
AcDbEntity
  8
0
100
AcDbCircle
 62
7
  6
CONTINUOUS
 10
14.9636410337
 20
13.4362307921
 40
0.3100926386
100
AcDbArc
 50
124.2463936858
 51
126.9094497354
  0
ARC
  5
2AE
100
AcDbEntity
  8
AXIS
100
AcDbCircle
 62
7
  6
CONTINUOUS
 10
15.8598747763
 20
13.3288900235
 40
0.2739219376
100
AcDbArc
 50
54.0442690749
 51
54.4182900246
  0
ARC
  5
2AF
100
AcDbEntity
  8
0
100
AcDbCircle
 62
7
  6
CONTINUOUS
 10
14.5400378488
 20
13.6088456459
 40
0.230057638
100
AcDbArc
 50
353.1212462273
 51
354.0556809711
  0
ARC
  5
2B0
100
AcDbEntity
  8
0
100
AcDbCircle
 62
7
  6
CONTINUOUS
 10
14.9139146054
 20
11.4901981574
 40
0.2021750102
100
AcDbArc
 50
253.0370733564
 51
256.590863348
  0
ARC
  5
2B1
100
AcDbEntity
  8
0
100
AcDbCircle
 62
7
  6
CONTINUOUS
 10
14.9110448192
 20
13.547084581
 40
0.1862207994
100
AcDbArc
 50
91.1180797699
 51
94.8667535842
  0
ARC
  5
2B2
100
AcDbEntity
  8
0
100
AcDbCircle
 62
7
  6
CONTINUOUS
 10
14.6575222728
 20
11.4661732757
 40
0.0765344943
100
AcDbArc
 50
356.5499583698
 51
3.945783812
  0
ARC
  5
2B3
100
AcDbEntity
  8
0
100
AcDbCircle
 62
7
  6
CONTINUOUS
 10
14.6941768015
 20
13.5927434308
 40
0.0750799314
100
AcDbArc
 50
354.0959036909
 51
1.6060894362
  0
ARC
  5
2B4
100
AcDbEntity
  8
0
100
AcDbCircle
 62
7
  6
CONTINUOUS
 10
16.2916338198
 20
12.7173480596
 40
0.0438755799
100
AcDbArc
 50
106.7994999336
 51
111.1588683281
  0
SPLINE
  5
2B5
100
AcDbEntity
  8
02___PRT_ALL_AXES
100
AcDbSpline
 62
7
  6
CONTINUOUS
 70
0
 71
3
 72
41
 73
37
 74
0
 42
0.0000001
 43
0.0000001
 44
0.0000000001
 40
0.0
 40
0.0
 40
0.0
 40
0.0
 40
0.032027984
 40
0.06523626
 40
0.0995132372
 40
0.1347486352
 40
0.1708206164
 40
0.2076023662
 40
0.2449624806
 40
0.2827655305
 40
0.3208732439
 40
0.3591453853
 40
0.3974407022
 40
0.4356177718
 40
0.4735359112
 40
0.5110561355
 40
0.5480420174
 40
0.5843605871
 40
0.6198834288
 40
0.654487665
 40
0.688056953
 40
0.7204826993
 40
0.7516655555
 40
0.7815167724
 40
0.8099598848
 40
0.8369329594
 40
0.8623913221
 40
0.8863106089
 40
0.9086908683
 40
0.9295620004
 40
0.9489902115
 40
0.9581991841
 40
0.9670929312
 40
0.9840167973
 40
0.9921110624
 40
1.0
 40
1.0
 40
1.0
 40
1.0
 10
14.3535167269
 20
13.4122554061
 30
0.0
 10
14.3456419077
 20
13.3867724818
 30
0.0
 10
14.3306105323
 20
13.3345513874
 30
0.0
 10
14.3105086343
 20
13.2541392623
 30
0.0
 10
14.2925101947
 20
13.1704962722
 30
0.0
 10
14.2766933999
 20
13.083989517
 30
0.0
 10
14.2631276652
 20
12.9949915446
 30
0.0
 10
14.2518720136
 20
12.9038896407
 30
0.0
 10
14.2429755263
 20
12.8110794162
 30
0.0
 10
14.2364773833
 20
12.7169640035
 30
0.0
 10
14.232405999
 20
12.6219524699
 30
0.0
 10
14.230778946
 20
12.5264577962
 30
0.0
 10
14.2316033534
 20
12.4308950778
 30
0.0
 10
14.2348758694
 20
12.3356797284
 30
0.0
 10
14.2405820851
 20
12.2412256232
 30
0.0
 10
14.2486968721
 20
12.1479432466
 30
0.0
 10
14.2591847962
 20
12.0562379402
 30
0.0
 10
14.2720002827
 20
11.9665081179
 30
0.0
 10
14.2870871137
 20
11.879143356
 30
0.0
 10
14.3043792689
 20
11.7945227105
 30
0.0
 10
14.323801364
 20
11.7130131416
 30
0.0
 10
14.345268952
 20
11.6349677705
 30
0.0
 10
14.3686883065
 20
11.5607240177
 30
0.0
 10
14.3939576859
 20
11.4906022461
 30
0.0
 10
14.4209680313
 20
11.4249043844
 30
0.0
 10
14.4496034259
 20
11.3639123142
 30
0.0
 10
14.4797418442
 20
11.3078861487
 30
0.0
 10
14.511256651
 20
11.2570640786
 30
0.0
 10
14.5440199816
 20
11.2116601763
 30
0.0
 10
14.5778984115
 20
11.1718700234
 30
0.0
 10
14.6074668182
 20
11.1430289367
 30
0.0
 10
14.6315598839
 20
11.1230940002
 30
0.0
 10
14.6550737003
 20
11.105815393
 30
0.0
 10
14.679340723
 20
11.0911788507
 30
0.0
 10
14.7041957269
 20
11.0795923525
 30
0.0
 10
14.7166570695
 20
11.0748702658
 30
0.0
 10
14.7228869636
 20
11.0727848479
 30
0.0
  0
SPLINE
  5
2B6
100
AcDbEntity
  8
02___PRT_ALL_AXES
100
AcDbSpline
 62
7
  6
CONTINUOUS
 70
0
 71
3
 72
23
 73
19
 74
0
 42
0.0000001
 43
0.0000001
 44
0.0000000001
 40
0.0
 40
0.0
 40
0.0
 40
0.0
 40
0.0532325513
 40
0.1053907606
 40
0.1570416535
 40
0.2087733388
 40
0.2611705554
 40
0.3147907047
 40
0.370145241
 40
0.4276850801
 40
0.487796322
 40
0.5507967793
 40
0.6169421869
 40
0.6864279362
 40
0.7593989498
 40
0.835952003
 40
0.9161453249
 40
1.0
 40
1.0
 40
1.0
 40
1.0
 10
14.8008357773
 20
13.9749180078
 30
0.0
 10
14.8093214122
 20
13.9777586163
 30
0.0
 10
14.8264336565
 20
13.9825035047
 30
0.0
 10
14.8525571214
 20
13.9866725457
 30
0.0
 10
14.8787400492
 20
13.9877843559
 30
0.0
 10
14.9049132345
 20
13.9858354661
 30
0.0
 10
14.9310124233
 20
13.9808315262
 30
0.0
 10
14.9569758553
 20
13.9727923052
 30
0.0
 10
14.9827454646
 20
13.9617415697
 30
0.0
 10
15.0082691588
 20
13.9477130548
 30
0.0
 10
15.0334960592
 20
13.9307407521
 30
0.0
 10
15.0583798276
 20
13.9108661899
 30
0.0
 10
15.082872414
 20
13.8881313179
 30
0.0
 10
15.1069291661
 20
13.8625853776
 30
0.0
 10
15.1305027206
 20
13.834279712
 30
0.0
 10
15.1535490483
 20
13.8032726567
 30
0.0
 10
15.1760211898
 20
13.7696268553
 30
0.0
 10
15.1902746629
 20
13.7460072529
 30
0.0
 10
15.1973075307
 20
13.7337909323
 30
0.0
  0
SPLINE
  5
2B7
100
AcDbEntity
  8
02___PRT_ALL_AXES
100
AcDbSpline
 62
7
  6
CONTINUOUS
 70
0
 71
3
 72
23
 73
19
 74
0
 42
0.0000001
 43
0.0000001
 44
0.0000000001
 40
0.0
 40
0.0
 40
0.0
 40
0.0
 40
0.0838346687
 40
0.1650436693
 40
0.2434895293
 40
0.3190804931
 40
0.3917410857
 40
0.4614081462
 40
0.528039855
 40
0.591620661
 40
0.6521628064
 40
0.7097098985
 40
0.7643437711
 40
0.8161881557
 40
0.8654171491
 40
0.9122586948
 40
0.95700246
 40
1.0
 40
1.0
 40
1.0
 40
1.0
 10
14.3535167269
 20
13.4122554061
 30
0.0
 10
14.3590652674
 20
13.4302104897
 30
0.0
 10
14.3704746243
 20
13.4654106971
 30
0.0
 10
14.3888354299
 20
13.5168204712
 30
0.0
 10
14.4081386135
 20
13.5659047856
 30
0.0
 10
14.4283371185
 20
13.6125474123
 30
0.0
 10
14.4493856341
 20
13.6566430844
 30
0.0
 10
14.4712357654
 20
13.6980913441
 30
0.0
 10
14.4938381745
 20
13.7367966153
 30
0.0
 10
14.5171415767
 20
13.7726704951
 30
0.0
 10
14.5410936399
 20
13.8056314713
 30
0.0
 10
14.5656421591
 20
13.8356038881
 30
0.0
 10
14.590732792
 20
13.862519663
 30
0.0
 10
14.6163131953
 20
13.8863153106
 30
0.0
 10
14.6423277008
 20
13.9069352819
 30
0.0
 10
14.6687247502
 20
13.9243265741
 30
0.0
 10
14.6954419699
 20
13.9384424251
 30
0.0
 10
14.7137468969
 20
13.9457655325
 30
0.0
 10
14.722886963
 20
13.9488251493
 30
0.0
  0
SPLINE
  5
2B8
100
AcDbEntity
  8
02___PRT_ALL_AXES
100
AcDbSpline
 62
7
  6
CONTINUOUS
 70
0
 71
3
 72
24
 73
20
 74
0
 42
0.0000001
 43
0.0000001
 44
0.0000000001
 40
0.0
 40
0.0
 40
0.0
 40
0.0
 40
0.0530812545
 40
0.105087216
 40
0.1565922433
 40
0.2081915687
 40
0.2604764651
 40
0.3140100224
 40
0.3693070515
 40
0.4268216116
 40
0.4565409018
 40
0.4869534011
 40
0.5499936015
 40
0.6162088968
 40
0.6857944978
 40
0.7588909747
 40
0.8355942664
 40
0.9159573652
 40
1.0
 40
1.0
 40
1.0
 40
1.0
 10
14.8008357783
 20
11.0466919977
 30
0.0
 10
14.8093833955
 20
11.0438308751
 30
0.0
 10
14.8266221528
 20
11.0390575431
 30
0.0
 10
14.8529418954
 20
11.034891552
 30
0.0
 10
14.8793210824
 20
11.0338277969
 30
0.0
 10
14.9056888387
 20
11.0358718046
 30
0.0
 10
14.9319795461
 20
11.0410148854
 30
0.0
 10
14.9581296837
 20
11.0492394464
 30
0.0
 10
14.984080079
 20
11.0605170004
 30
0.0
 10
15.005262492
 20
11.0723043306
 30
0.0
 10
15.0220381259
 20
11.0831616347
 30
0.0
 10
15.0390985415
 20
11.0952719689
 30
0.0
 10
15.0602140692
 20
11.1123282711
 30
0.0
 10
15.0848551358
 20
11.1354526317
 30
0.0
 10
15.1090495046
 20
11.1614275639
 30
0.0
 10
15.1327504589
 20
11.1901966601
 30
0.0
 10
15.1559104421
 20
11.2217022166
 30
0.0
 10
15.1784844097
 20
11.2558777081
 30
0.0
 10
15.1927934759
 20
11.279861869
 30
0.0
 10
15.1998523795
 20
11.292265197
 30
0.0
  0
SPLINE
  5
2B9
100
AcDbEntity
  8
02___PRT_ALL_AXES
100
AcDbSpline
 62
7
  6
CONTINUOUS
 70
0
 71
3
 72
39
 73
35
 74
0
 42
0.0000001
 43
0.0000001
 44
0.0000000001
 40
0.0
 40
0.0
 40
0.0
 40
0.0
 40
0.0475532367
 40
0.0938300163
 40
0.1387673963
 40
0.1823207813
 40
0.2244561499
 40
0.2651437043
 40
0.3043584738
 40
0.3420837593
 40
0.3783132508
 40
0.4130498947
 40
0.4463090249
 40
0.4781177886
 40
0.5085193542
 40
0.5375725485
 40
0.5653556358
 40
0.59196698
 40
0.6175273683
 40
0.6421808528
 40
0.6660942271
 40
0.6894558764
 40
0.7124713091
 40
0.7353580727
 40
0.7583381456
 40
0.7816301686
 40
0.8054422076
 40
0.8299654968
 40
0.8553705498
 40
0.8818051759
 40
0.9093935485
 40
0.9382380614
 40
0.9684193127
 40
1.0
 40
1.0
 40
1.0
 40
1.0
 10
14.4994675026
 20
13.3494546163
 30
0.0
 10
14.5039478667
 20
13.3639530796
 30
0.0
 10
14.5131298968
 20
13.3924568117
 30
0.0
 10
14.5277761703
 20
13.4342524707
 30
0.0
 10
14.5430887445
 20
13.4744463695
 30
0.0
 10
14.5590390912
 20
13.5129653063
 30
0.0
 10
14.5756002876
 20
13.5497438277
 30
0.0
 10
14.592743809
 20
13.5847197653
 30
0.0
 10
14.6104401048
 20
13.6178327467
 30
0.0
 10
14.6286594128
 20
13.6490249926
 30
0.0
 10
14.647369533
 20
13.6782433679
 30
0.0
 10
14.6665401387
 20
13.7054370617
 30
0.0
 10
14.6861374489
 20
13.7305602926
 30
0.0
 10
14.7061304467
 20
13.753568695
 30
0.0
 10
14.7264846475
 20
13.7744235257
 30
0.0
 10
14.7471680856
 20
13.7930872904
 30
0.0
 10
14.7681464476
 20
13.8095273693
 30
0.0
 10
14.789386339
 20
13.8237129582
 30
0.0
 10
14.8108532443
 20
13.835616169
 30
0.0
 10
14.832511107
 20
13.8452127856
 30
0.0
 10
14.85432296
 20
13.8524792866
 30
0.0
 10
14.876248188
 20
13.8573993565
 30
0.0
 10
14.898244762
 20
13.8599568839
 30
0.0
 10
14.9202676611
 20
13.8601470948
 30
0.0
 10
14.9422713711
 20
13.8579667702
 30
0.0
 10
14.9642111168
 20
13.853424633
 30
0.0
 10
14.9860436753
 20
13.8465316905
 30
0.0
 10
15.0077288504
 20
13.8373066186
 30
0.0
 10
15.0292287634
 20
13.8257707012
 30
0.0
 10
15.0505071081
 20
13.8119480998
 30
0.0
 10
15.0715299379
 20
13.7958670576
 30
0.0
 10
15.0922623716
 20
13.7775561179
 30
0.0
 10
15.1126716651
 20
13.7570503973
 30
0.0
 10
15.1257386713
 20
13.7422794068
 30
0.0
 10
15.1322159717
 20
13.734558782
 30
0.0
  0
SPLINE
  5
2BA
100
AcDbEntity
  8
02___PRT_ALL_AXES
100
AcDbSpline
 62
7
  6
CONTINUOUS
 70
0
 71
3
 72
22
 73
18
 74
0
 42
0.0000001
 43
0.0000001
 44
0.0000000001
 40
0.0
 40
0.0
 40
0.0
 40
0.0
 40
0.079556699
 40
0.1570537369
 40
0.2323931237
 40
0.3055055534
 40
0.376336632
 40
0.4448378855
 40
0.5109678461
 40
0.5746981422
 40
0.6360147449
 40
0.694917751
 40
0.7514245
 40
0.8055699339
 40
0.8574117581
 40
0.9070299829
 40
1.0
 40
1.0
 40
1.0
 40
1.0
 10
14.4247633728
 20
13.4286121111
 30
0.0
 10
14.4294998089
 20
13.443939224
 30
0.0
 10
14.4391989843
 20
13.4740903235
 30
0.0
 10
14.454639298
 20
13.518339625
 30
0.0
 10
14.4707611891
 20
13.5609593482
 30
0.0
 10
14.4875366236
 20
13.6018774036
 30
0.0
 10
14.5049393954
 20
13.6410289245
 30
0.0
 10
14.5229412068
 20
13.6783521183
 30
0.0
 10
14.5415135415
 20
13.713786629
 30
0.0
 10
14.5606266089
 20
13.7472750849
 30
0.0
 10
14.580249546
 20
13.7787639856
 30
0.0
 10
14.6003518411
 20
13.8082025081
 30
0.0
 10
14.6209012
 20
13.8355442992
 30
0.0
 10
14.6418656333
 20
13.8607437145
 30
0.0
 10
14.6632150759
 20
13.8837644694
 30
0.0
 10
14.6915252404
 20
13.9109027464
 30
0.0
 10
14.7141541664
 20
13.9288391914
 30
0.0
 10
14.729718685
 20
13.9392888711
 30
0.0
  0
SPLINE
  5
2BB
100
AcDbEntity
  8
02___PRT_ALL_AXES
100
AcDbSpline
 62
7
  6
CONTINUOUS
 70
0
 71
3
 72
9
 73
5
 74
0
 42
0.0000001
 43
0.0000001
 44
0.0000000001
 40
0.0
 40
0.0
 40
0.0
 40
0.0
 40
0.5136952543
 40
1.0
 40
1.0
 40
1.0
 40
1.0
 10
14.729718685
 20
13.9392888711
 30
0.0
 10
14.741052311
 20
13.9468980215
 30
0.0
 10
14.7639977586
 20
13.9604555542
 30
0.0
 10
14.7885810498
 20
13.9708156768
 30
0.0
 10
14.8008357773
 20
13.9749180078
 30
0.0
  0
SPLINE
  5
2BC
100
AcDbEntity
  8
02___PRT_ALL_AXES
100
AcDbSpline
 62
7
  6
CONTINUOUS
 70
0
 71
3
 72
39
 73
35
 74
0
 42
0.0000001
 43
0.0000001
 44
0.0000000001
 40
0.0
 40
0.0
 40
0.0
 40
0.0
 40
0.0310622497
 40
0.0632084446
 40
0.0963424796
 40
0.1303709432
 40
0.1651903572
 40
0.2006928475
 40
0.2367668425
 40
0.2732971167
 40
0.3101658152
 40
0.3472532116
 40
0.3844383281
 40
0.4215996085
 40
0.4586156654
 40
0.4953659227
 40
0.5317312696
 40
0.5675948631
 40
0.6028427861
 40
0.6373647128
 40
0.6710548214
 40
0.7038126219
 40
0.7355437029
 40
0.7661607783
 40
0.7955849806
 40
0.8237469275
 40
0.8505881789
 40
0.8760633227
 40
0.9001421074
 40
0.9228120423
 40
0.944082029
 40
0.9639868361
 40
0.982592043
 40
1.0
 40
1.0
 40
1.0
 40
1.0
 10
14.4247633728
 20
13.4286121111
 30
0.0
 10
14.4172292856
 20
13.404231796
 30
0.0
 10
14.4028042807
 20
13.3543365078
 30
0.0
 10
14.3833679387
 20
13.2776007758
 30
0.0
 10
14.3658187582
 20
13.1979146497
 30
0.0
 10
14.3502243966
 20
13.1155881187
 30
0.0
 10
14.3366450631
 20
13.0309348485
 30
0.0
 10
14.3251331373
 20
12.9442809056
 30
0.0
 10
14.3157331059
 20
12.8559594239
 30
0.0
 10
14.308481645
 20
12.7663099343
 30
0.0
 10
14.3034064879
 20
12.6756773744
 30
0.0
 10
14.3005272133
 20
12.5844104346
 30
0.0
 10
14.2998552404
 20
12.4928602651
 30
0.0
 10
14.3013930953
 20
12.4013791458
 30
0.0
 10
14.3051346106
 20
12.3103190716
 30
0.0
 10
14.311065436
 20
12.220030411
 30
0.0
 10
14.3191628611
 20
12.1308605387
 30
0.0
 10
14.3293952687
 20
12.0431524027
 30
0.0
 10
14.3417230479
 20
11.9572432608
 30
0.0
 10
14.3560988371
 20
11.8734634103
 30
0.0
 10
14.3724669688
 20
11.7921347238
 30
0.0
 10
14.3907640082
 20
11.7135693934
 30
0.0
 10
14.4109194908
 20
11.6380688637
 30
0.0
 10
14.4328559651
 20
11.5659225105
 30
0.0
 10
14.4564887259
 20
11.497406217
 30
0.0
 10
14.4817271074
 20
11.4327815247
 30
0.0
 10
14.5084751151
 20
11.3722946717
 30
0.0
 10
14.5366311768
 20
11.3161750884
 30
0.0
 10
14.566089329
 20
11.2646346919
 30
0.0
 10
14.5967410404
 20
11.2178674096
 30
0.0
 10
14.6284749208
 20
11.1760493134
 30
0.0
 10
14.6611813785
 20
11.1393360961
 30
0.0
 10
14.6947417402
 20
11.1078729908
 30
0.0
 10
14.718350576
 20
11.0899238509
 30
0.0
 10
14.7302375845
 20
11.0819733084
 30
0.0
  0
SPLINE
  5
2BD
100
AcDbEntity
  8
02___PRT_ALL_AXES
100
AcDbSpline
 62
7
  6
CONTINUOUS
 70
0
 71
3
 72
10
 73
6
 74
0
 42
0.0000001
 43
0.0000001
 44
0.0000000001
 40
0.0
 40
0.0
 40
0.0
 40
0.0
 40
0.5134192674
 40
0.7596516214
 40
1.0
 40
1.0
 40
1.0
 40
1.0
 10
14.7302375845
 20
11.0819733084
 30
0.0
 10
14.7414930993
 20
11.0744451361
 30
0.0
 10
14.7588207388
 20
11.0642451978
 30
0.0
 10
14.7828018604
 20
11.0532321139
 30
0.0
 10
14.7948245859
 20
11.0487041092
 30
0.0
 10
14.8008357783
 20
11.0466919977
 30
0.0
  0
SPLINE
  5
2BE
100
AcDbEntity
  8
02___PRT_ALL_AXES
100
AcDbSpline
 62
7
  6
CONTINUOUS
 70
0
 71
3
 72
53
 73
49
 74
0
 42
0.0000001
 43
0.0000001
 44
0.0000000001
 40
0.0
 40
0.0
 40
0.0
 40
0.0
 40
0.0357318632
 40
0.0730869105
 40
0.1118672506
 40
0.1518610013
 40
0.1928404931
 40
0.2345680649
 40
0.2767978007
 40
0.3192786401
 40
0.3617569036
 40
0.4039789436
 40
0.4456937506
 40
0.4866556067
 40
0.5266268166
 40
0.5653805589
 40
0.6027039358
 40
0.6384013347
 40
0.6722982612
 40
0.6885255328
 40
0.7042492371
 40
0.7194558907
 40
0.7341341295
 40
0.7482754408
 40
0.7618742414
 40
0.7749282522
 40
0.7874391743
 40
0.7994127213
 40
0.8108598528
 40
0.8217966407
 40
0.8322458136
 40
0.8422366962
 40
0.8518066132
 40
0.8610009337
 40
0.8698737295
 40
0.8784874576
 40
0.8869122181
 40
0.8952243065
 40
0.903503893
 40
0.9118323231
 40
0.9202892399
 40
0.9289497666
 40
0.9378826549
 40
0.9567838766
 40
0.9668644583
 40
0.9774097672
 40
0.9884479218
 40
1.0
 40
1.0
 40
1.0
 40
1.0
 10
14.4994675026
 20
13.3494546163
 30
0.0
 10
14.4901004534
 20
13.319142834
 30
0.0
 10
14.4724781115
 20
13.2566592224
 30
0.0
 10
14.4497397701
 20
13.1599425445
 30
0.0
 10
14.4302259476
 20
13.0586681605
 30
0.0
 10
14.4140749098
 20
12.953549352
 30
0.0
 10
14.4014012796
 20
12.8453211695
 30
0.0
 10
14.3922946868
 20
12.734743726
 30
0.0
 10
14.3868198348
 20
12.6225931663
 30
0.0
 10
14.3850155008
 20
12.5096572923
 30
0.0
 10
14.386894513
 20
12.3967294646
 30
0.0
 10
14.3924435422
 20
12.2846030231
 30
0.0
 10
14.4016232438
 20
12.1740655311
 30
0.0
 10
14.414368529
 20
12.0658931214
 30
0.0
 10
14.430589038
 20
11.9608447628
 30
0.0
 10
14.4501698318
 20
11.8596570336
 30
0.0
 10
14.4729724261
 20
11.7630375111
 30
0.0
 10
14.4988355719
 20
11.6716635165
 30
0.0
 10
14.5231283595
 20
11.5993996037
 30
0.0
 10
14.5440306553
 20
11.5447904895
 30
0.0
 10
14.5601254193
 20
11.5061295176
 30
0.0
 10
14.5768365768
 20
11.4692353104
 30
0.0
 10
14.5941358739
 20
11.4341724149
 30
0.0
 10
14.6119927941
 20
11.4010020461
 30
0.0
 10
14.6303762469
 20
11.3697819597
 30
0.0
 10
14.6492550438
 20
11.3405668537
 30
0.0
 10
14.6685958442
 20
11.3134070338
 30
0.0
 10
14.688367049
 20
11.288350594
 30
0.0
 10
14.7085337982
 20
11.2654401955
 30
0.0
 10
14.7290641229
 20
11.2447173135
 30
0.0
 10
14.7499225663
 20
11.2262174181
 30
0.0
 10
14.771076408
 20
11.2099755022
 30
0.0
 10
14.7924900338
 20
11.1960210841
 30
0.0
 10
14.8141288497
 20
11.1843829095
 30
0.0
 10
14.8359559029
 20
11.1750857904
 30
0.0
 10
14.8579325583
 20
11.1681514969
 30
0.0
 10
14.8800177819
 20
11.1635991133
 30
0.0
 10
14.90216743
 20
11.1614399569
 30
0.0
 10
14.9243356913
 20
11.161682742
 30
0.0
 10
14.9464761664
 20
11.1643241746
 30
0.0
 10
14.9685425163
 20
11.1693588735
 30
0.0
 10
14.9904933787
 20
11.1767710534
 30
0.0
 10
15.0200978914
 20
11.190044792
 30
0.0
 10
15.0488101046
 20
11.2079714999
 30
0.0
 10
15.076339817
 20
11.2297659296
 30
0.0
 10
15.0971379888
 20
11.2487182929
 30
0.0
 10
15.1175959999
 20
11.2698847636
 30
0.0
 10
15.1306871691
 20
11.2850972957
 30
0.0
 10
15.1371745061
 20
11.2930421636
 30
0.0
  0
SPLINE
  5
2BF
100
AcDbEntity
  8
02___PRT_ALL_AXES
100
AcDbSpline
 62
7
  6
CONTINUOUS
 70
0
 71
3
 72
28
 73
24
 74
0
 42
0.0000001
 43
0.0000001
 44
0.0000000001
 40
0.0
 40
0.0
 40
0.0
 40
0.0
 40
0.022910253
 40
0.0454449955
 40
0.0677236623
 40
0.0898711362
 40
0.112014933
 40
0.1342827335
 40
0.1567994808
 40
0.1796851489
 40
0.2030525826
 40
0.2270056094
 40
0.2770098096
 40
0.3303593094
 40
0.3875243486
 40
0.4488308955
 40
0.5144813152
 40
0.5845749623
 40
0.6591273658
 40
0.7380837637
 40
0.8213278067
 40
0.9087067175
 40
1.0
 40
1.0
 40
1.0
 40
1.0
 10
15.9036897111
 20
13.9749179881
 30
0.0
 10
15.8976358216
 20
13.9769443915
 30
0.0
 10
15.885471087
 20
13.9805159437
 30
0.0
 10
15.866983671
 20
13.9843982379
 30
0.0
 10
15.8484520241
 20
13.9867471583
 30
0.0
 10
15.8298987757
 20
13.9875598974
 30
0.0
 10
15.8113447789
 20
13.9868354587
 30
0.0
 10
15.7928116461
 20
13.9845736815
 30
0.0
 10
15.7743202291
 20
13.980779376
 30
0.0
 10
15.7558913574
 20
13.9754571134
 30
0.0
 10
15.7375446009
 20
13.9686134701
 30
0.0
 10
15.7128684793
 20
13.9573143348
 30
0.0
 10
15.6822358881
 20
13.9392045755
 30
0.0
 10
15.6467014091
 20
13.9118880504
 30
0.0
 10
15.6119797332
 20
13.8788079937
 30
0.0
 10
15.5781985996
 20
13.8401096616
 30
0.0
 10
15.5454783487
 20
13.7959511292
 30
0.0
 10
15.5139425449
 20
13.7465108226
 30
0.0
 10
15.4837137873
 20
13.6919873375
 30
0.0
 10
15.4549130183
 20
13.6326013468
 30
0.0
 10
15.4276546747
 20
13.5685921418
 30
0.0
 10
15.4020527049
 20
13.5002236788
 30
0.0
 10
15.3864843531
 20
13.4529172907
 30
0.0
 10
15.3789734845
 20
13.4286121111
 30
0.0
  0
SPLINE
  5
2C0
100
AcDbEntity
  8
02___PRT_ALL_AXES
100
AcDbSpline
 62
7
  6
CONTINUOUS
 70
0
 71
3
 72
22
 73
18
 74
0
 42
0.0000001
 43
0.0000001
 44
0.0000000001
 40
0.0
 40
0.0
 40
0.0
 40
0.0
 40
0.1608292942
 40
0.2373580255
 40
0.3112306701
 40
0.382419992
 40
0.4509144072
 40
0.5167182568
 40
0.5798554564
 40
0.6403693129
 40
0.6983290365
 40
0.7538285549
 40
0.8069933494
 40
0.8579805381
 40
0.9069836597
 40
0.9542338072
 40
1.0
 40
1.0
 40
1.0
 40
1.0
 10
16.3005589301
 20
11.4666962472
 30
0.0
 10
16.2900931733
 20
11.4407911003
 30
0.0
 10
16.2736207718
 20
11.40295524
 30
0.0
 10
16.2496935297
 20
11.3544624731
 30
0.0
 10
16.2315039668
 20
11.3205268399
 30
0.0
 10
16.2128026058
 20
11.2884761816
 30
0.0
 10
16.1936184311
 20
11.2583601585
 30
0.0
 10
16.1739805699
 20
11.2302264611
 30
0.0
 10
16.1539203415
 20
11.2041185272
 30
0.0
 10
16.1334669869
 20
11.1800783869
 30
0.0
 10
16.1126530065
 20
11.1581428662
 30
0.0
 10
16.0915082254
 20
11.138348016
 30
0.0
 10
16.0700651887
 20
11.120724814
 30
0.0
 10
16.0483551505
 20
11.1053032769
 30
0.0
 10
16.0264098483
 20
11.0921096525
 30
0.0
 10
16.0042653082
 20
11.0811685323
 30
0.0
 10
15.9891778604
 20
11.0753086118
 30
0.0
 10
15.9816385264
 20
11.0727848366
 30
0.0
  0
SPLINE
  5
2C1
100
AcDbEntity
  8
02___PRT_ALL_AXES
100
AcDbSpline
 62
7
  6
CONTINUOUS
 70
0
 71
3
 72
22
 73
18
 74
0
 42
0.0000001
 43
0.0000001
 44
0.0000000001
 40
0.0
 40
0.0
 40
0.0
 40
0.0
 40
0.1608318883
 40
0.237359463
 40
0.3112311998
 40
0.3824200584
 40
0.4509143378
 40
0.516717824
 40
0.5798547539
 40
0.6403684365
 40
0.6983280404
 40
0.7538276151
 40
0.8069924051
 40
0.8579798034
 40
0.9069830715
 40
0.9542335291
 40
1.0
 40
1.0
 40
1.0
 40
1.0
 10
16.3005514026
 20
13.5549320354
 30
0.0
 10
16.2900855264
 20
13.5808364763
 30
0.0
 10
16.2736134612
 20
13.6186710524
 30
0.0
 10
16.2496862142
 20
13.6671616324
 30
0.0
 10
16.231497148
 20
13.7010953746
 30
0.0
 10
16.2127961085
 20
13.7331442857
 30
0.0
 10
16.1936124771
 20
13.763258849
 30
0.0
 10
16.1739750084
 20
13.7913910714
 30
0.0
 10
16.1539153108
 20
13.8174976568
 30
0.0
 10
16.1334625231
 20
13.8415365812
 30
0.0
 10
16.1126490512
 20
13.8634709398
 30
0.0
 10
16.0915049662
 20
13.8832649116
 30
0.0
 10
16.0700624368
 20
13.9008871377
 30
0.0
 10
16.0483531579
 20
13.9163081043
 30
0.0
 10
16.0264084167
 20
13.9295009989
 30
0.0
 10
16.0042646287
 20
13.940441801
 30
0.0
 10
15.9891776287
 20
13.9463014706
 30
0.0
 10
15.9816385258
 20
13.9488251379
 30
0.0
  0
SPLINE
  5
2C2
100
AcDbEntity
  8
02___PRT_ALL_AXES
100
AcDbSpline
 62
7
  6
CONTINUOUS
 70
0
 71
3
 72
51
 73
47
 74
0
 42
0.0000001
 43
0.0000001
 44
0.0000000001
 40
0.0
 40
0.0
 40
0.0
 40
0.0
 40
0.0081714454
 40
0.0161957385
 40
0.0241301345
 40
0.0320343358
 40
0.0399688934
 40
0.0479935344
 40
0.0561654719
 40
0.0645381762
 40
0.0731603068
 40
0.0820750813
 40
0.0913202393
 40
0.1009276876
 40
0.1109242538
 40
0.1213315067
 40
0.1321665922
 40
0.1434424753
 40
0.1551682523
 40
0.1673499345
 40
0.1799901888
 40
0.193089343
 40
0.2066450501
 40
0.2206529291
 40
0.2351066795
 40
0.2499980496
 40
0.2810512447
 40
0.3137205666
 40
0.3478916827
 40
0.3834338098
 40
0.4202023121
 40
0.4580409341
 40
0.4967837796
 40
0.5362571118
 40
0.5762810488
 40
0.616671197
 40
0.6572402064
 40
0.6977992945
 40
0.7381597508
 40
0.7781344514
 40
0.8175394108
 40
0.8561952607
 40
0.8939293
 40
0.9305756893
 40
0.9659813465
 40
1.0
 40
1.0
 40
1.0
 40
1.0
 10
15.9036897121
 20
11.046691978
 30
0.0
 10
15.8967287134
 20
11.0443617491
 30
0.0
 10
15.8827242098
 20
11.0403353937
 30
0.0
 10
15.86140394
 20
11.0362589013
 30
0.0
 10
15.84003184
 20
11.0342191994
 30
0.0
 10
15.8186433173
 20
11.034222634
 30
0.0
 10
15.7972715502
 20
11.0362670528
 30
0.0
 10
15.7759502873
 20
11.0403502819
 30
0.0
 10
15.7547115736
 20
11.0464621144
 30
0.0
 10
15.7335866271
 20
11.0545918904
 30
0.0
 10
15.7126050548
 20
11.0647247532
 30
0.0
 10
15.6917947725
 20
11.0768431793
 30
0.0
 10
15.6711840226
 20
11.0909292796
 30
0.0
 10
15.650798485
 20
11.106960558
 30
0.0
 10
15.630665672
 20
11.1249152501
 30
0.0
 10
15.610810761
 20
11.1447671141
 30
0.0
 10
15.5912600942
 20
11.1664891897
 30
0.0
 10
15.5720394439
 20
11.1900517005
 30
0.0
 10
15.553173572
 20
11.2154221271
 30
0.0
 10
15.5346886794
 20
11.2425665946
 30
0.0
 10
15.5166082892
 20
11.2714475001
 30
0.0
 10
15.4989578842
 20
11.3020261598
 30
0.0
 10
15.4817605403
 20
11.3342605732
 30
0.0
 10
15.46503993
 20
11.3681069535
 30
0.0
 10
15.4488188109
 20
11.4035193517
 30
0.0
 10
15.4275893548
 20
11.4534576718
 30
0.0
 10
15.402535871
 20
11.5195197837
 30
0.0
 10
15.3752043754
 20
11.6031346837
 30
0.0
 10
15.3503487884
 20
11.6917125178
 30
0.0
 10
15.3281055937
 20
11.7847693465
 30
0.0
 10
15.3085970198
 20
11.881798493
 30
0.0
 10
15.2919305148
 20
11.982270051
 30
0.0
 10
15.2781979717
 20
12.0856349295
 30
0.0
 10
15.2674751473
 20
12.1913276985
 30
0.0
 10
15.2598211366
 20
12.298769884
 30
0.0
 10
15.2552781476
 20
12.4073732383
 30
0.0
 10
15.2538712364
 20
12.5165430482
 30
0.0
 10
15.2556081764
 20
12.6256814408
 30
0.0
 10
15.2604794049
 20
12.734190704
 30
0.0
 10
15.2684580856
 20
12.8414766387
 30
0.0
 10
15.2795002283
 20
12.9469517938
 30
0.0
 10
15.2935447503
 20
13.0500392195
 30
0.0
 10
15.3105144452
 20
13.1501742497
 30
0.0
 10
15.3303154426
 20
13.2468117486
 30
0.0
 10
15.3528389307
 20
13.3394200026
 30
0.0
 10
15.3699507098
 20
13.3994144014
 30
0.0
 10
15.3789734845
 20
13.4286121111
 30
0.0
  0
SPLINE
  5
2C3
100
AcDbEntity
  8
02___PRT_ALL_AXES
100
AcDbSpline
 62
7
  6
CONTINUOUS
 70
0
 71
3
 72
28
 73
24
 74
0
 42
0.0000001
 43
0.0000001
 44
0.0000000001
 40
0.0
 40
0.0
 40
0.0
 40
0.0
 40
0.0229103438
 40
0.0454450179
 40
0.067723699
 40
0.089871177
 40
0.1120149863
 40
0.1342827661
 40
0.1567994896
 40
0.1796852356
 40
0.2030525804
 40
0.2270056371
 40
0.2770097821
 40
0.3303593849
 40
0.3875244532
 40
0.4488308738
 40
0.5144813164
 40
0.5845750017
 40
0.6591274967
 40
0.7380837007
 40
0.8213276188
 40
0.9087073739
 40
1.0
 40
1.0
 40
1.0
 40
1.0
 10
15.9816385258
 20
13.9488251379
 30
0.0
 10
15.9756925309
 20
13.9508155223
 30
0.0
 10
15.9637446947
 20
13.9543238494
 30
0.0
 10
15.9455866
 20
13.9581363483
 30
0.0
 10
15.9273852743
 20
13.9604435141
 30
0.0
 10
15.90916266
 20
13.9612422741
 30
0.0
 10
15.890939352
 20
13.9605299915
 30
0.0
 10
15.8727364857
 20
13.9583089818
 30
0.0
 10
15.8545745484
 20
13.9545824163
 30
0.0
 10
15.8364742823
 20
13.9493544786
 30
0.0
 10
15.8184542927
 20
13.942633333
 30
0.0
 10
15.7942181125
 20
13.9315352224
 30
0.0
 10
15.7641312379
 20
13.9137485512
 30
0.0
 10
15.7292301974
 20
13.8869185511
 30
0.0
 10
15.69512735
 20
13.8544280223
 30
0.0
 10
15.6619480892
 20
13.8164195078
 30
0.0
 10
15.6298110289
 20
13.7730479109
 30
0.0
 10
15.5988372721
 20
13.7244886351
 30
0.0
 10
15.5691472563
 20
13.6709368487
 30
0.0
 10
15.5408596925
 20
13.6126093051
 30
0.0
 10
15.5140871078
 20
13.5497406893
 30
0.0
 10
15.4889414717
 20
13.4825906098
 30
0.0
 10
15.4736505011
 20
13.4361272602
 30
0.0
 10
15.4662735403
 20
13.4122554061
 30
0.0
  0
SPLINE
  5
2C4
100
AcDbEntity
  8
02___PRT_ALL_AXES
100
AcDbSpline
 62
7
  6
CONTINUOUS
 70
0
 71
3
 72
39
 73
35
 74
0
 42
0.0000001
 43
0.0000001
 44
0.0000000001
 40
0.0
 40
0.0
 40
0.0
 40
0.0
 40
0.0423199328
 40
0.0831043387
 40
0.1223389992
 40
0.1600196378
 40
0.1961525744
 40
0.2307558163
 40
0.2638617418
 40
0.2955171137
 40
0.3257872076
 40
0.3547554852
 40
0.3825276497
 40
0.4092314551
 40
0.4350186683
 40
0.4600640925
 40
0.4845635747
 40
0.5087302191
 40
0.5327880967
 40
0.5569650983
 40
0.5814850911
 40
0.6065602751
 40
0.6323858198
 40
0.6591354257
 40
0.6869596054
 40
0.7159855264
 40
0.7463170788
 40
0.7780378534
 40
0.8112111071
 40
0.8458840532
 40
0.8820873422
 40
0.9198390386
 40
0.9591447838
 40
1.0
 40
1.0
 40
1.0
 40
1.0
 10
16.2030776272
 20
13.5502278028
 30
0.0
 10
16.1976158976
 20
13.5615471947
 30
0.0
 10
16.1865295398
 20
13.5836036954
 30
0.0
 10
16.1690707502
 20
13.6154752034
 30
0.0
 10
16.1511146091
 20
13.6454758636
 30
0.0
 10
16.1326914382
 20
13.6735548934
 30
0.0
 10
16.1138319258
 20
13.6996655025
 30
0.0
 10
16.094566221
 20
13.7237632895
 30
0.0
 10
16.0749268236
 20
13.7458085742
 30
0.0
 10
16.0549438379
 20
13.7657628433
 30
0.0
 10
16.0346506475
 20
13.7835932578
 30
0.0
 10
16.0140778602
 20
13.7992670933
 30
0.0
 10
15.9932591189
 20
13.8127571144
 30
0.0
 10
15.972226812
 20
13.824036429
 30
0.0
 10
15.9510156814
 20
13.8330820641
 30
0.0
 10
15.9296619004
 20
13.8398738639
 30
0.0
 10
15.9082037069
 20
13.844393866
 30
0.0
 10
15.8866822526
 20
13.8466317031
 30
0.0
 10
15.8651400491
 20
13.8465785942
 30
0.0
 10
15.8436204475
 20
13.8442373646
 30
0.0
 10
15.8221663512
 20
13.8396120768
 30
0.0
 10
15.800818093
 20
13.8327173897
 30
0.0
 10
15.7796144592
 20
13.8235687615
 30
0.0
 10
15.7585912723
 20
13.8121876708
 30
0.0
 10
15.7377827741
 20
13.798597471
 30
0.0
 10
15.7172225865
 20
13.7828237294
 30
0.0
 10
15.6969422215
 20
13.7648960738
 30
0.0
 10
15.6769750289
 20
13.744844674
 30
0.0
 10
15.6573512853
 20
13.722705197
 30
0.0
 10
15.6381041451
 20
13.6985138998
 30
0.0
 10
15.6192634861
 20
13.6723125595
 30
0.0
 10
15.6008612153
 20
13.6441443388
 30
0.0
 10
15.5829273699
 20
13.6140572781
 30
0.0
 10
15.5715221156
 20
13.5931538519
 30
0.0
 10
15.5658961844
 20
13.5824038227
 30
0.0
  0
SPLINE
  5
2C5
100
AcDbEntity
  8
02___PRT_ALL_AXES
100
AcDbSpline
 62
7
  6
CONTINUOUS
 70
0
 71
3
 72
11
 73
7
 74
0
 42
0.0000001
 43
0.0000001
 44
0.0000000001
 40
0.0
 40
0.0
 40
0.0
 40
0.0
 40
0.2351457826
 40
0.4803736095
 40
0.7354279444
 40
1.0
 40
1.0
 40
1.0
 40
1.0
 10
15.5643976864
 20
13.5795297291
 30
0.0
 10
15.5572787052
 20
13.5658243737
 30
0.0
 10
15.5433447506
 20
13.5375061923
 30
0.0
 10
15.5237272022
 20
13.4933560204
 30
0.0
 10
15.5049947684
 20
13.4467343393
 30
0.0
 10
15.4933354685
 20
13.4146521582
 30
0.0
 10
15.4876511672
 20
13.3982315369
 30
0.0
  0
SPLINE
  5
2C6
100
AcDbEntity
  8
02___PRT_ALL_AXES
100
AcDbSpline
 62
7
  6
CONTINUOUS
 70
0
 71
3
 72
39
 73
35
 74
0
 42
0.0000001
 43
0.0000001
 44
0.0000000001
 40
0.0
 40
0.0
 40
0.0
 40
0.0
 40
0.0415152145
 40
0.0814441743
 40
0.1197729936
 40
0.1564984965
 40
0.1916301697
 40
0.2251911713
 40
0.2572207588
 40
0.2877766857
 40
0.3169368506
 40
0.3448026722
 40
0.3714999381
 40
0.3971817135
 40
0.4220270908
 40
0.4462409392
 40
0.4700487933
 40
0.4936912323
 40
0.5174149564
 40
0.5414635626
 40
0.5660687424
 40
0.591442817
 40
0.6177741583
 40
0.645224687
 40
0.6739294091
 40
0.7039979974
 40
0.7355158612
 40
0.7685477711
 40
0.8031385306
 40
0.8393172875
 40
0.8770972403
 40
0.9164799122
 40
0.9574541748
 40
1.0
 40
1.0
 40
1.0
 40
1.0
 10
16.2027367658
 20
11.4706767826
 30
0.0
 10
16.1970025219
 20
11.4588132461
 30
0.0
 10
16.1853565651
 20
11.4357280351
 30
0.0
 10
16.1669731268
 20
11.4024428021
 30
0.0
 10
16.1480457626
 20
11.3712268333
 30
0.0
 10
16.1286086916
 20
11.3421385911
 30
0.0
 10
16.1086974811
 20
11.3152314405
 30
0.0
 10
16.0883478406
 20
11.2905552041
 30
0.0
 10
16.0675956874
 20
11.2681559731
 30
0.0
 10
16.046478044
 20
11.2480752016
 30
0.0
 10
16.0250307516
 20
11.2303520731
 30
0.0
 10
16.0032918851
 20
11.2150203162
 30
0.0
 10
15.9812979174
 20
11.2021134111
 30
0.0
 10
15.9590889722
 20
11.1916582328
 30
0.0
 10
15.9367048189
 20
11.1836828354
 30
0.0
 10
15.9141901807
 20
11.178206424
 30
0.0
 10
15.8915913268
 20
11.1752481657
 30
0.0
 10
15.8689583778
 20
11.1748150288
 30
0.0
 10
15.8463422548
 20
11.1769108501
 30
0.0
 10
15.8237932073
 20
11.1815267007
 30
0.0
 10
15.8013595053
 20
11.188649853
 30
0.0
 10
15.77908573
 20
11.198259081
 30
0.0
 10
15.757013858
 20
11.2103304739
 30
0.0
 10
15.7351834104
 20
11.2248360699
 30
0.0
 10
15.7136321011
 20
11.2417447622
 30
0.0
 10
15.6923977151
 20
11.2610232641
 30
0.0
 10
15.6715161403
 20
11.2826336306
 30
0.0
 10
15.6510250669
 20
11.3065360805
 30
0.0
 10
15.6309593785
 20
11.3326851349
 30
0.0
 10
15.6113565615
 20
11.361033365
 30
0.0
 10
15.5922504473
 20
11.3915274144
 30
0.0
 10
15.573677489
 20
11.4241118561
 30
0.0
 10
15.5556704367
 20
11.4587251607
 30
0.0
 10
15.5442771667
 20
11.4826674151
 30
0.0
 10
15.538673121
 20
11.4949534712
 30
0.0
  0
SPLINE
  5
2C7
100
AcDbEntity
  8
02___PRT_ALL_AXES
100
AcDbSpline
 62
7
  6
CONTINUOUS
 70
0
 71
3
 72
15
 73
11
 74
0
 42
0.0000001
 43
0.0000001
 44
0.0000000001
 40
0.0
 40
0.0
 40
0.0
 40
0.0
 40
0.1105335998
 40
0.2256164298
 40
0.3450712718
 40
0.468695185
 40
0.5962592531
 40
0.7275136316
 40
0.8621894152
 40
1.0
 40
1.0
 40
1.0
 40
1.0
 10
15.5376213113
 20
11.4972656313
 30
0.0
 10
15.5305079687
 20
11.5129448304
 30
0.0
 10
15.5166440861
 20
11.5452492843
 30
0.0
 10
15.4972829975
 20
11.5954028046
 30
0.0
 10
15.4789793139
 20
11.6481149532
 30
0.0
 10
15.4617856624
 20
11.7032382361
 30
0.0
 10
15.4457493867
 20
11.7606192343
 30
0.0
 10
15.4309154975
 20
11.8200979766
 30
0.0
 10
15.4173260722
 20
11.8815080704
 30
0.0
 10
15.4092081784
 20
11.9231737705
 30
0.0
 10
15.4053566996
 20
11.9442915887
 30
0.0
  0
SPLINE
  5
2C8
100
AcDbEntity
  8
02___PRT_ALL_AXES
100
AcDbSpline
 62
7
  6
CONTINUOUS
 70
0
 71
3
 72
15
 73
11
 74
0
 42
0.0000001
 43
0.0000001
 44
0.0000000001
 40
0.0
 40
0.0
 40
0.0
 40
0.0
 40
0.119598321
 40
0.2424660525
 40
0.3677670547
 40
0.4946347797
 40
0.6221835149
 40
0.7495193127
 40
0.8757507895
 40
1.0
 40
1.0
 40
1.0
 40
1.0
 10
15.4042780183
 20
11.9502441114
 30
0.0
 10
15.397553887
 20
11.9875899217
 30
0.0
 10
15.3855176516
 20
12.0635975705
 30
0.0
 10
15.3717729281
 20
12.1794975277
 30
0.0
 10
15.3621677665
 20
12.2981284458
 30
0.0
 10
15.3567826467
 20
12.4185108673
 30
0.0
 10
15.3556622897
 20
12.5396537247
 30
0.0
 10
15.3588161484
 20
12.6605593451
 30
0.0
 10
15.3662176293
 20
12.7802293747
 30
0.0
 10
15.3740228275
 20
12.8593400507
 30
0.0
 10
15.3786468229
 20
12.8984898905
 30
0.0
  0
SPLINE
  5
2C9
100
AcDbEntity
  8
02___PRT_ALL_AXES
100
AcDbSpline
 62
7
  6
CONTINUOUS
 70
0
 71
3
 72
10
 73
6
 74
0
 42
0.0000001
 43
0.0000001
 44
0.0000000001
 40
0.0
 40
0.0
 40
0.0
 40
0.0
 40
0.5090574134
 40
0.7570687975
 40
1.0
 40
1.0
 40
1.0
 40
1.0
 10
15.3786468229
 20
12.8984898905
 30
0.0
 10
15.3838155078
 20
12.9422514369
 30
0.0
 10
15.3929010337
 20
13.007183008
 30
0.0
 10
15.4078991733
 20
13.0924426669
 30
0.0
 10
15.4162719295
 20
13.1341129774
 30
0.0
 10
15.4206774711
 20
13.1546752657
 30
0.0
  0
SPLINE
  5
2CA
100
AcDbEntity
  8
02___PRT_ALL_AXES
100
AcDbSpline
 62
7
  6
CONTINUOUS
 70
0
 71
3
 72
9
 73
5
 74
0
 42
0.0000001
 43
0.0000001
 44
0.0000000001
 40
0.0
 40
0.0
 40
0.0
 40
0.0
 40
0.5110589646
 40
1.0
 40
1.0
 40
1.0
 40
1.0
 10
15.4208585859
 20
13.1555198735
 30
0.0
 10
15.4277131757
 20
13.1874581572
 30
0.0
 10
15.4423658367
 20
13.2496944383
 30
0.0
 10
15.4597305242
 20
13.3112349287
 30
0.0
 10
15.4689575501
 20
13.3410935954
 30
0.0
  0
SPLINE
  5
2CB
100
AcDbEntity
  8
02___PRT_ALL_AXES
100
AcDbSpline
 62
7
  6
CONTINUOUS
 70
0
 71
3
 72
30
 73
26
 74
0
 42
0.0000001
 43
0.0000001
 44
0.0000000001
 40
0.0
 40
0.0
 40
0.0
 40
0.0
 40
0.0221713709
 40
0.0439627353
 40
0.0655066708
 40
0.086941314
 40
0.108407516
 40
0.1300452807
 40
0.1519906724
 40
0.1743726192
 40
0.1973106328
 40
0.2209136305
 40
0.2704617616
 40
0.296591262
 40
0.3237004068
 40
0.3518400202
 40
0.3810502136
 40
0.4427861178
 40
0.5090818877
 40
0.5799865199
 40
0.655461289
 40
0.7353950577
 40
0.8196170056
 40
0.9079063635
 40
1.0
 40
1.0
 40
1.0
 40
1.0
 10
15.9816385264
 20
11.0727848366
 30
0.0
 10
15.9752994559
 20
11.0706628468
 30
0.0
 10
15.9625552067
 20
11.0669549199
 30
0.0
 10
15.9431717899
 20
11.0630457757
 30
0.0
 10
15.9237416815
 20
11.0608510092
 30
0.0
 10
15.9042917648
 20
11.060375319
 30
0.0
 10
15.884847611
 20
11.0616203234
 30
0.0
 10
15.865434938
 20
11.0645821402
 30
0.0
 10
15.8460791089
 20
11.0692574209
 30
0.0
 10
15.8268047703
 20
11.0756375603
 30
0.0
 10
15.8076342486
 20
11.083712886
 30
0.0
 10
15.7818320537
 20
11.0969364851
 30
0.0
 10
15.7567210248
 20
11.1134205662
 30
0.0
 10
15.732448977
 20
11.1327066211
 30
0.0
 10
15.7141299594
 20
11.1490502985
 30
0.0
 10
15.6960460958
 20
11.1669943116
 30
0.0
 10
15.671824949
 20
11.193515914
 30
0.0
 10
15.6423248217
 20
11.2307106879
 30
0.0
 10
15.6088267715
 20
11.2805265848
 30
0.0
 10
15.5767438391
 20
11.3360975913
 30
0.0
 10
15.5462220666
 20
11.3971658451
 30
0.0
 10
15.517399765
 20
11.4634513505
 30
0.0
 10
15.4904103199
 20
11.5346474726
 30
0.0
 10
15.4653798063
 20
11.6104222599
 30
0.0
 10
15.4503763566
 20
11.6627144565
 30
0.0
 10
15.443198966
 20
11.6895375968
 30
0.0
  0
SPLINE
  5
2CC
100
AcDbEntity
  8
02___PRT_ALL_AXES
100
AcDbSpline
 62
7
  6
CONTINUOUS
 70
0
 71
3
 72
10
 73
6
 74
0
 42
0.0000001
 43
0.0000001
 44
0.0000000001
 40
0.0
 40
0.0
 40
0.0
 40
0.0
 40
0.2416138891
 40
0.4891225918
 40
1.0
 40
1.0
 40
1.0
 40
1.0
 10
15.4429558293
 20
11.6904469814
 30
0.0
 10
15.4376987562
 20
11.7101256214
 30
0.0
 10
15.4275810911
 20
11.7501053005
 30
0.0
 10
15.4089247235
 20
11.832323629
 30
0.0
 10
15.3970086078
 20
11.895167543
 30
0.0
 10
15.3898915804
 20
11.9376438597
 30
0.0
  0
SPLINE
  5
2CD
100
AcDbEntity
  8
02___PRT_ALL_AXES
100
AcDbSpline
 62
7
  6
CONTINUOUS
 70
0
 71
3
 72
11
 73
7
 74
0
 42
0.0000001
 43
0.0000001
 44
0.0000000001
 40
0.0
 40
0.0
 40
0.0
 40
0.0
 40
0.2497440738
 40
0.5016813161
 40
0.7527734905
 40
1.0
 40
1.0
 40
1.0
 40
1.0
 10
15.3557978814
 20
12.2148416929
 30
0.0
 10
15.3511746309
 20
12.2717913704
 30
0.0
 10
15.3446563531
 20
12.3864325244
 30
0.0
 10
15.3428880139
 20
12.5587038618
 30
0.0
 10
15.3490710786
 20
12.7302972912
 30
0.0
 10
15.3585466898
 20
12.8439618692
 30
0.0
 10
15.3646504106
 20
12.9001926227
 30
0.0
  0
SPLINE
  5
2CE
100
AcDbEntity
  8
02___PRT_ALL_AXES
100
AcDbSpline
 62
7
  6
CONTINUOUS
 70
0
 71
3
 72
9
 73
5
 74
0
 42
0.0000001
 43
0.0000001
 44
0.0000000001
 40
0.0
 40
0.0
 40
0.0
 40
0.0
 40
0.5081315815
 40
1.0
 40
1.0
 40
1.0
 40
1.0
 10
15.3646504106
 20
12.9001926227
 30
0.0
 10
15.3696599166
 20
12.9463428816
 30
0.0
 10
15.3813816365
 20
13.036975379
 30
0.0
 10
15.397066729
 20
13.1270125657
 30
0.0
 10
15.4058428546
 20
13.1710828202
 30
0.0
  0
SPLINE
  5
2CF
100
AcDbEntity
  8
02___PRT_ALL_AXES
100
AcDbSpline
 62
7
  6
CONTINUOUS
 70
0
 71
3
 72
11
 73
7
 74
0
 42
0.0000001
 43
0.0000001
 44
0.0000000001
 40
0.0
 40
0.0
 40
0.0
 40
0.0
 40
0.2590218197
 40
0.5123193449
 40
0.7594695498
 40
1.0
 40
1.0
 40
1.0
 40
1.0
 10
15.4058428546
 20
13.1710828202
 30
0.0
 10
15.4099350768
 20
13.1916323525
 30
0.0
 10
15.4184876999
 20
13.2321877195
 30
0.0
 10
15.4325903477
 20
13.2919889484
 30
0.0
 10
15.447798796
 20
13.3499737393
 30
0.0
 10
15.4588049418
 20
13.3878631701
 30
0.0
 10
15.464494976
 20
13.4064697974
 30
0.0
  0
SPLINE
  5
2D0
100
AcDbEntity
  8
0
100
AcDbSpline
 62
7
  6
CONTINUOUS
 70
0
 71
3
 72
16
 73
12
 74
0
 42
0.0000001
 43
0.0000001
 44
0.0000000001
 40
0.0
 40
0.0
 40
0.0
 40
0.0
 40
0.0391160886
 40
0.0792486976
 40
0.1657959009
 40
0.2652976344
 40
0.3805909911
 40
0.512603198
 40
0.6609741645
 40
0.8243172193
 40
1.0
 40
1.0
 40
1.0
 40
1.0
 10
14.4976128898
 20
11.9375983734
 30
0.0
 10
14.4973446709
 20
11.9375985123
 30
0.0
 10
14.4968001488
 20
11.937647101
 30
0.0
 10
14.49569703
 20
11.937941746
 30
0.0
 10
14.4943225233
 20
11.9387112678
 30
0.0
 10
14.4928135849
 20
11.9401433948
 30
0.0
 10
14.491405761
 20
11.9420721371
 30
0.0
 10
14.4901165764
 20
11.9444666169
 30
0.0
 10
14.4889651607
 20
11.9472880035
 30
0.0
 10
14.4879747577
 20
11.9504834451
 30
0.0
 10
14.4874482061
 20
11.9527498715
 30
0.0
 10
14.4872127921
 20
11.9539313019
 30
0.0
  0
SPLINE
  5
2D1
100
AcDbEntity
  8
0
100
AcDbSpline
 62
7
  6
CONTINUOUS
 70
0
 71
3
 72
15
 73
11
 74
0
 42
0.0000001
 43
0.0000001
 44
0.0000000001
 40
0.0
 40
0.0
 40
0.0
 40
0.0
 40
0.0880495407
 40
0.1812752135
 40
0.2839519297
 40
0.3989266369
 40
0.5278228301
 40
0.6713618997
 40
0.829100688
 40
1.0
 40
1.0
 40
1.0
 40
1.0
 10
14.5632074085
 20
11.6906551864
 30
0.0
 10
14.5627922915
 20
11.6906553514
 30
0.0
 10
14.5619338536
 20
11.6907760637
 30
0.0
 10
14.5606894075
 20
11.6913018472
 30
0.0
 10
14.5594878016
 20
11.6921575424
 30
0.0
 10
14.5583366382
 20
11.6933258682
 30
0.0
 10
14.5572428326
 20
11.6947943955
 30
0.0
 10
14.5562183652
 20
11.6965486179
 30
0.0
 10
14.5552713911
 20
11.6985658895
 30
0.0
 10
14.5547199201
 20
11.7000154085
 30
0.0
 10
14.5544574799
 20
11.7007771885
 30
0.0
  0
SPLINE
  5
2D2
100
AcDbEntity
  8
0
100
AcDbSpline
 62
7
  6
CONTINUOUS
 70
0
 71
3
 72
13
 73
9
 74
0
 42
0.0000001
 43
0.0000001
 44
0.0000000001
 40
0.0
 40
0.0
 40
0.0
 40
0.0
 40
0.1001464313
 40
0.2033293903
 40
0.4285667251
 40
0.5552006197
 40
0.6924416574
 40
1.0
 40
1.0
 40
1.0
 40
1.0
 10
14.6506560711
 20
11.4933614797
 30
0.0
 10
14.6503654239
 20
11.4933615457
 30
0.0
 10
14.6497738448
 20
11.4934192191
 30
0.0
 10
14.6485740964
 20
11.4937693052
 30
0.0
 10
14.6474258661
 20
11.4944694789
 30
0.0
 10
14.646372461
 20
11.4954226869
 30
0.0
 10
14.6452679717
 20
11.496663862
 30
0.0
 10
14.6445511261
 20
11.4977463432
 30
0.0
 10
14.6441061113
 20
11.4985201011
 30
0.0
  0
SPLINE
  5
2D3
100
AcDbEntity
  8
0
100
AcDbSpline
 62
7
  6
CONTINUOUS
 70
0
 71
3
 72
11
 73
7
 74
0
 42
0.0000001
 43
0.0000001
 44
0.0000000001
 40
0.0
 40
0.0
 40
0.0
 40
0.0
 40
0.2291443269
 40
0.4675375155
 40
0.7226245245
 40
1.0
 40
1.0
 40
1.0
 40
1.0
 10
14.7544641675
 20
11.3581123181
 30
0.0
 10
14.7541274384
 20
11.358112305
 30
0.0
 10
14.7534381947
 20
11.35819084
 30
0.0
 10
14.7524266364
 20
11.3585360403
 30
0.0
 10
14.7514373352
 20
11.3590993625
 30
0.0
 10
14.7508257723
 20
11.3595927006
 30
0.0
 10
14.7505257331
 20
11.3598685964
 30
0.0
  0
SPLINE
  5
2D4
100
AcDbEntity
  8
0
100
AcDbSpline
 62
7
  6
CONTINUOUS
 70
0
 71
3
 72
17
 73
13
 74
0
 42
0.0000001
 43
0.0000001
 44
0.0000000001
 40
0.0
 40
0.0
 40
0.0
 40
0.0
 40
0.1740849849
 40
0.3380438097
 40
0.4883255438
 40
0.6227426083
 40
0.739981941
 40
0.840069313
 40
0.8842683207
 40
0.9251486772
 40
0.9634214854
 40
1.0
 40
1.0
 40
1.0
 40
1.0
 10
14.4571519822
 20
12.8797610308
 30
0.0
 10
14.4573286803
 20
12.881194377
 30
0.0
 10
14.4577608626
 20
12.8839677442
 30
0.0
 10
14.4586655532
 20
12.8879204659
 30
0.0
 10
14.4597954438
 20
12.8914719833
 30
0.0
 10
14.4611196377
 20
12.8945402318
 30
0.0
 10
14.4626115658
 20
12.8970581467
 30
0.0
 10
14.4640285209
 20
12.8987247454
 30
0.0
 10
14.4652296318
 20
12.8996894202
 30
0.0
 10
14.4661147855
 20
12.900211163
 30
0.0
 10
14.4670153259
 20
12.9005573748
 30
0.0
 10
14.4676308631
 20
12.9006692228
 30
0.0
 10
14.4679333881
 20
12.9006929326
 30
0.0
  0
SPLINE
  5
2D5
100
AcDbEntity
  8
0
100
AcDbSpline
 62
7
  6
CONTINUOUS
 70
0
 71
3
 72
15
 73
11
 74
0
 42
0.0000001
 43
0.0000001
 44
0.0000000001
 40
0.0
 40
0.0
 40
0.0
 40
0.0
 40
0.097438144
 40
0.2070576929
 40
0.3270103167
 40
0.4551706918
 40
0.5892176457
 40
0.7266067739
 40
0.8646058992
 40
1.0
 40
1.0
 40
1.0
 40
1.0
 10
14.4580824707
 20
12.8170851909
 30
0.0
 10
14.4575599008
 20
12.818039401
 30
0.0
 10
14.4565963529
 20
12.8201482753
 30
0.0
 10
14.455426537
 20
12.8236117964
 30
0.0
 10
14.4544767563
 20
12.827495911
 30
0.0
 10
14.4537661153
 20
12.8317065852
 30
0.0
 10
14.4533136451
 20
12.8361481962
 30
0.0
 10
14.4531281019
 20
12.8407187366
 30
0.0
 10
14.4532177567
 20
12.8453069559
 30
0.0
 10
14.4534594314
 20
12.8483522267
 30
0.0
 10
14.4536283029
 20
12.8498544891
 30
0.0
  0
SPLINE
  5
2D6
100
AcDbEntity
  8
0
100
AcDbSpline
 62
7
  6
CONTINUOUS
 70
0
 71
3
 72
9
 73
5
 74
0
 42
0.0000001
 43
0.0000001
 44
0.0000000001
 40
0.0
 40
0.0
 40
0.0
 40
0.0
 40
0.5149064503
 40
1.0
 40
1.0
 40
1.0
 40
1.0
 10
14.4580824707
 20
12.8170851909
 30
0.0
 10
14.461277313
 20
12.8112514244
 30
0.0
 10
14.4677815612
 20
12.8000821349
 30
0.0
 10
14.474953703
 20
12.7893260385
 30
0.0
 10
14.4786124553
 20
12.7842389228
 30
0.0
  0
SPLINE
  5
2D7
100
AcDbEntity
  8
0
100
AcDbSpline
 62
7
  6
CONTINUOUS
 70
0
 71
3
 72
9
 73
5
 74
0
 42
0.0000001
 43
0.0000001
 44
0.0000000001
 40
0.0
 40
0.0
 40
0.0
 40
0.0
 40
0.5359318031
 40
1.0
 40
1.0
 40
1.0
 40
1.0
 10
14.4816460528
 20
12.7781736226
 30
0.0
 10
14.4812363496
 20
12.7793167621
 30
0.0
 10
14.4803679349
 20
12.7814148149
 30
0.0
 10
14.479226418
 20
12.7833852713
 30
0.0
 10
14.4786124553
 20
12.7842389228
 30
0.0
  0
SPLINE
  5
2D8
100
AcDbEntity
  8
0
100
AcDbSpline
 62
7
  6
CONTINUOUS
 70
0
 71
3
 72
10
 73
6
 74
0
 42
0.0000001
 43
0.0000001
 44
0.0000000001
 40
0.0
 40
0.0
 40
0.0
 40
0.0
 40
0.4557599494
 40
0.7157459121
 40
1.0
 40
1.0
 40
1.0
 40
1.0
 10
14.4676960232
 20
12.6190923961
 30
0.0
 10
14.4683792281
 20
12.6193754683
 30
0.0
 10
14.4693651762
 20
12.6200369614
 30
0.0
 10
14.470513861
 20
12.6211834298
 30
0.0
 10
14.4710673674
 20
12.6218746951
 30
0.0
 10
14.4713390961
 20
12.622247392
 30
0.0
  0
SPLINE
  5
2D9
100
AcDbEntity
  8
0
100
AcDbSpline
 62
7
  6
CONTINUOUS
 70
0
 71
3
 72
9
 73
5
 74
0
 42
0.0000001
 43
0.0000001
 44
0.0000000001
 40
0.0
 40
0.0
 40
0.0
 40
0.0
 40
0.4856881892
 40
1.0
 40
1.0
 40
1.0
 40
1.0
 10
14.4676960232
 20
12.6190923961
 30
0.0
 10
14.4636134972
 20
12.6174008837
 30
0.0
 10
14.455446305
 20
12.6133232922
 30
0.0
 10
14.447850442
 20
12.60827451
 30
0.0
 10
14.4440952084
 20
12.6054823712
 30
0.0
  0
SPLINE
  5
2DA
100
AcDbEntity
  8
0
100
AcDbSpline
 62
7
  6
CONTINUOUS
 70
0
 71
3
 72
15
 73
11
 74
0
 42
0.0000001
 43
0.0000001
 44
0.0000000001
 40
0.0
 40
0.0
 40
0.0
 40
0.0
 40
0.1571960137
 40
0.310501422
 40
0.4563638884
 40
0.5921247295
 40
0.7155697707
 40
0.8250932942
 40
0.9197950373
 40
1.0
 40
1.0
 40
1.0
 40
1.0
 10
14.4356796577
 20
12.5783228747
 30
0.0
 10
14.4357125466
 20
12.579849734
 30
0.0
 10
14.4358683027
 20
12.582864496
 30
0.0
 10
14.4363670941
 20
12.5872729834
 30
0.0
 10
14.4371232373
 20
12.5914338024
 30
0.0
 10
14.4381141636
 20
12.5952468398
 30
0.0
 10
14.4393188371
 20
12.5986261642
 30
0.0
 10
14.4407086112
 20
12.6014998328
 30
0.0
 10
14.4422570191
 20
12.6038005942
 30
0.0
 10
14.4434698975
 20
12.6050174321
 30
0.0
 10
14.4440952084
 20
12.6054823712
 30
0.0
  0
SPLINE
  5
2DB
100
AcDbEntity
  8
0
100
AcDbSpline
 62
7
  6
CONTINUOUS
 70
0
 71
3
 72
15
 73
11
 74
0
 42
0.0000001
 43
0.0000001
 44
0.0000000001
 40
0.0
 40
0.0
 40
0.0
 40
0.0
 40
0.0841582822
 40
0.1826668125
 40
0.2950410104
 40
0.4199201098
 40
0.555429565
 40
0.6992173092
 40
0.848570149
 40
1.0
 40
1.0
 40
1.0
 40
1.0
 10
14.4426507176
 20
12.518210339
 30
0.0
 10
14.4420425579
 20
12.5188103161
 30
0.0
 10
14.4408828789
 20
12.5202753677
 30
0.0
 10
14.4394174625
 20
12.5228962695
 30
0.0
 10
14.4381266023
 20
12.5260583669
 30
0.0
 10
14.4370359751
 20
12.5296864833
 30
0.0
 10
14.4361727016
 20
12.5337013812
 30
0.0
 10
14.4355550268
 20
12.5380118428
 30
0.0
 10
14.4352020738
 20
12.5425136448
 30
0.0
 10
14.4351451809
 20
12.5455685333
 30
0.0
 10
14.4351629625
 20
12.547105614
 30
0.0
  0
SPLINE
  5
2DC
100
AcDbEntity
  8
0
100
AcDbSpline
 62
7
  6
CONTINUOUS
 70
0
 71
3
 72
9
 73
5
 74
0
 42
0.0000001
 43
0.0000001
 44
0.0000000001
 40
0.0
 40
0.0
 40
0.0
 40
0.0
 40
0.2625265122
 40
1.0
 40
1.0
 40
1.0
 40
1.0
 10
14.4426507176
 20
12.518210339
 30
0.0
 10
14.4445024719
 20
12.5163834994
 30
0.0
 10
14.4517091722
 20
12.5095846494
 30
0.0
 10
14.4595671898
 20
12.5034538008
 30
0.0
 10
14.4657166921
 20
12.4995068316
 30
0.0
  0
SPLINE
  5
2DD
100
AcDbEntity
  8
0
100
AcDbSpline
 62
7
  6
CONTINUOUS
 70
0
 71
3
 72
9
 73
5
 74
0
 42
0.0000001
 43
0.0000001
 44
0.0000000001
 40
0.0
 40
0.0
 40
0.0
 40
0.0
 40
0.5442779614
 40
1.0
 40
1.0
 40
1.0
 40
1.0
 10
14.469242374
 20
12.4955693965
 30
0.0
 10
14.4687457568
 20
12.4963967829
 30
0.0
 10
14.467724102
 20
12.4978568522
 30
0.0
 10
14.4663966624
 20
12.4990704025
 30
0.0
 10
14.4657166921
 20
12.4995068316
 30
0.0
  0
SPLINE
  5
2DE
100
AcDbEntity
  8
0
100
AcDbSpline
 62
7
  6
CONTINUOUS
 70
0
 71
3
 72
9
 73
5
 74
0
 42
0.0000001
 43
0.0000001
 44
0.0000000001
 40
0.0
 40
0.0
 40
0.0
 40
0.0
 40
0.4604814416
 40
1.0
 40
1.0
 40
1.0
 40
1.0
 10
14.4711367368
 20
12.3325772477
 30
0.0
 10
14.4717801227
 20
12.3332978809
 30
0.0
 10
14.4729913165
 20
12.3350289899
 30
0.0
 10
14.4739172126
 20
12.3369179164
 30
0.0
 10
14.4743598121
 20
12.3379596585
 30
0.0
  0
SPLINE
  5
2DF
100
AcDbEntity
  8
0
100
AcDbSpline
 62
7
  6
CONTINUOUS
 70
0
 71
3
 72
9
 73
5
 74
0
 42
0.0000001
 43
0.0000001
 44
0.0000000001
 40
0.0
 40
0.0
 40
0.0
 40
0.0
 40
0.4840151107
 40
1.0
 40
1.0
 40
1.0
 40
1.0
 10
14.4711367368
 20
12.3325772477
 30
0.0
 10
14.4673165741
 20
12.328298422
 30
0.0
 10
14.4597977406
 20
12.31912032
 30
0.0
 10
14.4529631903
 20
12.3094268238
 30
0.0
 10
14.4495954397
 20
12.3043228818
 30
0.0
  0
SPLINE
  5
2E0
100
AcDbEntity
  8
0
100
AcDbSpline
 62
7
  6
CONTINUOUS
 70
0
 71
3
 72
15
 73
11
 74
0
 42
0.0000001
 43
0.0000001
 44
0.0000000001
 40
0.0
 40
0.0
 40
0.0
 40
0.0
 40
0.1406373009
 40
0.2823946047
 40
0.4219538107
 40
0.5565712898
 40
0.6837416646
 40
0.801254119
 40
0.9071744182
 40
1.0
 40
1.0
 40
1.0
 40
1.0
 10
14.4440745243
 20
12.2726423218
 30
0.0
 10
14.4439565759
 20
12.2741672473
 30
0.0
 10
14.4438161291
 20
12.2772373878
 30
0.0
 10
14.4438768936
 20
12.2818284545
 30
0.0
 10
14.444211247
 20
12.2863424073
 30
0.0
 10
14.4448071867
 20
12.2906695184
 30
0.0
 10
14.4456525984
 20
12.2947106386
 30
0.0
 10
14.4467253347
 20
12.2983747821
 30
0.0
 10
14.4480036386
 20
12.3015735575
 30
0.0
 10
14.4490394563
 20
12.3034802699
 30
0.0
 10
14.4495954397
 20
12.3043228818
 30
0.0
  0
SPLINE
  5
2E1
100
AcDbEntity
  8
0
100
AcDbSpline
 62
7
  6
CONTINUOUS
 70
0
 71
3
 72
16
 73
12
 74
0
 42
0.0000001
 43
0.0000001
 44
0.0000000001
 40
0.0
 40
0.0
 40
0.0
 40
0.0
 40
0.0749003442
 40
0.1169995008
 40
0.1627651441
 40
0.2661908406
 40
0.3859628495
 40
0.5213559001
 40
0.6706357166
 40
0.8313830327
 40
1.0
 40
1.0
 40
1.0
 40
1.0
 10
14.4566481381
 20
12.218870182
 30
0.0
 10
14.4560176579
 20
12.2190579604
 30
0.0
 10
14.4550884524
 20
12.2195499502
 30
0.0
 10
14.4539856925
 20
12.2204611378
 30
0.0
 10
14.4528238412
 20
12.2216805483
 30
0.0
 10
14.4514751371
 20
12.2236359796
 30
0.0
 10
14.4500715016
 20
12.2264633755
 30
0.0
 10
14.4488520333
 20
12.2298061517
 30
0.0
 10
14.4478415836
 20
12.2335899484
 30
0.0
 10
14.4470688586
 20
12.2377257192
 30
0.0
 10
14.4467267329
 20
12.2406005438
 30
0.0
 10
14.4465972789
 20
12.2420758374
 30
0.0
  0
SPLINE
  5
2E2
100
AcDbEntity
  8
0
100
AcDbSpline
 62
7
  6
CONTINUOUS
 70
0
 71
3
 72
9
 73
5
 74
0
 42
0.0000001
 43
0.0000001
 44
0.0000000001
 40
0.0
 40
0.0
 40
0.0
 40
0.0
 40
0.504542169
 40
1.0
 40
1.0
 40
1.0
 40
1.0
 10
14.4566481381
 20
12.218870182
 30
0.0
 10
14.4603864521
 20
12.2177567854
 30
0.0
 10
14.4679573264
 20
12.216052989
 30
0.0
 10
14.4756988024
 20
12.2154742054
 30
0.0
 10
14.4795291671
 20
12.2154741937
 30
0.0
  0
SPLINE
  5
2E3
100
AcDbEntity
  8
0
100
AcDbSpline
 62
7
  6
CONTINUOUS
 70
0
 71
3
 72
11
 73
7
 74
0
 42
0.0000001
 43
0.0000001
 44
0.0000000001
 40
0.0
 40
0.0
 40
0.0
 40
0.0
 40
0.2757910936
 40
0.5301763512
 40
0.7690542488
 40
1.0
 40
1.0
 40
1.0
 40
1.0
 10
14.4845970173
 20
12.213922479
 30
0.0
 10
14.4843051416
 20
12.2141743558
 30
0.0
 10
14.4837116165
 20
12.2146233398
 30
0.0
 10
14.4827567973
 20
12.2151289267
 30
0.0
 10
14.4817834265
 20
12.2154296286
 30
0.0
 10
14.4811235794
 20
12.2154899529
 30
0.0
 10
14.4808007826
 20
12.2154846454
 30
0.0
  0
SPLINE
  5
2E4
100
AcDbEntity
  8
0
100
AcDbSpline
 62
7
  6
CONTINUOUS
 70
0
 71
3
 72
9
 73
5
 74
0
 42
0.0000001
 43
0.0000001
 44
0.0000000001
 40
0.0
 40
0.0
 40
0.0
 40
0.0
 40
0.4714682312
 40
1.0
 40
1.0
 40
1.0
 40
1.0
 10
14.5022167426
 20
12.0572608039
 30
0.0
 10
14.5027594399
 20
12.0583482625
 30
0.0
 10
14.5037465418
 20
12.0607373631
 30
0.0
 10
14.5044821551
 20
12.0632118442
 30
0.0
 10
14.5048173028
 20
12.0645324331
 30
0.0
  0
SPLINE
  5
2E5
100
AcDbEntity
  8
0
100
AcDbSpline
 62
7
  6
CONTINUOUS
 70
0
 71
3
 72
9
 73
5
 74
0
 42
0.0000001
 43
0.0000001
 44
0.0000000001
 40
0.0
 40
0.0
 40
0.0
 40
0.0
 40
0.4877532879
 40
1.0
 40
1.0
 40
1.0
 40
1.0
 10
14.5022167426
 20
12.0572608039
 30
0.0
 10
14.4989531508
 20
12.050721208
 30
0.0
 10
14.4926055468
 20
12.0371404066
 30
0.0
 10
14.4868781959
 20
12.0232882584
 30
0.0
 10
14.4840884822
 20
12.0161374229
 30
0.0
  0
SPLINE
  5
2E6
100
AcDbEntity
  8
0
100
AcDbSpline
 62
7
  6
CONTINUOUS
 70
0
 71
3
 72
15
 73
11
 74
0
 42
0.0000001
 43
0.0000001
 44
0.0000000001
 40
0.0
 40
0.0
 40
0.0
 40
0.0
 40
0.1255612675
 40
0.2564171422
 40
0.3895828843
 40
0.5223875833
 40
0.6522608185
 40
0.7767379183
 40
0.893431705
 40
1.0
 40
1.0
 40
1.0
 40
1.0
 10
14.4818091014
 20
11.9819264054
 30
0.0
 10
14.4815426174
 20
11.9833525056
 30
0.0
 10
14.4811052733
 20
11.9862854864
 30
0.0
 10
14.4807239245
 20
11.9907733773
 30
0.0
 10
14.4806151457
 20
11.9953599845
 30
0.0
 10
14.4807779849
 20
11.9999335573
 30
0.0
 10
14.4812105402
 20
12.0043888289
 30
0.0
 10
14.4819004285
 20
12.0086236749
 30
0.0
 10
14.4828345221
 20
12.0125351628
 30
0.0
 10
14.4836409598
 20
12.0149902949
 30
0.0
 10
14.4840884822
 20
12.0161374229
 30
0.0
  0
SPLINE
  5
2E7
100
AcDbEntity
  8
0
100
AcDbSpline
 62
7
  6
CONTINUOUS
 70
0
 71
3
 72
9
 73
5
 74
0
 42
0.0000001
 43
0.0000001
 44
0.0000000001
 40
0.0
 40
0.0
 40
0.0
 40
0.0
 40
0.4819995763
 40
1.0
 40
1.0
 40
1.0
 40
1.0
 10
14.5589831698
 20
11.8104422096
 30
0.0
 10
14.5593943054
 20
11.811811449
 30
0.0
 10
14.5601095064
 20
11.8146943468
 30
0.0
 10
14.5605971172
 20
11.8176229055
 30
0.0
 10
14.5607978119
 20
11.8191461538
 30
0.0
  0
SPLINE
  5
2E8
100
AcDbEntity
  8
0
100
AcDbSpline
 62
7
  6
CONTINUOUS
 70
0
 71
3
 72
9
 73
5
 74
0
 42
0.0000001
 43
0.0000001
 44
0.0000000001
 40
0.0
 40
0.0
 40
0.0
 40
0.0
 40
0.2437876133
 40
1.0
 40
1.0
 40
1.0
 40
1.0
 10
14.5589831698
 20
11.8104422096
 30
0.0
 10
14.5577404639
 20
11.8063035222
 30
0.0
 10
14.5527917504
 20
11.7892824242
 30
0.0
 10
14.5484211684
 20
11.7720946242
 30
0.0
 10
14.5454070112
 20
11.7590337467
 30
0.0
  0
SPLINE
  5
2E9
100
AcDbEntity
  8
0
100
AcDbSpline
 62
7
  6
CONTINUOUS
 70
0
 71
3
 72
15
 73
11
 74
0
 42
0.0000001
 43
0.0000001
 44
0.0000000001
 40
0.0
 40
0.0
 40
0.0
 40
0.0
 40
0.1114054885
 40
0.2317610531
 40
0.3585256566
 40
0.4892140842
 40
0.6213139033
 40
0.7522623833
 40
0.8794397937
 40
1.0
 40
1.0
 40
1.0
 40
1.0
 10
14.546512387
 20
11.7244418757
 30
0.0
 10
14.5461085511
 20
11.7256762645
 30
0.0
 10
14.5453920727
 20
11.728285373
 30
0.0
 10
14.5445928989
 20
11.7323912398
 30
0.0
 10
14.5440480922
 20
11.736765143
 30
0.0
 10
14.5437673283
 20
11.7413006458
 30
0.0
 10
14.5437593343
 20
11.7458935325
 30
0.0
 10
14.5440223164
 20
11.7504380779
 30
0.0
 10
14.5445534342
 20
11.7548235675
 30
0.0
 10
14.5450909617
 20
11.7576642479
 30
0.0
 10
14.5454070112
 20
11.7590337467
 30
0.0
  0
SPLINE
  5
2EA
100
AcDbEntity
  8
0
100
AcDbSpline
 62
7
  6
CONTINUOUS
 70
0
 71
3
 72
9
 73
5
 74
0
 42
0.0000001
 43
0.0000001
 44
0.0000000001
 40
0.0
 40
0.0
 40
0.0
 40
0.0
 40
0.4914801447
 40
1.0
 40
1.0
 40
1.0
 40
1.0
 10
14.6378691747
 20
11.6076299847
 30
0.0
 10
14.6381295468
 20
11.6091873999
 30
0.0
 10
14.6385399244
 20
11.6123769431
 30
0.0
 10
14.638736144
 20
11.6155862653
 30
0.0
 10
14.6387838783
 20
11.6172193432
 30
0.0
  0
SPLINE
  5
2EB
100
AcDbEntity
  8
0
100
AcDbSpline
 62
7
  6
CONTINUOUS
 70
0
 71
3
 72
15
 73
11
 74
0
 42
0.0000001
 43
0.0000001
 44
0.0000000001
 40
0.0
 40
0.0
 40
0.0
 40
0.0
 40
0.0975813745
 40
0.2073141195
 40
0.3273404759
 40
0.455529969
 40
0.5895584905
 40
0.7268807465
 40
0.8647651448
 40
1.0
 40
1.0
 40
1.0
 40
1.0
 10
14.6341188357
 20
11.5163674327
 30
0.0
 10
14.633597356
 20
11.5173249511
 30
0.0
 10
14.63263613
 20
11.5194398043
 30
0.0
 10
14.6314697983
 20
11.5229111345
 30
0.0
 10
14.6305239279
 20
11.5268016184
 30
0.0
 10
14.6298175363
 20
11.5310170597
 30
0.0
 10
14.6293695547
 20
11.5354617064
 30
0.0
 10
14.6291886338
 20
11.5400334761
 30
0.0
 10
14.6292829287
 20
11.5446210848
 30
0.0
 10
14.6295277224
 20
11.5476652362
 30
0.0
 10
14.6296981582
 20
11.5491666227
 30
0.0
  0
SPLINE
  5
2EC
100
AcDbEntity
  8
0
100
AcDbSpline
 62
7
  6
CONTINUOUS
 70
0
 71
3
 72
15
 73
11
 74
0
 42
0.0000001
 43
0.0000001
 44
0.0000000001
 40
0.0
 40
0.0
 40
0.0
 40
0.0
 40
0.0842876188
 40
0.1829140529
 40
0.2953736234
 40
0.4202936089
 40
0.5557924567
 40
0.6995146254
 40
0.8487457426
 40
1.0
 40
1.0
 40
1.0
 40
1.0
 10
14.7391238119
 20
11.3707771589
 30
0.0
 10
14.7385163026
 20
11.3713811956
 30
0.0
 10
14.7373583819
 20
11.3728536664
 30
0.0
 10
14.7358956559
 20
11.3754842127
 30
0.0
 10
14.7346079867
 20
11.3786548955
 30
0.0
 10
14.7335210087
 20
11.3822903064
 30
0.0
 10
14.7326617816
 20
11.3863109957
 30
0.0
 10
14.7320484597
 20
11.3906255961
 30
0.0
 10
14.7317000573
 20
11.3951297714
 30
0.0
 10
14.7316462451
 20
11.3981855539
 30
0.0
 10
14.7316656001
 20
11.3997227742
 30
0.0
  0
SPLINE
  5
2ED
100
AcDbEntity
  8
0
100
AcDbSpline
 62
7
  6
CONTINUOUS
 70
0
 71
3
 72
16
 73
12
 74
0
 42
0.0000001
 43
0.0000001
 44
0.0000000001
 40
0.0
 40
0.0
 40
0.0
 40
0.0
 40
0.0749435193
 40
0.1170881411
 40
0.1629056161
 40
0.2664320202
 40
0.3862732588
 40
0.5216849354
 40
0.6709221446
 40
0.8315599398
 40
1.0
 40
1.0
 40
1.0
 40
1.0
 10
14.854929467
 20
11.2968190267
 30
0.0
 10
14.8542987264
 20
11.29701119
 30
0.0
 10
14.8533701967
 20
11.2975095501
 30
0.0
 10
14.8522686338
 20
11.2984279308
 30
0.0
 10
14.8511081751
 20
11.2996550174
 30
0.0
 10
14.849761662
 20
11.3016191292
 30
0.0
 10
14.8483608981
 20
11.3044558103
 30
0.0
 10
14.8471447957
 20
11.3078067165
 30
0.0
 10
14.846138155
 20
11.3115972757
 30
0.0
 10
14.8453695999
 20
11.3157382407
 30
0.0
 10
14.8450303171
 20
11.3186158837
 30
0.0
 10
14.8449023478
 20
11.3200923077
 30
0.0
  0
SPLINE
  5
2EE
100
AcDbEntity
  8
0
100
AcDbSpline
 62
7
  6
CONTINUOUS
 70
0
 71
3
 72
11
 73
7
 74
0
 42
0.0000001
 43
0.0000001
 44
0.0000000001
 40
0.0
 40
0.0
 40
0.0
 40
0.0
 40
0.2320780001
 40
0.4792310035
 40
0.7370658746
 40
1.0
 40
1.0
 40
1.0
 40
1.0
 10
14.6620643405
 20
13.4034522784
 30
0.0
 10
14.6632572234
 20
13.4077490866
 30
0.0
 10
14.6653419572
 20
13.4167293602
 30
0.0
 10
14.6675633699
 20
13.4307265539
 30
0.0
 10
14.6689379402
 20
13.4454270254
 30
0.0
 10
14.6692731393
 20
13.4554347168
 30
0.0
 10
14.6692928855
 20
13.4604868903
 30
0.0
  0
SPLINE
  5
2EF
100
AcDbEntity
  8
0
100
AcDbSpline
 62
7
  6
CONTINUOUS
 70
0
 71
3
 72
15
 73
11
 74
0
 42
0.0000001
 43
0.0000001
 44
0.0000000001
 40
0.0
 40
0.0
 40
0.0
 40
0.0
 40
0.0981030856
 40
0.2076917122
 40
0.3272808962
 40
0.4549786334
 40
0.5885313328
 40
0.725586632
 40
0.8637015235
 40
1.0
 40
1.0
 40
1.0
 40
1.0
 10
14.5699744526
 20
13.1714544784
 30
0.0
 10
14.5716311584
 20
13.1745421769
 30
0.0
 10
14.5746979938
 20
13.181318324
 30
0.0
 10
14.5784365305
 20
13.1924088473
 30
0.0
 10
14.5815103885
 20
13.2047927191
 30
0.0
 10
14.5838469228
 20
13.218203566
 30
0.0
 10
14.5853982002
 20
13.2323543903
 30
0.0
 10
14.5861278776
 20
13.2469434279
 30
0.0
 10
14.5860158075
 20
13.2616475216
 30
0.0
 10
14.5853801227
 20
13.2714351885
 30
0.0
 10
14.5849157149
 20
13.2762813394
 30
0.0
  0
SPLINE
  5
2F0
100
AcDbEntity
  8
0
100
AcDbSpline
 62
7
  6
CONTINUOUS
 70
0
 71
3
 72
26
 73
22
 74
0
 42
0.0000001
 43
0.0000001
 44
0.0000000001
 40
0.0
 40
0.0
 40
0.0
 40
0.0
 40
0.0202800842
 40
0.0417808505
 40
0.0645104199
 40
0.0884637947
 40
0.1136251328
 40
0.1399621944
 40
0.1959802617
 40
0.2561101991
 40
0.3198156968
 40
0.3864842655
 40
0.4554386728
 40
0.525955915
 40
0.5972840991
 40
0.6686565837
 40
0.7393027518
 40
0.8084557896
 40
0.8754003243
 40
0.9394802306
 40
1.0
 40
1.0
 40
1.0
 40
1.0
 10
16.2717972129
 20
12.2568344815
 30
0.0
 10
16.2698810487
 20
12.2591297241
 30
0.0
 10
16.2661086028
 20
12.2640065665
 30
0.0
 10
16.2607807823
 20
12.2718916528
 30
0.0
 10
16.2556340707
 20
12.2805325489
 30
0.0
 10
16.250685026
 20
12.2899021658
 30
0.0
 10
16.2459504672
 20
12.2999725026
 30
0.0
 10
16.2398154883
 20
12.3145928424
 30
0.0
 10
16.2328324564
 20
12.334426504
 30
0.0
 10
16.2256846474
 20
12.3599776335
 30
0.0
 10
16.2196916131
 20
12.3874320212
 30
0.0
 10
16.2149313925
 20
12.4164439362
 30
0.0
 10
16.2114654964
 20
12.4466487607
 30
0.0
 10
16.209336269
 20
12.4776650697
 30
0.0
 10
16.208575953
 20
12.5091013461
 30
0.0
 10
16.2091888877
 20
12.5405597937
 30
0.0
 10
16.2111702424
 20
12.5716408003
 30
0.0
 10
16.2144932503
 20
12.6019510195
 30
0.0
 10
16.2191184466
 20
12.63111177
 30
0.0
 10
16.2249822903
 20
12.6587491579
 30
0.0
 10
16.2298152696
 20
12.6764863374
 30
0.0
 10
16.2324496475
 20
12.6850111865
 30
0.0
  0
SPLINE
  5
2F1
100
AcDbEntity
  8
0
100
AcDbSpline
 62
7
  6
CONTINUOUS
 70
0
 71
3
 72
9
 73
5
 74
0
 42
0.0000001
 43
0.0000001
 44
0.0000000001
 40
0.0
 40
0.0
 40
0.0
 40
0.0
 40
0.5182369363
 40
1.0
 40
1.0
 40
1.0
 40
1.0
 10
16.2612107969
 20
12.7496411932
 30
0.0
 10
16.2634996583
 20
12.7514797307
 30
0.0
 10
16.2681473924
 20
12.754754445
 30
0.0
 10
16.2732512711
 20
12.7572811335
 30
0.0
 10
16.275796702
 20
12.7582656868
 30
0.0
  0
SPLINE
  5
2F2
100
AcDbEntity
  8
0
100
AcDbSpline
 62
7
  6
CONTINUOUS
 70
0
 71
3
 72
9
 73
5
 74
0
 42
0.0000001
 43
0.0000001
 44
0.0000000001
 40
0.0
 40
0.0
 40
0.0
 40
0.0
 40
0.504629129
 40
1.0
 40
1.0
 40
1.0
 40
1.0
 10
16.2789527487
 20
12.7593511184
 30
0.0
 10
16.2808067071
 20
12.7599095315
 30
0.0
 10
16.284562618
 20
12.7607635983
 30
0.0
 10
16.2884048415
 20
12.7610538959
 30
0.0
 10
16.2903055482
 20
12.7610540409
 30
0.0
  0
SPLINE
  5
2F3
100
AcDbEntity
  8
0
100
AcDbSpline
 62
7
  6
CONTINUOUS
 70
0
 71
3
 72
18
 73
14
 74
0
 42
0.0000001
 43
0.0000001
 44
0.0000000001
 40
0.0
 40
0.0
 40
0.0
 40
0.0
 40
0.1491039138
 40
0.2896184309
 40
0.4221051625
 40
0.4855972129
 40
0.5473970598
 40
0.6664181045
 40
0.780474898
 40
0.8361334119
 40
0.8911292317
 40
0.9456772494
 40
1.0
 40
1.0
 40
1.0
 40
1.0
 10
16.461380405
 20
11.5691798787
 30
0.0
 10
16.4549048213
 20
11.5614221882
 30
0.0
 10
16.4418095625
 20
11.5467724374
 30
0.0
 10
16.4211078262
 20
11.5269843992
 30
0.0
 10
16.4032620721
 20
11.5127253941
 30
0.0
 10
16.3888223078
 20
11.5028785394
 30
0.0
 10
16.3746656038
 20
11.4942786045
 30
0.0
 10
16.3567489044
 20
11.4853200389
 30
0.0
 10
16.3382538554
 20
11.4787537214
 30
0.0
 10
16.3234574973
 20
11.4751069335
 30
0.0
 10
16.3124214995
 20
11.4731661117
 30
0.0
 10
16.3013684996
 20
11.4720017074
 30
0.0
 10
16.2939873913
 20
11.4717431719
 30
0.0
 10
16.2903057848
 20
11.4717433568
 30
0.0
  0
SPLINE
  5
2F4
100
AcDbEntity
  8
0
100
AcDbSpline
 62
7
  6
CONTINUOUS
 70
0
 71
3
 72
33
 73
29
 74
0
 42
0.0000001
 43
0.0000001
 44
0.0000000001
 40
0.0
 40
0.0
 40
0.0
 40
0.0
 40
0.0202795844
 40
0.0417780458
 40
0.0645069275
 40
0.0884599433
 40
0.1136196791
 40
0.1399546442
 40
0.1674243635
 40
0.1959801922
 40
0.2255640035
 40
0.2561131871
 40
0.2875576348
 40
0.3198225226
 40
0.3528293401
 40
0.3864941789
 40
0.4207311496
 40
0.4554508072
 40
0.5259649496
 40
0.5972888156
 40
0.6686544869
 40
0.7392929875
 40
0.8084500049
 40
0.8753933323
 40
0.9078249641
 40
0.9394584844
 40
0.970212382
 40
1.0
 40
1.0
 40
1.0
 40
1.0
 10
16.48407301
 20
13.425242958
 30
0.0
 10
16.4909715376
 20
13.416977841
 30
0.0
 10
16.504554081
 20
13.3994188354
 30
0.0
 10
16.5237399717
 20
13.3710301141
 30
0.0
 10
16.5422692324
 20
13.3399169228
 30
0.0
 10
16.5600873499
 20
13.30617986
 30
0.0
 10
16.5771346958
 20
13.2699216737
 30
0.0
 10
16.5933616239
 20
13.2312578553
 30
0.0
 10
16.6087159627
 20
13.190309356
 30
0.0
 10
16.6231473418
 20
13.1472048951
 30
0.0
 10
16.6366138062
 20
13.1020814575
 30
0.0
 10
16.6490684663
 20
13.0550808541
 30
0.0
 10
16.6604743895
 20
13.0063525055
 30
0.0
 10
16.6707950896
 20
12.9560507115
 30
0.0
 10
16.6799953515
 20
12.9043347101
 30
0.0
 10
16.6880494825
 20
12.8513690778
 30
0.0
 10
16.6949284683
 20
12.7973212831
 30
0.0
 10
16.7025452584
 20
12.7236679709
 30
0.0
 10
16.7089617694
 20
12.6301242354
 30
0.0
 10
16.7117060652
 20
12.5169393169
 30
0.0
 10
16.7094975124
 20
12.4036754483
 30
0.0
 10
16.7023639387
 20
12.2917662159
 30
0.0
 10
16.6903974178
 20
12.1826310717
 30
0.0
 10
16.6763838501
 20
12.0942254397
 30
0.0
 10
16.6628000949
 20
12.0260095091
 30
0.0
 10
16.6516239666
 20
11.9769224621
 30
0.0
 10
16.6393917507
 20
11.9295364571
 30
0.0
 10
16.6304127678
 20
11.8986700193
 30
0.0
 10
16.6257439392
 20
11.8835616843
 30
0.0
  0
SPLINE
  5
2F5
100
AcDbEntity
  8
0
100
AcDbSpline
 62
7
  6
CONTINUOUS
 70
0
 71
3
 72
9
 73
5
 74
0
 42
0.0000001
 43
0.0000001
 44
0.0000000001
 40
0.0
 40
0.0
 40
0.0
 40
0.0
 40
0.4920439692
 40
1.0
 40
1.0
 40
1.0
 40
1.0
 10
16.2903055481
 20
12.2605559449
 30
0.0
 10
16.2877919306
 20
12.2605557532
 30
0.0
 10
16.2826710758
 20
12.261069204
 30
0.0
 10
16.2777515654
 20
12.2625618751
 30
0.0
 10
16.2753415538
 20
12.2635238388
 30
0.0
  0
SPLINE
  5
2F6
100
AcDbEntity
  8
0
100
AcDbSpline
 62
7
  6
CONTINUOUS
 70
0
 71
3
 72
9
 73
5
 74
0
 42
0.0000001
 43
0.0000001
 44
0.0000000001
 40
0.0
 40
0.0
 40
0.0
 40
0.0
 40
0.4831325988
 40
1.0
 40
1.0
 40
1.0
 40
1.0
 10
16.2753415538
 20
12.2635238388
 30
0.0
 10
16.2729902869
 20
12.2644623545
 30
0.0
 10
16.2682802208
 20
12.2668121688
 30
0.0
 10
16.2639593153
 20
12.2698060081
 30
0.0
 10
16.2618286555
 20
12.2714780912
 30
0.0
  0
SPLINE
  5
2F7
100
AcDbEntity
  8
AXIS
100
AcDbSpline
 62
7
  6
CONTINUOUS
 70
0
 71
3
 72
9
 73
5
 74
0
 42
0.0000001
 43
0.0000001
 44
0.0000000001
 40
0.0
 40
0.0
 40
0.0
 40
0.0
 40
0.497447199
 40
1.0
 40
1.0
 40
1.0
 40
1.0
 10
15.9027079445
 20
11.4303455689
 30
0.0
 10
15.909374765
 20
11.4301975737
 30
0.0
 10
15.9228077147
 20
11.4307221184
 30
0.0
 10
15.9360754688
 20
11.4328742296
 30
0.0
 10
15.9426516407
 20
11.4343370549
 30
0.0
  0
SPLINE
  5
2F8
100
AcDbEntity
  8
AXIS
100
AcDbSpline
 62
7
  6
CONTINUOUS
 70
0
 71
3
 72
11
 73
7
 74
0
 42
0.0000001
 43
0.0000001
 44
0.0000000001
 40
0.0
 40
0.0
 40
0.0
 40
0.0
 40
0.2364067716
 40
0.4804765414
 40
0.7343886385
 40
1.0
 40
1.0
 40
1.0
 40
1.0
 10
15.9437415092
 20
11.4345831527
 30
0.0
 10
15.9503801539
 20
11.4361045153
 30
0.0
 10
15.9637022662
 20
11.4399898408
 30
0.0
 10
15.9832769033
 20
11.4481174036
 30
0.0
 10
16.0026617108
 20
11.4585900656
 30
0.0
 10
16.0151282857
 20
11.4669141488
 30
0.0
 10
16.0213104133
 20
11.4714236943
 30
0.0
  0
SPLINE
  5
2F9
100
AcDbEntity
  8
AXIS
100
AcDbSpline
 62
7
  6
CONTINUOUS
 70
0
 71
3
 72
14
 73
10
 74
0
 42
0.0000001
 43
0.0000001
 44
0.0000000001
 40
0.0
 40
0.0
 40
0.0
 40
0.0
 40
0.1177475815
 40
0.2361025793
 40
0.355855244
 40
0.4777646609
 40
0.6025380006
 40
0.7308194801
 40
1.0
 40
1.0
 40
1.0
 40
1.0
 10
15.9027079434
 20
13.5912646906
 30
0.0
 10
15.9076223057
 20
13.5913734396
 30
0.0
 10
15.9174919629
 20
13.5911468616
 30
0.0
 10
15.9322719006
 20
13.5894725401
 30
0.0
 10
15.9470175278
 20
13.5864668024
 30
0.0
 10
15.9617067458
 20
13.5821329114
 30
0.0
 10
15.9763222305
 20
13.576478631
 30
0.0
 10
15.9959956153
 20
13.56704562
 30
0.0
 10
16.0101206705
 20
13.5582056148
 30
0.0
 10
16.0192599212
 20
13.5516670498
 30
0.0
  0
SPLINE
  5
2FA
100
AcDbEntity
  8
0
100
AcDbSpline
 62
7
  6
CONTINUOUS
 70
0
 71
3
 72
17
 73
13
 74
0
 42
0.0000001
 43
0.0000001
 44
0.0000000001
 40
0.0
 40
0.0
 40
0.0
 40
0.0
 40
0.1739227487
 40
0.3377912055
 40
0.4880520104
 40
0.6225089095
 40
0.7398333284
 40
0.8400235273
 40
0.884265845
 40
0.9251742368
 40
0.9634507902
 40
1.0
 40
1.0
 40
1.0
 40
1.0
 10
14.8844860896
 20
13.7116295407
 30
0.0
 10
14.884661355
 20
13.7130643352
 30
0.0
 10
14.8850908183
 20
13.715841126
 30
0.0
 10
14.8859915285
 20
13.7197999231
 30
0.0
 10
14.887117847
 20
13.7233589877
 30
0.0
 10
14.8884389372
 20
13.7264360281
 30
0.0
 10
14.8899282584
 20
13.7289637361
 30
0.0
 10
14.8913432165
 20
13.7306394845
 30
0.0
 10
14.8925432313
 20
13.7316121839
 30
0.0
 10
14.8934277148
 20
13.732139845
 30
0.0
 10
14.8943277489
 20
13.732492132
 30
0.0
 10
14.8949434122
 20
13.7326082356
 30
0.0
 10
14.8952460757
 20
13.7326339972
 30
0.0
  0
SPLINE
  5
2FB
100
AcDbEntity
  8
0
100
AcDbSpline
 62
7
  6
CONTINUOUS
 70
0
 71
3
 72
15
 73
11
 74
0
 42
0.0000001
 43
0.0000001
 44
0.0000000001
 40
0.0
 40
0.0
 40
0.0
 40
0.0
 40
0.1088237667
 40
0.2194326206
 40
0.3335113463
 40
0.4525508899
 40
0.5778190504
 40
0.710332541
 40
0.8508670101
 40
1.0
 40
1.0
 40
1.0
 40
1.0
 10
16.2903057848
 20
13.549866629
 30
0.0
 10
16.297679817
 20
13.5498662585
 30
0.0
 10
16.3125691751
 20
13.5488148635
 30
0.0
 10
16.3347401577
 20
13.5441071394
 30
0.0
 10
16.3567477118
 20
13.5362881306
 30
0.0
 10
16.3785187626
 20
13.5254054844
 30
0.0
 10
16.3999903229
 20
13.511500049
 30
0.0
 10
16.4211055864
 20
13.4946248002
 30
0.0
 10
16.4418110166
 20
13.4748383461
 30
0.0
 10
16.4549050829
 20
13.4601878813
 30
0.0
 10
16.4613804774
 20
13.4524297193
 30
0.0
  0
SPLINE
  5
2FC
100
AcDbEntity
  8
0
100
AcDbSpline
 62
7
  6
CONTINUOUS
 70
0
 71
3
 72
15
 73
11
 74
0
 42
0.0000001
 43
0.0000001
 44
0.0000000001
 40
0.0
 40
0.0
 40
0.0
 40
0.0
 40
0.1570159741
 40
0.3101994279
 40
0.4559996988
 40
0.5917558906
 40
0.7152487423
 40
0.8248628563
 40
0.9196813225
 40
1.0
 40
1.0
 40
1.0
 40
1.0
 10
14.7690264685
 20
13.6569603144
 30
0.0
 10
14.769057803
 20
13.6584876542
 30
0.0
 10
14.7692105365
 20
13.6615039775
 30
0.0
 10
14.7697048746
 20
13.6659158202
 30
0.0
 10
14.7704568199
 20
13.6700817069
 30
0.0
 10
14.7714439074
 20
13.6739013842
 30
0.0
 10
14.7726451824
 20
13.6772887443
 30
0.0
 10
14.7740320308
 20
13.6801716078
 30
0.0
 10
14.7755779889
 20
13.682482467
 30
0.0
 10
14.7767893397
 20
13.683707203
 30
0.0
 10
14.7774142458
 20
13.684176407
 30
0.0
  0
SPLINE
  5
2FD
100
AcDbEntity
  8
0
100
AcDbSpline
 62
7
  6
CONTINUOUS
 70
0
 71
3
 72
11
 73
7
 74
0
 42
0.0000001
 43
0.0000001
 44
0.0000000001
 40
0.0
 40
0.0
 40
0.0
 40
0.0
 40
0.2983118037
 40
0.5590084273
 40
0.7885389902
 40
1.0
 40
1.0
 40
1.0
 40
1.0
 10
14.67851816
 20
13.5775983335
 30
0.0
 10
14.6789225867
 20
13.5781795627
 30
0.0
 10
14.6797535535
 20
13.579221957
 30
0.0
 10
14.6811722995
 20
13.5804627692
 30
0.0
 10
14.6826685539
 20
13.5812391686
 30
0.0
 10
14.6837217207
 20
13.5814189527
 30
0.0
 10
14.6842236551
 20
13.5814190337
 30
0.0
  0
SPLINE
  5
2FE
100
AcDbEntity
  8
0
100
AcDbSpline
 62
7
  6
CONTINUOUS
 70
0
 71
3
 72
15
 73
11
 74
0
 42
0.0000001
 43
0.0000001
 44
0.0000000001
 40
0.0
 40
0.0
 40
0.0
 40
0.0
 40
0.1404728035
 40
0.2821127937
 40
0.4216049056
 40
0.5562056324
 40
0.6834080682
 40
0.800997499
 40
0.907032999
 40
1.0
 40
1.0
 40
1.0
 40
1.0
 10
14.6624886325
 20
13.530273934
 30
0.0
 10
14.6623691059
 20
13.5317983258
 30
0.0
 10
14.6622255307
 20
13.5348680292
 30
0.0
 10
14.6622816519
 20
13.5394594994
 30
0.0
 10
14.6626114415
 20
13.5439756844
 30
0.0
 10
14.6632030115
 20
13.5483067963
 30
0.0
 10
14.6640443494
 20
13.5523535856
 30
0.0
 10
14.6651133999
 20
13.5560249096
 30
0.0
 10
14.6663884826
 20
13.5592321918
 30
0.0
 10
14.6674221559
 20
13.5611453898
 30
0.0
 10
14.667977166
 20
13.5619915756
 30
0.0
  0
SPLINE
  5
2FF
100
AcDbEntity
  8
0
100
AcDbSpline
 62
7
  6
CONTINUOUS
 70
0
 71
3
 72
9
 73
5
 74
0
 42
0.0000001
 43
0.0000001
 44
0.0000000001
 40
0.0
 40
0.0
 40
0.0
 40
0.0
 40
0.5054737643
 40
1.0
 40
1.0
 40
1.0
 40
1.0
 10
14.6692928855
 20
13.4604868903
 30
0.0
 10
14.6692993243
 20
13.4621342985
 30
0.0
 10
14.6692080569
 20
13.4653946746
 30
0.0
 10
14.6689050118
 20
13.4686425399
 30
0.0
 10
14.6686983466
 20
13.4702409762
 30
0.0
  0
SPLINE
  5
300
100
AcDbEntity
  8
0
100
AcDbSpline
 62
7
  6
CONTINUOUS
 70
0
 71
3
 72
15
 73
11
 74
0
 42
0.0000001
 43
0.0000001
 44
0.0000000001
 40
0.0
 40
0.0
 40
0.0
 40
0.0
 40
0.1678686921
 40
0.2470434696
 40
0.3229238181
 40
0.5300977928
 40
0.7076334075
 40
0.8607349226
 40
0.9313138417
 40
1.0
 40
1.0
 40
1.0
 40
1.0
 10
14.5825095726
 20
13.3956049453
 30
0.0
 10
14.5827673056
 20
13.3962359569
 30
0.0
 10
14.5831767948
 20
13.3971529094
 30
0.0
 10
14.5837812087
 20
13.3983169307
 30
0.0
 10
14.5845134786
 20
13.399592541
 30
0.0
 10
14.5855853916
 20
13.4011353897
 30
0.0
 10
14.5871471567
 20
13.4026828941
 30
0.0
 10
14.5885766983
 20
13.403518313
 30
0.0
 10
14.5897254371
 20
13.4038391047
 30
0.0
 10
14.5902922082
 20
13.4038916977
 30
0.0
 10
14.5905711027
 20
13.4038917271
 30
0.0
  0
SPLINE
  5
301
100
AcDbEntity
  8
0
100
AcDbSpline
 62
7
  6
CONTINUOUS
 70
0
 71
3
 72
15
 73
11
 74
0
 42
0.0000001
 43
0.0000001
 44
0.0000000001
 40
0.0
 40
0.0
 40
0.0
 40
0.0
 40
0.1254100102
 40
0.2561550824
 40
0.3892544342
 40
0.5220384983
 40
0.6519368864
 40
0.7764832559
 40
0.8932871657
 40
1.0
 40
1.0
 40
1.0
 40
1.0
 10
14.5715667453
 20
13.3395305707
 30
0.0
 10
14.5712987551
 20
13.3409551386
 30
0.0
 10
14.5708583748
 20
13.343885683
 30
0.0
 10
14.570472491
 20
13.3483709976
 30
0.0
 10
14.5703590748
 20
13.3529568498
 30
0.0
 10
14.5705172885
 20
13.3575315071
 30
0.0
 10
14.5709453405
 20
13.3619896762
 30
0.0
 10
14.5716309561
 20
13.3662291569
 30
0.0
 10
14.5725611083
 20
13.3701468998
 30
0.0
 10
14.5733649186
 20
13.3726069367
 30
0.0
 10
14.5738111705
 20
13.3737568251
 30
0.0
  0
SPLINE
  5
302
100
AcDbEntity
  8
0
100
AcDbSpline
 62
7
  6
CONTINUOUS
 70
0
 71
3
 72
9
 73
5
 74
0
 42
0.0000001
 43
0.0000001
 44
0.0000000001
 40
0.0
 40
0.0
 40
0.0
 40
0.0
 40
0.514696179
 40
1.0
 40
1.0
 40
1.0
 40
1.0
 10
14.5849157149
 20
13.2762813394
 30
0.0
 10
14.5847651311
 20
13.2778526992
 30
0.0
 10
14.5843720817
 20
13.2808970764
 30
0.0
 10
14.5837570945
 20
13.2839055454
 30
0.0
 10
14.5833952259
 20
13.2853492991
 30
0.0
  0
SPLINE
  5
303
100
AcDbEntity
  8
0
100
AcDbSpline
 62
7
  6
CONTINUOUS
 70
0
 71
3
 72
21
 73
17
 74
0
 42
0.0000001
 43
0.0000001
 44
0.0000000001
 40
0.0
 40
0.0
 40
0.0
 40
0.0
 40
0.0365095901
 40
0.0777385789
 40
0.12395993
 40
0.1751720815
 40
0.2311947542
 40
0.2916554363
 40
0.356053652
 40
0.4238096927
 40
0.5666553659
 40
0.7143875184
 40
0.7881780857
 40
0.8609128833
 40
0.9318061866
 40
1.0
 40
1.0
 40
1.0
 40
1.0
 10
14.4973958367
 20
12.9005186338
 30
0.0
 10
14.4988728054
 20
12.9016012774
 30
0.0
 10
14.5017752748
 20
12.9042423643
 30
0.0
 10
14.5056795401
 20
12.90910373
 30
0.0
 10
14.5093388383
 20
12.9150357127
 30
0.0
 10
14.512717798
 20
12.9219626604
 30
0.0
 10
14.5157757068
 20
12.9298070878
 30
0.0
 10
14.5184792292
 20
12.9384741956
 30
0.0
 10
14.5207940481
 20
12.9478596378
 30
0.0
 10
14.5233653119
 20
12.9614171386
 30
0.0
 10
14.5253851334
 20
12.9793051341
 30
0.0
 10
14.5258439587
 20
12.9975992543
 30
0.0
 10
14.525259736
 20
13.0123511891
 30
0.0
 10
14.5243458786
 20
13.0232221977
 30
0.0
 10
14.5229681583
 20
13.0337608505
 30
0.0
 10
14.5217285244
 20
13.0406299454
 30
0.0
 10
14.521028685
 20
13.0439780944
 30
0.0
  0
SPLINE
  5
304
100
AcDbEntity
  8
0
100
AcDbSpline
 62
7
  6
CONTINUOUS
 70
0
 71
3
 72
16
 73
12
 74
0
 42
0.0000001
 43
0.0000001
 44
0.0000000001
 40
0.0
 40
0.0
 40
0.0
 40
0.0
 40
0.1747290021
 40
0.3365735579
 40
0.4834543679
 40
0.614338037
 40
0.7293074597
 40
0.8295435017
 40
0.9180092217
 40
0.9594420322
 40
1.0
 40
1.0
 40
1.0
 40
1.0
 10
14.5071423126
 20
13.1580163221
 30
0.0
 10
14.5073940558
 20
13.1590522402
 30
0.0
 10
14.5079419206
 20
13.1610332693
 30
0.0
 10
14.5089342978
 20
13.1638141606
 30
0.0
 10
14.5100553599
 20
13.1662554966
 30
0.0
 10
14.5112881013
 20
13.1683168935
 30
0.0
 10
14.5126148992
 20
13.1699708358
 30
0.0
 10
14.514024519
 20
13.1711922039
 30
0.0
 10
14.5152911782
 20
13.1718421999
 30
0.0
 10
14.5163046385
 20
13.1720924442
 30
0.0
 10
14.5168058907
 20
13.1721329273
 30
0.0
 10
14.5170533455
 20
13.1721326721
 30
0.0
  0
SPLINE
  5
305
100
AcDbEntity
  8
0
100
AcDbSpline
 62
7
  6
CONTINUOUS
 70
0
 71
3
 72
15
 73
11
 74
0
 42
0.0000001
 43
0.0000001
 44
0.0000000001
 40
0.0
 40
0.0
 40
0.0
 40
0.0
 40
0.1112601884
 40
0.231506416
 40
0.3582031679
 40
0.4888678643
 40
0.6209892756
 40
0.7520042463
 40
0.8792913194
 40
1.0
 40
1.0
 40
1.0
 40
1.0
 10
14.5019737638
 20
13.0967153315
 30
0.0
 10
14.501568583
 20
13.097947255
 30
0.0
 10
14.5008493457
 20
13.1005520485
 30
0.0
 10
14.5000460354
 20
13.1046525335
 30
0.0
 10
14.4994968153
 20
13.1090227465
 30
0.0
 10
14.499211467
 20
13.1135563435
 30
0.0
 10
14.4991988279
 20
13.1181491584
 30
0.0
 10
14.4994572153
 20
13.122695467
 30
0.0
 10
14.4999839014
 20
13.1270845108
 30
0.0
 10
14.5005184668
 20
13.1299282816
 30
0.0
 10
14.500833055
 20
13.1312996374
 30
0.0
  0
SPLINE
  5
306
100
AcDbEntity
  8
0
100
AcDbSpline
 62
7
  6
CONTINUOUS
 70
0
 71
3
 72
9
 73
5
 74
0
 42
0.0000001
 43
0.0000001
 44
0.0000000001
 40
0.0
 40
0.0
 40
0.0
 40
0.0
 40
0.5108397736
 40
1.0
 40
1.0
 40
1.0
 40
1.0
 10
14.5019737638
 20
13.0967153315
 30
0.0
 10
14.5045242264
 20
13.0889608303
 30
0.0
 10
14.5097895902
 20
13.0738688725
 30
0.0
 10
14.5156506143
 20
13.0589969139
 30
0.0
 10
14.5186777838
 20
13.0517901546
 30
0.0
  0
SPLINE
  5
307
100
AcDbEntity
  8
0
100
AcDbSpline
 62
7
  6
CONTINUOUS
 70
0
 71
3
 72
9
 73
5
 74
0
 42
0.0000001
 43
0.0000001
 44
0.0000000001
 40
0.0
 40
0.0
 40
0.0
 40
0.0
 40
0.5248440284
 40
1.0
 40
1.0
 40
1.0
 40
1.0
 10
14.521028685
 20
13.0439780944
 30
0.0
 10
14.5207363421
 20
13.0453767118
 30
0.0
 10
14.5200786333
 20
13.0480219103
 30
0.0
 10
14.5191787436
 20
13.0505975236
 30
0.0
 10
14.5186777838
 20
13.0517901546
 30
0.0
  0
SPLINE
  5
308
100
AcDbEntity
  8
0
100
AcDbSpline
 62
7
  6
CONTINUOUS
 70
0
 71
3
 72
15
 73
11
 74
0
 42
0.0000001
 43
0.0000001
 44
0.0000000001
 40
0.0
 40
0.0
 40
0.0
 40
0.0
 40
0.1460030918
 40
0.2864844657
 40
0.4210835387
 40
0.5495514012
 40
0.6717394686
 40
0.7875502648
 40
0.8969557771
 40
1.0
 40
1.0
 40
1.0
 40
1.0
 10
16.6257439392
 20
11.8835616843
 30
0.0
 10
16.6211145923
 20
11.8685811123
 30
0.0
 10
16.611545251
 20
11.839333415
 30
0.0
 10
16.5959421652
 20
11.7968787477
 30
0.0
 10
16.5794076485
 20
11.7568059164
 30
0.0
 10
16.5619993953
 20
11.719258008
 30
0.0
 10
16.5437768437
 20
11.6843573475
 30
0.0
 10
16.5247939716
 20
11.6522168501
 30
0.0
 10
16.5051187007
 20
11.6229408791
 30
0.0
 10
16.4911644155
 20
11.6048621723
 30
0.0
 10
16.4840730558
 20
11.5963667868
 30
0.0
  0
SPLINE
  5
309
100
AcDbEntity
  8
0
100
AcDbSpline
 62
7
  6
CONTINUOUS
 70
0
 71
3
 72
14
 73
10
 74
0
 42
0.0000001
 43
0.0000001
 44
0.0000000001
 40
0.0
 40
0.0
 40
0.0
 40
0.0
 40
0.2863443327
 40
0.4209934989
 40
0.5495154287
 40
0.6717300775
 40
0.7875535818
 40
0.8969566421
 40
1.0
 40
1.0
 40
1.0
 40
1.0
 10
16.2324496475
 20
12.6850111865
 30
0.0
 10
16.2349711294
 20
12.693170706
 30
0.0
 10
16.2390669335
 20
12.7050557132
 30
0.0
 10
16.2453185159
 20
12.7202097771
 30
0.0
 10
16.2501545485
 20
12.7306415178
 30
0.0
 10
16.2552165149
 20
12.7403366391
 30
0.0
 10
16.2604874407
 20
12.7492646367
 30
0.0
 10
16.265951693
 20
12.7573955974
 30
0.0
 10
16.2698277491
 20
12.7624158183
 30
0.0
 10
16.271797296
 20
12.7647750338
 30
0.0
  0
SPLINE
  5
30A
100
AcDbEntity
  8
0
100
AcDbSpline
 62
7
  6
CONTINUOUS
 70
0
 71
3
 72
21
 73
17
 74
0
 42
0.0000001
 43
0.0000001
 44
0.0000000001
 40
0.0
 40
0.0
 40
0.0
 40
0.0
 40
0.0437889666
 40
0.0925573636
 40
0.1460306415
 40
0.2038234877
 40
0.2654700517
 40
0.3303997807
 40
0.4673362011
 40
0.6088356614
 40
0.6793786449
 40
0.7487241561
 40
0.8161408709
 40
0.8809483339
 40
0.942466111
 40
1.0
 40
1.0
 40
1.0
 40
1.0
 10
14.4713390961
 20
12.622247392
 30
0.0
 10
14.4727201138
 20
12.6241415637
 30
0.0
 10
14.4753650799
 20
12.6283473559
 30
0.0
 10
14.4788363544
 20
12.6353627699
 30
0.0
 10
14.4819755617
 20
12.6433437089
 30
0.0
 10
14.4847430049
 20
12.6521837873
 30
0.0
 10
14.4871041155
 20
12.6617729963
 30
0.0
 10
14.4897155254
 20
12.6756418069
 30
0.0
 10
14.4917327397
 20
12.6939423005
 30
0.0
 10
14.4921193375
 20
12.7126454462
 30
0.0
 10
14.4914358858
 20
12.7276977678
 30
0.0
 10
14.4904298709
 20
12.7387539237
 30
0.0
 10
14.4889432209
 20
12.7494459376
 30
0.0
 10
14.4869948322
 20
12.7596380233
 30
0.0
 10
14.4846097022
 20
12.7691924956
 30
0.0
 10
14.4826851958
 20
12.7752742424
 30
0.0
 10
14.4816460528
 20
12.7781736226
 30
0.0
  0
SPLINE
  5
30B
100
AcDbEntity
  8
0
100
AcDbSpline
 62
7
  6
CONTINUOUS
 70
0
 71
3
 72
21
 73
17
 74
0
 42
0.0000001
 43
0.0000001
 44
0.0000000001
 40
0.0
 40
0.0
 40
0.0
 40
0.0
 40
0.053895258
 40
0.1121050935
 40
0.1740189156
 40
0.2390151454
 40
0.3064562637
 40
0.3756429246
 40
0.5161500225
 40
0.6544055259
 40
0.7208217849
 40
0.7844620545
 40
0.8447050178
 40
0.9010169105
 40
0.9529182785
 40
1.0
 40
1.0
 40
1.0
 40
1.0
 10
14.4743598121
 20
12.3379596585
 30
0.0
 10
14.4754969412
 20
12.3406361079
 30
0.0
 10
14.4776240155
 20
12.3463059382
 30
0.0
 10
14.4803136954
 20
12.3553079842
 30
0.0
 10
14.4825892752
 20
12.3650395155
 30
0.0
 10
14.4844214806
 20
12.375369359
 30
0.0
 10
14.4857869751
 20
12.3861666295
 30
0.0
 10
14.4869673891
 20
12.4010776699
 30
0.0
 10
14.4871877469
 20
12.4198761487
 30
0.0
 10
14.4857737033
 20
12.438475005
 30
0.0
 10
14.4836361534
 20
12.4527988035
 30
0.0
 10
14.4815978527
 20
12.4628675771
 30
0.0
 10
14.4791297797
 20
12.4722776874
 30
0.0
 10
14.4762631422
 20
12.4809110048
 30
0.0
 10
14.4730345944
 20
12.4886518929
 30
0.0
 10
14.4705497384
 20
12.493391269
 30
0.0
 10
14.469242374
 20
12.4955693965
 30
0.0
  0
SPLINE
  5
30C
100
AcDbEntity
  8
0
100
AcDbSpline
 62
7
  6
CONTINUOUS
 70
0
 71
3
 72
22
 73
18
 74
0
 42
0.0000001
 43
0.0000001
 44
0.0000000001
 40
0.0
 40
0.0
 40
0.0
 40
0.0
 40
0.0649580433
 40
0.1331335911
 40
0.2036895979
 40
0.2758468084
 40
0.3488540916
 40
0.4219293834
 40
0.5650003948
 40
0.633485572
 40
0.6989541653
 40
0.7607663802
 40
0.8183444375
 40
0.8712524403
 40
0.9192087218
 40
0.9620896271
 40
1.0
 40
1.0
 40
1.0
 40
1.0
 10
14.5048173028
 20
12.0645324331
 30
0.0
 10
14.505646999
 20
12.0678017005
 30
0.0
 10
14.5071426522
 20
12.0745552815
 30
0.0
 10
14.5088835263
 20
12.0849917335
 30
0.0
 10
14.510152396
 20
12.0958725474
 30
0.0
 10
14.5109333028
 20
12.1070501855
 30
0.0
 10
14.5112165855
 20
12.118382698
 30
0.0
 10
14.5109273511
 20
12.1333972367
 30
0.0
 10
14.5096693819
 20
12.1481484796
 30
0.0
 10
14.5074013491
 20
12.1623579574
 30
0.0
 10
14.50527084
 20
12.1723026754
 30
0.0
 10
14.5027194567
 20
12.1815622393
 30
0.0
 10
14.4997777068
 20
12.1900192406
 30
0.0
 10
14.4964828432
 20
12.1975678167
 30
0.0
 10
14.4928738906
 20
12.2041167239
 30
0.0
 10
14.4889938682
 20
12.2095797235
 30
0.0
 10
14.4860873022
 20
12.2126364235
 30
0.0
 10
14.4845970173
 20
12.213922479
 30
0.0
  0
SPLINE
  5
30D
100
AcDbEntity
  8
0
100
AcDbSpline
 62
7
  6
CONTINUOUS
 70
0
 71
3
 72
18
 73
14
 74
0
 42
0.0000001
 43
0.0000001
 44
0.0000000001
 40
0.0
 40
0.0
 40
0.0
 40
0.0
 40
0.1373788249
 40
0.2780539844
 40
0.4182209977
 40
0.5544842453
 40
0.683489351
 40
0.7443218018
 40
0.8022533828
 40
0.8569864311
 40
0.9082956836
 40
0.9560043522
 40
1.0
 40
1.0
 40
1.0
 40
1.0
 10
14.5607978119
 20
11.8191461538
 30
0.0
 10
14.5615305071
 20
11.8247072187
 30
0.0
 10
14.5625923708
 20
11.8360215246
 30
0.0
 10
14.5630363628
 20
11.8531033959
 30
0.0
 10
14.5623417606
 20
11.8701328394
 30
0.0
 10
14.5605320173
 20
11.8866005259
 30
0.0
 10
14.5580980571
 20
11.8997069544
 30
0.0
 10
14.5556028347
 20
11.9095138674
 30
0.0
 10
14.5535347434
 20
11.9162921894
 30
0.0
 10
14.5512460476
 20
11.9225874389
 30
0.0
 10
14.5487558595
 20
11.9283546116
 30
0.0
 10
14.5460837253
 20
11.9335517753
 30
0.0
 10
14.5441110461
 20
11.9367408272
 30
0.0
 10
14.5430928553
 20
11.9382207167
 30
0.0
  0
SPLINE
  5
30E
100
AcDbEntity
  8
0
100
AcDbSpline
 62
7
  6
CONTINUOUS
 70
0
 71
3
 72
13
 73
9
 74
0
 42
0.0000001
 43
0.0000001
 44
0.0000000001
 40
0.0
 40
0.0
 40
0.0
 40
0.0
 40
0.1333464507
 40
0.2666719868
 40
0.5279164952
 40
0.7748274399
 40
0.8905738053
 40
1.0
 40
1.0
 40
1.0
 40
1.0
 10
14.6387838783
 20
11.6172193432
 30
0.0
 10
14.6388806802
 20
11.620531113
 30
0.0
 10
14.6389441366
 20
11.6271587185
 30
0.0
 10
14.6385657394
 20
11.6402726138
 30
0.0
 10
14.6371808099
 20
11.6561683652
 30
0.0
 10
14.6345505847
 20
11.6714690675
 30
0.0
 10
14.6317101023
 20
11.68285398
 30
0.0
 10
14.630063726
 20
11.6882049668
 30
0.0
 10
14.6291820764
 20
11.690776901
 30
0.0
  0
SPLINE
  5
30F
100
AcDbEntity
  8
0
100
AcDbSpline
 62
7
  6
CONTINUOUS
 70
0
 71
3
 72
9
 73
5
 74
0
 42
0.0000001
 43
0.0000001
 44
0.0000000001
 40
0.0
 40
0.0
 40
0.0
 40
0.0
 40
0.5067629428
 40
1.0
 40
1.0
 40
1.0
 40
1.0
 10
14.7338753506
 20
11.4714398053
 30
0.0
 10
14.7336154859
 20
11.4751832738
 30
0.0
 10
14.7329329894
 20
11.4825595547
 30
0.0
 10
14.7318992508
 20
11.4898953501
 30
0.0
 10
14.7312947342
 20
11.493497295
 30
0.0
  0
SPLINE
  5
310
100
AcDbEntity
  8
0
100
AcDbSpline
 62
7
  6
CONTINUOUS
 70
0
 71
3
 72
26
 73
22
 74
0
 42
0.0000001
 43
0.0000001
 44
0.0000000001
 40
0.0
 40
0.0
 40
0.0
 40
0.0
 40
0.0879398461
 40
0.1726588295
 40
0.2539502304
 40
0.3316668146
 40
0.4057218464
 40
0.4760553356
 40
0.5426450394
 40
0.6055067266
 40
0.6647157827
 40
0.7204178714
 40
0.7728293162
 40
0.7979034869
 40
0.8222803813
 40
0.8691438016
 40
0.9139515104
 40
0.9357867901
 40
0.9573466447
 40
0.978720213
 40
1.0
 40
1.0
 40
1.0
 40
1.0
 10
15.9733482362
 20
13.1566966006
 30
0.0
 10
15.9779791049
 20
13.171682097
 30
0.0
 10
15.9875430071
 20
13.2009614549
 30
0.0
 10
16.0031023137
 20
13.2435091273
 30
0.0
 10
16.0195698212
 20
13.2837520603
 30
0.0
 10
16.0368920493
 20
13.3215534535
 30
0.0
 10
16.0550107664
 20
13.3567977863
 30
0.0
 10
16.0738745907
 20
13.3893774886
 30
0.0
 10
16.0934222575
 20
13.4191945728
 30
0.0
 10
16.1135977644
 20
13.4461543785
 30
0.0
 10
16.1343432406
 20
13.4701716635
 30
0.0
 10
16.1555929123
 20
13.4911732967
 30
0.0
 10
16.1739428744
 20
13.5063215841
 30
0.0
 10
16.1888047633
 20
13.5167849108
 30
0.0
 10
16.2033646591
 20
13.5259139445
 30
0.0
 10
16.2218025909
 20
13.5354292696
 30
0.0
 10
16.2408710914
 20
13.5424136964
 30
0.0
 10
16.2561284299
 20
13.5462912783
 30
0.0
 10
16.267504841
 20
13.5483541912
 30
0.0
 10
16.2788999679
 20
13.5495919819
 30
0.0
 10
16.2865103809
 20
13.5498668197
 30
0.0
 10
16.2903057848
 20
13.549866629
 30
0.0
  0
SPLINE
  5
311
100
AcDbEntity
  8
AXIS
100
AcDbSpline
 62
7
  6
CONTINUOUS
 70
0
 71
3
 72
25
 73
21
 74
0
 42
0.0000001
 43
0.0000001
 44
0.0000000001
 40
0.0
 40
0.0
 40
0.0
 40
0.0
 40
0.0879536412
 40
0.1726755226
 40
0.253961026
 40
0.33167633
 40
0.4057332714
 40
0.4760711141
 40
0.5426611863
 40
0.6055214294
 40
0.664731485
 40
0.7204320352
 40
0.7728455169
 40
0.822278641
 40
0.8691425799
 40
0.9139509994
 40
0.9357861983
 40
0.9573461535
 40
0.9787200203
 40
1.0
 40
1.0
 40
1.0
 40
1.0
 10
15.5893809344
 20
13.1566966006
 30
0.0
 10
15.5940124491
 20
13.1716841877
 30
0.0
 10
15.603577244
 20
13.2009658262
 30
0.0
 10
15.6191376228
 20
13.2435143395
 30
0.0
 10
15.6356057914
 20
13.2837553291
 30
0.0
 10
15.6529259304
 20
13.3215558551
 30
0.0
 10
15.6710452966
 20
13.3568000801
 30
0.0
 10
15.6899081712
 20
13.3893809329
 30
0.0
 10
15.709456278
 20
13.419197745
 30
0.0
 10
15.7296331068
 20
13.4461558437
 30
0.0
 10
15.7503757103
 20
13.4701739455
 30
0.0
 10
15.7716287043
 20
13.4911739229
 30
0.0
 10
15.7933283798
 20
13.5090916639
 30
0.0
 10
15.8154199591
 20
13.52386129
 30
0.0
 10
15.8378353437
 20
13.5354288157
 30
0.0
 10
15.8569040317
 20
13.5424150011
 30
0.0
 10
15.8721614714
 20
13.5462913031
 30
0.0
 10
15.8835378311
 20
13.5483536347
 30
0.0
 10
15.8949327577
 20
13.5495921774
 30
0.0
 10
15.9025431264
 20
13.5498674423
 30
0.0
 10
15.9063384988
 20
13.5498672941
 30
0.0
  0
SPLINE
  5
312
100
AcDbEntity
  8
AXIS
100
AcDbSpline
 62
7
  6
CONTINUOUS
 70
0
 71
3
 72
43
 73
39
 74
0
 42
0.0000001
 43
0.0000001
 44
0.0000000001
 40
0.0
 40
0.0
 40
0.0
 40
0.0
 40
0.0330460265
 40
0.0673846583
 40
0.1028744324
 40
0.139385941
 40
0.176780992
 40
0.2149090343
 40
0.2536151668
 40
0.2927412729
 40
0.3321255832
 40
0.3716044963
 40
0.4110137324
 40
0.4501895891
 40
0.4889699611
 40
0.5271957288
 40
0.5647116158
 40
0.6013681802
 40
0.6370219314
 40
0.6715384753
 40
0.7047919451
 40
0.7366690615
 40
0.7670689702
 40
0.7959073249
 40
0.823118311
 40
0.8486582184
 40
0.8725112751
 40
0.8946935334
 40
0.9152633583
 40
0.924978458
 40
0.9343357942
 40
0.9520633013
 40
0.9605028624
 40
0.9687037919
 40
0.9767071158
 40
0.9845579791
 40
0.9923052218
 40
1.0
 40
1.0
 40
1.0
 40
1.0
 10
15.5893809344
 20
13.1566966006
 30
0.0
 10
15.5833861544
 20
13.1372974855
 30
0.0
 10
15.5719793963
 20
13.0974841216
 30
0.0
 10
15.5568416366
 20
13.0361019603
 30
0.0
 10
15.5434105735
 20
12.9721466822
 30
0.0
 10
15.5317511155
 20
12.905938526
 30
0.0
 10
15.5219195228
 20
12.8377968367
 30
0.0
 10
15.5139650203
 20
12.7680538938
 30
0.0
 10
15.5079260113
 20
12.6970519713
 30
0.0
 10
15.5038339145
 20
12.6251384532
 30
0.0
 10
15.5017063473
 20
12.5526651848
 30
0.0
 10
15.5015566929
 20
12.479986949
 30
0.0
 10
15.5033829711
 20
12.4074595866
 30
0.0
 10
15.5071783787
 20
12.3354382006
 30
0.0
 10
15.5129227558
 20
12.2642752306
 30
0.0
 10
15.5205883144
 20
12.1943190149
 30
0.0
 10
15.5301377948
 20
12.1259117616
 30
0.0
 10
15.5415226477
 20
12.0593878975
 30
0.0
 10
15.5546892074
 20
11.9950726743
 30
0.0
 10
15.5695697392
 20
11.9332797253
 30
0.0
 10
15.5860943519
 20
11.8743107577
 30
0.0
 10
15.6041790472
 20
11.8184521939
 30
0.0
 10
15.6237378599
 20
11.7659756335
 30
0.0
 10
15.6446743709
 20
11.7171346016
 30
0.0
 10
15.6668879622
 20
11.6721641274
 30
0.0
 10
15.6902740818
 20
11.6312803113
 30
0.0
 10
15.7147222328
 20
11.5946754318
 30
0.0
 10
15.74012333
 20
11.5625282125
 30
0.0
 10
15.7624024178
 20
11.5391455266
 30
0.0
 10
15.7806132974
 20
11.5229504451
 30
0.0
 10
15.7983639904
 20
11.5089314676
 30
0.0
 10
15.816738731
 20
11.4970028974
 30
0.0
 10
15.8356240086
 20
11.4875177638
 30
0.0
 10
15.8496520125
 20
11.4817748586
 30
0.0
 10
15.863755345
 20
11.4772978227
 30
0.0
 10
15.8779174451
 20
11.4740954913
 30
0.0
 10
15.8921172564
 20
11.4721716492
 30
0.0
 10
15.9016106449
 20
11.4717428763
 30
0.0
 10
15.906338499
 20
11.4717426917
 30
0.0
  0
SPLINE
  5
313
100
AcDbEntity
  8
AXIS
100
AcDbSpline
 62
7
  6
CONTINUOUS
 70
0
 71
3
 72
24
 73
20
 74
0
 42
0.0000001
 43
0.0000001
 44
0.0000000001
 40
0.0
 40
0.0
 40
0.0
 40
0.0
 40
0.0876992154
 40
0.1722095206
 40
0.2533300746
 40
0.3309283259
 40
0.404917279
 40
0.4752361995
 40
0.5418553108
 40
0.604788381
 40
0.6641093943
 40
0.7199500511
 40
0.7725205761
 40
0.8221117497
 40
0.8691140778
 40
0.9140179956
 40
0.957413578
 40
0.9787667974
 40
1.0
 40
1.0
 40
1.0
 40
1.0
 10
15.576740762
 20
13.1824545636
 30
0.0
 10
15.5815116311
 20
13.1978931018
 30
0.0
 10
15.5913615644
 20
13.2280629913
 30
0.0
 10
15.6073743845
 20
13.2719175911
 30
0.0
 10
15.624314146
 20
13.3134209442
 30
0.0
 10
15.6421246556
 20
13.3524382293
 30
0.0
 10
15.6607523514
 20
13.3888521672
 30
0.0
 10
15.6801414752
 20
13.4225541234
 30
0.0
 10
15.7002326094
 20
13.4534422487
 30
0.0
 10
15.720969282
 20
13.481419955
 30
0.0
 10
15.7422873547
 20
13.5064046828
 30
0.0
 10
15.7641309046
 20
13.5283167509
 30
0.0
 10
15.7864358598
 20
13.5470906159
 30
0.0
 10
15.8091450325
 20
13.5626598648
 30
0.0
 10
15.8321951381
 20
13.5749688642
 30
0.0
 10
15.8555166925
 20
13.5839631113
 30
0.0
 10
15.875233808
 20
13.5886812858
 30
0.0
 10
15.8909549177
 20
13.5907226512
 30
0.0
 10
15.898796609
 20
13.5911781373
 30
0.0
 10
15.9027079434
 20
13.5912646906
 30
0.0
  0
SPLINE
  5
314
100
AcDbEntity
  8
0
100
AcDbSpline
 62
7
  6
CONTINUOUS
 70
0
 71
3
 72
41
 73
37
 74
0
 42
0.0000001
 43
0.0000001
 44
0.0000000001
 40
0.0
 40
0.0
 40
0.0
 40
0.0
 40
0.0223634439
 40
0.0427862106
 40
0.061533398
 40
0.0704066552
 40
0.0790198998
 40
0.0874428022
 40
0.0957514723
 40
0.104025336
 40
0.1123449689
 40
0.1207898015
 40
0.1294348593
 40
0.1475720689
 40
0.167230976
 40
0.1887313774
 40
0.212270389
 40
0.2379539852
 40
0.2658034257
 40
0.2957886911
 40
0.3278264483
 40
0.3617985321
 40
0.397557077
 40
0.4349247693
 40
0.4737094605
 40
0.5136967006
 40
0.554662588
 40
0.5963704467
 40
0.6810182497
 40
0.7234697022
 40
0.7656663463
 40
0.8482783608
 40
0.888228106
 40
0.9269805051
 40
0.9643160935
 40
1.0
 40
1.0
 40
1.0
 40
1.0
 10
16.271797296
 20
12.7647750338
 30
0.0
 10
16.2744340124
 20
12.7679334163
 30
0.0
 10
16.2797929789
 20
12.7737279368
 30
0.0
 10
16.2885037801
 20
12.7810115398
 30
0.0
 10
16.2961132333
 20
12.7855990771
 30
0.0
 10
16.3022489563
 20
12.7882273853
 30
0.0
 10
16.3067990136
 20
12.7896748497
 30
0.0
 10
16.3113716496
 20
12.7906294191
 30
0.0
 10
16.3159576849
 20
12.7910903074
 30
0.0
 10
16.3205478118
 20
12.7910565036
 30
0.0
 10
16.3251325821
 20
12.7905278934
 30
0.0
 10
16.3297026101
 20
12.789504164
 30
0.0
 10
16.3358602014
 20
12.7874523798
 30
0.0
 10
16.343532847
 20
12.7835785873
 30
0.0
 10
16.3523571358
 20
12.7770968847
 30
0.0
 10
16.3609080401
 20
12.7687709719
 30
0.0
 10
16.3691409465
 20
12.7586649772
 30
0.0
 10
16.3770049531
 20
12.7468440531
 30
0.0
 10
16.3844572099
 20
12.7333905021
 30
0.0
 10
16.3914434583
 20
12.7183918117
 30
0.0
 10
16.3979205967
 20
12.7019515334
 30
0.0
 10
16.403842404
 20
12.684181362
 30
0.0
 10
16.4091668499
 20
12.6652038356
 30
0.0
 10
16.4138597632
 20
12.6451507591
 30
0.0
 10
16.4178839164
 20
12.6241607749
 30
0.0
 10
16.4212156718
 20
12.6023804686
 30
0.0
 10
16.4238279264
 20
12.5799606761
 30
0.0
 10
16.4263416753
 20
12.5492759098
 30
0.0
 10
16.4273275929
 20
12.5182086019
 30
0.0
 10
16.4268072443
 20
12.48706222
 30
0.0
 10
16.4252838291
 20
12.4563241238
 30
0.0
 10
16.4222916054
 20
12.4261317987
 30
0.0
 10
16.4177699951
 20
12.3967949822
 30
0.0
 10
16.4137224426
 20
12.3758282337
 30
0.0
 10
16.4090107903
 20
12.3558063404
 30
0.0
 10
16.4053639011
 20
12.3428710989
 30
0.0
 10
16.4034256137
 20
12.3365987993
 30
0.0
  0
SPLINE
  5
315
100
AcDbEntity
  8
0
100
AcDbSpline
 62
7
  6
CONTINUOUS
 70
0
 71
3
 72
9
 73
5
 74
0
 42
0.0000001
 43
0.0000001
 44
0.0000000001
 40
0.0
 40
0.0
 40
0.0
 40
0.0
 40
0.2569041704
 40
1.0
 40
1.0
 40
1.0
 40
1.0
 10
16.4840730558
 20
11.5963667868
 30
0.0
 10
16.4820933611
 20
11.5939951303
 30
0.0
 10
16.4742889492
 20
11.5848464378
 30
0.0
 10
16.46608148
 20
11.5760387537
 30
0.0
 10
16.4597430329
 20
11.5697400111
 30
0.0
  0
SPLINE
  5
316
100
AcDbEntity
  8
0
100
AcDbSpline
 62
7
  6
CONTINUOUS
 70
0
 71
3
 72
51
 73
47
 74
0
 42
0.0000001
 43
0.0000001
 44
0.0000000001
 40
0.0
 40
0.0
 40
0.0
 40
0.0
 40
0.0206581323
 40
0.0303423838
 40
0.0396426608
 40
0.0486051493
 40
0.0572844347
 40
0.0657426313
 40
0.0740479026
 40
0.0822733981
 40
0.0904950785
 40
0.0987888181
 40
0.1072283001
 40
0.1158825161
 40
0.1248137541
 40
0.1437062039
 40
0.1537693727
 40
0.1642840813
 40
0.175276381
 40
0.1867656696
 40
0.1987652419
 40
0.2112842746
 40
0.2243280385
 40
0.2378968051
 40
0.2519877722
 40
0.2665959502
 40
0.2817131202
 40
0.2973280207
 40
0.3299958559
 40
0.364477717
 40
0.4006226192
 40
0.4382573299
 40
0.4771922893
 40
0.5172219156
 40
0.5581303732
 40
0.5996917592
 40
0.6416744065
 40
0.6838421361
 40
0.7259570925
 40
0.767781648
 40
0.8090820348
 40
0.8496282683
 40
0.8891960469
 40
0.9275773509
 40
0.9645806336
 40
1.0
 40
1.0
 40
1.0
 40
1.0
 10
16.4597430329
 20
11.5697400111
 30
0.0
 10
16.4502115118
 20
11.5602681962
 30
0.0
 10
16.4353757308
 20
11.5471329607
 30
0.0
 10
16.414287858
 20
11.5322584548
 30
0.0
 10
16.3986394588
 20
11.5229656477
 30
0.0
 10
16.382845618
 20
11.515319303
 30
0.0
 10
16.3669315034
 20
11.5093346265
 30
0.0
 10
16.3509254046
 20
11.5050229022
 30
0.0
 10
16.3348554966
 20
11.5023958857
 30
0.0
 10
16.318752204
 20
11.5014639898
 30
0.0
 10
16.3026475974
 20
11.5022262051
 30
0.0
 10
16.2865725914
 20
11.5046797272
 30
0.0
 10
16.2705585484
 20
11.5088210243
 30
0.0
 10
16.254633978
 20
11.5146395929
 30
0.0
 10
16.23316078
 20
11.5247981614
 30
0.0
 10
16.2123434936
 20
11.5382187712
 30
0.0
 10
16.1923640794
 20
11.5543607097
 30
0.0
 10
16.1772729889
 20
11.5683112546
 30
0.0
 10
16.1624240375
 20
11.5838247865
 30
0.0
 10
16.147837371
 20
11.60087675
 30
0.0
 10
16.1335354629
 20
11.6194369121
 30
0.0
 10
16.1195415064
 20
11.6394756337
 30
0.0
 10
16.1058797984
 20
11.6609611256
 30
0.0
 10
16.0925706714
 20
11.6838566352
 30
0.0
 10
16.0796355666
 20
11.7081242478
 30
0.0
 10
16.0670972466
 20
11.7337250002
 30
0.0
 10
16.0549760775
 20
11.7606166498
 30
0.0
 10
16.0391575489
 20
11.7987073501
 30
0.0
 10
16.020637981
 20
11.8492873086
 30
0.0
 10
16.0006976478
 20
11.9134750446
 30
0.0
 10
15.9828527038
 20
11.9816199713
 30
0.0
 10
15.9672181875
 20
12.0532704596
 30
0.0
 10
15.9539031325
 20
12.127954397
 30
0.0
 10
15.942991814
 20
12.205176967
 30
0.0
 10
15.9345610989
 20
12.2844268639
 30
0.0
 10
15.9286650483
 20
12.3651786254
 30
0.0
 10
15.9253436127
 20
12.4468965998
 30
0.0
 10
15.9246204349
 20
12.5290387375
 30
0.0
 10
15.9264973049
 20
12.6110598211
 30
0.0
 10
15.9309659074
 20
12.6924158523
 30
0.0
 10
15.9379920017
 20
12.7725672653
 30
0.0
 10
15.9475320057
 20
12.8509807551
 30
0.0
 10
15.9595189061
 20
12.9271370768
 30
0.0
 10
15.9738757478
 20
13.0005376555
 30
0.0
 10
15.9905063305
 20
13.0706865657
 30
0.0
 10
16.0033290693
 20
13.1160362035
 30
0.0
 10
16.0101313221
 20
13.1380483015
 30
0.0
  0
SPLINE
  5
317
100
AcDbEntity
  8
0
100
AcDbSpline
 62
7
  6
CONTINUOUS
 70
0
 71
3
 72
44
 73
40
 74
0
 42
0.0000001
 43
0.0000001
 44
0.0000000001
 40
0.0
 40
0.0
 40
0.0
 40
0.0
 40
0.0076947628
 40
0.015441962
 40
0.0232928089
 40
0.0312961645
 40
0.0394971085
 40
0.0479366358
 40
0.0656640662
 40
0.0750215396
 40
0.0847366387
 40
0.1053062454
 40
0.1161941233
 40
0.1274939222
 40
0.1513467175
 40
0.176886862
 40
0.2040976605
 40
0.2329361686
 40
0.2633359929
 40
0.2952131736
 40
0.3284666175
 40
0.3629831892
 40
0.3986368998
 40
0.4352935219
 40
0.4728093157
 40
0.5110351555
 40
0.5498153675
 40
0.5889912142
 40
0.6284003294
 40
0.667879205
 40
0.7072634147
 40
0.7463893274
 40
0.7850958382
 40
0.8232238726
 40
0.8606178687
 40
0.8971278978
 40
0.9326188959
 40
0.966957997
 40
1.0
 40
1.0
 40
1.0
 40
1.0
 10
16.2903057848
 20
11.4717433568
 30
0.0
 10
16.2855779166
 20
11.4717435944
 30
0.0
 10
16.276084525
 20
11.4721721577
 30
0.0
 10
16.261884596
 20
11.4740954024
 30
0.0
 10
16.2477224487
 20
11.477297867
 30
0.0
 10
16.2336191583
 20
11.4817753315
 30
0.0
 10
16.2195911288
 20
11.4875183693
 30
0.0
 10
16.2007057293
 20
11.4970033509
 30
0.0
 10
16.1823306608
 20
11.5089316391
 30
0.0
 10
16.1645803158
 20
11.522951498
 30
0.0
 10
16.1463697446
 20
11.5391462024
 30
0.0
 10
16.1288832458
 20
11.5574970137
 30
0.0
 10
16.1120957861
 20
11.5777115933
 30
0.0
 10
16.0949728857
 20
11.6002397772
 30
0.0
 10
16.0742399432
 20
11.6312824087
 30
0.0
 10
16.0508550807
 20
11.6721656063
 30
0.0
 10
16.0286406412
 20
11.7171364846
 30
0.0
 10
16.007704604
 20
11.7659778255
 30
0.0
 10
15.9881455505
 20
11.8184547044
 30
0.0
 10
15.9700609262
 20
11.8743135673
 30
0.0
 10
15.9535363784
 20
11.9332829139
 30
0.0
 10
15.9386558619
 20
11.9950761664
 30
0.0
 10
15.9254892538
 20
12.0593917478
 30
0.0
 10
15.9141047651
 20
12.1259159626
 30
0.0
 10
15.9045547793
 20
12.1943235242
 30
0.0
 10
15.8968902076
 20
12.2642800826
 30
0.0
 10
15.8911447205
 20
12.3354432673
 30
0.0
 10
15.8873508708
 20
12.4074649119
 30
0.0
 10
15.8855230814
 20
12.4799925023
 30
0.0
 10
15.8856749953
 20
12.5526709345
 30
0.0
 10
15.8878007434
 20
12.6251444127
 30
0.0
 10
15.891894599
 20
12.6970582433
 30
0.0
 10
15.8979320511
 20
12.7680607707
 30
0.0
 10
15.9058890343
 20
12.837803364
 30
0.0
 10
15.9157190134
 20
12.9059440358
 30
0.0
 10
15.9273784165
 20
12.9721517289
 30
0.0
 10
15.9408086063
 20
13.0361076723
 30
0.0
 10
15.9559479064
 20
13.097488317
 30
0.0
 10
15.9673541563
 20
13.1372997505
 30
0.0
 10
15.9733482362
 20
13.1566966006
 30
0.0
  0
SPLINE
  5
318
100
AcDbEntity
  8
0
100
AcDbSpline
 62
7
  6
CONTINUOUS
 70
0
 71
3
 72
32
 73
28
 74
0
 42
0.0000001
 43
0.0000001
 44
0.0000000001
 40
0.0
 40
0.0
 40
0.0
 40
0.0
 40
0.0154287484
 40
0.031270892
 40
0.0479009581
 40
0.0656293089
 40
0.0846967602
 40
0.1052684819
 40
0.1274527773
 40
0.1513097408
 40
0.1768522738
 40
0.2040661899
 40
0.2329091504
 40
0.2633120069
 40
0.2951930347
 40
0.3284513428
 40
0.3986185513
 40
0.4727895825
 40
0.5497967664
 40
0.5889770388
 40
0.6283915062
 40
0.707259463
 40
0.7850963134
 40
0.8606103186
 40
0.9326252032
 40
0.9669694411
 40
1.0
 40
1.0
 40
1.0
 40
1.0
 10
16.2903055482
 20
12.7610540409
 30
0.0
 10
16.2925884293
 20
12.761054215
 30
0.0
 10
16.2972257594
 20
12.7606327962
 30
0.0
 10
16.3040917941
 20
12.7587466887
 30
0.0
 10
16.3108674732
 20
12.7556313974
 30
0.0
 10
16.3175184346
 20
12.7513147722
 30
0.0
 10
16.3240158167
 20
12.7458228837
 30
0.0
 10
16.330337124
 20
12.7391900168
 30
0.0
 10
16.3364554867
 20
12.7314472606
 30
0.0
 10
16.3423427822
 20
12.7226307951
 30
0.0
 10
16.3479757904
 20
12.7127844136
 30
0.0
 10
16.353325949
 20
12.7019535133
 30
0.0
 10
16.3583676109
 20
12.6901900665
 30
0.0
 10
16.3630789391
 20
12.6775515917
 30
0.0
 10
16.3674345174
 20
12.6640981978
 30
0.0
 10
16.3728367157
 20
12.6448159441
 30
0.0
 10
16.3785036387
 20
12.6191326944
 30
0.0
 10
16.3834941222
 20
12.5867449632
 30
0.0
 10
16.3861411977
 20
12.5586868937
 30
0.0
 10
16.3873539541
 20
12.535693178
 30
0.0
 10
16.3879405893
 20
12.5123994041
 30
0.0
 10
16.3874895188
 20
12.4833689852
 30
0.0
 10
16.3850698148
 20
12.4490769178
 30
0.0
 10
16.3808353961
 20
12.4159825428
 30
0.0
 10
16.3757755199
 20
12.3895298868
 30
0.0
 10
16.3708325772
 20
12.3695026874
 30
0.0
 10
16.3680854885
 20
12.3599165215
 30
0.0
 10
16.3666425279
 20
12.3552470983
 30
0.0
  0
SPLINE
  5
319
100
AcDbEntity
  8
0
100
AcDbSpline
 62
7
  6
CONTINUOUS
 70
0
 71
3
 72
35
 73
31
 74
0
 42
0.0000001
 43
0.0000001
 44
0.0000000001
 40
0.0
 40
0.0
 40
0.0
 40
0.0
 40
0.0939242648
 40
0.1828259458
 40
0.2252748437
 40
0.266347788
 40
0.3060239792
 40
0.3442877133
 40
0.3811311684
 40
0.4165533476
 40
0.4505604861
 40
0.4831705184
 40
0.5144162208
 40
0.5443419385
 40
0.6004515437
 40
0.6268396392
 40
0.6522503333
 40
0.676816507
 40
0.700692582
 40
0.7240500371
 40
0.7470747844
 40
0.7699637879
 40
0.7929180894
 40
0.8161363914
 40
0.8398099163
 40
0.8641155974
 40
0.8892127584
 40
0.9422886417
 40
0.9705264944
 40
1.0
 40
1.0
 40
1.0
 40
1.0
 10
16.0101313221
 20
13.1380483015
 30
0.0
 10
16.0164302154
 20
13.158431528
 30
0.0
 10
16.0295816973
 20
13.1978405485
 30
0.0
 10
16.0482255442
 20
13.245521754
 30
0.0
 10
16.0640661193
 20
13.2813459503
 30
0.0
 10
16.0761614619
 20
13.3065858361
 30
0.0
 10
16.0886363086
 20
13.3305741572
 30
0.0
 10
16.1014735002
 20
13.3532737628
 30
0.0
 10
16.1146519515
 20
13.3746504873
 30
0.0
 10
16.1281504951
 20
13.3946713898
 30
0.0
 10
16.1419493518
 20
13.4133041115
 30
0.0
 10
16.1560277922
 20
13.4305179232
 30
0.0
 10
16.1703647573
 20
13.4462893504
 30
0.0
 10
16.1893827074
 20
13.4649556447
 30
0.0
 10
16.2092332777
 20
13.4811694555
 30
0.0
 10
16.2298528357
 20
13.4944599469
 30
0.0
 10
16.245152108
 20
13.5026767351
 30
0.0
 10
16.2605768043
 20
13.5093264771
 30
0.0
 10
16.276101996
 20
13.514398637
 30
0.0
 10
16.2917019561
 20
13.5178827646
 30
0.0
 10
16.3073501845
 20
13.5197677489
 30
0.0
 10
16.323017876
 20
13.5200483793
 30
0.0
 10
16.3386760657
 20
13.5187270177
 30
0.0
 10
16.3542966391
 20
13.5158064146
 30
0.0
 10
16.3698508825
 20
13.5112906111
 30
0.0
 10
16.3853137809
 20
13.5051920685
 30
0.0
 10
16.4061593248
 20
13.4947789698
 30
0.0
 10
16.4263593509
 20
13.4813032338
 30
0.0
 10
16.4457628401
 20
13.4652647697
 30
0.0
 10
16.4553203263
 20
13.4562766297
 30
0.0
 10
16.4600632224
 20
13.4515517838
 30
0.0
  0
SPLINE
  5
31A
100
AcDbEntity
  8
0
100
AcDbSpline
 62
7
  6
CONTINUOUS
 70
0
 71
3
 72
9
 73
5
 74
0
 42
0.0000001
 43
0.0000001
 44
0.0000000001
 40
0.0
 40
0.0
 40
0.0
 40
0.0
 40
0.2433054925
 40
1.0
 40
1.0
 40
1.0
 40
1.0
 10
16.4600632224
 20
13.4515517838
 30
0.0
 10
16.4621101184
 20
13.4495126778
 30
0.0
 10
16.4704185452
 20
13.4410272947
 30
0.0
 10
16.4783151078
 20
13.4321414932
 30
0.0
 10
16.48407301
 20
13.425242958
 30
0.0
  0
SPLINE
  5
31B
100
AcDbEntity
  8
0
100
AcDbSpline
 62
7
  6
CONTINUOUS
 70
0
 71
3
 72
26
 73
22
 74
0
 42
0.0000001
 43
0.0000001
 44
0.0000000001
 40
0.0
 40
0.0
 40
0.0
 40
0.0
 40
0.0937777326
 40
0.1823046554
 40
0.2651470038
 40
0.3420691367
 40
0.4129976411
 40
0.4780164155
 40
0.5374167322
 40
0.591739589
 40
0.6418786403
 40
0.6657830162
 40
0.6891389633
 40
0.7121548056
 40
0.7350487409
 40
0.7580428358
 40
0.7813568076
 40
0.8297051301
 40
0.8815947912
 40
0.9381194347
 40
1.0
 40
1.0
 40
1.0
 40
1.0
 10
16.4034256137
 20
12.3365987993
 30
0.0
 10
16.4015881882
 20
12.3306528874
 30
0.0
 10
16.3977423602
 20
12.3191757884
 30
0.0
 10
16.3912641301
 20
12.3028060531
 30
0.0
 10
16.3842764685
 20
12.2878709283
 30
0.0
 10
16.3768301104
 20
12.2744780626
 30
0.0
 10
16.3689718817
 20
12.26271659
 30
0.0
 10
16.3607475495
 20
12.2526650646
 30
0.0
 10
16.352207759
 20
12.244386524
 30
0.0
 10
16.3433944981
 20
12.2379488782
 30
0.0
 10
16.3357358165
 20
12.2341039995
 30
0.0
 10
16.3295891876
 20
12.2320737126
 30
0.0
 10
16.3250271567
 20
12.2310649996
 30
0.0
 10
16.3204509513
 20
12.2305481797
 30
0.0
 10
16.3158696028
 20
12.2305239816
 30
0.0
 10
16.3112921999
 20
12.2309929736
 30
0.0
 10
16.3051355472
 20
12.2322901007
 30
0.0
 10
16.2974167163
 20
12.235218677
 30
0.0
 10
16.2884722435
 20
12.2406218143
 30
0.0
 10
16.2797780889
 20
12.2478984059
 30
0.0
 10
16.2744289746
 20
12.2536820736
 30
0.0
 10
16.2717972129
 20
12.2568344815
 30
0.0
  0
SPLINE
  5
31C
100
AcDbEntity
  8
AXIS
100
AcDbSpline
 62
7
  6
CONTINUOUS
 70
0
 71
3
 72
46
 73
42
 74
0
 42
0.0000001
 43
0.0000001
 44
0.0000000001
 40
0.0
 40
0.0
 40
0.0
 40
0.0
 40
0.0329781516
 40
0.0672419467
 40
0.1026511936
 40
0.1390777316
 40
0.176384924
 40
0.2144237663
 40
0.2530409378
 40
0.2920799187
 40
0.3313805982
 40
0.3707809778
 40
0.4101183757
 40
0.4492306065
 40
0.4879570592
 40
0.5261399411
 40
0.5636252839
 40
0.6002646992
 40
0.6359156961
 40
0.6704445963
 40
0.703726027
 40
0.7356470102
 40
0.7661064476
 40
0.7950196615
 40
0.822319582
 40
0.8479610643
 40
0.860154808
 40
0.8719296578
 40
0.8832879533
 40
0.8942349741
 40
0.9047789544
 40
0.9149306619
 40
0.924704045
 40
0.9341173668
 40
0.9519460236
 40
0.9604277598
 40
0.9686635651
 40
0.9766931287
 40
0.9845602106
 40
0.992312429
 40
1.0
 40
1.0
 40
1.0
 40
1.0
 10
15.576740762
 20
13.1824545636
 30
0.0
 10
15.5705313902
 20
13.162361029
 30
0.0
 10
15.5587137746
 20
13.1211261717
 30
0.0
 10
15.5430224655
 20
13.0575575616
 30
0.0
 10
15.5290918052
 20
12.9913312374
 30
0.0
 10
15.5169885357
 20
12.9227763633
 30
0.0
 10
15.506770726
 20
12.852221035
 30
0.0
 10
15.4984889389
 20
12.7800066287
 30
0.0
 10
15.4921830627
 20
12.706484835
 30
0.0
 10
15.4878854772
 20
12.6320126259
 30
0.0
 10
15.4856146618
 20
12.556951568
 30
0.0
 10
15.4853847157
 20
12.4816662804
 30
0.0
 10
15.4871938301
 20
12.4065225558
 30
0.0
 10
15.4910356955
 20
12.3318854833
 30
0.0
 10
15.496889626
 20
12.2581175016
 30
0.0
 10
15.5047280213
 20
12.1855769537
 30
0.0
 10
15.5145125483
 20
12.1146159487
 30
0.0
 10
15.5261943424
 20
12.0455787944
 30
0.0
 10
15.5397183616
 20
11.9788004141
 30
0.0
 10
15.5550157779
 20
11.9146040235
 30
0.0
 10
15.5720153332
 20
11.853300712
 30
0.0
 10
15.5906309247
 20
11.7951859136
 30
0.0
 10
15.6107753172
 20
11.7405404406
 30
0.0
 10
15.6323491723
 20
11.6896254683
 30
0.0
 10
15.6552499761
 20
11.6426869267
 30
0.0
 10
15.6756796177
 20
11.6064829955
 30
0.0
 10
15.6926445246
 20
11.5797713395
 30
0.0
 10
15.7054148654
 20
11.5612046762
 30
0.0
 10
15.7184308594
 20
11.5437918508
 30
0.0
 10
15.7316770843
 20
11.5275537581
 30
0.0
 10
15.745137212
 20
11.5125090836
 30
0.0
 10
15.7587952162
 20
11.4986766358
 30
0.0
 10
15.7726380163
 20
11.4860734156
 30
0.0
 10
15.7909799117
 20
11.4712013124
 30
0.0
 10
15.809971037
 20
11.4584720348
 30
0.0
 10
15.8295057373
 20
11.4482488281
 30
0.0
 10
15.8440162723
 20
11.4420012772
 30
0.0
 10
15.858608554
 20
11.4370576076
 30
0.0
 10
15.8732658876
 20
11.4334274024
 30
0.0
 10
15.8879668926
 20
11.4311158121
 30
0.0
 10
15.8978065747
 20
11.4304543733
 30
0.0
 10
15.9027079445
 20
11.4303455689
 30
0.0
  0
SPLINE
  5
31D
100
AcDbEntity
  8
0
100
AcDbSpline
 62
7
  6
CONTINUOUS
 70
0
 71
3
 72
21
 73
17
 74
0
 42
0.0000001
 43
0.0000001
 44
0.0000000001
 40
0.0
 40
0.0
 40
0.0
 40
0.0
 40
0.1725856583
 40
0.3316311456
 40
0.4057058416
 40
0.4760508302
 40
0.5426445146
 40
0.6055082852
 40
0.6647268604
 40
0.7204415249
 40
0.7728632376
 40
0.8223042474
 40
0.8691784705
 40
0.9139960338
 40
0.9573695806
 40
1.0
 40
1.0
 40
1.0
 40
1.0
 10
16.3666425279
 20
12.3552470983
 30
0.0
 10
16.364453973
 20
12.3481649335
 30
0.0
 10
16.3598230567
 20
12.334682108
 30
0.0
 10
16.3529397816
 20
12.3186502491
 30
0.0
 10
16.3469771743
 20
12.3070549521
 30
0.0
 10
16.3424330801
 20
12.2992084644
 30
0.0
 10
16.3377245708
 20
12.292028095
 30
0.0
 10
16.332864685
 20
12.285536085
 30
0.0
 10
16.3278688386
 20
12.2797513755
 30
0.0
 10
16.322751334
 20
12.274691844
 30
0.0
 10
16.3175245576
 20
12.2703762106
 30
0.0
 10
16.3122033585
 20
12.2668194551
 30
0.0
 10
16.3068040165
 20
12.2640331718
 30
0.0
 10
16.3013416727
 20
12.2620305285
 30
0.0
 10
16.2958357713
 20
12.2608253889
 30
0.0
 10
16.2921365392
 20
12.2605560846
 30
0.0
 10
16.2903055481
 20
12.2605559449
 30
0.0
  0
ENDSEC
  0
SECTION
  2
OBJECTS
  0
DICTIONARY
  5
C
100
AcDbDictionary
280
0
281
1
  3
ACAD_GROUP
350
D
  3
ACAD_MLINESTYLE
350
17
  3
ACAD_LAYOUT
350
1A
  3
ACAD_PLOTSETTINGS
350
19
  3
ACAD_PLOTSTYLENAME
350
E
  0
DICTIONARY
  5
D
102
{ACAD_REACTORS
330
C
102
}
100
AcDbDictionary
280
0
281
1
  0
ACDBDICTIONARYWDFLT
  5
E
102
{ACAD_REACTORS
330
C
102
}
100
AcDbDictionary
281
1
  3
Normal
350
F
100
AcDbDictionaryWithDefault
340
F
  0
DICTIONARY
  5
17
102
{ACAD_REACTORS
330
C
102
}
100
AcDbDictionary
280
0
281
1
  3
Standard
350
18
  0
DICTIONARY
  5
19
102
{ACAD_REACTORS
330
C
102
}
100
AcDbDictionary
281
1
  0
DICTIONARY
  5
1A
102
{ACAD_REACTORS
330
C
102
}
100
AcDbDictionary
281
1
  3
Model
350
31E
  3
Layout1
350
31F
  0
ACDBPLACEHOLDER
  5
F
102
{ACAD_REACTORS
330
E
102
}
  0
MLINESTYLE
  5
18
102
{ACAD_REACTORS
330
17
102
}
100
AcDbMlineStyle
  2
STANDARD
 70
0
  3

 62
256
 51
90.0
 52
90.0
 71
2
 49
0.5
 62
256
  6
BYLAYER
 49
-0.5
 62
256
  6
BYLAYER
  0
LAYOUT
  5
31E
102
{ACAD_REACTORS
330
1A
102
}
100
AcDbPlotSettings
  1

  2
none_device
  4
ANSI_C_(22.00_x_17.00_Inches)
  6

 40
0.0
 41
0.0
 42
0.0
 43
0.0
 44
558.8
 45
431.8
 46
0.0
 47
0.0
 48
0.0
 49
0.0
140
0.0
141
0.0
142
1.0
143
1.0
 70
1024
 72
0
 73
0
 74
0
  7

 75
0
147
1.0
148
0.0
149
0.0
100
AcDbLayout
  1
Model
 70
0
 71
0
 10
0.0
 20
0.0
 11
22.0
 21
17.0
 12
0.0
 22
0.0
 32
0.0
 14
0.0
 24
0.0
 34
0.0
 15
0.0
 25
0.0
 35
0.0
146
0.0
 13
0.0
 23
0.0
 33
0.0
 16
1.0
 26
0.0
 36
0.0
 17
0.0
 27
1.0
 37
0.0
 76
0
330
224
345
0
346
0
  0
LAYOUT
  5
31F
102
{ACAD_REACTORS
330
1A
102
}
100
AcDbPlotSettings
  1

  2
none_device
  4
ANSI_C_(22.00_x_17.00_Inches)
  6

 40
0.0
 41
0.0
 42
0.0
 43
0.0
 44
558.8
 45
431.8
 46
0.0
 47
0.0
 48
0.0
 49
0.0
140
0.0
141
0.0
142
1.0
143
1.0
 70
0
 72
0
 73
0
 74
0
  7

 75
0
147
1.0
148
0.0
149
0.0
100
AcDbLayout
  1
Layout1
 70
0
 71
1
 10
0.0
 20
0.0
 11
22.0
 21
17.0
 12
0.0
 22
0.0
 32
0.0
 14
0.0
 24
0.0
 34
0.0
 15
0.0
 25
0.0
 35
0.0
146
0.0
 13
0.0
 23
0.0
 33
0.0
 16
1.0
 26
0.0
 36
0.0
 17
0.0
 27
1.0
 37
0.0
 76
0
330
225
345
0
346
0
  0
ENDSEC
  0
EOF