999
DXF file: _cgs_temp_output.dxf
999
Pro/ENGINEER 2016360 by Parametric Technology Corporation
  0
SECTION
  2
HEADER
  9
$ACADVER
  1
AC1021
  9
$DWGCODEPAGE
  3
ANSI_1252
  9
$EXTMAX
 10
22.0
 20
17.0
 30
0.0
  9
$EXTMIN
 10
0.0
 20
0.0
 30
0.0
  9
$LIMMIN
 10
0.0
 20
0.0
  9
$LIMMAX
 10
22.0
 20
17.0
  9
$VIEWCTR
 10
11.0
 20
8.5
  9
$VIEWSIZE
 40
17.0
  9
$CLAYER
  8
0
  9
$LTSCALE
 40
1.21
  9
$CELTYPE
  6
BYLAYER
  9
$DIMSCALE
 40
1.0
  9
$DIMASZ
 40
0.1875
  9
$DIMEXO
 40
0.0625
  9
$DIMDLI
 40
0.836
  9
$DIMEXE
 40
0.125
  9
$DIMCEN
 40
0.198
  9
$DIMLFAC
 40
1.0
  9
$DIMBLK
  1
_CLOSED
  9
$DIMALT
 70
0
  9
$DIMALTF
 40
25.4
  9
$DIMTXT
 40
0.15625
  9
$DIMTOL
 70
0
  9
$DIMLIM
 70
0
  9
$DIMTFAC
 40
1.0
  9
$DIMGAP
 40
0.09
  9
$DIMDSEP
 70
46
  9
$AUNITS
 70
0
  9
$PDMODE
 70
3
  9
$PDSIZE
 40
0.3125
  9
$HANDSEED
  5
31D
  9
$TILEMODE
 70
1
  9
$MEASUREMENT
 70
0
  9
$INSUNITS
 70
1
  0
ENDSEC
  0
SECTION
  2
CLASSES
  0
CLASS
  1
ACDBDICTIONARYWDFLT
  2
AcDbDictionaryWithDefault
  3
AutoCAD 2000
 90
0
 91
1
280
0
281
0
  0
CLASS
  1
ACDBPLACEHOLDER
  2
AcDbPlaceHolder
  3
AutoCAD 2000
 90
0
 91
1
280
0
281
0
  0
CLASS
  1
LAYOUT
  2
AcDbLayout
  3
AutoCAD 2000
 90
0
 91
0
280
0
281
0
  0
ENDSEC
  0
SECTION
  2
TABLES
  0
TABLE
  2
VPORT
  5
8
100
AcDbSymbolTable
 70
2
  0
VPORT
  5
1F4
100
AcDbSymbolTableRecord
100
AcDbViewportTableRecord
  2
*ACTIVE
 70
0
 10
0.0
 20
0.0
 11
1.0
 21
1.0
 12
11.0
 22
8.5
 13
0.0
 23
0.0
 14
1.0
 24
1.0
 15
0.0
 25
0.0
 16
0.0
 26
0.0
 36
1.0
 17
0.0
 27
0.0
 37
0.0
 40
17.0
 41
1.2941176471
 42
50.0
 43
0.0
 44
0.0
 50
0.0
 51
0.0
 71
0
 72
100
 73
1
 74
1
 75
0
 76
0
 77
0
 78
0
  0
ENDTAB
  0
TABLE
  2
LTYPE
  5
5
100
AcDbSymbolTable
 70
6
  0
LTYPE
  5
14
100
AcDbSymbolTableRecord
100
AcDbLinetypeTableRecord
  2
BYBLOCK
 70
0
  3

 72
65
 73
0
 40
0.0
  0
LTYPE
  5
15
100
AcDbSymbolTableRecord
100
AcDbLinetypeTableRecord
  2
BYLAYER
 70
0
  3

 72
65
 73
0
 40
0.0
  0
LTYPE
  5
16
100
AcDbSymbolTableRecord
100
AcDbLinetypeTableRecord
  2
CONTINUOUS
 70
64
  3
Solid line
 72
65
 73
0
 40
0.0
  0
LTYPE
  5
1F5
100
AcDbSymbolTableRecord
100
AcDbLinetypeTableRecord
  2
CENTER
 70
64
  3
____ _ ____ _ ____ _ ____ _ ____ _ ____ _ ____
 72
65
 73
4
 40
0.6
 49
0.375
 74
0
 49
-0.075
 74
0
 49
0.075
 74
0
 49
-0.075
 74
0
  0
LTYPE
  5
1F6
100
AcDbSymbolTableRecord
100
AcDbLinetypeTableRecord
  2
HIDDEN
 70
64
  3
- - - - - - - - - - - - - - - - - - - -
 72
65
 73
2
 40
0.2
 49
0.1
 74
0
 49
-0.1
 74
0
  0
LTYPE
  5
1F7
100
AcDbSymbolTableRecord
100
AcDbLinetypeTableRecord
  2
PHANTOM
 70
64
  3
_____ _ _ _____ _ _ _____ _ _ _____
 72
65
 73
6
 40
0.8
 49
0.45
 74
0
 49
-0.05
 74
0
 49
0.1
 74
0
 49
-0.05
 74
0
 49
0.1
 74
0
 49
-0.05
 74
0
  0
LTYPE
  5
1F8
100
AcDbSymbolTableRecord
100
AcDbLinetypeTableRecord
  2
DOT
 70
64
  3
. . . . . . . . . . . . . . . . . . . .
 72
65
 73
2
 40
0.2
 49
0.1
 74
0
 49
-0.1
 74
0
  0
LTYPE
  5
1F9
100
AcDbSymbolTableRecord
100
AcDbLinetypeTableRecord
  2
DASHED
 70
64
  3
- - - - - - - - - - - - - - - - - - - -
 72
65
 73
2
 40
0.2
 49
0.1
 74
0
 49
-0.1
 74
0
  0
ENDTAB
  0
TABLE
  2
LAYER
  5
2
100
AcDbSymbolTable
 70
36
  0
LAYER
  5
10
100
AcDbSymbolTableRecord
100
AcDbLayerTableRecord
  2
0
 70
0
 62
7
  6
CONTINUOUS
370
-3
390
F
  0
LAYER
  5
1FA
100
AcDbSymbolTableRecord
100
AcDbLayerTableRecord
  2
DEFAULT_1
 70
0
 62
7
  6
CENTER
370
-3
390
F
  0
LAYER
  5
1FB
100
AcDbSymbolTableRecord
100
AcDbLayerTableRecord
  2
DEFAULT_2
 70
0
 62
8
  6
HIDDEN
370
-3
390
F
  0
LAYER
  5
1FC
100
AcDbSymbolTableRecord
100
AcDbLayerTableRecord
  2
DEFAULT_3
 70
0
 62
7
  6
PHANTOM
370
-3
390
F
  0
LAYER
  5
1FD
100
AcDbSymbolTableRecord
100
AcDbLayerTableRecord
  2
01_ALL_DTM_PLN
 70
0
 62
7
  6
CONTINUOUS
370
-3
390
F
  0
LAYER
  5
1FE
100
AcDbSymbolTableRecord
100
AcDbLayerTableRecord
  2
01__ASM_ALL_DTM_PLN
 70
0
 62
7
  6
CONTINUOUS
370
-3
390
F
  0
LAYER
  5
1FF
100
AcDbSymbolTableRecord
100
AcDbLayerTableRecord
  2
01__ASM_DEF_DTM_PLN
 70
0
 62
7
  6
CONTINUOUS
370
-3
390
F
  0
LAYER
  5
200
100
AcDbSymbolTableRecord
100
AcDbLayerTableRecord
  2
01___PRT_ALL_DTM_PLN
 70
0
 62
7
  6
CONTINUOUS
370
-3
390
F
  0
LAYER
  5
201
100
AcDbSymbolTableRecord
100
AcDbLayerTableRecord
  2
01___PRT_DEF_DTM_PLN
 70
0
 62
7
  6
CONTINUOUS
370
-3
390
F
  0
LAYER
  5
202
100
AcDbSymbolTableRecord
100
AcDbLayerTableRecord
  2
02_ALL_AXES
 70
0
 62
7
  6
CONTINUOUS
370
-3
390
F
  0
LAYER
  5
203
100
AcDbSymbolTableRecord
100
AcDbLayerTableRecord
  2
02__ASM_ALL_AXES
 70
0
 62
7
  6
CONTINUOUS
370
-3
390
F
  0
LAYER
  5
204
100
AcDbSymbolTableRecord
100
AcDbLayerTableRecord
  2
02___PRT_ALL_AXES
 70
0
 62
7
  6
CONTINUOUS
370
-3
390
F
  0
LAYER
  5
205
100
AcDbSymbolTableRecord
100
AcDbLayerTableRecord
  2
03_ALL_CURVES
 70
0
 62
7
  6
CONTINUOUS
370
-3
390
F
  0
LAYER
  5
206
100
AcDbSymbolTableRecord
100
AcDbLayerTableRecord
  2
03__ASM_ALL_CURVES
 70
0
 62
7
  6
CONTINUOUS
370
-3
390
F
  0
LAYER
  5
207
100
AcDbSymbolTableRecord
100
AcDbLayerTableRecord
  2
03___PRT_ALL_CURVES
 70
0
 62
7
  6
CONTINUOUS
370
-3
390
F
  0
LAYER
  5
208
100
AcDbSymbolTableRecord
100
AcDbLayerTableRecord
  2
04_ALL_DTM_PNT
 70
0
 62
7
  6
CONTINUOUS
370
-3
390
F
  0
LAYER
  5
209
100
AcDbSymbolTableRecord
100
AcDbLayerTableRecord
  2
04__ASM_ALL_DTM_PNT
 70
0
 62
7
  6
CONTINUOUS
370
-3
390
F
  0
LAYER
  5
20A
100
AcDbSymbolTableRecord
100
AcDbLayerTableRecord
  2
04___PRT_ALL_DTM_PNT
 70
0
 62
7
  6
CONTINUOUS
370
-3
390
F
  0
LAYER
  5
20B
100
AcDbSymbolTableRecord
100
AcDbLayerTableRecord
  2
05_ALL_DTM_CSYS
 70
0
 62
7
  6
CONTINUOUS
370
-3
390
F
  0
LAYER
  5
20C
100
AcDbSymbolTableRecord
100
AcDbLayerTableRecord
  2
05__ASM_ALL_DTM_CSYS
 70
0
 62
7
  6
CONTINUOUS
370
-3
390
F
  0
LAYER
  5
20D
100
AcDbSymbolTableRecord
100
AcDbLayerTableRecord
  2
05__ASM_DEF_DTM_CSYS
 70
0
 62
7
  6
CONTINUOUS
370
-3
390
F
  0
LAYER
  5
20E
100
AcDbSymbolTableRecord
100
AcDbLayerTableRecord
  2
05___PRT_ALL_DTM_CSYS
 70
0
 62
7
  6
CONTINUOUS
370
-3
390
F
  0
LAYER
  5
20F
100
AcDbSymbolTableRecord
100
AcDbLayerTableRecord
  2
05___PRT_DEF_DTM_CSYS
 70
0
 62
7
  6
CONTINUOUS
370
-3
390
F
  0
LAYER
  5
210
100
AcDbSymbolTableRecord
100
AcDbLayerTableRecord
  2
06_ALL_SURFS
 70
0
 62
7
  6
CONTINUOUS
370
-3
390
F
  0
LAYER
  5
211
100
AcDbSymbolTableRecord
100
AcDbLayerTableRecord
  2
06__ASM_ALL_SURFS
 70
0
 62
7
  6
CONTINUOUS
370
-3
390
F
  0
LAYER
  5
212
100
AcDbSymbolTableRecord
100
AcDbLayerTableRecord
  2
06___PRT_ALL_SURFS
 70
0
 62
7
  6
CONTINUOUS
370
-3
390
F
  0
LAYER
  5
213
100
AcDbSymbolTableRecord
100
AcDbLayerTableRecord
  2
07__ASM_ALL_SKELETONS
 70
0
 62
7
  6
CONTINUOUS
370
-3
390
F
  0
LAYER
  5
214
100
AcDbSymbolTableRecord
100
AcDbLayerTableRecord
  2
ANNOTATIONS
 70
0
 62
7
  6
CONTINUOUS
370
-3
390
F
  0
LAYER
  5
215
100
AcDbSymbolTableRecord
100
AcDbLayerTableRecord
  2
ASM_DATUMS
 70
0
 62
7
  6
CONTINUOUS
370
-3
390
F
  0
LAYER
  5
216
100
AcDbSymbolTableRecord
100
AcDbLayerTableRecord
  2
ASM_DEF_DATUMS
 70
0
 62
7
  6
CONTINUOUS
370
-3
390
F
  0
LAYER
  5
217
100
AcDbSymbolTableRecord
100
AcDbLayerTableRecord
  2
AXIS
 70
0
 62
7
  6
CONTINUOUS
370
-3
390
F
  0
LAYER
  5
218
100
AcDbSymbolTableRecord
100
AcDbLayerTableRecord
  2
CSYS
 70
0
 62
7
  6
CONTINUOUS
370
-3
390
F
  0
LAYER
  5
219
100
AcDbSymbolTableRecord
100
AcDbLayerTableRecord
  2
CURVES
 70
0
 62
7
  6
CONTINUOUS
370
-3
390
F
  0
LAYER
  5
21A
100
AcDbSymbolTableRecord
100
AcDbLayerTableRecord
  2
DATUMS
 70
0
 62
7
  6
CONTINUOUS
370
-3
390
F
  0
LAYER
  5
21B
100
AcDbSymbolTableRecord
100
AcDbLayerTableRecord
  2
DEF_CSYS
 70
0
 62
7
  6
CONTINUOUS
370
-3
390
F
  0
LAYER
  5
21C
100
AcDbSymbolTableRecord
100
AcDbLayerTableRecord
  2
DEF_DATUMS
 70
0
 62
7
  6
CONTINUOUS
370
-3
390
F
  0
LAYER
  5
21D
100
AcDbSymbolTableRecord
100
AcDbLayerTableRecord
  2
GTOL
 70
0
 62
7
  6
CONTINUOUS
370
-3
390
F
  0
LAYER
  5
21E
100
AcDbSymbolTableRecord
100
AcDbLayerTableRecord
  2
POINTS
 70
0
 62
7
  6
CONTINUOUS
370
-3
390
F
  0
LAYER
  5
21F
100
AcDbSymbolTableRecord
100
AcDbLayerTableRecord
  2
SKELETONS
 70
0
 62
7
  6
CONTINUOUS
370
-3
390
F
  0
LAYER
  5
220
100
AcDbSymbolTableRecord
100
AcDbLayerTableRecord
  2
SURFACES
 70
0
 62
7
  6
CONTINUOUS
370
-3
390
F
  0
LAYER
  5
221
100
AcDbSymbolTableRecord
100
AcDbLayerTableRecord
  2
XSEC_DATUMS
 70
0
 62
7
  6
CONTINUOUS
370
-3
390
F
  0
ENDTAB
  0
TABLE
  2
STYLE
  5
3
100
AcDbSymbolTable
 70
1
  0
STYLE
  5
11
100
AcDbSymbolTableRecord
100
AcDbTextStyleTableRecord
  2
STANDARD
 70
0
 40
0.0
 41
0.8
 50
0.0
 71
0
 42
0.2
  3
txt
  4

  0
STYLE
  5
222
100
AcDbSymbolTableRecord
100
AcDbTextStyleTableRecord
  2
TEXTSTYLE_1
 70
0
 40
0.0
 41
0.8
 50
0.0
 71
0
 42
0.2
  3
gdt
  4

  0
ENDTAB
  0
TABLE
  2
VIEW
  5
6
100
AcDbSymbolTable
 70
0
  0
ENDTAB
  0
TABLE
  2
UCS
  5
7
100
AcDbSymbolTable
 70
0
  0
ENDTAB
  0
TABLE
  2
APPID
  5
9
100
AcDbSymbolTable
 70
1
  0
APPID
  5
223
100
AcDbSymbolTableRecord
100
AcDbRegAppTableRecord
  2
ACAD
 70
0
  0
ENDTAB
  0
TABLE
  2
BLOCK_RECORD
  5
1
100
AcDbSymbolTable
 70
0
  0
BLOCK_RECORD
  5
224
100
AcDbSymbolTableRecord
100
AcDbBlockTableRecord
  2
*Model_Space
  0
BLOCK_RECORD
  5
225
100
AcDbSymbolTableRecord
100
AcDbBlockTableRecord
  2
*Paper_Space
  0
ENDTAB
  0
TABLE
  2
DIMSTYLE
  5
A
100
AcDbSymbolTable
 70
1
100
AcDbDimStyleTable
 71
0
  0
DIMSTYLE
105
226
100
AcDbSymbolTableRecord
100
AcDbDimStyleTableRecord
  2
STANDARD
 70
0
  3

  4

 40
1.0
 41
0.1875
 42
0.0625
 43
0.38
 44
0.125
 45
0.0
 46
0.0
 47
0.0001
 48
0.0001
140
0.15625
141
0.09
142
0.0
143
25.4
144
1.0
145
0.0
146
1.0
147
0.09
 71
0.0
 72
0.0
 73
1
 74
1
 75
0
 76
0
 77
0
 78
4
 79
1
170
0
171
3
172
0
173
0
174
0
175
0
176
0
177
0
178
0
270
2
179
4
271
4
272
4
273
2
274
2
275
0
280
0
281
0
282
0
283
1
284
4
285
0
286
0
287
3
288
0
340
11
278
46
  0
ENDTAB
  0
ENDSEC
  0
SECTION
  2
BLOCKS
  0
BLOCK
  5
20
100
AcDbEntity
  8
0
100
AcDbBlockBegin
  2
*Model_Space
 70
0
 10
0.0
 20
0.0
 30
0.0
  3
*Model_Space
  1

  0
ENDBLK
  5
21
100
AcDbEntity
  8
0
100
AcDbBlockEnd
  0
BLOCK
  5
1C
100
AcDbEntity
  8
0
100
AcDbBlockBegin
  2
*Paper_Space
 70
0
 10
0.0
 20
0.0
 30
0.0
  3
*Paper_Space
  1

  0
ENDBLK
  5
1D
100
AcDbEntity
  8
0
100
AcDbBlockEnd
  0
ENDSEC
  0
SECTION
  2
ENTITIES
  0
MTEXT
  5
227
100
AcDbEntity
  8
0
100
AcDbMText
 62
7
  6
CONTINUOUS
  7
STANDARD
 71
1
 72
1
 10
15.9560215477
 20
0.9479130325
 30
0.0
 11
1.0
 21
0.0
 31
0.0
 44
0.9
  1
SCALE: 1:1.000
 40
0.3
 41
3.36
  0
LINE
  5
228
100
AcDbEntity
  8
0
100
AcDbLine
 62
7
  6
CONTINUOUS
 10
0.0
 20
0.0
 11
0.0
 21
17.0
  0
LINE
  5
229
100
AcDbEntity
  8
0
100
AcDbLine
 62
7
  6
CONTINUOUS
 10
0.0
 20
0.0
 11
22.0
 21
0.0
  0
LINE
  5
22A
100
AcDbEntity
  8
0
100
AcDbLine
 62
7
  6
CONTINUOUS
 10
0.0
 20
17.0
 11
22.0
 21
17.0
  0
LINE
  5
22B
100
AcDbEntity
  8
0
100
AcDbLine
 62
7
  6
CONTINUOUS
 10
22.0
 20
0.0
 11
22.0
 21
17.0
  0
LINE
  5
22C
100
AcDbEntity
  8
02___PRT_ALL_AXES
100
AcDbLine
 62
7
  6
CONTINUOUS
 10
4.9951832456
 20
6.9966198968
 11
4.9091158175
 21
6.9703064433
  0
LINE
  5
22D
100
AcDbEntity
  8
02___PRT_ALL_AXES
100
AcDbLine
 62
7
  6
CONTINUOUS
 10
4.9951832456
 20
4.0436198968
 11
4.9091158175
 21
4.0699333502
  0
LINE
  5
22E
100
AcDbEntity
  8
02___PRT_ALL_AXES
100
AcDbLine
 62
7
  6
CONTINUOUS
 10
4.9091158175
 20
6.9703064433
 11
4.9091158175
 21
4.0699333502
  0
LINE
  5
22F
100
AcDbEntity
  8
02___PRT_ALL_AXES
100
AcDbLine
 62
7
  6
CONTINUOUS
 10
4.9951832456
 20
6.9966198968
 11
4.9951832456
 21
4.0436198968
  0
LINE
  5
230
100
AcDbEntity
  8
0
100
AcDbLine
 62
7
  6
CONTINUOUS
 10
5.0341158175
 20
4.3313889255
 11
6.6484908175
 21
4.3313889255
  0
LINE
  5
231
100
AcDbEntity
  8
02___PRT_ALL_AXES
100
AcDbLine
 62
7
  6
CONTINUOUS
 10
5.0341158175
 20
6.8692771918
 11
5.0341158175
 21
4.1709626017
  0
LINE
  5
232
100
AcDbEntity
  8
0
100
AcDbLine
 62
7
  6
CONTINUOUS
 10
5.0341158175
 20
4.4378679045
 11
6.6484908175
 21
4.4378679045
  0
LINE
  5
233
100
AcDbEntity
  8
0
100
AcDbLine
 62
7
  6
CONTINUOUS
 10
7.3216158175
 20
4.4810573968
 11
6.7734908175
 21
4.4810573968
  0
LINE
  5
234
100
AcDbEntity
  8
0
100
AcDbLine
 62
7
  6
CONTINUOUS
 10
5.0341158175
 20
4.610463746
 11
6.6484908175
 21
4.610463746
  0
LINE
  5
235
100
AcDbEntity
  8
02___PRT_ALL_AXES
100
AcDbLine
 62
7
  6
CONTINUOUS
 10
5.0341158175
 20
4.1709626017
 11
4.9951832456
 21
4.0436198968
  0
LINE
  5
236
100
AcDbEntity
  8
0
100
AcDbLine
 62
7
  6
CONTINUOUS
 10
5.0341158175
 20
4.8383316187
 11
6.6484908175
 21
4.8383316187
  0
LINE
  5
237
100
AcDbEntity
  8
02___PRT_ALL_AXES
100
AcDbLine
 62
7
  6
CONTINUOUS
 10
5.0341158175
 20
6.8692771918
 11
4.9951832456
 21
6.9966198968
  0
LINE
  5
238
100
AcDbEntity
  8
02___PRT_ALL_AXES
100
AcDbLine
 62
7
  6
CONTINUOUS
 10
6.6484908175
 20
6.8692771918
 11
6.6874233895
 21
6.9966198968
  0
LINE
  5
239
100
AcDbEntity
  8
02___PRT_ALL_AXES
100
AcDbLine
 62
7
  6
CONTINUOUS
 10
6.6484908175
 20
4.1709626017
 11
6.6874233895
 21
4.0436198968
  0
LINE
  5
23A
100
AcDbEntity
  8
02___PRT_ALL_AXES
100
AcDbLine
 62
7
  6
CONTINUOUS
 10
6.6484908175
 20
4.1709626017
 11
6.6484908175
 21
6.8692771918
  0
LINE
  5
23B
100
AcDbEntity
  8
02___PRT_ALL_AXES
100
AcDbLine
 62
7
  6
CONTINUOUS
 10
6.6874233895
 20
4.0436198968
 11
6.6874233895
 21
6.9966198968
  0
LINE
  5
23C
100
AcDbEntity
  8
02___PRT_ALL_AXES
100
AcDbLine
 62
7
  6
CONTINUOUS
 10
6.7734908175
 20
4.0699333502
 11
6.7734908175
 21
6.9703064433
  0
LINE
  5
23D
100
AcDbEntity
  8
0
100
AcDbLine
 62
7
  6
CONTINUOUS
 10
6.6484908175
 20
6.0716092102
 11
5.0341158175
 21
6.0716092102
  0
LINE
  5
23E
100
AcDbEntity
  8
0
100
AcDbLine
 62
7
  6
CONTINUOUS
 10
6.6484908175
 20
6.321928049
 11
5.0341158175
 21
6.321928049
  0
LINE
  5
23F
100
AcDbEntity
  8
0
100
AcDbLine
 62
7
  6
CONTINUOUS
 10
6.6484908175
 20
6.523751343
 11
5.0341158175
 21
6.523751343
  0
LINE
  5
240
100
AcDbEntity
  8
0
100
AcDbLine
 62
7
  6
CONTINUOUS
 10
7.3216158175
 20
6.5591823968
 11
6.7734908175
 21
6.5591823968
  0
LINE
  5
241
100
AcDbEntity
  8
0
100
AcDbLine
 62
7
  6
CONTINUOUS
 10
6.6484908175
 20
6.6643977925
 11
5.0341158175
 21
6.6643977925
  0
LINE
  5
242
100
AcDbEntity
  8
0
100
AcDbLine
 62
7
  6
CONTINUOUS
 10
7.3216158175
 20
4.4810573968
 11
7.3216158175
 21
6.5591823968
  0
LINE
  5
243
100
AcDbEntity
  8
0
100
AcDbLine
 62
7
  6
CONTINUOUS
 10
7.3516158175
 20
4.5110573968
 11
7.3516158175
 21
6.5291823968
  0
LINE
  5
244
100
AcDbEntity
  8
0
100
AcDbLine
 62
7
  6
CONTINUOUS
 10
6.6484908175
 20
6.7350300638
 11
5.0341158175
 21
6.7350300638
  0
LINE
  5
245
100
AcDbEntity
  8
0
100
AcDbLine
 62
7
  6
CONTINUOUS
 10
7.3216160205
 20
4.4810571938
 11
7.3516160147
 21
4.5110571997
  0
LINE
  5
246
100
AcDbEntity
  8
02___PRT_ALL_AXES
100
AcDbLine
 62
7
  6
CONTINUOUS
 10
6.6874233895
 20
4.0436198968
 11
6.7734908175
 21
4.0699333502
  0
LINE
  5
247
100
AcDbEntity
  8
02___PRT_ALL_AXES
100
AcDbLine
 62
7
  6
CONTINUOUS
 10
6.6874233895
 20
6.9966198968
 11
6.7734908175
 21
6.9703064433
  0
LINE
  5
248
100
AcDbEntity
  8
0
100
AcDbLine
 62
7
  6
CONTINUOUS
 10
7.3216160205
 20
6.5591825997
 11
7.3516160147
 21
6.5291825939
  0
LINE
  5
249
100
AcDbEntity
  8
02___PRT_ALL_AXES
100
AcDbLine
 62
7
  6
CONTINUOUS
 10
4.8496206252
 20
14.0502343279
 11
4.9356880533
 21
14.0765477814
  0
LINE
  5
24A
100
AcDbEntity
  8
02___PRT_ALL_AXES
100
AcDbLine
 62
7
  6
CONTINUOUS
 10
4.8496206252
 20
11.1498612348
 11
4.9356880533
 21
11.1235477814
  0
LINE
  5
24B
100
AcDbEntity
  8
02___PRT_ALL_AXES
100
AcDbLine
 62
7
  6
CONTINUOUS
 10
4.8496206252
 20
11.1498612348
 11
4.8496206252
 21
14.0502343279
  0
LINE
  5
24C
100
AcDbEntity
  8
02___PRT_ALL_AXES
100
AcDbLine
 62
7
  6
CONTINUOUS
 10
4.9356880533
 20
11.1235477814
 11
4.9356880533
 21
14.0765477814
  0
LINE
  5
24D
100
AcDbEntity
  8
0
100
AcDbLine
 62
7
  6
CONTINUOUS
 10
6.5889956252
 20
11.3790412075
 11
4.9746206252
 21
11.3790412075
  0
LINE
  5
24E
100
AcDbEntity
  8
0
100
AcDbLine
 62
7
  6
CONTINUOUS
 10
4.9746206252
 20
11.3959103201
 11
6.5889956252
 21
11.3959103201
  0
LINE
  5
24F
100
AcDbEntity
  8
02___PRT_ALL_AXES
100
AcDbLine
 62
7
  6
CONTINUOUS
 10
4.9746206252
 20
11.2508904863
 11
4.9746206252
 21
13.9492050764
  0
LINE
  5
250
100
AcDbEntity
  8
0
100
AcDbLine
 62
7
  6
CONTINUOUS
 10
4.9746206252
 20
11.4846410351
 11
6.5889956252
 21
11.4846410351
  0
LINE
  5
251
100
AcDbEntity
  8
AXIS
100
AcDbLine
 62
7
  6
CONTINUOUS
 10
7.2621210312
 20
11.5609852814
 11
6.7139956252
 21
11.5609852814
  0
LINE
  5
252
100
AcDbEntity
  8
0
100
AcDbLine
 62
7
  6
CONTINUOUS
 10
4.9746206252
 20
11.6415718477
 11
6.5889956252
 21
11.6415718477
  0
LINE
  5
253
100
AcDbEntity
  8
02___PRT_ALL_AXES
100
AcDbLine
 62
7
  6
CONTINUOUS
 10
4.9356880533
 20
11.1235477814
 11
4.9746206252
 21
11.2508904863
  0
LINE
  5
254
100
AcDbEntity
  8
0
100
AcDbLine
 62
7
  6
CONTINUOUS
 10
4.9746206252
 20
11.856842218
 11
6.5889956252
 21
11.856842218
  0
LINE
  5
255
100
AcDbEntity
  8
02___PRT_ALL_AXES
100
AcDbLine
 62
7
  6
CONTINUOUS
 10
4.9356880533
 20
14.0765477814
 11
4.9746206252
 21
13.9492050764
  0
LINE
  5
256
100
AcDbEntity
  8
0
100
AcDbLine
 62
7
  6
CONTINUOUS
 10
4.9746206252
 20
12.1169259168
 11
6.5889956252
 21
12.1169259168
  0
LINE
  5
257
100
AcDbEntity
  8
02___PRT_ALL_AXES
100
AcDbLine
 62
7
  6
CONTINUOUS
 10
6.6279281972
 20
14.0765477814
 11
6.5889956252
 21
13.9492050764
  0
LINE
  5
258
100
AcDbEntity
  8
02___PRT_ALL_AXES
100
AcDbLine
 62
7
  6
CONTINUOUS
 10
6.6279281972
 20
11.1235477814
 11
6.5889956252
 21
11.2508904863
  0
LINE
  5
259
100
AcDbEntity
  8
02___PRT_ALL_AXES
100
AcDbLine
 62
7
  6
CONTINUOUS
 10
6.5889956252
 20
11.2508904863
 11
6.5889956252
 21
13.9492050764
  0
LINE
  5
25A
100
AcDbEntity
  8
0
100
AcDbLine
 62
7
  6
CONTINUOUS
 10
6.5889956252
 20
13.083169646
 11
4.9746206252
 21
13.083169646
  0
LINE
  5
25B
100
AcDbEntity
  8
02___PRT_ALL_AXES
100
AcDbLine
 62
7
  6
CONTINUOUS
 10
6.6279281972
 20
11.1235477814
 11
6.6279281972
 21
14.0765477814
  0
LINE
  5
25C
100
AcDbEntity
  8
02___PRT_ALL_AXES
100
AcDbLine
 62
7
  6
CONTINUOUS
 10
6.7139956252
 20
11.1498612348
 11
6.7139956252
 21
14.0502343279
  0
LINE
  5
25D
100
AcDbEntity
  8
0
100
AcDbLine
 62
7
  6
CONTINUOUS
 10
6.5889956252
 20
13.3432533448
 11
4.9746206252
 21
13.3432533448
  0
LINE
  5
25E
100
AcDbEntity
  8
0
100
AcDbLine
 62
7
  6
CONTINUOUS
 10
6.5889956252
 20
13.558523715
 11
4.9746206252
 21
13.558523715
  0
LINE
  5
25F
100
AcDbEntity
  8
AXIS
100
AcDbLine
 62
7
  6
CONTINUOUS
 10
7.2621210312
 20
13.6391102814
 11
6.7139956252
 21
13.6391102814
  0
LINE
  5
260
100
AcDbEntity
  8
0
100
AcDbLine
 62
7
  6
CONTINUOUS
 10
6.5889956252
 20
13.7154545277
 11
4.9746206252
 21
13.7154545277
  0
LINE
  5
261
100
AcDbEntity
  8
0
100
AcDbLine
 62
7
  6
CONTINUOUS
 10
7.2621206237
 20
11.5609852814
 11
7.2621206237
 21
13.6391102814
  0
LINE
  5
262
100
AcDbEntity
  8
0
100
AcDbLine
 62
7
  6
CONTINUOUS
 10
7.2921206252
 20
11.5909974684
 11
7.2921206252
 21
13.6090980943
  0
LINE
  5
263
100
AcDbEntity
  8
0
100
AcDbLine
 62
7
  6
CONTINUOUS
 10
6.5889956252
 20
13.8041852426
 11
4.9746206252
 21
13.8041852426
  0
LINE
  5
264
100
AcDbEntity
  8
0
100
AcDbLine
 62
7
  6
CONTINUOUS
 10
4.9746206252
 20
13.8210543552
 11
6.5889956252
 21
13.8210543552
  0
LINE
  5
265
100
AcDbEntity
  8
0
100
AcDbLine
 62
7
  6
CONTINUOUS
 10
7.2921206252
 20
11.5909848871
 11
7.2621210312
 21
11.5609852814
  0
LINE
  5
266
100
AcDbEntity
  8
02___PRT_ALL_AXES
100
AcDbLine
 62
7
  6
CONTINUOUS
 10
6.7139956252
 20
11.1498612348
 11
6.6279281972
 21
11.1235477814
  0
LINE
  5
267
100
AcDbEntity
  8
02___PRT_ALL_AXES
100
AcDbLine
 62
7
  6
CONTINUOUS
 10
6.7139956252
 20
14.0502343279
 11
6.6279281972
 21
14.0765477814
  0
LINE
  5
268
100
AcDbEntity
  8
0
100
AcDbLine
 62
7
  6
CONTINUOUS
 10
7.2921206252
 20
13.6091106756
 11
7.2621210312
 21
13.6391102814
  0
LINE
  5
269
100
AcDbEntity
  8
02___PRT_ALL_AXES
100
AcDbLine
 62
7
  6
CONTINUOUS
 10
14.3594539366
 20
13.9488253798
 11
14.437402759
 21
13.9749180798
  0
LINE
  5
26A
100
AcDbEntity
  8
02___PRT_ALL_AXES
100
AcDbLine
 62
7
  6
CONTINUOUS
 10
14.3594539366
 20
11.072784606
 11
14.437402759
 21
11.046691906
  0
LINE
  5
26B
100
AcDbEntity
  8
0
100
AcDbLine
 62
7
  6
CONTINUOUS
 10
14.4257024876
 20
13.6925611727
 11
14.4286934441
 21
13.6935601564
  0
LINE
  5
26C
100
AcDbEntity
  8
0
100
AcDbLine
 62
7
  6
CONTINUOUS
 10
14.5046760388
 20
11.2934146739
 11
14.5035965945
 21
11.2935346583
  0
LINE
  5
26D
100
AcDbEntity
  8
AXIS
100
AcDbLine
 62
7
  6
CONTINUOUS
 10
16.1840156354
 20
11.4344155924
 11
16.1845309798
 21
11.4345321914
  0
LINE
  5
26E
100
AcDbEntity
  8
0
100
AcDbLine
 62
7
  6
CONTINUOUS
 10
14.5046760387
 20
11.293406323
 11
15.7456463967
 21
11.293406323
  0
LINE
  5
26F
100
AcDbEntity
  8
0
100
AcDbLine
 62
7
  6
CONTINUOUS
 10
14.3910311536
 20
11.3581124344
 11
15.7112236128
 21
11.3581124344
  0
LINE
  5
270
100
AcDbEntity
  8
AXIS
100
AcDbLine
 62
7
  6
CONTINUOUS
 10
16.6545113453
 20
11.4717424929
 11
16.1473517616
 21
11.4717424929
  0
LINE
  5
271
100
AcDbEntity
  8
0
100
AcDbLine
 62
7
  6
CONTINUOUS
 10
14.2872230562
 20
11.4933614482
 11
15.6544407242
 21
11.4933614482
  0
LINE
  5
272
100
AcDbEntity
  8
0
100
AcDbLine
 62
7
  6
CONTINUOUS
 10
14.1997743912
 20
11.6906551714
 11
15.5929164878
 21
11.6906551714
  0
LINE
  5
273
100
AcDbEntity
  8
0
100
AcDbLine
 62
7
  6
CONTINUOUS
 10
14.1341798798
 20
11.937596914
 11
15.5409583966
 21
11.937596914
  0
LINE
  5
274
100
AcDbEntity
  8
0
100
AcDbLine
 62
7
  6
CONTINUOUS
 10
14.1160961525
 20
12.2154741914
 11
15.5070365593
 21
12.2154741914
  0
LINE
  5
275
100
AcDbEntity
  8
02___PRT_ALL_AXES
100
AcDbLine
 62
7
  6
CONTINUOUS
 10
15.7796863837
 20
11.4949534712
 11
15.778634574
 21
11.4972656313
  0
LINE
  5
276
100
AcDbEntity
  8
02___PRT_ALL_AXES
100
AcDbLine
 62
7
  6
CONTINUOUS
 10
15.7800286706
 20
11.4959830193
 11
15.7789860369
 21
11.4983171006
  0
LINE
  5
277
100
AcDbEntity
  8
02___PRT_ALL_AXES
100
AcDbLine
 62
7
  6
CONTINUOUS
 10
15.6844894599
 20
11.6900267741
 11
15.6842361762
 21
11.6909174867
  0
LINE
  5
278
100
AcDbEntity
  8
02___PRT_ALL_AXES
100
AcDbLine
 62
7
  6
CONTINUOUS
 10
15.6842122287
 20
11.6895375968
 11
15.6839690919
 21
11.6904469814
  0
LINE
  5
279
100
AcDbEntity
  8
02___PRT_ALL_AXES
100
AcDbLine
 62
7
  6
CONTINUOUS
 10
15.6616907337
 20
13.1546752657
 11
15.6618718486
 21
13.1555198735
  0
LINE
  5
27A
100
AcDbEntity
  8
02___PRT_ALL_AXES
100
AcDbLine
 62
7
  6
CONTINUOUS
 10
15.6619827376
 20
13.1542627089
 11
15.6621732192
 21
13.1550933548
  0
LINE
  5
27B
100
AcDbEntity
  8
02___PRT_ALL_AXES
100
AcDbLine
 62
7
  6
CONTINUOUS
 10
15.6453794644
 20
11.9497546005
 11
15.645291281
 21
11.9502441114
  0
LINE
  5
27C
100
AcDbEntity
  8
02___PRT_ALL_AXES
100
AcDbLine
 62
7
  6
CONTINUOUS
 10
15.630904843
 20
11.9376438597
 11
15.6306738474
 21
11.9390244745
  0
LINE
  5
27D
100
AcDbEntity
  8
02___PRT_ALL_AXES
100
AcDbLine
 62
7
  6
CONTINUOUS
 10
15.6454730971
 20
11.9498658888
 11
15.6453928426
 21
11.9503646958
  0
LINE
  5
27E
100
AcDbEntity
  8
02___PRT_ALL_AXES
100
AcDbLine
 62
7
  6
CONTINUOUS
 10
15.630904843
 20
11.9376438597
 11
15.6306977181
 21
11.9390507738
  0
LINE
  5
27F
100
AcDbEntity
  8
0
100
AcDbLine
 62
7
  6
CONTINUOUS
 10
14.1105589193
 20
12.9009302895
 11
14.1045003735
 21
12.9006929326
  0
LINE
  5
280
100
AcDbEntity
  8
0
100
AcDbLine
 62
7
  6
CONTINUOUS
 10
14.1105589193
 20
12.9009302912
 11
15.5163735027
 21
12.9009302912
  0
LINE
  5
281
100
AcDbEntity
  8
0
100
AcDbLine
 62
7
  6
CONTINUOUS
 10
15.5568692349
 20
13.1721338355
 11
14.1536203323
 21
13.1721338355
  0
LINE
  5
282
100
AcDbEntity
  8
0
100
AcDbLine
 62
7
  6
CONTINUOUS
 10
15.6130097088
 20
13.4038920631
 11
14.227138089
 21
13.4038920631
  0
LINE
  5
283
100
AcDbEntity
  8
AXIS
100
AcDbLine
 62
7
  6
CONTINUOUS
 10
16.6545113453
 20
13.5498674929
 11
16.1473517616
 21
13.5498674929
  0
LINE
  5
284
100
AcDbEntity
  8
0
100
AcDbLine
 62
7
  6
CONTINUOUS
 10
15.675178777
 20
13.5814193558
 11
14.3207906375
 21
13.5814193558
  0
LINE
  5
285
100
AcDbEntity
  8
AXIS
100
AcDbLine
 62
7
  6
CONTINUOUS
 10
16.1839359179
 20
11.4367554324
 11
16.1844489233
 21
11.4369070691
  0
LINE
  5
286
100
AcDbEntity
  8
0
100
AcDbLine
 62
7
  6
CONTINUOUS
 10
15.7263400025
 20
13.693561021
 11
14.4286934437
 21
13.693561021
  0
LINE
  5
287
100
AcDbEntity
  8
0
100
AcDbLine
 62
7
  6
CONTINUOUS
 10
15.7489080984
 20
13.7332699249
 11
14.5439780903
 21
13.7332699249
  0
LINE
  5
288
100
AcDbEntity
  8
02___PRT_ALL_AXES
100
AcDbLine
 62
7
  6
CONTINUOUS
 10
16.2226518008
 20
11.072784606
 11
16.1447029784
 21
11.046691906
  0
LINE
  5
289
100
AcDbEntity
  8
02___PRT_ALL_AXES
100
AcDbLine
 62
7
  6
CONTINUOUS
 10
16.2226518008
 20
13.9488253798
 11
16.1447029784
 21
13.9749180798
  0
LINE
  5
28A
100
AcDbEntity
  8
0
100
AcDbLine
 62
7
  6
CONTINUOUS
 10
16.8482784465
 20
11.5963658559
 11
16.8255862307
 21
11.56917943
  0
LINE
  5
28B
100
AcDbEntity
  8
0
100
AcDbLine
 62
7
  6
CONTINUOUS
 10
16.8482784465
 20
13.4252441299
 11
16.8255862307
 21
13.4524305558
  0
CIRCLE
  5
28C
100
AcDbEntity
  8
02___PRT_ALL_AXES
100
AcDbCircle
 62
7
  6
CONTINUOUS
 10
15.5603552569
 20
5.4606247044
 40
1.4765
  0
CIRCLE
  5
28D
100
AcDbEntity
  8
02___PRT_ALL_AXES
100
AcDbCircle
 62
7
  6
CONTINUOUS
 10
15.5603552569
 20
5.4606247044
 40
1.4501865466
  0
CIRCLE
  5
28E
100
AcDbEntity
  8
02___PRT_ALL_AXES
100
AcDbCircle
 62
7
  6
CONTINUOUS
 10
15.5603552569
 20
5.4606247044
 40
1.3357067049
  0
CIRCLE
  5
28F
100
AcDbEntity
  8
AXIS
100
AcDbCircle
 62
7
  6
CONTINUOUS
 10
15.5603552569
 20
5.4606247044
 40
1.0805
  0
CIRCLE
  5
290
100
AcDbEntity
  8
0
100
AcDbCircle
 62
7
  6
CONTINUOUS
 10
15.5603552569
 20
5.4606247044
 40
1.0390625
  0
CIRCLE
  5
291
100
AcDbEntity
  8
0
100
AcDbCircle
 62
7
  6
CONTINUOUS
 10
15.5603552569
 20
5.4606247044
 40
1.009062626
  0
CIRCLE
  5
292
100
AcDbEntity
  8
0
100
AcDbCircle
 62
7
  6
CONTINUOUS
 10
15.5603552569
 20
5.4606247044
 40
0.2802472279
  0
CIRCLE
  5
293
100
AcDbEntity
  8
0
100
AcDbCircle
 62
7
  6
CONTINUOUS
 10
15.5603552569
 20
5.4606247044
 40
0.25025
  0
ARC
  5
294
100
AcDbEntity
  8
02___PRT_ALL_AXES
100
AcDbCircle
 62
7
  6
CONTINUOUS
 10
18.8827858418
 20
12.4782809242
 40
3.2965178511
100
AcDbArc
 50
184.5836452042
 51
189.4149661778
  0
ARC
  5
295
100
AcDbEntity
  8
0
100
AcDbCircle
 62
7
  6
CONTINUOUS
 10
17.2042078651
 20
12.5108710329
 40
3.13268748
100
AcDbArc
 50
178.7662336049
 51
179.3372671618
  0
ARC
  5
296
100
AcDbEntity
  8
0
100
AcDbCircle
 62
7
  6
CONTINUOUS
 10
17.037444915
 20
12.5012898931
 40
2.9656308081
100
AcDbArc
 50
184.4218432432
 51
185.0143961233
  0
ARC
  5
297
100
AcDbEntity
  8
0
100
AcDbCircle
 62
7
  6
CONTINUOUS
 10
16.8873047139
 20
12.5354514398
 40
2.8147238615
100
AcDbArc
 50
172.973726873
 51
173.5867104911
  0
ARC
  5
298
100
AcDbEntity
  8
02___PRT_ALL_AXES
100
AcDbCircle
 62
7
  6
CONTINUOUS
 10
18.2837801613
 20
12.4253013175
 40
2.6809145673
100
AcDbArc
 50
190.2173215291
 51
190.3359790838
  0
ARC
  5
299
100
AcDbEntity
  8
0
100
AcDbCircle
 62
7
  6
CONTINUOUS
 10
16.4569667764
 20
12.4188084399
 40
2.3790486177
100
AcDbArc
 50
190.5816936437
 51
191.2683624806
  0
ARC
  5
29A
100
AcDbEntity
  8
0
100
AcDbCircle
 62
7
  6
CONTINUOUS
 10
16.2188683485
 20
12.6538554476
 40
2.1355241212
100
AcDbArc
 50
166.3445313312
 51
167.0810573977
  0
ARC
  5
29B
100
AcDbEntity
  8
02___PRT_ALL_AXES
100
AcDbCircle
 62
7
  6
CONTINUOUS
 10
17.6767077453
 20
12.8036660368
 40
2.061310231
100
AcDbArc
 50
162.8278339056
 51
162.9960768135
  0
ARC
  5
29C
100
AcDbEntity
  8
02___PRT_ALL_AXES
100
AcDbCircle
 62
7
  6
CONTINUOUS
 10
17.4082899612
 20
12.8170874912
 40
1.7773211098
100
AcDbArc
 50
160.9145745347
 51
162.8527061734
  0
ARC
  5
29D
100
AcDbEntity
  8
0
100
AcDbCircle
 62
7
  6
CONTINUOUS
 10
15.6981750464
 20
12.2199483132
 40
1.5940644689
100
AcDbArc
 50
198.110141353
 51
199.0073938439
  0
ARC
  5
29E
100
AcDbEntity
  8
0
100
AcDbCircle
 62
7
  6
CONTINUOUS
 10
15.4639825159
 20
12.8873143544
 40
1.3446747446
100
AcDbArc
 50
157.7899842347
 51
158.7919998465
  0
ARC
  5
29F
100
AcDbEntity
  8
0
100
AcDbCircle
 62
7
  6
CONTINUOUS
 10
15.7132922839
 20
13.6301306349
 40
1.3079740294
100
AcDbArc
 50
178.824643922
 51
181.5457531358
  0
ARC
  5
2A0
100
AcDbEntity
  8
0
100
AcDbCircle
 62
7
  6
CONTINUOUS
 10
15.6589637136
 20
11.3836762528
 40
1.2908308703
100
AcDbArc
 50
176.5405565947
 51
179.2877288167
  0
ARC
  5
2A1
100
AcDbEntity
  8
0
100
AcDbCircle
 62
7
  6
CONTINUOUS
 10
15.7359187084
 20
11.4286487573
 40
1.2591376961
100
AcDbArc
 50
183.2116823479
 51
184.9458908668
  0
ARC
  5
2A2
100
AcDbEntity
  8
0
100
AcDbCircle
 62
7
  6
CONTINUOUS
 10
15.5037031007
 20
13.6245431235
 40
1.2083303514
100
AcDbArc
 50
184.4745386492
 51
187.3366259134
  0
ARC
  5
2A3
100
AcDbEntity
  8
0
100
AcDbCircle
 62
7
  6
CONTINUOUS
 10
15.6893483599
 20
13.5689398769
 40
1.1769767258
100
AcDbArc
 50
173.0366711265
 51
173.9215400205
  0
ARC
  5
2A4
100
AcDbEntity
  8
0
100
AcDbCircle
 62
7
  6
CONTINUOUS
 10
15.372057916
 20
11.4244203587
 40
1.1128069402
100
AcDbArc
 50
170.52382985
 51
173.5635830309
  0
ARC
  5
2A5
100
AcDbEntity
  8
02___PRT_ALL_AXES
100
AcDbCircle
 62
7
  6
CONTINUOUS
 10
16.7401925911
 20
13.0939799626
 40
1.0533637994
100
AcDbArc
 50
152.3751644789
 51
152.5514681094
  0
ARC
  5
2A6
100
AcDbEntity
  8
0
100
AcDbCircle
 62
7
  6
CONTINUOUS
 10
15.1359353131
 20
13.5137000051
 40
0.9440078221
100
AcDbArc
 50
190.6319821716
 51
193.998407694
  0
ARC
  5
2A7
100
AcDbEntity
  8
0
100
AcDbCircle
 62
7
  6
CONTINUOUS
 10
15.0392993866
 20
11.9347615806
 40
0.8751116935
100
AcDbArc
 50
208.5616254364
 51
209.9006819419
  0
ARC
  5
2A8
100
AcDbEntity
  8
0
100
AcDbCircle
 62
7
  6
CONTINUOUS
 10
14.883100193
 20
13.1825909286
 40
0.6918612174
100
AcDbArc
 50
145.1845863483
 51
146.7442735744
  0
ARC
  5
2A9
100
AcDbEntity
  8
0
100
AcDbCircle
 62
7
  6
CONTINUOUS
 10
14.6589416867
 20
11.6554254839
 40
0.4015666013
100
AcDbArc
 50
225.1409880385
 51
227.3925978978
  0
ARC
  5
2AA
100
AcDbEntity
  8
0
100
AcDbCircle
 62
7
  6
CONTINUOUS
 10
14.6002080192
 20
13.4362307919
 40
0.3100926388
100
AcDbArc
 50
124.2463936867
 51
126.9094497345
  0
ARC
  5
2AB
100
AcDbEntity
  8
AXIS
100
AcDbCircle
 62
7
  6
CONTINUOUS
 10
16.101033186
 20
13.3291018686
 40
0.2736652253
100
AcDbArc
 50
54.1014565762
 51
54.3957040868
  0
ARC
  5
2AC
100
AcDbEntity
  8
0
100
AcDbCircle
 62
7
  6
CONTINUOUS
 10
14.1766048342
 20
13.6088456459
 40
0.230057638
100
AcDbArc
 50
353.1212462273
 51
354.0556809711
  0
ARC
  5
2AD
100
AcDbEntity
  8
0
100
AcDbCircle
 62
7
  6
CONTINUOUS
 10
14.5504815907
 20
11.4901981574
 40
0.2021750102
100
AcDbArc
 50
253.0370733564
 51
256.5908633481
  0
ARC
  5
2AE
100
AcDbEntity
  8
0
100
AcDbCircle
 62
7
  6
CONTINUOUS
 10
14.5476118046
 20
13.5470845809
 40
0.1862207996
100
AcDbArc
 50
91.1180797713
 51
94.8667535828
  0
ARC
  5
2AF
100
AcDbEntity
  8
0
100
AcDbCircle
 62
7
  6
CONTINUOUS
 10
14.2940892581
 20
11.4661732757
 40
0.0765344943
100
AcDbArc
 50
356.5499583698
 51
3.945783812
  0
ARC
  5
2B0
100
AcDbEntity
  8
0
100
AcDbCircle
 62
7
  6
CONTINUOUS
 10
14.3307437868
 20
13.5927434308
 40
0.0750799314
100
AcDbArc
 50
354.0959036909
 51
1.6060894363
  0
ARC
  5
2B1
100
AcDbEntity
  8
0
100
AcDbCircle
 62
7
  6
CONTINUOUS
 10
16.6558383422
 20
12.7173499413
 40
0.0438736002
100
AcDbArc
 50
106.7938726414
 51
111.1596841009
  0
SPLINE
  5
2B2
100
AcDbEntity
  8
02___PRT_ALL_AXES
100
AcDbSpline
 62
7
  6
CONTINUOUS
 70
0
 71
3
 72
41
 73
37
 74
0
 42
0.0000001
 43
0.0000001
 44
0.0000000001
 40
0.0
 40
0.0
 40
0.0
 40
0.0
 40
0.032027984
 40
0.06523626
 40
0.0995132372
 40
0.1347486352
 40
0.1708206164
 40
0.2076023662
 40
0.2449624806
 40
0.2827655305
 40
0.3208732439
 40
0.3591453853
 40
0.3974407022
 40
0.4356177718
 40
0.4735359112
 40
0.5110561355
 40
0.5480420174
 40
0.5843605871
 40
0.6198834288
 40
0.654487665
 40
0.688056953
 40
0.7204826993
 40
0.7516655555
 40
0.7815167724
 40
0.8099598848
 40
0.8369329594
 40
0.8623913221
 40
0.8863106089
 40
0.9086908683
 40
0.9295620004
 40
0.9489902115
 40
0.9581991841
 40
0.9670929312
 40
0.9840167973
 40
0.9921110624
 40
1.0
 40
1.0
 40
1.0
 40
1.0
 10
13.9900837122
 20
13.4122554061
 30
0.0
 10
13.982208893
 20
13.3867724818
 30
0.0
 10
13.9671775176
 20
13.3345513874
 30
0.0
 10
13.9470756196
 20
13.2541392623
 30
0.0
 10
13.9290771801
 20
13.1704962722
 30
0.0
 10
13.9132603852
 20
13.083989517
 30
0.0
 10
13.8996946506
 20
12.9949915446
 30
0.0
 10
13.888438999
 20
12.9038896407
 30
0.0
 10
13.8795425116
 20
12.8110794162
 30
0.0
 10
13.8730443686
 20
12.7169640035
 30
0.0
 10
13.8689729843
 20
12.6219524699
 30
0.0
 10
13.8673459313
 20
12.5264577962
 30
0.0
 10
13.8681703387
 20
12.4308950778
 30
0.0
 10
13.8714428548
 20
12.3356797284
 30
0.0
 10
13.8771490705
 20
12.2412256232
 30
0.0
 10
13.8852638575
 20
12.1479432466
 30
0.0
 10
13.8957517815
 20
12.0562379402
 30
0.0
 10
13.9085672681
 20
11.9665081179
 30
0.0
 10
13.923654099
 20
11.879143356
 30
0.0
 10
13.9409462543
 20
11.7945227105
 30
0.0
 10
13.9603683494
 20
11.7130131416
 30
0.0
 10
13.9818359374
 20
11.6349677705
 30
0.0
 10
14.0052552919
 20
11.5607240177
 30
0.0
 10
14.0305246712
 20
11.4906022461
 30
0.0
 10
14.0575350166
 20
11.4249043844
 30
0.0
 10
14.0861704112
 20
11.3639123142
 30
0.0
 10
14.1163088295
 20
11.3078861487
 30
0.0
 10
14.1478236363
 20
11.2570640786
 30
0.0
 10
14.1805869669
 20
11.2116601763
 30
0.0
 10
14.2144653968
 20
11.1718700234
 30
0.0
 10
14.2440338035
 20
11.1430289367
 30
0.0
 10
14.2681268693
 20
11.1230940002
 30
0.0
 10
14.2916406857
 20
11.105815393
 30
0.0
 10
14.3159077083
 20
11.0911788507
 30
0.0
 10
14.3407627123
 20
11.0795923525
 30
0.0
 10
14.3532240549
 20
11.0748702658
 30
0.0
 10
14.3594539489
 20
11.0727848479
 30
0.0
  0
SPLINE
  5
2B3
100
AcDbEntity
  8
02___PRT_ALL_AXES
100
AcDbSpline
 62
7
  6
CONTINUOUS
 70
0
 71
3
 72
23
 73
19
 74
0
 42
0.0000001
 43
0.0000001
 44
0.0000000001
 40
0.0
 40
0.0
 40
0.0
 40
0.0
 40
0.0532325513
 40
0.1053907606
 40
0.1570416535
 40
0.2087733388
 40
0.2611705554
 40
0.3147907047
 40
0.370145241
 40
0.4276850801
 40
0.487796322
 40
0.5507967793
 40
0.6169421869
 40
0.6864279362
 40
0.7593989498
 40
0.835952003
 40
0.9161453249
 40
1.0
 40
1.0
 40
1.0
 40
1.0
 10
14.4374027627
 20
13.9749180078
 30
0.0
 10
14.4458883976
 20
13.9777586163
 30
0.0
 10
14.4630006418
 20
13.9825035047
 30
0.0
 10
14.4891241068
 20
13.9866725457
 30
0.0
 10
14.5153070346
 20
13.9877843559
 30
0.0
 10
14.5414802198
 20
13.9858354661
 30
0.0
 10
14.5675794087
 20
13.9808315262
 30
0.0
 10
14.5935428407
 20
13.9727923052
 30
0.0
 10
14.6193124499
 20
13.9617415697
 30
0.0
 10
14.6448361441
 20
13.9477130548
 30
0.0
 10
14.6700630446
 20
13.9307407521
 30
0.0
 10
14.694946813
 20
13.9108661899
 30
0.0
 10
14.7194393994
 20
13.8881313179
 30
0.0
 10
14.7434961515
 20
13.8625853776
 30
0.0
 10
14.7670697059
 20
13.834279712
 30
0.0
 10
14.7901160337
 20
13.8032726567
 30
0.0
 10
14.8125881751
 20
13.7696268553
 30
0.0
 10
14.8268416482
 20
13.7460072529
 30
0.0
 10
14.833874516
 20
13.7337909323
 30
0.0
  0
SPLINE
  5
2B4
100
AcDbEntity
  8
02___PRT_ALL_AXES
100
AcDbSpline
 62
7
  6
CONTINUOUS
 70
0
 71
3
 72
23
 73
19
 74
0
 42
0.0000001
 43
0.0000001
 44
0.0000000001
 40
0.0
 40
0.0
 40
0.0
 40
0.0
 40
0.0838346687
 40
0.1650436693
 40
0.2434895293
 40
0.3190804931
 40
0.3917410857
 40
0.4614081462
 40
0.528039855
 40
0.591620661
 40
0.6521628064
 40
0.7097098985
 40
0.7643437711
 40
0.8161881557
 40
0.8654171491
 40
0.9122586948
 40
0.95700246
 40
1.0
 40
1.0
 40
1.0
 40
1.0
 10
13.9900837122
 20
13.4122554061
 30
0.0
 10
13.9956322527
 20
13.4302104897
 30
0.0
 10
14.0070416097
 20
13.4654106971
 30
0.0
 10
14.0254024153
 20
13.5168204712
 30
0.0
 10
14.0447055989
 20
13.5659047856
 30
0.0
 10
14.0649041039
 20
13.6125474123
 30
0.0
 10
14.0859526195
 20
13.6566430844
 30
0.0
 10
14.1078027507
 20
13.6980913441
 30
0.0
 10
14.1304051598
 20
13.7367966153
 30
0.0
 10
14.153708562
 20
13.7726704951
 30
0.0
 10
14.1776606252
 20
13.8056314713
 30
0.0
 10
14.2022091445
 20
13.8356038881
 30
0.0
 10
14.2272997774
 20
13.862519663
 30
0.0
 10
14.2528801806
 20
13.8863153106
 30
0.0
 10
14.2788946861
 20
13.9069352819
 30
0.0
 10
14.3052917356
 20
13.9243265741
 30
0.0
 10
14.3320089552
 20
13.9384424251
 30
0.0
 10
14.3503138823
 20
13.9457655325
 30
0.0
 10
14.3594539483
 20
13.9488251493
 30
0.0
  0
SPLINE
  5
2B5
100
AcDbEntity
  8
02___PRT_ALL_AXES
100
AcDbSpline
 62
7
  6
CONTINUOUS
 70
0
 71
3
 72
24
 73
20
 74
0
 42
0.0000001
 43
0.0000001
 44
0.0000000001
 40
0.0
 40
0.0
 40
0.0
 40
0.0
 40
0.0530812545
 40
0.105087216
 40
0.1565922433
 40
0.2081915687
 40
0.2604764651
 40
0.3140100224
 40
0.3693070515
 40
0.4268216116
 40
0.4565409018
 40
0.4869534011
 40
0.5499936015
 40
0.6162088968
 40
0.6857944978
 40
0.7588909747
 40
0.8355942664
 40
0.9159573652
 40
1.0
 40
1.0
 40
1.0
 40
1.0
 10
14.4374027637
 20
11.0466919977
 30
0.0
 10
14.4459503809
 20
11.0438308751
 30
0.0
 10
14.4631891381
 20
11.0390575431
 30
0.0
 10
14.4895088807
 20
11.034891552
 30
0.0
 10
14.5158880678
 20
11.0338277969
 30
0.0
 10
14.542255824
 20
11.0358718046
 30
0.0
 10
14.5685465315
 20
11.0410148854
 30
0.0
 10
14.594696669
 20
11.0492394464
 30
0.0
 10
14.6206470643
 20
11.0605170004
 30
0.0
 10
14.6418294774
 20
11.0723043306
 30
0.0
 10
14.6586051112
 20
11.0831616347
 30
0.0
 10
14.6756655268
 20
11.0952719689
 30
0.0
 10
14.6967810545
 20
11.1123282711
 30
0.0
 10
14.7214221211
 20
11.1354526317
 30
0.0
 10
14.74561649
 20
11.1614275639
 30
0.0
 10
14.7693174442
 20
11.1901966601
 30
0.0
 10
14.7924774274
 20
11.2217022166
 30
0.0
 10
14.815051395
 20
11.2558777081
 30
0.0
 10
14.8293604612
 20
11.279861869
 30
0.0
 10
14.8364193648
 20
11.292265197
 30
0.0
  0
SPLINE
  5
2B6
100
AcDbEntity
  8
02___PRT_ALL_AXES
100
AcDbSpline
 62
7
  6
CONTINUOUS
 70
0
 71
3
 72
39
 73
35
 74
0
 42
0.0000001
 43
0.0000001
 44
0.0000000001
 40
0.0
 40
0.0
 40
0.0
 40
0.0
 40
0.0475532367
 40
0.0938300163
 40
0.1387673963
 40
0.1823207813
 40
0.2244561499
 40
0.2651437043
 40
0.3043584738
 40
0.3420837593
 40
0.3783132508
 40
0.4130498947
 40
0.4463090249
 40
0.4781177886
 40
0.5085193542
 40
0.5375725485
 40
0.5653556358
 40
0.59196698
 40
0.6175273683
 40
0.6421808528
 40
0.6660942271
 40
0.6894558764
 40
0.7124713091
 40
0.7353580727
 40
0.7583381456
 40
0.7816301686
 40
0.8054422076
 40
0.8299654968
 40
0.8553705498
 40
0.8818051759
 40
0.9093935485
 40
0.9382380614
 40
0.9684193127
 40
1.0
 40
1.0
 40
1.0
 40
1.0
 10
14.136034488
 20
13.3494546163
 30
0.0
 10
14.140514852
 20
13.3639530796
 30
0.0
 10
14.1496968822
 20
13.3924568117
 30
0.0
 10
14.1643431556
 20
13.4342524707
 30
0.0
 10
14.1796557299
 20
13.4744463695
 30
0.0
 10
14.1956060766
 20
13.5129653063
 30
0.0
 10
14.212167273
 20
13.5497438277
 30
0.0
 10
14.2293107943
 20
13.5847197653
 30
0.0
 10
14.2470070902
 20
13.6178327467
 30
0.0
 10
14.2652263982
 20
13.6490249926
 30
0.0
 10
14.2839365184
 20
13.6782433679
 30
0.0
 10
14.303107124
 20
13.7054370617
 30
0.0
 10
14.3227044343
 20
13.7305602926
 30
0.0
 10
14.3426974321
 20
13.753568695
 30
0.0
 10
14.3630516329
 20
13.7744235257
 30
0.0
 10
14.3837350709
 20
13.7930872904
 30
0.0
 10
14.404713433
 20
13.8095273693
 30
0.0
 10
14.4259533244
 20
13.8237129582
 30
0.0
 10
14.4474202296
 20
13.835616169
 30
0.0
 10
14.4690780923
 20
13.8452127856
 30
0.0
 10
14.4908899453
 20
13.8524792866
 30
0.0
 10
14.5128151734
 20
13.8573993565
 30
0.0
 10
14.5348117473
 20
13.8599568839
 30
0.0
 10
14.5568346465
 20
13.8601470948
 30
0.0
 10
14.5788383565
 20
13.8579667702
 30
0.0
 10
14.6007781021
 20
13.853424633
 30
0.0
 10
14.6226106606
 20
13.8465316905
 30
0.0
 10
14.6442958357
 20
13.8373066186
 30
0.0
 10
14.6657957488
 20
13.8257707012
 30
0.0
 10
14.6870740935
 20
13.8119480998
 30
0.0
 10
14.7080969232
 20
13.7958670576
 30
0.0
 10
14.7288293569
 20
13.7775561179
 30
0.0
 10
14.7492386505
 20
13.7570503973
 30
0.0
 10
14.7623056567
 20
13.7422794068
 30
0.0
 10
14.768782957
 20
13.734558782
 30
0.0
  0
SPLINE
  5
2B7
100
AcDbEntity
  8
02___PRT_ALL_AXES
100
AcDbSpline
 62
7
  6
CONTINUOUS
 70
0
 71
3
 72
22
 73
18
 74
0
 42
0.0000001
 43
0.0000001
 44
0.0000000001
 40
0.0
 40
0.0
 40
0.0
 40
0.0
 40
0.079556699
 40
0.1570537369
 40
0.2323931237
 40
0.3055055534
 40
0.376336632
 40
0.4448378855
 40
0.5109678461
 40
0.5746981422
 40
0.6360147449
 40
0.694917751
 40
0.7514245
 40
0.8055699339
 40
0.8574117581
 40
0.9070299829
 40
1.0
 40
1.0
 40
1.0
 40
1.0
 10
14.0613303581
 20
13.4286121111
 30
0.0
 10
14.0660667942
 20
13.443939224
 30
0.0
 10
14.0757659697
 20
13.4740903235
 30
0.0
 10
14.0912062834
 20
13.518339625
 30
0.0
 10
14.1073281745
 20
13.5609593482
 30
0.0
 10
14.1241036089
 20
13.6018774036
 30
0.0
 10
14.1415063808
 20
13.6410289245
 30
0.0
 10
14.1595081922
 20
13.6783521183
 30
0.0
 10
14.1780805269
 20
13.713786629
 30
0.0
 10
14.1971935943
 20
13.7472750849
 30
0.0
 10
14.2168165314
 20
13.7787639856
 30
0.0
 10
14.2369188264
 20
13.8082025081
 30
0.0
 10
14.2574681854
 20
13.8355442992
 30
0.0
 10
14.2784326186
 20
13.8607437145
 30
0.0
 10
14.2997820613
 20
13.8837644694
 30
0.0
 10
14.3280922258
 20
13.9109027464
 30
0.0
 10
14.3507211517
 20
13.9288391914
 30
0.0
 10
14.3662856704
 20
13.9392888711
 30
0.0
  0
SPLINE
  5
2B8
100
AcDbEntity
  8
02___PRT_ALL_AXES
100
AcDbSpline
 62
7
  6
CONTINUOUS
 70
0
 71
3
 72
9
 73
5
 74
0
 42
0.0000001
 43
0.0000001
 44
0.0000000001
 40
0.0
 40
0.0
 40
0.0
 40
0.0
 40
0.5136952543
 40
1.0
 40
1.0
 40
1.0
 40
1.0
 10
14.3662856704
 20
13.9392888711
 30
0.0
 10
14.3776192964
 20
13.9468980215
 30
0.0
 10
14.400564744
 20
13.9604555542
 30
0.0
 10
14.4251480352
 20
13.9708156768
 30
0.0
 10
14.4374027627
 20
13.9749180078
 30
0.0
  0
SPLINE
  5
2B9
100
AcDbEntity
  8
02___PRT_ALL_AXES
100
AcDbSpline
 62
7
  6
CONTINUOUS
 70
0
 71
3
 72
39
 73
35
 74
0
 42
0.0000001
 43
0.0000001
 44
0.0000000001
 40
0.0
 40
0.0
 40
0.0
 40
0.0
 40
0.0310622497
 40
0.0632084446
 40
0.0963424796
 40
0.1303709432
 40
0.1651903572
 40
0.2006928475
 40
0.2367668425
 40
0.2732971167
 40
0.3101658152
 40
0.3472532116
 40
0.3844383281
 40
0.4215996085
 40
0.4586156654
 40
0.4953659227
 40
0.5317312696
 40
0.5675948631
 40
0.6028427861
 40
0.6373647128
 40
0.6710548214
 40
0.7038126219
 40
0.7355437029
 40
0.7661607783
 40
0.7955849806
 40
0.8237469275
 40
0.8505881789
 40
0.8760633227
 40
0.9001421074
 40
0.9228120423
 40
0.944082029
 40
0.9639868361
 40
0.982592043
 40
1.0
 40
1.0
 40
1.0
 40
1.0
 10
14.0613303581
 20
13.4286121111
 30
0.0
 10
14.0537962709
 20
13.404231796
 30
0.0
 10
14.039371266
 20
13.3543365078
 30
0.0
 10
14.019934924
 20
13.2776007758
 30
0.0
 10
14.0023857435
 20
13.1979146497
 30
0.0
 10
13.986791382
 20
13.1155881187
 30
0.0
 10
13.9732120484
 20
13.0309348485
 30
0.0
 10
13.9617001227
 20
12.9442809056
 30
0.0
 10
13.9523000913
 20
12.8559594239
 30
0.0
 10
13.9450486304
 20
12.7663099343
 30
0.0
 10
13.9399734732
 20
12.6756773744
 30
0.0
 10
13.9370941987
 20
12.5844104346
 30
0.0
 10
13.9364222257
 20
12.4928602651
 30
0.0
 10
13.9379600807
 20
12.4013791458
 30
0.0
 10
13.941701596
 20
12.3103190716
 30
0.0
 10
13.9476324213
 20
12.220030411
 30
0.0
 10
13.9557298464
 20
12.1308605387
 30
0.0
 10
13.965962254
 20
12.0431524027
 30
0.0
 10
13.9782900332
 20
11.9572432608
 30
0.0
 10
13.9926658225
 20
11.8734634103
 30
0.0
 10
14.0090339542
 20
11.7921347238
 30
0.0
 10
14.0273309936
 20
11.7135693934
 30
0.0
 10
14.0474864762
 20
11.6380688637
 30
0.0
 10
14.0694229505
 20
11.5659225105
 30
0.0
 10
14.0930557112
 20
11.497406217
 30
0.0
 10
14.1182940927
 20
11.4327815247
 30
0.0
 10
14.1450421004
 20
11.3722946717
 30
0.0
 10
14.1731981622
 20
11.3161750884
 30
0.0
 10
14.2026563144
 20
11.2646346919
 30
0.0
 10
14.2333080257
 20
11.2178674096
 30
0.0
 10
14.2650419061
 20
11.1760493134
 30
0.0
 10
14.2977483639
 20
11.1393360961
 30
0.0
 10
14.3313087256
 20
11.1078729908
 30
0.0
 10
14.3549175613
 20
11.0899238509
 30
0.0
 10
14.3668045698
 20
11.0819733084
 30
0.0
  0
SPLINE
  5
2BA
100
AcDbEntity
  8
02___PRT_ALL_AXES
100
AcDbSpline
 62
7
  6
CONTINUOUS
 70
0
 71
3
 72
10
 73
6
 74
0
 42
0.0000001
 43
0.0000001
 44
0.0000000001
 40
0.0
 40
0.0
 40
0.0
 40
0.0
 40
0.5134192674
 40
0.7596516214
 40
1.0
 40
1.0
 40
1.0
 40
1.0
 10
14.3668045698
 20
11.0819733084
 30
0.0
 10
14.3780600847
 20
11.0744451361
 30
0.0
 10
14.3953877241
 20
11.0642451978
 30
0.0
 10
14.4193688457
 20
11.0532321139
 30
0.0
 10
14.4313915712
 20
11.0487041092
 30
0.0
 10
14.4374027637
 20
11.0466919977
 30
0.0
  0
SPLINE
  5
2BB
100
AcDbEntity
  8
02___PRT_ALL_AXES
100
AcDbSpline
 62
7
  6
CONTINUOUS
 70
0
 71
3
 72
53
 73
49
 74
0
 42
0.0000001
 43
0.0000001
 44
0.0000000001
 40
0.0
 40
0.0
 40
0.0
 40
0.0
 40
0.0357318632
 40
0.0730869105
 40
0.1118672506
 40
0.1518610013
 40
0.1928404931
 40
0.2345680649
 40
0.2767978007
 40
0.3192786401
 40
0.3617569036
 40
0.4039789436
 40
0.4456937506
 40
0.4866556067
 40
0.5266268166
 40
0.5653805589
 40
0.6027039358
 40
0.6384013347
 40
0.6722982612
 40
0.6885255328
 40
0.7042492371
 40
0.7194558907
 40
0.7341341295
 40
0.7482754408
 40
0.7618742414
 40
0.7749282522
 40
0.7874391743
 40
0.7994127213
 40
0.8108598528
 40
0.8217966407
 40
0.8322458136
 40
0.8422366962
 40
0.8518066132
 40
0.8610009337
 40
0.8698737295
 40
0.8784874576
 40
0.8869122181
 40
0.8952243065
 40
0.903503893
 40
0.9118323231
 40
0.9202892399
 40
0.9289497666
 40
0.9378826549
 40
0.9567838766
 40
0.9668644583
 40
0.9774097672
 40
0.9884479218
 40
1.0
 40
1.0
 40
1.0
 40
1.0
 10
14.136034488
 20
13.3494546163
 30
0.0
 10
14.1266674388
 20
13.319142834
 30
0.0
 10
14.1090450968
 20
13.2566592224
 30
0.0
 10
14.0863067554
 20
13.1599425445
 30
0.0
 10
14.0667929329
 20
13.0586681605
 30
0.0
 10
14.0506418951
 20
12.953549352
 30
0.0
 10
14.0379682649
 20
12.8453211695
 30
0.0
 10
14.0288616721
 20
12.734743726
 30
0.0
 10
14.0233868202
 20
12.6225931663
 30
0.0
 10
14.0215824862
 20
12.5096572923
 30
0.0
 10
14.0234614983
 20
12.3967294646
 30
0.0
 10
14.0290105276
 20
12.2846030231
 30
0.0
 10
14.0381902292
 20
12.1740655311
 30
0.0
 10
14.0509355143
 20
12.0658931214
 30
0.0
 10
14.0671560234
 20
11.9608447628
 30
0.0
 10
14.0867368171
 20
11.8596570336
 30
0.0
 10
14.1095394115
 20
11.7630375111
 30
0.0
 10
14.1354025573
 20
11.6716635165
 30
0.0
 10
14.1596953448
 20
11.5993996037
 30
0.0
 10
14.1805976407
 20
11.5447904895
 30
0.0
 10
14.1966924046
 20
11.5061295176
 30
0.0
 10
14.2134035622
 20
11.4692353104
 30
0.0
 10
14.2307028593
 20
11.4341724149
 30
0.0
 10
14.2485597795
 20
11.4010020461
 30
0.0
 10
14.2669432323
 20
11.3697819597
 30
0.0
 10
14.2858220292
 20
11.3405668537
 30
0.0
 10
14.3051628296
 20
11.3134070338
 30
0.0
 10
14.3249340344
 20
11.288350594
 30
0.0
 10
14.3451007836
 20
11.2654401955
 30
0.0
 10
14.3656311083
 20
11.2447173135
 30
0.0
 10
14.3864895517
 20
11.2262174181
 30
0.0
 10
14.4076433933
 20
11.2099755022
 30
0.0
 10
14.4290570192
 20
11.1960210841
 30
0.0
 10
14.4506958351
 20
11.1843829095
 30
0.0
 10
14.4725228883
 20
11.1750857904
 30
0.0
 10
14.4944995437
 20
11.1681514969
 30
0.0
 10
14.5165847673
 20
11.1635991133
 30
0.0
 10
14.5387344154
 20
11.1614399569
 30
0.0
 10
14.5609026767
 20
11.161682742
 30
0.0
 10
14.5830431517
 20
11.1643241746
 30
0.0
 10
14.6051095017
 20
11.1693588735
 30
0.0
 10
14.6270603641
 20
11.1767710534
 30
0.0
 10
14.6566648767
 20
11.190044792
 30
0.0
 10
14.68537709
 20
11.2079714999
 30
0.0
 10
14.7129068023
 20
11.2297659296
 30
0.0
 10
14.7337049741
 20
11.2487182929
 30
0.0
 10
14.7541629852
 20
11.2698847636
 30
0.0
 10
14.7672541545
 20
11.2850972957
 30
0.0
 10
14.7737414915
 20
11.2930421636
 30
0.0
  0
SPLINE
  5
2BC
100
AcDbEntity
  8
02___PRT_ALL_AXES
100
AcDbSpline
 62
7
  6
CONTINUOUS
 70
0
 71
3
 72
28
 73
24
 74
0
 42
0.0000001
 43
0.0000001
 44
0.0000000001
 40
0.0
 40
0.0
 40
0.0
 40
0.0
 40
0.022910253
 40
0.0454449955
 40
0.0677236623
 40
0.0898711362
 40
0.112014933
 40
0.1342827335
 40
0.1567994808
 40
0.1796851489
 40
0.2030525826
 40
0.2270056094
 40
0.2770098096
 40
0.3303593094
 40
0.3875243486
 40
0.4488308955
 40
0.5144813152
 40
0.5845749623
 40
0.6591273658
 40
0.7380837637
 40
0.8213278067
 40
0.9087067175
 40
1.0
 40
1.0
 40
1.0
 40
1.0
 10
16.1447029738
 20
13.9749179881
 30
0.0
 10
16.1386490842
 20
13.9769443915
 30
0.0
 10
16.1264843497
 20
13.9805159437
 30
0.0
 10
16.1079969337
 20
13.9843982379
 30
0.0
 10
16.0894652868
 20
13.9867471583
 30
0.0
 10
16.0709120384
 20
13.9875598974
 30
0.0
 10
16.0523580416
 20
13.9868354587
 30
0.0
 10
16.0338249088
 20
13.9845736815
 30
0.0
 10
16.0153334917
 20
13.980779376
 30
0.0
 10
15.99690462
 20
13.9754571134
 30
0.0
 10
15.9785578636
 20
13.9686134701
 30
0.0
 10
15.953881742
 20
13.9573143348
 30
0.0
 10
15.9232491507
 20
13.9392045755
 30
0.0
 10
15.8877146717
 20
13.9118880504
 30
0.0
 10
15.8529929959
 20
13.8788079937
 30
0.0
 10
15.8192118622
 20
13.8401096616
 30
0.0
 10
15.7864916114
 20
13.7959511292
 30
0.0
 10
15.7549558076
 20
13.7465108226
 30
0.0
 10
15.7247270499
 20
13.6919873375
 30
0.0
 10
15.695926281
 20
13.6326013468
 30
0.0
 10
15.6686679374
 20
13.5685921418
 30
0.0
 10
15.6430659676
 20
13.5002236788
 30
0.0
 10
15.6274976157
 20
13.4529172907
 30
0.0
 10
15.6199867472
 20
13.4286121111
 30
0.0
  0
SPLINE
  5
2BD
100
AcDbEntity
  8
02___PRT_ALL_AXES
100
AcDbSpline
 62
7
  6
CONTINUOUS
 70
0
 71
3
 72
22
 73
18
 74
0
 42
0.0000001
 43
0.0000001
 44
0.0000000001
 40
0.0
 40
0.0
 40
0.0
 40
0.0
 40
0.1609795679
 40
0.2375738715
 40
0.3115040034
 40
0.3827409729
 40
0.4512721291
 40
0.5171005598
 40
0.5802493638
 40
0.6407610566
 40
0.6987043724
 40
0.7541731206
 40
0.8072929419
 40
0.8582216921
 40
0.9071540713
 40
0.9543230197
 40
1.0
 40
1.0
 40
1.0
 40
1.0
 10
16.5431880011
 20
11.4707117071
 30
0.0
 10
16.5326976576
 20
11.4445380144
 30
0.0
 10
16.5161786982
 20
11.4063075974
 30
0.0
 10
16.4921655829
 20
11.3573033486
 30
0.0
 10
16.4739041992
 20
11.3230097005
 30
0.0
 10
16.4551222543
 20
11.290620693
 30
0.0
 10
16.4358495111
 20
11.2601870476
 30
0.0
 10
16.4161153855
 20
11.2317576476
 30
0.0
 10
16.395951886
 20
11.2053768626
 30
0.0
 10
16.3753887141
 20
11.1810876966
 30
0.0
 10
16.3544589283
 20
11.1589278501
 30
0.0
 10
16.3331929632
 20
11.1389340981
 30
0.0
 10
16.3116238352
 20
11.1211382202
 30
0.0
 10
16.2897834549
 20
11.1055707763
 30
0.0
 10
16.2677040308
 20
11.0922586975
 30
0.0
 10
16.245422287
 20
11.0812270497
 30
0.0
 10
16.2302389056
 20
11.0753246069
 30
0.0
 10
16.2226517891
 20
11.0727848366
 30
0.0
  0
SPLINE
  5
2BE
100
AcDbEntity
  8
02___PRT_ALL_AXES
100
AcDbSpline
 62
7
  6
CONTINUOUS
 70
0
 71
3
 72
23
 73
19
 74
0
 42
0.0000001
 43
0.0000001
 44
0.0000000001
 40
0.0
 40
0.0
 40
0.0
 40
0.0
 40
0.0817839723
 40
0.1609990865
 40
0.2375919252
 40
0.3115206466
 40
0.3827565798
 40
0.4512869315
 40
0.5171142238
 40
0.5802618041
 40
0.6407722413
 40
0.6987141719
 40
0.7541815564
 40
0.8072997791
 40
0.8582269866
 40
0.9071576156
 40
0.9543248528
 40
1.0
 40
1.0
 40
1.0
 40
1.0
 10
16.5432042194
 20
13.5508574866
 30
0.0
 10
16.5378745263
 20
13.5641562401
 30
0.0
 10
16.5270254964
 20
13.5901949552
 30
0.0
 10
16.5098914715
 20
13.6281329319
 30
0.0
 10
16.4921794593
 20
13.6642792536
 30
0.0
 10
16.4739178064
 20
13.6985759509
 30
0.0
 10
16.4551349366
 20
13.7309682587
 30
0.0
 10
16.4358614433
 20
13.7614050849
 30
0.0
 10
16.4161263105
 20
13.7898373767
 30
0.0
 10
16.3959618045
 20
13.8162208106
 30
0.0
 10
16.3753976051
 20
13.8405124361
 30
0.0
 10
16.3544666141
 20
13.8626744098
 30
0.0
 10
16.3331995728
 20
13.8826702151
 30
0.0
 10
16.3116290959
 20
13.9004676535
 30
0.0
 10
16.2897875607
 20
13.9160366722
 30
0.0
 10
16.2677067275
 20
13.9293497644
 30
0.0
 10
16.2454237188
 20
13.9403824224
 30
0.0
 10
16.2302393761
 20
13.9462852406
 30
0.0
 10
16.2226517885
 20
13.9488251379
 30
0.0
  0
SPLINE
  5
2BF
100
AcDbEntity
  8
02___PRT_ALL_AXES
100
AcDbSpline
 62
7
  6
CONTINUOUS
 70
0
 71
3
 72
51
 73
47
 74
0
 42
0.0000001
 43
0.0000001
 44
0.0000000001
 40
0.0
 40
0.0
 40
0.0
 40
0.0
 40
0.0081714454
 40
0.0161957385
 40
0.0241301345
 40
0.0320343358
 40
0.0399688934
 40
0.0479935344
 40
0.0561654719
 40
0.0645381762
 40
0.0731603068
 40
0.0820750813
 40
0.0913202393
 40
0.1009276876
 40
0.1109242538
 40
0.1213315067
 40
0.1321665922
 40
0.1434424753
 40
0.1551682523
 40
0.1673499345
 40
0.1799901888
 40
0.193089343
 40
0.2066450501
 40
0.2206529291
 40
0.2351066795
 40
0.2499980496
 40
0.2810512447
 40
0.3137205666
 40
0.3478916827
 40
0.3834338098
 40
0.4202023121
 40
0.4580409341
 40
0.4967837796
 40
0.5362571118
 40
0.5762810488
 40
0.616671197
 40
0.6572402064
 40
0.6977992945
 40
0.7381597508
 40
0.7781344514
 40
0.8175394108
 40
0.8561952607
 40
0.8939293
 40
0.9305756893
 40
0.9659813465
 40
1.0
 40
1.0
 40
1.0
 40
1.0
 10
16.1447029748
 20
11.046691978
 30
0.0
 10
16.1377419761
 20
11.0443617491
 30
0.0
 10
16.1237374725
 20
11.0403353937
 30
0.0
 10
16.1024172027
 20
11.0362589013
 30
0.0
 10
16.0810451026
 20
11.0342191994
 30
0.0
 10
16.0596565799
 20
11.034222634
 30
0.0
 10
16.0382848128
 20
11.0362670528
 30
0.0
 10
16.01696355
 20
11.0403502819
 30
0.0
 10
15.9957248363
 20
11.0464621144
 30
0.0
 10
15.9745998897
 20
11.0545918904
 30
0.0
 10
15.9536183175
 20
11.0647247532
 30
0.0
 10
15.9328080351
 20
11.0768431793
 30
0.0
 10
15.9121972853
 20
11.0909292796
 30
0.0
 10
15.8918117477
 20
11.106960558
 30
0.0
 10
15.8716789347
 20
11.1249152501
 30
0.0
 10
15.8518240236
 20
11.1447671141
 30
0.0
 10
15.8322733568
 20
11.1664891897
 30
0.0
 10
15.8130527065
 20
11.1900517005
 30
0.0
 10
15.7941868347
 20
11.2154221271
 30
0.0
 10
15.7757019421
 20
11.2425665946
 30
0.0
 10
15.7576215519
 20
11.2714475001
 30
0.0
 10
15.7399711469
 20
11.3020261598
 30
0.0
 10
15.722773803
 20
11.3342605732
 30
0.0
 10
15.7060531927
 20
11.3681069535
 30
0.0
 10
15.6898320735
 20
11.4035193517
 30
0.0
 10
15.6686026175
 20
11.4534576718
 30
0.0
 10
15.6435491336
 20
11.5195197837
 30
0.0
 10
15.6162176381
 20
11.6031346837
 30
0.0
 10
15.591362051
 20
11.6917125178
 30
0.0
 10
15.5691188564
 20
11.7847693465
 30
0.0
 10
15.5496102824
 20
11.881798493
 30
0.0
 10
15.5329437774
 20
11.982270051
 30
0.0
 10
15.5192112343
 20
12.0856349295
 30
0.0
 10
15.50848841
 20
12.1913276985
 30
0.0
 10
15.5008343993
 20
12.298769884
 30
0.0
 10
15.4962914103
 20
12.4073732383
 30
0.0
 10
15.4948844991
 20
12.5165430482
 30
0.0
 10
15.496621439
 20
12.6256814408
 30
0.0
 10
15.5014926676
 20
12.734190704
 30
0.0
 10
15.5094713483
 20
12.8414766387
 30
0.0
 10
15.520513491
 20
12.9469517938
 30
0.0
 10
15.534558013
 20
13.0500392195
 30
0.0
 10
15.5515277078
 20
13.1501742497
 30
0.0
 10
15.5713287052
 20
13.2468117486
 30
0.0
 10
15.5938521933
 20
13.3394200026
 30
0.0
 10
15.6109639725
 20
13.3994144014
 30
0.0
 10
15.6199867472
 20
13.4286121111
 30
0.0
  0
SPLINE
  5
2C0
100
AcDbEntity
  8
02___PRT_ALL_AXES
100
AcDbSpline
 62
7
  6
CONTINUOUS
 70
0
 71
3
 72
28
 73
24
 74
0
 42
0.0000001
 43
0.0000001
 44
0.0000000001
 40
0.0
 40
0.0
 40
0.0
 40
0.0
 40
0.0229103438
 40
0.0454450179
 40
0.067723699
 40
0.089871177
 40
0.1120149863
 40
0.1342827661
 40
0.1567994896
 40
0.1796852356
 40
0.2030525804
 40
0.2270056371
 40
0.2770097821
 40
0.3303593849
 40
0.3875244532
 40
0.4488308738
 40
0.5144813164
 40
0.5845750017
 40
0.6591274967
 40
0.7380837007
 40
0.8213276188
 40
0.9087073739
 40
1.0
 40
1.0
 40
1.0
 40
1.0
 10
16.2226517885
 20
13.9488251379
 30
0.0
 10
16.2167057936
 20
13.9508155223
 30
0.0
 10
16.2047579574
 20
13.9543238494
 30
0.0
 10
16.1865998627
 20
13.9581363483
 30
0.0
 10
16.168398537
 20
13.9604435141
 30
0.0
 10
16.1501759226
 20
13.9612422741
 30
0.0
 10
16.1319526147
 20
13.9605299915
 30
0.0
 10
16.1137497484
 20
13.9583089818
 30
0.0
 10
16.095587811
 20
13.9545824163
 30
0.0
 10
16.077487545
 20
13.9493544786
 30
0.0
 10
16.0594675553
 20
13.942633333
 30
0.0
 10
16.0352313751
 20
13.9315352224
 30
0.0
 10
16.0051445006
 20
13.9137485512
 30
0.0
 10
15.9702434601
 20
13.8869185511
 30
0.0
 10
15.9361406126
 20
13.8544280223
 30
0.0
 10
15.9029613519
 20
13.8164195078
 30
0.0
 10
15.8708242916
 20
13.7730479109
 30
0.0
 10
15.8398505347
 20
13.7244886351
 30
0.0
 10
15.810160519
 20
13.6709368487
 30
0.0
 10
15.7818729551
 20
13.6126093051
 30
0.0
 10
15.7551003704
 20
13.5497406893
 30
0.0
 10
15.7299547344
 20
13.4825906098
 30
0.0
 10
15.7146637638
 20
13.4361272602
 30
0.0
 10
15.7072868029
 20
13.4122554061
 30
0.0
  0
SPLINE
  5
2C1
100
AcDbEntity
  8
02___PRT_ALL_AXES
100
AcDbSpline
 62
7
  6
CONTINUOUS
 70
0
 71
3
 72
39
 73
35
 74
0
 42
0.0000001
 43
0.0000001
 44
0.0000000001
 40
0.0
 40
0.0
 40
0.0
 40
0.0
 40
0.0423199328
 40
0.0831043387
 40
0.1223389992
 40
0.1600196378
 40
0.1961525744
 40
0.2307558163
 40
0.2638617418
 40
0.2955171137
 40
0.3257872076
 40
0.3547554852
 40
0.3825276497
 40
0.4092314551
 40
0.4350186683
 40
0.4600640925
 40
0.4845635747
 40
0.5087302191
 40
0.5327880967
 40
0.5569650983
 40
0.5814850911
 40
0.6065602751
 40
0.6323858198
 40
0.6591354257
 40
0.6869596054
 40
0.7159855264
 40
0.7463170788
 40
0.7780378534
 40
0.8112111071
 40
0.8458840532
 40
0.8820873422
 40
0.9198390386
 40
0.9591447838
 40
1.0
 40
1.0
 40
1.0
 40
1.0
 10
16.4440908898
 20
13.5502278028
 30
0.0
 10
16.4386291603
 20
13.5615471947
 30
0.0
 10
16.4275428025
 20
13.5836036954
 30
0.0
 10
16.4100840128
 20
13.6154752034
 30
0.0
 10
16.3921278718
 20
13.6454758636
 30
0.0
 10
16.3737047009
 20
13.6735548934
 30
0.0
 10
16.3548451885
 20
13.6996655025
 30
0.0
 10
16.3355794836
 20
13.7237632895
 30
0.0
 10
16.3159400862
 20
13.7458085742
 30
0.0
 10
16.2959571005
 20
13.7657628433
 30
0.0
 10
16.2756639102
 20
13.7835932578
 30
0.0
 10
16.2550911229
 20
13.7992670933
 30
0.0
 10
16.2342723816
 20
13.8127571144
 30
0.0
 10
16.2132400746
 20
13.824036429
 30
0.0
 10
16.1920289441
 20
13.8330820641
 30
0.0
 10
16.170675163
 20
13.8398738639
 30
0.0
 10
16.1492169695
 20
13.844393866
 30
0.0
 10
16.1276955153
 20
13.8466317031
 30
0.0
 10
16.1061533118
 20
13.8465785942
 30
0.0
 10
16.0846337102
 20
13.8442373646
 30
0.0
 10
16.0631796139
 20
13.8396120768
 30
0.0
 10
16.0418313556
 20
13.8327173897
 30
0.0
 10
16.0206277219
 20
13.8235687615
 30
0.0
 10
15.999604535
 20
13.8121876708
 30
0.0
 10
15.9787960368
 20
13.798597471
 30
0.0
 10
15.9582358492
 20
13.7828237294
 30
0.0
 10
15.9379554841
 20
13.7648960738
 30
0.0
 10
15.9179882915
 20
13.744844674
 30
0.0
 10
15.898364548
 20
13.722705197
 30
0.0
 10
15.8791174078
 20
13.6985138998
 30
0.0
 10
15.8602767488
 20
13.6723125595
 30
0.0
 10
15.8418744779
 20
13.6441443388
 30
0.0
 10
15.8239406325
 20
13.6140572781
 30
0.0
 10
15.8125353783
 20
13.5931538519
 30
0.0
 10
15.8069094471
 20
13.5824038227
 30
0.0
  0
SPLINE
  5
2C2
100
AcDbEntity
  8
02___PRT_ALL_AXES
100
AcDbSpline
 62
7
  6
CONTINUOUS
 70
0
 71
3
 72
11
 73
7
 74
0
 42
0.0000001
 43
0.0000001
 44
0.0000000001
 40
0.0
 40
0.0
 40
0.0
 40
0.0
 40
0.2351457826
 40
0.4803736095
 40
0.7354279444
 40
1.0
 40
1.0
 40
1.0
 40
1.0
 10
15.8054109491
 20
13.5795297291
 30
0.0
 10
15.7982919678
 20
13.5658243737
 30
0.0
 10
15.7843580132
 20
13.5375061923
 30
0.0
 10
15.7647404649
 20
13.4933560204
 30
0.0
 10
15.7460080311
 20
13.4467343393
 30
0.0
 10
15.7343487312
 20
13.4146521582
 30
0.0
 10
15.7286644299
 20
13.3982315369
 30
0.0
  0
SPLINE
  5
2C3
100
AcDbEntity
  8
02___PRT_ALL_AXES
100
AcDbSpline
 62
7
  6
CONTINUOUS
 70
0
 71
3
 72
39
 73
35
 74
0
 42
0.0000001
 43
0.0000001
 44
0.0000000001
 40
0.0
 40
0.0
 40
0.0
 40
0.0
 40
0.0415152145
 40
0.0814441743
 40
0.1197729936
 40
0.1564984965
 40
0.1916301697
 40
0.2251911713
 40
0.2572207588
 40
0.2877766857
 40
0.3169368506
 40
0.3448026722
 40
0.3714999381
 40
0.3971817135
 40
0.4220270908
 40
0.4462409392
 40
0.4700487933
 40
0.4936912323
 40
0.5174149564
 40
0.5414635626
 40
0.5660687424
 40
0.591442817
 40
0.6177741583
 40
0.645224687
 40
0.6739294091
 40
0.7039979974
 40
0.7355158612
 40
0.7685477711
 40
0.8031385306
 40
0.8393172875
 40
0.8770972403
 40
0.9164799122
 40
0.9574541748
 40
1.0
 40
1.0
 40
1.0
 40
1.0
 10
16.4437500285
 20
11.4706767826
 30
0.0
 10
16.4380157845
 20
11.4588132461
 30
0.0
 10
16.4263698277
 20
11.4357280351
 30
0.0
 10
16.4079863895
 20
11.4024428021
 30
0.0
 10
16.3890590253
 20
11.3712268333
 30
0.0
 10
16.3696219543
 20
11.3421385911
 30
0.0
 10
16.3497107438
 20
11.3152314405
 30
0.0
 10
16.3293611032
 20
11.2905552041
 30
0.0
 10
16.30860895
 20
11.2681559731
 30
0.0
 10
16.2874913066
 20
11.2480752016
 30
0.0
 10
16.2660440143
 20
11.2303520731
 30
0.0
 10
16.2443051478
 20
11.2150203162
 30
0.0
 10
16.2223111801
 20
11.2021134111
 30
0.0
 10
16.2001022348
 20
11.1916582328
 30
0.0
 10
16.1777180816
 20
11.1836828354
 30
0.0
 10
16.1552034434
 20
11.178206424
 30
0.0
 10
16.1326045895
 20
11.1752481657
 30
0.0
 10
16.1099716405
 20
11.1748150288
 30
0.0
 10
16.0873555174
 20
11.1769108501
 30
0.0
 10
16.06480647
 20
11.1815267007
 30
0.0
 10
16.042372768
 20
11.188649853
 30
0.0
 10
16.0200989926
 20
11.198259081
 30
0.0
 10
15.9980271206
 20
11.2103304739
 30
0.0
 10
15.976196673
 20
11.2248360699
 30
0.0
 10
15.9546453637
 20
11.2417447622
 30
0.0
 10
15.9334109778
 20
11.2610232641
 30
0.0
 10
15.912529403
 20
11.2826336306
 30
0.0
 10
15.8920383296
 20
11.3065360805
 30
0.0
 10
15.8719726412
 20
11.3326851349
 30
0.0
 10
15.8523698242
 20
11.361033365
 30
0.0
 10
15.8332637099
 20
11.3915274144
 30
0.0
 10
15.8146907516
 20
11.4241118561
 30
0.0
 10
15.7966836994
 20
11.4587251607
 30
0.0
 10
15.7852904293
 20
11.4826674151
 30
0.0
 10
15.7796863837
 20
11.4949534712
 30
0.0
  0
SPLINE
  5
2C4
100
AcDbEntity
  8
02___PRT_ALL_AXES
100
AcDbSpline
 62
7
  6
CONTINUOUS
 70
0
 71
3
 72
15
 73
11
 74
0
 42
0.0000001
 43
0.0000001
 44
0.0000000001
 40
0.0
 40
0.0
 40
0.0
 40
0.0
 40
0.1105335998
 40
0.2256164298
 40
0.3450712718
 40
0.468695185
 40
0.5962592531
 40
0.7275136316
 40
0.8621894152
 40
1.0
 40
1.0
 40
1.0
 40
1.0
 10
15.778634574
 20
11.4972656313
 30
0.0
 10
15.7715212313
 20
11.5129448304
 30
0.0
 10
15.7576573488
 20
11.5452492843
 30
0.0
 10
15.7382962602
 20
11.5954028046
 30
0.0
 10
15.7199925766
 20
11.6481149532
 30
0.0
 10
15.7027989251
 20
11.7032382361
 30
0.0
 10
15.6867626493
 20
11.7606192343
 30
0.0
 10
15.6719287601
 20
11.8200979766
 30
0.0
 10
15.6583393348
 20
11.8815080704
 30
0.0
 10
15.650221441
 20
11.9231737705
 30
0.0
 10
15.6463699622
 20
11.9442915887
 30
0.0
  0
SPLINE
  5
2C5
100
AcDbEntity
  8
02___PRT_ALL_AXES
100
AcDbSpline
 62
7
  6
CONTINUOUS
 70
0
 71
3
 72
15
 73
11
 74
0
 42
0.0000001
 43
0.0000001
 44
0.0000000001
 40
0.0
 40
0.0
 40
0.0
 40
0.0
 40
0.119598321
 40
0.2424660525
 40
0.3677670547
 40
0.4946347797
 40
0.6221835149
 40
0.7495193127
 40
0.8757507895
 40
1.0
 40
1.0
 40
1.0
 40
1.0
 10
15.645291281
 20
11.9502441114
 30
0.0
 10
15.6385671497
 20
11.9875899217
 30
0.0
 10
15.6265309143
 20
12.0635975705
 30
0.0
 10
15.6127861907
 20
12.1794975277
 30
0.0
 10
15.6031810292
 20
12.2981284458
 30
0.0
 10
15.5977959094
 20
12.4185108673
 30
0.0
 10
15.5966755524
 20
12.5396537247
 30
0.0
 10
15.599829411
 20
12.6605593451
 30
0.0
 10
15.6072308919
 20
12.7802293747
 30
0.0
 10
15.6150360902
 20
12.8593400507
 30
0.0
 10
15.6196600856
 20
12.8984898905
 30
0.0
  0
SPLINE
  5
2C6
100
AcDbEntity
  8
02___PRT_ALL_AXES
100
AcDbSpline
 62
7
  6
CONTINUOUS
 70
0
 71
3
 72
10
 73
6
 74
0
 42
0.0000001
 43
0.0000001
 44
0.0000000001
 40
0.0
 40
0.0
 40
0.0
 40
0.0
 40
0.5090574134
 40
0.7570687975
 40
1.0
 40
1.0
 40
1.0
 40
1.0
 10
15.6196600856
 20
12.8984898905
 30
0.0
 10
15.6248287705
 20
12.9422514369
 30
0.0
 10
15.6339142963
 20
13.007183008
 30
0.0
 10
15.6489124359
 20
13.0924426669
 30
0.0
 10
15.6572851921
 20
13.1341129774
 30
0.0
 10
15.6616907337
 20
13.1546752657
 30
0.0
  0
SPLINE
  5
2C7
100
AcDbEntity
  8
02___PRT_ALL_AXES
100
AcDbSpline
 62
7
  6
CONTINUOUS
 70
0
 71
3
 72
9
 73
5
 74
0
 42
0.0000001
 43
0.0000001
 44
0.0000000001
 40
0.0
 40
0.0
 40
0.0
 40
0.0
 40
0.5110589646
 40
1.0
 40
1.0
 40
1.0
 40
1.0
 10
15.6618718486
 20
13.1555198735
 30
0.0
 10
15.6687264384
 20
13.1874581572
 30
0.0
 10
15.6833790994
 20
13.2496944383
 30
0.0
 10
15.7007437869
 20
13.3112349287
 30
0.0
 10
15.7099708127
 20
13.3410935954
 30
0.0
  0
SPLINE
  5
2C8
100
AcDbEntity
  8
02___PRT_ALL_AXES
100
AcDbSpline
 62
7
  6
CONTINUOUS
 70
0
 71
3
 72
30
 73
26
 74
0
 42
0.0000001
 43
0.0000001
 44
0.0000000001
 40
0.0
 40
0.0
 40
0.0
 40
0.0
 40
0.0221713709
 40
0.0439627353
 40
0.0655066708
 40
0.086941314
 40
0.108407516
 40
0.1300452807
 40
0.1519906724
 40
0.1743726192
 40
0.1973106328
 40
0.2209136305
 40
0.2704617616
 40
0.296591262
 40
0.3237004068
 40
0.3518400202
 40
0.3810502136
 40
0.4427861178
 40
0.5090818877
 40
0.5799865199
 40
0.655461289
 40
0.7353950577
 40
0.8196170056
 40
0.9079063635
 40
1.0
 40
1.0
 40
1.0
 40
1.0
 10
16.2226517891
 20
11.0727848366
 30
0.0
 10
16.2163127185
 20
11.0706628468
 30
0.0
 10
16.2035684693
 20
11.0669549199
 30
0.0
 10
16.1841850526
 20
11.0630457757
 30
0.0
 10
16.1647549442
 20
11.0608510092
 30
0.0
 10
16.1453050274
 20
11.060375319
 30
0.0
 10
16.1258608737
 20
11.0616203234
 30
0.0
 10
16.1064482007
 20
11.0645821402
 30
0.0
 10
16.0870923715
 20
11.0692574209
 30
0.0
 10
16.067818033
 20
11.0756375603
 30
0.0
 10
16.0486475112
 20
11.083712886
 30
0.0
 10
16.0228453164
 20
11.0969364851
 30
0.0
 10
15.9977342874
 20
11.1134205662
 30
0.0
 10
15.9734622396
 20
11.1327066211
 30
0.0
 10
15.9551432221
 20
11.1490502985
 30
0.0
 10
15.9370593585
 20
11.1669943116
 30
0.0
 10
15.9128382117
 20
11.193515914
 30
0.0
 10
15.8833380843
 20
11.2307106879
 30
0.0
 10
15.8498400342
 20
11.2805265848
 30
0.0
 10
15.8177571017
 20
11.3360975913
 30
0.0
 10
15.7872353292
 20
11.3971658451
 30
0.0
 10
15.7584130276
 20
11.4634513505
 30
0.0
 10
15.7314235826
 20
11.5346474726
 30
0.0
 10
15.7063930689
 20
11.6104222599
 30
0.0
 10
15.6913896192
 20
11.6627144565
 30
0.0
 10
15.6842122287
 20
11.6895375968
 30
0.0
  0
SPLINE
  5
2C9
100
AcDbEntity
  8
02___PRT_ALL_AXES
100
AcDbSpline
 62
7
  6
CONTINUOUS
 70
0
 71
3
 72
10
 73
6
 74
0
 42
0.0000001
 43
0.0000001
 44
0.0000000001
 40
0.0
 40
0.0
 40
0.0
 40
0.0
 40
0.2416138891
 40
0.4891225918
 40
1.0
 40
1.0
 40
1.0
 40
1.0
 10
15.6839690919
 20
11.6904469814
 30
0.0
 10
15.6787120189
 20
11.7101256214
 30
0.0
 10
15.6685943537
 20
11.7501053005
 30
0.0
 10
15.6499379861
 20
11.832323629
 30
0.0
 10
15.6380218705
 20
11.895167543
 30
0.0
 10
15.630904843
 20
11.9376438597
 30
0.0
  0
SPLINE
  5
2CA
100
AcDbEntity
  8
02___PRT_ALL_AXES
100
AcDbSpline
 62
7
  6
CONTINUOUS
 70
0
 71
3
 72
11
 73
7
 74
0
 42
0.0000001
 43
0.0000001
 44
0.0000000001
 40
0.0
 40
0.0
 40
0.0
 40
0.0
 40
0.2497440738
 40
0.5016813161
 40
0.7527734905
 40
1.0
 40
1.0
 40
1.0
 40
1.0
 10
15.596811144
 20
12.2148416929
 30
0.0
 10
15.5921878935
 20
12.2717913704
 30
0.0
 10
15.5856696158
 20
12.3864325244
 30
0.0
 10
15.5839012766
 20
12.5587038618
 30
0.0
 10
15.5900843413
 20
12.7302972912
 30
0.0
 10
15.5995599525
 20
12.8439618692
 30
0.0
 10
15.6056636733
 20
12.9001926227
 30
0.0
  0
SPLINE
  5
2CB
100
AcDbEntity
  8
02___PRT_ALL_AXES
100
AcDbSpline
 62
7
  6
CONTINUOUS
 70
0
 71
3
 72
9
 73
5
 74
0
 42
0.0000001
 43
0.0000001
 44
0.0000000001
 40
0.0
 40
0.0
 40
0.0
 40
0.0
 40
0.5081315815
 40
1.0
 40
1.0
 40
1.0
 40
1.0
 10
15.6056636733
 20
12.9001926227
 30
0.0
 10
15.6106731793
 20
12.9463428816
 30
0.0
 10
15.6223948992
 20
13.036975379
 30
0.0
 10
15.6380799917
 20
13.1270125657
 30
0.0
 10
15.6468561172
 20
13.1710828202
 30
0.0
  0
SPLINE
  5
2CC
100
AcDbEntity
  8
02___PRT_ALL_AXES
100
AcDbSpline
 62
7
  6
CONTINUOUS
 70
0
 71
3
 72
11
 73
7
 74
0
 42
0.0000001
 43
0.0000001
 44
0.0000000001
 40
0.0
 40
0.0
 40
0.0
 40
0.0
 40
0.2590218197
 40
0.5123193449
 40
0.7594695498
 40
1.0
 40
1.0
 40
1.0
 40
1.0
 10
15.6468561172
 20
13.1710828202
 30
0.0
 10
15.6509483394
 20
13.1916323525
 30
0.0
 10
15.6595009626
 20
13.2321877195
 30
0.0
 10
15.6736036103
 20
13.2919889484
 30
0.0
 10
15.6888120586
 20
13.3499737393
 30
0.0
 10
15.6998182045
 20
13.3878631701
 30
0.0
 10
15.7055082387
 20
13.4064697974
 30
0.0
  0
SPLINE
  5
2CD
100
AcDbEntity
  8
0
100
AcDbSpline
 62
7
  6
CONTINUOUS
 70
0
 71
3
 72
15
 73
11
 74
0
 42
0.0000001
 43
0.0000001
 44
0.0000000001
 40
0.0
 40
0.0
 40
0.0
 40
0.0
 40
0.0789834087
 40
0.1655555482
 40
0.2650859504
 40
0.3804125256
 40
0.5124627681
 40
0.6608764837
 40
0.8242666012
 40
1.0
 40
1.0
 40
1.0
 40
1.0
 10
14.1341798751
 20
11.9375983734
 30
0.0
 10
14.1336384421
 20
11.9375986539
 30
0.0
 10
14.1324958996
 20
11.9378092863
 30
0.0
 10
14.1308908256
 20
11.9387113834
 30
0.0
 10
14.1293801326
 20
11.9401433564
 30
0.0
 10
14.1279728904
 20
11.9420721497
 30
0.0
 10
14.1266835154
 20
11.9444666129
 30
0.0
 10
14.1255321606
 20
11.9472880048
 30
0.0
 10
14.1245417384
 20
11.9504834447
 30
0.0
 10
14.1240151915
 20
11.9527498715
 30
0.0
 10
14.1237797774
 20
11.9539313019
 30
0.0
  0
SPLINE
  5
2CE
100
AcDbEntity
  8
0
100
AcDbSpline
 62
7
  6
CONTINUOUS
 70
0
 71
3
 72
15
 73
11
 74
0
 42
0.0000001
 43
0.0000001
 44
0.0000000001
 40
0.0
 40
0.0
 40
0.0
 40
0.0
 40
0.0880495407
 40
0.1812752135
 40
0.2839519297
 40
0.3989266369
 40
0.5278228301
 40
0.6713618997
 40
0.829100688
 40
1.0
 40
1.0
 40
1.0
 40
1.0
 10
14.1997743939
 20
11.6906551864
 30
0.0
 10
14.1993592768
 20
11.6906553514
 30
0.0
 10
14.198500839
 20
11.6907760637
 30
0.0
 10
14.1972563928
 20
11.6913018472
 30
0.0
 10
14.196054787
 20
11.6921575424
 30
0.0
 10
14.1949036235
 20
11.6933258682
 30
0.0
 10
14.1938098179
 20
11.6947943955
 30
0.0
 10
14.1927853505
 20
11.6965486179
 30
0.0
 10
14.1918383765
 20
11.6985658895
 30
0.0
 10
14.1912869054
 20
11.7000154085
 30
0.0
 10
14.1910244652
 20
11.7007771885
 30
0.0
  0
SPLINE
  5
2CF
100
AcDbEntity
  8
0
100
AcDbSpline
 62
7
  6
CONTINUOUS
 70
0
 71
3
 72
13
 73
9
 74
0
 42
0.0000001
 43
0.0000001
 44
0.0000000001
 40
0.0
 40
0.0
 40
0.0
 40
0.0
 40
0.1001464313
 40
0.2033293903
 40
0.4285667251
 40
0.5552006197
 40
0.6924416574
 40
1.0
 40
1.0
 40
1.0
 40
1.0
 10
14.2872230564
 20
11.4933614797
 30
0.0
 10
14.2869324092
 20
11.4933615457
 30
0.0
 10
14.2863408301
 20
11.4934192191
 30
0.0
 10
14.2851410817
 20
11.4937693052
 30
0.0
 10
14.2839928514
 20
11.4944694789
 30
0.0
 10
14.2829394464
 20
11.4954226869
 30
0.0
 10
14.281834957
 20
11.496663862
 30
0.0
 10
14.2811181114
 20
11.4977463432
 30
0.0
 10
14.2806730967
 20
11.4985201011
 30
0.0
  0
SPLINE
  5
2D0
100
AcDbEntity
  8
0
100
AcDbSpline
 62
7
  6
CONTINUOUS
 70
0
 71
3
 72
11
 73
7
 74
0
 42
0.0000001
 43
0.0000001
 44
0.0000000001
 40
0.0
 40
0.0
 40
0.0
 40
0.0
 40
0.2291443269
 40
0.4675375155
 40
0.7226245245
 40
1.0
 40
1.0
 40
1.0
 40
1.0
 10
14.3910311529
 20
11.3581123181
 30
0.0
 10
14.3906944237
 20
11.358112305
 30
0.0
 10
14.39000518
 20
11.35819084
 30
0.0
 10
14.3889936217
 20
11.3585360403
 30
0.0
 10
14.3880043206
 20
11.3590993625
 30
0.0
 10
14.3873927576
 20
11.3595927006
 30
0.0
 10
14.3870927185
 20
11.3598685964
 30
0.0
  0
SPLINE
  5
2D1
100
AcDbEntity
  8
0
100
AcDbSpline
 62
7
  6
CONTINUOUS
 70
0
 71
3
 72
17
 73
13
 74
0
 42
0.0000001
 43
0.0000001
 44
0.0000000001
 40
0.0
 40
0.0
 40
0.0
 40
0.0
 40
0.1740998189
 40
0.3380726149
 40
0.4883671547
 40
0.6227956731
 40
0.7400449959
 40
0.792234446
 40
0.8402756118
 40
0.9251422991
 40
0.9634183685
 40
1.0
 40
1.0
 40
1.0
 40
1.0
 10
14.0937189676
 20
12.8797610308
 30
0.0
 10
14.0938956657
 20
12.881194377
 30
0.0
 10
14.0943278563
 20
12.8839677706
 30
0.0
 10
14.0952325121
 20
12.8879203823
 30
0.0
 10
14.0963625149
 20
12.8914722534
 30
0.0
 10
14.0976863551
 20
12.8945393869
 30
0.0
 10
14.0989760351
 20
12.8967173328
 30
0.0
 10
14.1000962111
 20
12.8981356069
 30
0.0
 10
14.1011670403
 20
12.8992372251
 30
0.0
 10
14.1023398104
 20
12.9000796858
 30
0.0
 10
14.1035822661
 20
12.9005573594
 30
0.0
 10
14.1041978484
 20
12.9006692228
 30
0.0
 10
14.1045003735
 20
12.9006929326
 30
0.0
  0
SPLINE
  5
2D2
100
AcDbEntity
  8
0
100
AcDbSpline
 62
7
  6
CONTINUOUS
 70
0
 71
3
 72
15
 73
11
 74
0
 42
0.0000001
 43
0.0000001
 44
0.0000000001
 40
0.0
 40
0.0
 40
0.0
 40
0.0
 40
0.097438144
 40
0.2070576929
 40
0.3270103167
 40
0.4551706918
 40
0.5892176457
 40
0.7266067739
 40
0.8646058992
 40
1.0
 40
1.0
 40
1.0
 40
1.0
 10
14.0946494561
 20
12.8170851909
 30
0.0
 10
14.0941268862
 20
12.818039401
 30
0.0
 10
14.0931633383
 20
12.8201482753
 30
0.0
 10
14.0919935224
 20
12.8236117964
 30
0.0
 10
14.0910437416
 20
12.827495911
 30
0.0
 10
14.0903331006
 20
12.8317065852
 30
0.0
 10
14.0898806304
 20
12.8361481962
 30
0.0
 10
14.0896950873
 20
12.8407187366
 30
0.0
 10
14.089784742
 20
12.8453069559
 30
0.0
 10
14.0900264168
 20
12.8483522267
 30
0.0
 10
14.0901952883
 20
12.8498544891
 30
0.0
  0
SPLINE
  5
2D3
100
AcDbEntity
  8
0
100
AcDbSpline
 62
7
  6
CONTINUOUS
 70
0
 71
3
 72
9
 73
5
 74
0
 42
0.0000001
 43
0.0000001
 44
0.0000000001
 40
0.0
 40
0.0
 40
0.0
 40
0.0
 40
0.5149064503
 40
1.0
 40
1.0
 40
1.0
 40
1.0
 10
14.0946494561
 20
12.8170851909
 30
0.0
 10
14.0978442983
 20
12.8112514244
 30
0.0
 10
14.1043485466
 20
12.8000821349
 30
0.0
 10
14.1115206883
 20
12.7893260385
 30
0.0
 10
14.1151794406
 20
12.7842389228
 30
0.0
  0
SPLINE
  5
2D4
100
AcDbEntity
  8
0
100
AcDbSpline
 62
7
  6
CONTINUOUS
 70
0
 71
3
 72
9
 73
5
 74
0
 42
0.0000001
 43
0.0000001
 44
0.0000000001
 40
0.0
 40
0.0
 40
0.0
 40
0.0
 40
0.5359318031
 40
1.0
 40
1.0
 40
1.0
 40
1.0
 10
14.1182130382
 20
12.7781736226
 30
0.0
 10
14.117803335
 20
12.7793167621
 30
0.0
 10
14.1169349202
 20
12.7814148149
 30
0.0
 10
14.1157934033
 20
12.7833852713
 30
0.0
 10
14.1151794406
 20
12.7842389228
 30
0.0
  0
SPLINE
  5
2D5
100
AcDbEntity
  8
0
100
AcDbSpline
 62
7
  6
CONTINUOUS
 70
0
 71
3
 72
10
 73
6
 74
0
 42
0.0000001
 43
0.0000001
 44
0.0000000001
 40
0.0
 40
0.0
 40
0.0
 40
0.0
 40
0.4557599494
 40
0.7157459121
 40
1.0
 40
1.0
 40
1.0
 40
1.0
 10
14.1042630086
 20
12.6190923961
 30
0.0
 10
14.1049462135
 20
12.6193754683
 30
0.0
 10
14.1059321616
 20
12.6200369614
 30
0.0
 10
14.1070808464
 20
12.6211834298
 30
0.0
 10
14.1076343527
 20
12.6218746951
 30
0.0
 10
14.1079060815
 20
12.622247392
 30
0.0
  0
SPLINE
  5
2D6
100
AcDbEntity
  8
0
100
AcDbSpline
 62
7
  6
CONTINUOUS
 70
0
 71
3
 72
9
 73
5
 74
0
 42
0.0000001
 43
0.0000001
 44
0.0000000001
 40
0.0
 40
0.0
 40
0.0
 40
0.0
 40
0.4856881892
 40
1.0
 40
1.0
 40
1.0
 40
1.0
 10
14.1042630086
 20
12.6190923961
 30
0.0
 10
14.1001804825
 20
12.6174008837
 30
0.0
 10
14.0920132903
 20
12.6133232922
 30
0.0
 10
14.0844174274
 20
12.60827451
 30
0.0
 10
14.0806621937
 20
12.6054823712
 30
0.0
  0
SPLINE
  5
2D7
100
AcDbEntity
  8
0
100
AcDbSpline
 62
7
  6
CONTINUOUS
 70
0
 71
3
 72
15
 73
11
 74
0
 42
0.0000001
 43
0.0000001
 44
0.0000000001
 40
0.0
 40
0.0
 40
0.0
 40
0.0
 40
0.1571960137
 40
0.310501422
 40
0.4563638884
 40
0.5921247295
 40
0.7155697707
 40
0.8250932942
 40
0.9197950373
 40
1.0
 40
1.0
 40
1.0
 40
1.0
 10
14.0722466431
 20
12.5783228747
 30
0.0
 10
14.0722795319
 20
12.579849734
 30
0.0
 10
14.072435288
 20
12.582864496
 30
0.0
 10
14.0729340795
 20
12.5872729834
 30
0.0
 10
14.0736902226
 20
12.5914338024
 30
0.0
 10
14.0746811489
 20
12.5952468398
 30
0.0
 10
14.0758858225
 20
12.5986261642
 30
0.0
 10
14.0772755965
 20
12.6014998328
 30
0.0
 10
14.0788240044
 20
12.6038005942
 30
0.0
 10
14.0800368828
 20
12.6050174321
 30
0.0
 10
14.0806621937
 20
12.6054823712
 30
0.0
  0
SPLINE
  5
2D8
100
AcDbEntity
  8
0
100
AcDbSpline
 62
7
  6
CONTINUOUS
 70
0
 71
3
 72
15
 73
11
 74
0
 42
0.0000001
 43
0.0000001
 44
0.0000000001
 40
0.0
 40
0.0
 40
0.0
 40
0.0
 40
0.0841582822
 40
0.1826668125
 40
0.2950410104
 40
0.4199201098
 40
0.555429565
 40
0.6992173092
 40
0.848570149
 40
1.0
 40
1.0
 40
1.0
 40
1.0
 10
14.0792177029
 20
12.518210339
 30
0.0
 10
14.0786095432
 20
12.5188103161
 30
0.0
 10
14.0774498643
 20
12.5202753677
 30
0.0
 10
14.0759844479
 20
12.5228962695
 30
0.0
 10
14.0746935876
 20
12.5260583669
 30
0.0
 10
14.0736029605
 20
12.5296864833
 30
0.0
 10
14.0727396869
 20
12.5337013812
 30
0.0
 10
14.0721220121
 20
12.5380118428
 30
0.0
 10
14.0717690592
 20
12.5425136448
 30
0.0
 10
14.0717121663
 20
12.5455685333
 30
0.0
 10
14.0717299478
 20
12.547105614
 30
0.0
  0
SPLINE
  5
2D9
100
AcDbEntity
  8
0
100
AcDbSpline
 62
7
  6
CONTINUOUS
 70
0
 71
3
 72
9
 73
5
 74
0
 42
0.0000001
 43
0.0000001
 44
0.0000000001
 40
0.0
 40
0.0
 40
0.0
 40
0.0
 40
0.2625265122
 40
1.0
 40
1.0
 40
1.0
 40
1.0
 10
14.0792177029
 20
12.518210339
 30
0.0
 10
14.0810694573
 20
12.5163834994
 30
0.0
 10
14.0882761576
 20
12.5095846494
 30
0.0
 10
14.0961341752
 20
12.5034538008
 30
0.0
 10
14.1022836775
 20
12.4995068316
 30
0.0
  0
SPLINE
  5
2DA
100
AcDbEntity
  8
0
100
AcDbSpline
 62
7
  6
CONTINUOUS
 70
0
 71
3
 72
9
 73
5
 74
0
 42
0.0000001
 43
0.0000001
 44
0.0000000001
 40
0.0
 40
0.0
 40
0.0
 40
0.0
 40
0.5442779614
 40
1.0
 40
1.0
 40
1.0
 40
1.0
 10
14.1058093594
 20
12.4955693965
 30
0.0
 10
14.1053127422
 20
12.4963967829
 30
0.0
 10
14.1042910874
 20
12.4978568522
 30
0.0
 10
14.1029636478
 20
12.4990704025
 30
0.0
 10
14.1022836775
 20
12.4995068316
 30
0.0
  0
SPLINE
  5
2DB
100
AcDbEntity
  8
0
100
AcDbSpline
 62
7
  6
CONTINUOUS
 70
0
 71
3
 72
9
 73
5
 74
0
 42
0.0000001
 43
0.0000001
 44
0.0000000001
 40
0.0
 40
0.0
 40
0.0
 40
0.0
 40
0.4604814416
 40
1.0
 40
1.0
 40
1.0
 40
1.0
 10
14.1077037221
 20
12.3325772477
 30
0.0
 10
14.108347108
 20
12.3332978809
 30
0.0
 10
14.1095583018
 20
12.3350289899
 30
0.0
 10
14.110484198
 20
12.3369179164
 30
0.0
 10
14.1109267975
 20
12.3379596585
 30
0.0
  0
SPLINE
  5
2DC
100
AcDbEntity
  8
0
100
AcDbSpline
 62
7
  6
CONTINUOUS
 70
0
 71
3
 72
9
 73
5
 74
0
 42
0.0000001
 43
0.0000001
 44
0.0000000001
 40
0.0
 40
0.0
 40
0.0
 40
0.0
 40
0.4840151107
 40
1.0
 40
1.0
 40
1.0
 40
1.0
 10
14.1077037221
 20
12.3325772477
 30
0.0
 10
14.1038835595
 20
12.328298422
 30
0.0
 10
14.0963647259
 20
12.31912032
 30
0.0
 10
14.0895301756
 20
12.3094268238
 30
0.0
 10
14.086162425
 20
12.3043228818
 30
0.0
  0
SPLINE
  5
2DD
100
AcDbEntity
  8
0
100
AcDbSpline
 62
7
  6
CONTINUOUS
 70
0
 71
3
 72
15
 73
11
 74
0
 42
0.0000001
 43
0.0000001
 44
0.0000000001
 40
0.0
 40
0.0
 40
0.0
 40
0.0
 40
0.1406373009
 40
0.2823946047
 40
0.4219538107
 40
0.5565712898
 40
0.6837416646
 40
0.801254119
 40
0.9071744182
 40
1.0
 40
1.0
 40
1.0
 40
1.0
 10
14.0806415096
 20
12.2726423218
 30
0.0
 10
14.0805235613
 20
12.2741672473
 30
0.0
 10
14.0803831144
 20
12.2772373878
 30
0.0
 10
14.0804438789
 20
12.2818284545
 30
0.0
 10
14.0807782324
 20
12.2863424073
 30
0.0
 10
14.0813741721
 20
12.2906695184
 30
0.0
 10
14.0822195838
 20
12.2947106386
 30
0.0
 10
14.0832923201
 20
12.2983747821
 30
0.0
 10
14.084570624
 20
12.3015735575
 30
0.0
 10
14.0856064416
 20
12.3034802699
 30
0.0
 10
14.086162425
 20
12.3043228818
 30
0.0
  0
SPLINE
  5
2DE
100
AcDbEntity
  8
0
100
AcDbSpline
 62
7
  6
CONTINUOUS
 70
0
 71
3
 72
16
 73
12
 74
0
 42
0.0000001
 43
0.0000001
 44
0.0000000001
 40
0.0
 40
0.0
 40
0.0
 40
0.0
 40
0.0749003442
 40
0.1169995008
 40
0.1627651441
 40
0.2661908406
 40
0.3859628495
 40
0.5213559001
 40
0.6706357166
 40
0.8313830327
 40
1.0
 40
1.0
 40
1.0
 40
1.0
 10
14.0932151234
 20
12.218870182
 30
0.0
 10
14.0925846432
 20
12.2190579604
 30
0.0
 10
14.0916554377
 20
12.2195499502
 30
0.0
 10
14.0905526778
 20
12.2204611378
 30
0.0
 10
14.0893908265
 20
12.2216805483
 30
0.0
 10
14.0880421224
 20
12.2236359796
 30
0.0
 10
14.0866384869
 20
12.2264633755
 30
0.0
 10
14.0854190186
 20
12.2298061517
 30
0.0
 10
14.0844085689
 20
12.2335899484
 30
0.0
 10
14.083635844
 20
12.2377257192
 30
0.0
 10
14.0832937182
 20
12.2406005438
 30
0.0
 10
14.0831642643
 20
12.2420758374
 30
0.0
  0
SPLINE
  5
2DF
100
AcDbEntity
  8
0
100
AcDbSpline
 62
7
  6
CONTINUOUS
 70
0
 71
3
 72
9
 73
5
 74
0
 42
0.0000001
 43
0.0000001
 44
0.0000000001
 40
0.0
 40
0.0
 40
0.0
 40
0.0
 40
0.504542169
 40
1.0
 40
1.0
 40
1.0
 40
1.0
 10
14.0932151234
 20
12.218870182
 30
0.0
 10
14.0969534375
 20
12.2177567854
 30
0.0
 10
14.1045243117
 20
12.216052989
 30
0.0
 10
14.1122657878
 20
12.2154742054
 30
0.0
 10
14.1160961525
 20
12.2154741937
 30
0.0
  0
SPLINE
  5
2E0
100
AcDbEntity
  8
0
100
AcDbSpline
 62
7
  6
CONTINUOUS
 70
0
 71
3
 72
11
 73
7
 74
0
 42
0.0000001
 43
0.0000001
 44
0.0000000001
 40
0.0
 40
0.0
 40
0.0
 40
0.0
 40
0.2757910936
 40
0.5301763512
 40
0.7690542488
 40
1.0
 40
1.0
 40
1.0
 40
1.0
 10
14.1211640027
 20
12.213922479
 30
0.0
 10
14.1208721269
 20
12.2141743558
 30
0.0
 10
14.1202786019
 20
12.2146233398
 30
0.0
 10
14.1193237827
 20
12.2151289267
 30
0.0
 10
14.1183504119
 20
12.2154296286
 30
0.0
 10
14.1176905648
 20
12.2154899529
 30
0.0
 10
14.117367768
 20
12.2154846454
 30
0.0
  0
SPLINE
  5
2E1
100
AcDbEntity
  8
0
100
AcDbSpline
 62
7
  6
CONTINUOUS
 70
0
 71
3
 72
9
 73
5
 74
0
 42
0.0000001
 43
0.0000001
 44
0.0000000001
 40
0.0
 40
0.0
 40
0.0
 40
0.0
 40
0.4714682312
 40
1.0
 40
1.0
 40
1.0
 40
1.0
 10
14.138783728
 20
12.0572608039
 30
0.0
 10
14.1393264253
 20
12.0583482625
 30
0.0
 10
14.1403135272
 20
12.0607373631
 30
0.0
 10
14.1410491404
 20
12.0632118442
 30
0.0
 10
14.1413842881
 20
12.0645324331
 30
0.0
  0
SPLINE
  5
2E2
100
AcDbEntity
  8
0
100
AcDbSpline
 62
7
  6
CONTINUOUS
 70
0
 71
3
 72
9
 73
5
 74
0
 42
0.0000001
 43
0.0000001
 44
0.0000000001
 40
0.0
 40
0.0
 40
0.0
 40
0.0
 40
0.4877532879
 40
1.0
 40
1.0
 40
1.0
 40
1.0
 10
14.138783728
 20
12.0572608039
 30
0.0
 10
14.1355201361
 20
12.050721208
 30
0.0
 10
14.1291725322
 20
12.0371404066
 30
0.0
 10
14.1234451813
 20
12.0232882584
 30
0.0
 10
14.1206554675
 20
12.0161374229
 30
0.0
  0
SPLINE
  5
2E3
100
AcDbEntity
  8
0
100
AcDbSpline
 62
7
  6
CONTINUOUS
 70
0
 71
3
 72
15
 73
11
 74
0
 42
0.0000001
 43
0.0000001
 44
0.0000000001
 40
0.0
 40
0.0
 40
0.0
 40
0.0
 40
0.1255612675
 40
0.2564171422
 40
0.3895828843
 40
0.5223875833
 40
0.6522608185
 40
0.7767379183
 40
0.893431705
 40
1.0
 40
1.0
 40
1.0
 40
1.0
 10
14.1183760868
 20
11.9819264054
 30
0.0
 10
14.1181096028
 20
11.9833525056
 30
0.0
 10
14.1176722587
 20
11.9862854864
 30
0.0
 10
14.1172909098
 20
11.9907733773
 30
0.0
 10
14.1171821311
 20
11.9953599845
 30
0.0
 10
14.1173449702
 20
11.9999335573
 30
0.0
 10
14.1177775256
 20
12.0043888289
 30
0.0
 10
14.1184674139
 20
12.0086236749
 30
0.0
 10
14.1194015075
 20
12.0125351628
 30
0.0
 10
14.1202079452
 20
12.0149902949
 30
0.0
 10
14.1206554675
 20
12.0161374229
 30
0.0
  0
SPLINE
  5
2E4
100
AcDbEntity
  8
0
100
AcDbSpline
 62
7
  6
CONTINUOUS
 70
0
 71
3
 72
9
 73
5
 74
0
 42
0.0000001
 43
0.0000001
 44
0.0000000001
 40
0.0
 40
0.0
 40
0.0
 40
0.0
 40
0.4819995763
 40
1.0
 40
1.0
 40
1.0
 40
1.0
 10
14.1955501551
 20
11.8104422096
 30
0.0
 10
14.1959612907
 20
11.811811449
 30
0.0
 10
14.1966764917
 20
11.8146943468
 30
0.0
 10
14.1971641025
 20
11.8176229055
 30
0.0
 10
14.1973647973
 20
11.8191461538
 30
0.0
  0
SPLINE
  5
2E5
100
AcDbEntity
  8
0
100
AcDbSpline
 62
7
  6
CONTINUOUS
 70
0
 71
3
 72
9
 73
5
 74
0
 42
0.0000001
 43
0.0000001
 44
0.0000000001
 40
0.0
 40
0.0
 40
0.0
 40
0.0
 40
0.2437876133
 40
1.0
 40
1.0
 40
1.0
 40
1.0
 10
14.1955501551
 20
11.8104422096
 30
0.0
 10
14.1943074492
 20
11.8063035222
 30
0.0
 10
14.1893587357
 20
11.7892824242
 30
0.0
 10
14.1849881537
 20
11.7720946242
 30
0.0
 10
14.1819739966
 20
11.7590337467
 30
0.0
  0
SPLINE
  5
2E6
100
AcDbEntity
  8
0
100
AcDbSpline
 62
7
  6
CONTINUOUS
 70
0
 71
3
 72
15
 73
11
 74
0
 42
0.0000001
 43
0.0000001
 44
0.0000000001
 40
0.0
 40
0.0
 40
0.0
 40
0.0
 40
0.1114054885
 40
0.2317610531
 40
0.3585256566
 40
0.4892140842
 40
0.6213139033
 40
0.7522623833
 40
0.8794397937
 40
1.0
 40
1.0
 40
1.0
 40
1.0
 10
14.1830793724
 20
11.7244418757
 30
0.0
 10
14.1826755365
 20
11.7256762645
 30
0.0
 10
14.181959058
 20
11.728285373
 30
0.0
 10
14.1811598842
 20
11.7323912398
 30
0.0
 10
14.1806150775
 20
11.736765143
 30
0.0
 10
14.1803343137
 20
11.7413006458
 30
0.0
 10
14.1803263197
 20
11.7458935325
 30
0.0
 10
14.1805893018
 20
11.7504380779
 30
0.0
 10
14.1811204195
 20
11.7548235675
 30
0.0
 10
14.181657947
 20
11.7576642479
 30
0.0
 10
14.1819739966
 20
11.7590337467
 30
0.0
  0
SPLINE
  5
2E7
100
AcDbEntity
  8
0
100
AcDbSpline
 62
7
  6
CONTINUOUS
 70
0
 71
3
 72
9
 73
5
 74
0
 42
0.0000001
 43
0.0000001
 44
0.0000000001
 40
0.0
 40
0.0
 40
0.0
 40
0.0
 40
0.4914801447
 40
1.0
 40
1.0
 40
1.0
 40
1.0
 10
14.2744361601
 20
11.6076299847
 30
0.0
 10
14.2746965321
 20
11.6091873999
 30
0.0
 10
14.2751069097
 20
11.6123769431
 30
0.0
 10
14.2753031294
 20
11.6155862653
 30
0.0
 10
14.2753508637
 20
11.6172193432
 30
0.0
  0
SPLINE
  5
2E8
100
AcDbEntity
  8
0
100
AcDbSpline
 62
7
  6
CONTINUOUS
 70
0
 71
3
 72
15
 73
11
 74
0
 42
0.0000001
 43
0.0000001
 44
0.0000000001
 40
0.0
 40
0.0
 40
0.0
 40
0.0
 40
0.0975813745
 40
0.2073141195
 40
0.3273404759
 40
0.455529969
 40
0.5895584905
 40
0.7268807465
 40
0.8647651448
 40
1.0
 40
1.0
 40
1.0
 40
1.0
 10
14.270685821
 20
11.5163674327
 30
0.0
 10
14.2701643413
 20
11.5173249511
 30
0.0
 10
14.2692031153
 20
11.5194398043
 30
0.0
 10
14.2680367837
 20
11.5229111345
 30
0.0
 10
14.2670909132
 20
11.5268016184
 30
0.0
 10
14.2663845217
 20
11.5310170597
 30
0.0
 10
14.2659365401
 20
11.5354617064
 30
0.0
 10
14.2657556191
 20
11.5400334761
 30
0.0
 10
14.265849914
 20
11.5446210848
 30
0.0
 10
14.2660947077
 20
11.5476652362
 30
0.0
 10
14.2662651435
 20
11.5491666227
 30
0.0
  0
SPLINE
  5
2E9
100
AcDbEntity
  8
0
100
AcDbSpline
 62
7
  6
CONTINUOUS
 70
0
 71
3
 72
15
 73
11
 74
0
 42
0.0000001
 43
0.0000001
 44
0.0000000001
 40
0.0
 40
0.0
 40
0.0
 40
0.0
 40
0.0842876188
 40
0.1829140529
 40
0.2953736234
 40
0.4202936089
 40
0.5557924567
 40
0.6995146254
 40
0.8487457426
 40
1.0
 40
1.0
 40
1.0
 40
1.0
 10
14.3756907973
 20
11.3707771589
 30
0.0
 10
14.3750832879
 20
11.3713811956
 30
0.0
 10
14.3739253672
 20
11.3728536664
 30
0.0
 10
14.3724626413
 20
11.3754842127
 30
0.0
 10
14.3711749721
 20
11.3786548955
 30
0.0
 10
14.3700879941
 20
11.3822903064
 30
0.0
 10
14.369228767
 20
11.3863109957
 30
0.0
 10
14.3686154451
 20
11.3906255961
 30
0.0
 10
14.3682670426
 20
11.3951297714
 30
0.0
 10
14.3682132305
 20
11.3981855539
 30
0.0
 10
14.3682325855
 20
11.3997227742
 30
0.0
  0
SPLINE
  5
2EA
100
AcDbEntity
  8
0
100
AcDbSpline
 62
7
  6
CONTINUOUS
 70
0
 71
3
 72
16
 73
12
 74
0
 42
0.0000001
 43
0.0000001
 44
0.0000000001
 40
0.0
 40
0.0
 40
0.0
 40
0.0
 40
0.0749435193
 40
0.1170881411
 40
0.1629056161
 40
0.2664320202
 40
0.3862732588
 40
0.5216849354
 40
0.6709221446
 40
0.8315599398
 40
1.0
 40
1.0
 40
1.0
 40
1.0
 10
14.4914964524
 20
11.2968190267
 30
0.0
 10
14.4908657117
 20
11.29701119
 30
0.0
 10
14.489937182
 20
11.2975095501
 30
0.0
 10
14.4888356191
 20
11.2984279308
 30
0.0
 10
14.4876751604
 20
11.2996550174
 30
0.0
 10
14.4863286473
 20
11.3016191292
 30
0.0
 10
14.4849278835
 20
11.3044558103
 30
0.0
 10
14.483711781
 20
11.3078067165
 30
0.0
 10
14.4827051404
 20
11.3115972757
 30
0.0
 10
14.4819365852
 20
11.3157382407
 30
0.0
 10
14.4815973025
 20
11.3186158837
 30
0.0
 10
14.4814693332
 20
11.3200923077
 30
0.0
  0
SPLINE
  5
2EB
100
AcDbEntity
  8
0
100
AcDbSpline
 62
7
  6
CONTINUOUS
 70
0
 71
3
 72
11
 73
7
 74
0
 42
0.0000001
 43
0.0000001
 44
0.0000000001
 40
0.0
 40
0.0
 40
0.0
 40
0.0
 40
0.2320780001
 40
0.4792310035
 40
0.7370658746
 40
1.0
 40
1.0
 40
1.0
 40
1.0
 10
14.2986313258
 20
13.4034522784
 30
0.0
 10
14.2998242088
 20
13.4077490866
 30
0.0
 10
14.3019089426
 20
13.4167293602
 30
0.0
 10
14.3041303552
 20
13.4307265539
 30
0.0
 10
14.3055049256
 20
13.4454270254
 30
0.0
 10
14.3058401247
 20
13.4554347168
 30
0.0
 10
14.3058598708
 20
13.4604868903
 30
0.0
  0
SPLINE
  5
2EC
100
AcDbEntity
  8
0
100
AcDbSpline
 62
7
  6
CONTINUOUS
 70
0
 71
3
 72
15
 73
11
 74
0
 42
0.0000001
 43
0.0000001
 44
0.0000000001
 40
0.0
 40
0.0
 40
0.0
 40
0.0
 40
0.0981030856
 40
0.2076917122
 40
0.3272808962
 40
0.4549786334
 40
0.5885313328
 40
0.725586632
 40
0.8637015235
 40
1.0
 40
1.0
 40
1.0
 40
1.0
 10
14.2065414379
 20
13.1714544784
 30
0.0
 10
14.2081981437
 20
13.1745421769
 30
0.0
 10
14.2112649792
 20
13.181318324
 30
0.0
 10
14.2150035159
 20
13.1924088473
 30
0.0
 10
14.2180773738
 20
13.2047927191
 30
0.0
 10
14.2204139082
 20
13.218203566
 30
0.0
 10
14.2219651856
 20
13.2323543903
 30
0.0
 10
14.2226948629
 20
13.2469434279
 30
0.0
 10
14.2225827928
 20
13.2616475216
 30
0.0
 10
14.221947108
 20
13.2714351885
 30
0.0
 10
14.2214827002
 20
13.2762813394
 30
0.0
  0
SPLINE
  5
2ED
100
AcDbEntity
  8
0
100
AcDbSpline
 62
7
  6
CONTINUOUS
 70
0
 71
3
 72
26
 73
22
 74
0
 42
0.0000001
 43
0.0000001
 44
0.0000000001
 40
0.0
 40
0.0
 40
0.0
 40
0.0
 40
0.0202800854
 40
0.0417808511
 40
0.064510418
 40
0.0884637887
 40
0.1136251202
 40
0.1399621727
 40
0.1959802324
 40
0.2561101755
 40
0.3198156559
 40
0.3864841694
 40
0.4554385177
 40
0.5259556903
 40
0.5972838055
 40
0.6686562994
 40
0.7393025209
 40
0.8084554126
 40
0.8753997858
 40
0.9394799662
 40
1.0
 40
1.0
 40
1.0
 40
1.0
 10
16.6360023451
 20
12.2568345284
 30
0.0
 10
16.6340861823
 20
12.2591297716
 30
0.0
 10
16.6303137398
 20
12.2640066152
 30
0.0
 10
16.6249859238
 20
12.271891702
 30
0.0
 10
16.6198392164
 20
12.2805325972
 30
0.0
 10
16.614890176
 20
12.2899022117
 30
0.0
 10
16.6101556205
 20
12.2999725444
 30
0.0
 10
16.6040206441
 20
12.3145928781
 30
0.0
 10
16.5970376197
 20
12.3344265365
 30
0.0
 10
16.5898898268
 20
12.3599776623
 30
0.0
 10
16.5838968048
 20
12.3874320368
 30
0.0
 10
16.57913658
 20
12.4164439252
 30
0.0
 10
16.5756706482
 20
12.446648712
 30
0.0
 10
16.5735413954
 20
12.477664985
 30
0.0
 10
16.5727811518
 20
12.509101239
 30
0.0
 10
16.5733941303
 20
12.5405596767
 30
0.0
 10
16.575375394
 20
12.5716406704
 30
0.0
 10
16.5786984402
 20
12.6019508455
 30
0.0
 10
16.5833238255
 20
12.6311115539
 30
0.0
 10
16.5891875784
 20
12.6587490056
 30
0.0
 10
16.5940204293
 20
12.6764863019
 30
0.0
 10
16.5966548181
 20
12.6850111865
 30
0.0
  0
SPLINE
  5
2EE
100
AcDbEntity
  8
0
100
AcDbSpline
 62
7
  6
CONTINUOUS
 70
0
 71
3
 72
9
 73
5
 74
0
 42
0.0000001
 43
0.0000001
 44
0.0000000001
 40
0.0
 40
0.0
 40
0.0
 40
0.0
 40
0.518234574
 40
1.0
 40
1.0
 40
1.0
 40
1.0
 10
16.6254177995
 20
12.7496426219
 30
0.0
 10
16.6277063242
 20
12.751480766
 30
0.0
 10
16.6323533451
 20
12.7547548157
 30
0.0
 10
16.637456356
 20
12.7572810702
 30
0.0
 10
16.6400013564
 20
12.7582654968
 30
0.0
  0
SPLINE
  5
2EF
100
AcDbEntity
  8
0
100
AcDbSpline
 62
7
  6
CONTINUOUS
 70
0
 71
3
 72
9
 73
5
 74
0
 42
0.0000001
 43
0.0000001
 44
0.0000000001
 40
0.0
 40
0.0
 40
0.0
 40
0.0
 40
0.5046250011
 40
1.0
 40
1.0
 40
1.0
 40
1.0
 10
16.6431619684
 20
12.7593523501
 30
0.0
 10
16.6450152837
 20
12.7599103673
 30
0.0
 10
16.6487698686
 20
12.7607638152
 30
0.0
 10
16.6526106713
 20
12.7610538964
 30
0.0
 10
16.6545106928
 20
12.7610540411
 30
0.0
  0
SPLINE
  5
2F0
100
AcDbEntity
  8
0
100
AcDbSpline
 62
7
  6
CONTINUOUS
 70
0
 71
3
 72
18
 73
14
 74
0
 42
0.0000001
 43
0.0000001
 44
0.0000000001
 40
0.0
 40
0.0
 40
0.0
 40
0.0
 40
0.1491026397
 40
0.2896176489
 40
0.4221056161
 40
0.4855959957
 40
0.5473946406
 40
0.66641834
 40
0.780475103
 40
0.8361329272
 40
0.8911287187
 40
0.945677214
 40
1.0
 40
1.0
 40
1.0
 40
1.0
 10
16.8255856861
 20
11.5691795536
 30
0.0
 10
16.8191101706
 20
11.5614219373
 30
0.0
 10
16.8060143581
 20
11.546772765
 30
0.0
 10
16.7853126519
 20
11.526984828
 30
0.0
 10
16.7674677634
 20
11.5127247186
 30
0.0
 10
16.7530275342
 20
11.5028787378
 30
0.0
 10
16.7388703446
 20
11.494279734
 30
0.0
 10
16.7209544534
 20
11.4853195279
 30
0.0
 10
16.7024591736
 20
11.4787531447
 30
0.0
 10
16.6876625532
 20
11.4751077143
 30
0.0
 10
16.6766265326
 20
11.4731673724
 30
0.0
 10
16.665573661
 20
11.4720018921
 30
0.0
 10
16.658192542
 20
11.4717424376
 30
0.0
 10
16.6545109383
 20
11.4717425125
 30
0.0
  0
SPLINE
  5
2F1
100
AcDbEntity
  8
0
100
AcDbSpline
 62
7
  6
CONTINUOUS
 70
0
 71
3
 72
32
 73
28
 74
0
 42
0.0000001
 43
0.0000001
 44
0.0000000001
 40
0.0
 40
0.0
 40
0.0
 40
0.0
 40
0.0202801553
 40
0.0417789448
 40
0.0645072895
 40
0.08846133
 40
0.1136206853
 40
0.1399558322
 40
0.1674262536
 40
0.1959815605
 40
0.2255661408
 40
0.2561154159
 40
0.3198192986
 40
0.3864858478
 40
0.420723193
 40
0.4554428438
 40
0.4905537299
 40
0.5259621175
 40
0.5972864993
 40
0.6686524582
 40
0.7392917555
 40
0.8084492409
 40
0.8753920475
 40
0.9078247128
 40
0.9394596534
 40
0.9702137624
 40
1.0
 40
1.0
 40
1.0
 40
1.0
 10
16.84827837
 20
13.4252437083
 30
0.0
 10
16.8551773605
 20
13.4169786764
 30
0.0
 10
16.8687587646
 20
13.3994183138
 30
0.0
 10
16.887944484
 20
13.371029648
 30
0.0
 10
16.9064758465
 20
13.3399174156
 30
0.0
 10
16.9242910992
 20
13.3061790569
 30
0.0
 10
16.9413406054
 20
13.269921754
 30
0.0
 10
16.9575670991
 20
13.2312577013
 30
0.0
 10
16.9729200783
 20
13.1903088311
 30
0.0
 10
16.9873538133
 20
13.1472049914
 30
0.0
 10
17.000818262
 20
13.1020808618
 30
0.0
 10
17.0176604809
 20
13.038524799
 30
0.0
 10
17.035886004
 20
12.9550165202
 30
0.0
 10
17.0500420616
 20
12.8687481117
 30
0.0
 10
17.0591332177
 20
12.7973212337
 30
0.0
 10
17.0648179749
 20
12.7423633664
 30
0.0
 10
17.0692869637
 20
12.6866698782
 30
0.0
 10
17.0736195415
 20
12.6114897285
 30
0.0
 10
17.0759106419
 20
12.5169378658
 30
0.0
 10
17.073702444
 20
12.4036751909
 30
0.0
 10
17.0665692637
 20
12.2917655124
 30
0.0
 10
17.0546026869
 20
12.1826307896
 30
0.0
 10
17.0405887375
 20
12.0942252851
 30
0.0
 10
17.0270050927
 20
12.026008758
 30
0.0
 10
17.0158282664
 20
11.9769207619
 30
0.0
 10
17.0035962925
 20
11.9295349002
 30
0.0
 10
16.994617691
 20
11.8986692184
 30
0.0
 10
16.9899491098
 20
11.8835616843
 30
0.0
  0
SPLINE
  5
2F2
100
AcDbEntity
  8
0
100
AcDbSpline
 62
7
  6
CONTINUOUS
 70
0
 71
3
 72
9
 73
5
 74
0
 42
0.0000001
 43
0.0000001
 44
0.0000000001
 40
0.0
 40
0.0
 40
0.0
 40
0.0
 40
0.4920434456
 40
1.0
 40
1.0
 40
1.0
 40
1.0
 10
16.6545106927
 20
12.2605559447
 30
0.0
 10
16.6519970988
 20
12.2605557533
 30
0.0
 10
16.6468762869
 20
12.2610692002
 30
0.0
 10
16.6419568162
 20
12.2625618531
 30
0.0
 10
16.6395468204
 20
12.2635238054
 30
0.0
  0
SPLINE
  5
2F3
100
AcDbEntity
  8
0
100
AcDbSpline
 62
7
  6
CONTINUOUS
 70
0
 71
3
 72
9
 73
5
 74
0
 42
0.0000001
 43
0.0000001
 44
0.0000000001
 40
0.0
 40
0.0
 40
0.0
 40
0.0
 40
0.4831326647
 40
1.0
 40
1.0
 40
1.0
 40
1.0
 10
16.6395468204
 20
12.2635238054
 30
0.0
 10
16.6371955642
 20
12.2644623117
 30
0.0
 10
16.6324855183
 20
12.2668121017
 30
0.0
 10
16.6281646269
 20
12.2698059111
 30
0.0
 10
16.6260339739
 20
12.2714779783
 30
0.0
  0
SPLINE
  5
2F4
100
AcDbEntity
  8
AXIS
100
AcDbSpline
 62
7
  6
CONTINUOUS
 70
0
 71
3
 72
9
 73
5
 74
0
 42
0.0000001
 43
0.0000001
 44
0.0000000001
 40
0.0
 40
0.0
 40
0.0
 40
0.0
 40
0.4973973919
 40
1.0
 40
1.0
 40
1.0
 40
1.0
 10
16.1437212097
 20
11.4303462275
 30
0.0
 10
16.1504468304
 20
11.4301969334
 30
0.0
 10
16.1640000346
 20
11.4307323353
 30
0.0
 10
16.1773832783
 20
11.4329255371
 30
0.0
 10
16.1840156354
 20
11.4344155924
 30
0.0
  0
SPLINE
  5
2F5
100
AcDbEntity
  8
AXIS
100
AcDbSpline
 62
7
  6
CONTINUOUS
 70
0
 71
3
 72
11
 73
7
 74
0
 42
0.0000001
 43
0.0000001
 44
0.0000000001
 40
0.0
 40
0.0
 40
0.0
 40
0.0
 40
0.2371058298
 40
0.4814875167
 40
0.735201913
 40
1.0
 40
1.0
 40
1.0
 40
1.0
 10
16.1845309798
 20
11.4345321914
 30
0.0
 10
16.1909100245
 20
11.4359856235
 30
0.0
 10
16.2037072064
 20
11.4396691693
 30
0.0
 10
16.2225330012
 20
11.4473179494
 30
0.0
 10
16.2411869777
 20
11.4571396874
 30
0.0
 10
16.2532073838
 20
11.4649378289
 30
0.0
 10
16.2591711164
 20
11.4691593224
 30
0.0
  0
SPLINE
  5
2F6
100
AcDbEntity
  8
AXIS
100
AcDbSpline
 62
7
  6
CONTINUOUS
 70
0
 71
3
 72
14
 73
10
 74
0
 42
0.0000001
 43
0.0000001
 44
0.0000000001
 40
0.0
 40
0.0
 40
0.0
 40
0.0
 40
0.1177380091
 40
0.2360840148
 40
0.3558296963
 40
0.477736001
 40
0.6025100929
 40
0.7307962847
 40
1.0
 40
1.0
 40
1.0
 40
1.0
 10
16.1437212076
 20
13.5912641317
 30
0.0
 10
16.1486391912
 20
13.5913728121
 30
0.0
 10
16.1585161384
 20
13.5911458054
 30
0.0
 10
16.1733070198
 20
13.5894693138
 30
0.0
 10
16.1880635284
 20
13.5864591219
 30
0.0
 10
16.2027633341
 20
13.5821181531
 30
0.0
 10
16.2173893007
 20
13.5764551518
 30
0.0
 10
16.2370769361
 20
13.5670078412
 30
0.0
 10
16.2512117679
 20
13.5581554275
 30
0.0
 10
16.2603566832
 20
13.5516073265
 30
0.0
  0
SPLINE
  5
2F7
100
AcDbEntity
  8
0
100
AcDbSpline
 62
7
  6
CONTINUOUS
 70
0
 71
3
 72
17
 73
13
 74
0
 42
0.0000001
 43
0.0000001
 44
0.0000000001
 40
0.0
 40
0.0
 40
0.0
 40
0.0
 40
0.1739374361
 40
0.3378197312
 40
0.4880932254
 40
0.622561479
 40
0.7398958057
 40
0.7921361934
 40
0.8402278
 40
0.925167918
 40
0.9634477037
 40
1.0
 40
1.0
 40
1.0
 40
1.0
 10
14.5210530749
 20
13.7116295407
 30
0.0
 10
14.5212283403
 20
13.7130643352
 30
0.0
 10
14.5216578118
 20
13.7158411522
 30
0.0
 10
14.5225584881
 20
13.7197998401
 30
0.0
 10
14.5236849155
 20
13.7233592557
 30
0.0
 10
14.5250056624
 20
13.726435189
 30
0.0
 10
14.5262929753
 20
13.7286214258
 30
0.0
 10
14.5274115551
 20
13.730047049
 30
0.0
 10
14.5284811454
 20
13.7311557322
 30
0.0
 10
14.5296525874
 20
13.7320059134
 30
0.0
 10
14.5308946888
 20
13.7324921184
 30
0.0
 10
14.5315103975
 20
13.7326082356
 30
0.0
 10
14.531813061
 20
13.7326339972
 30
0.0
  0
SPLINE
  5
2F8
100
AcDbEntity
  8
0
100
AcDbSpline
 62
7
  6
CONTINUOUS
 70
0
 71
3
 72
17
 73
13
 74
0
 42
0.0000001
 43
0.0000001
 44
0.0000000001
 40
0.0
 40
0.0
 40
0.0
 40
0.0
 40
0.0543264701
 40
0.1088786143
 40
0.2194761719
 40
0.3335403699
 40
0.4525706497
 40
0.5143723842
 40
0.5778664119
 40
0.710364703
 40
0.8508891434
 40
1.0
 40
1.0
 40
1.0
 40
1.0
 10
16.6545109383
 20
13.5498674734
 30
0.0
 10
16.6581925603
 20
13.5498673984
 30
0.0
 10
16.6655739701
 20
13.54960763
 30
0.0
 10
16.6803751222
 20
13.5480477401
 30
0.0
 10
16.6989474045
 20
13.5441059851
 30
0.0
 10
16.7209524637
 20
13.5362902957
 30
0.0
 10
16.738870529
 20
13.5273301446
 30
0.0
 10
16.7530274298
 20
13.5187314527
 30
0.0
 10
16.7674678411
 20
13.5088854945
 30
0.0
 10
16.7853123029
 20
13.494624665
 30
0.0
 10
16.8060144583
 20
13.474837093
 30
0.0
 10
16.8191104234
 20
13.4601880826
 30
0.0
 10
16.8255858447
 20
13.4524304895
 30
0.0
  0
SPLINE
  5
2F9
100
AcDbEntity
  8
0
100
AcDbSpline
 62
7
  6
CONTINUOUS
 70
0
 71
3
 72
15
 73
11
 74
0
 42
0.0000001
 43
0.0000001
 44
0.0000000001
 40
0.0
 40
0.0
 40
0.0
 40
0.0
 40
0.1570159741
 40
0.3101994279
 40
0.4559996988
 40
0.5917558906
 40
0.7152487423
 40
0.8248628563
 40
0.9196813225
 40
1.0
 40
1.0
 40
1.0
 40
1.0
 10
14.4055934539
 20
13.6569603144
 30
0.0
 10
14.4056247883
 20
13.6584876542
 30
0.0
 10
14.4057775218
 20
13.6615039775
 30
0.0
 10
14.40627186
 20
13.6659158202
 30
0.0
 10
14.4070238052
 20
13.6700817069
 30
0.0
 10
14.4080108927
 20
13.6739013842
 30
0.0
 10
14.4092121677
 20
13.6772887443
 30
0.0
 10
14.4105990162
 20
13.6801716078
 30
0.0
 10
14.4121449742
 20
13.682482467
 30
0.0
 10
14.4133563251
 20
13.683707203
 30
0.0
 10
14.4139812312
 20
13.684176407
 30
0.0
  0
SPLINE
  5
2FA
100
AcDbEntity
  8
0
100
AcDbSpline
 62
7
  6
CONTINUOUS
 70
0
 71
3
 72
11
 73
7
 74
0
 42
0.0000001
 43
0.0000001
 44
0.0000000001
 40
0.0
 40
0.0
 40
0.0
 40
0.0
 40
0.2983118037
 40
0.5590084273
 40
0.7885389902
 40
1.0
 40
1.0
 40
1.0
 40
1.0
 10
14.3150851454
 20
13.5775983335
 30
0.0
 10
14.3154895721
 20
13.5781795627
 30
0.0
 10
14.3163205389
 20
13.579221957
 30
0.0
 10
14.3177392848
 20
13.5804627692
 30
0.0
 10
14.3192355392
 20
13.5812391686
 30
0.0
 10
14.320288706
 20
13.5814189527
 30
0.0
 10
14.3207906404
 20
13.5814190337
 30
0.0
  0
SPLINE
  5
2FB
100
AcDbEntity
  8
0
100
AcDbSpline
 62
7
  6
CONTINUOUS
 70
0
 71
3
 72
15
 73
11
 74
0
 42
0.0000001
 43
0.0000001
 44
0.0000000001
 40
0.0
 40
0.0
 40
0.0
 40
0.0
 40
0.1404728035
 40
0.2821127937
 40
0.4216049056
 40
0.5562056324
 40
0.6834080682
 40
0.800997499
 40
0.907032999
 40
1.0
 40
1.0
 40
1.0
 40
1.0
 10
14.2990556178
 20
13.530273934
 30
0.0
 10
14.2989360913
 20
13.5317983258
 30
0.0
 10
14.298792516
 20
13.5348680292
 30
0.0
 10
14.2988486373
 20
13.5394594994
 30
0.0
 10
14.2991784269
 20
13.5439756844
 30
0.0
 10
14.2997699969
 20
13.5483067963
 30
0.0
 10
14.3006113348
 20
13.5523535856
 30
0.0
 10
14.3016803852
 20
13.5560249096
 30
0.0
 10
14.302955468
 20
13.5592321918
 30
0.0
 10
14.3039891412
 20
13.5611453898
 30
0.0
 10
14.3045441514
 20
13.5619915756
 30
0.0
  0
SPLINE
  5
2FC
100
AcDbEntity
  8
0
100
AcDbSpline
 62
7
  6
CONTINUOUS
 70
0
 71
3
 72
9
 73
5
 74
0
 42
0.0000001
 43
0.0000001
 44
0.0000000001
 40
0.0
 40
0.0
 40
0.0
 40
0.0
 40
0.2534366254
 40
1.0
 40
1.0
 40
1.0
 40
1.0
 10
14.3058598708
 20
13.4604868903
 30
0.0
 10
14.3058630987
 20
13.4613127596
 30
0.0
 10
14.3058232689
 20
13.4645713269
 30
0.0
 10
14.3055772813
 20
13.4678282277
 30
0.0
 10
14.305265332
 20
13.4702409762
 30
0.0
  0
SPLINE
  5
2FD
100
AcDbEntity
  8
0
100
AcDbSpline
 62
7
  6
CONTINUOUS
 70
0
 71
3
 72
15
 73
11
 74
0
 42
0.0000001
 43
0.0000001
 44
0.0000000001
 40
0.0
 40
0.0
 40
0.0
 40
0.0
 40
0.1678686921
 40
0.2470434696
 40
0.3229238181
 40
0.5300977928
 40
0.7076334075
 40
0.8607349226
 40
0.9313138417
 40
1.0
 40
1.0
 40
1.0
 40
1.0
 10
14.219076558
 20
13.3956049453
 30
0.0
 10
14.219334291
 20
13.3962359569
 30
0.0
 10
14.2197437802
 20
13.3971529094
 30
0.0
 10
14.2203481941
 20
13.3983169307
 30
0.0
 10
14.221080464
 20
13.399592541
 30
0.0
 10
14.222152377
 20
13.4011353897
 30
0.0
 10
14.2237141421
 20
13.4026828941
 30
0.0
 10
14.2251436836
 20
13.403518313
 30
0.0
 10
14.2262924225
 20
13.4038391047
 30
0.0
 10
14.2268591936
 20
13.4038916977
 30
0.0
 10
14.2271380881
 20
13.4038917271
 30
0.0
  0
SPLINE
  5
2FE
100
AcDbEntity
  8
0
100
AcDbSpline
 62
7
  6
CONTINUOUS
 70
0
 71
3
 72
15
 73
11
 74
0
 42
0.0000001
 43
0.0000001
 44
0.0000000001
 40
0.0
 40
0.0
 40
0.0
 40
0.0
 40
0.1254100102
 40
0.2561550824
 40
0.3892544342
 40
0.5220384983
 40
0.6519368864
 40
0.7764832559
 40
0.8932871657
 40
1.0
 40
1.0
 40
1.0
 40
1.0
 10
14.2081337307
 20
13.3395305707
 30
0.0
 10
14.2078657404
 20
13.3409551386
 30
0.0
 10
14.2074253602
 20
13.343885683
 30
0.0
 10
14.2070394764
 20
13.3483709976
 30
0.0
 10
14.2069260601
 20
13.3529568498
 30
0.0
 10
14.2070842738
 20
13.3575315071
 30
0.0
 10
14.2075123259
 20
13.3619896762
 30
0.0
 10
14.2081979414
 20
13.3662291569
 30
0.0
 10
14.2091280936
 20
13.3701468998
 30
0.0
 10
14.209931904
 20
13.3726069367
 30
0.0
 10
14.2103781558
 20
13.3737568251
 30
0.0
  0
SPLINE
  5
2FF
100
AcDbEntity
  8
0
100
AcDbSpline
 62
7
  6
CONTINUOUS
 70
0
 71
3
 72
9
 73
5
 74
0
 42
0.0000001
 43
0.0000001
 44
0.0000000001
 40
0.0
 40
0.0
 40
0.0
 40
0.0
 40
0.514696179
 40
1.0
 40
1.0
 40
1.0
 40
1.0
 10
14.2214827002
 20
13.2762813394
 30
0.0
 10
14.2213321164
 20
13.2778526992
 30
0.0
 10
14.220939067
 20
13.2808970764
 30
0.0
 10
14.2203240799
 20
13.2839055454
 30
0.0
 10
14.2199622113
 20
13.2853492991
 30
0.0
  0
SPLINE
  5
300
100
AcDbEntity
  8
0
100
AcDbSpline
 62
7
  6
CONTINUOUS
 70
0
 71
3
 72
21
 73
17
 74
0
 42
0.0000001
 43
0.0000001
 44
0.0000000001
 40
0.0
 40
0.0
 40
0.0
 40
0.0
 40
0.0365095901
 40
0.0777385789
 40
0.12395993
 40
0.1751720815
 40
0.2311947542
 40
0.2916554363
 40
0.356053652
 40
0.4238096927
 40
0.5666553659
 40
0.7143875184
 40
0.7881780857
 40
0.8609128833
 40
0.9318061866
 40
1.0
 40
1.0
 40
1.0
 40
1.0
 10
14.1339628221
 20
12.9005186338
 30
0.0
 10
14.1354397907
 20
12.9016012774
 30
0.0
 10
14.1383422602
 20
12.9042423643
 30
0.0
 10
14.1422465255
 20
12.90910373
 30
0.0
 10
14.1459058236
 20
12.9150357127
 30
0.0
 10
14.1492847834
 20
12.9219626604
 30
0.0
 10
14.1523426921
 20
12.9298070878
 30
0.0
 10
14.1550462145
 20
12.9384741956
 30
0.0
 10
14.1573610334
 20
12.9478596378
 30
0.0
 10
14.1599322973
 20
12.9614171386
 30
0.0
 10
14.1619521187
 20
12.9793051341
 30
0.0
 10
14.1624109441
 20
12.9975992543
 30
0.0
 10
14.1618267214
 20
13.0123511891
 30
0.0
 10
14.1609128639
 20
13.0232221977
 30
0.0
 10
14.1595351436
 20
13.0337608505
 30
0.0
 10
14.1582955097
 20
13.0406299454
 30
0.0
 10
14.1575956703
 20
13.0439780944
 30
0.0
  0
SPLINE
  5
301
100
AcDbEntity
  8
0
100
AcDbSpline
 62
7
  6
CONTINUOUS
 70
0
 71
3
 72
15
 73
11
 74
0
 42
0.0000001
 43
0.0000001
 44
0.0000000001
 40
0.0
 40
0.0
 40
0.0
 40
0.0
 40
0.1747746101
 40
0.3366614108
 40
0.4835805598
 40
0.6144983923
 40
0.7294978245
 40
0.8297600302
 40
0.9182488416
 40
1.0
 40
1.0
 40
1.0
 40
1.0
 10
14.143709298
 20
13.1580163221
 30
0.0
 10
14.1439610412
 20
13.1590522402
 30
0.0
 10
14.1445089024
 20
13.1610332699
 30
0.0
 10
14.1455012942
 20
13.1638141588
 30
0.0
 10
14.1466223102
 20
13.1662555025
 30
0.0
 10
14.1478551964
 20
13.1683168752
 30
0.0
 10
14.1491815475
 20
13.1699708918
 30
0.0
 10
14.1505925355
 20
13.1711920326
 30
0.0
 10
14.1520767009
 20
13.1719565565
 30
0.0
 10
14.1531216757
 20
13.1721331864
 30
0.0
 10
14.1536203308
 20
13.1721326721
 30
0.0
  0
SPLINE
  5
302
100
AcDbEntity
  8
0
100
AcDbSpline
 62
7
  6
CONTINUOUS
 70
0
 71
3
 72
15
 73
11
 74
0
 42
0.0000001
 43
0.0000001
 44
0.0000000001
 40
0.0
 40
0.0
 40
0.0
 40
0.0
 40
0.1112601884
 40
0.231506416
 40
0.3582031679
 40
0.4888678643
 40
0.6209892756
 40
0.7520042463
 40
0.8792913194
 40
1.0
 40
1.0
 40
1.0
 40
1.0
 10
14.1385407491
 20
13.0967153315
 30
0.0
 10
14.1381355683
 20
13.097947255
 30
0.0
 10
14.137416331
 20
13.1005520485
 30
0.0
 10
14.1366130207
 20
13.1046525335
 30
0.0
 10
14.1360638007
 20
13.1090227465
 30
0.0
 10
14.1357784524
 20
13.1135563435
 30
0.0
 10
14.1357658132
 20
13.1181491584
 30
0.0
 10
14.1360242006
 20
13.122695467
 30
0.0
 10
14.1365508867
 20
13.1270845108
 30
0.0
 10
14.1370854522
 20
13.1299282816
 30
0.0
 10
14.1374000403
 20
13.1312996374
 30
0.0
  0
SPLINE
  5
303
100
AcDbEntity
  8
0
100
AcDbSpline
 62
7
  6
CONTINUOUS
 70
0
 71
3
 72
9
 73
5
 74
0
 42
0.0000001
 43
0.0000001
 44
0.0000000001
 40
0.0
 40
0.0
 40
0.0
 40
0.0
 40
0.5108397736
 40
1.0
 40
1.0
 40
1.0
 40
1.0
 10
14.1385407491
 20
13.0967153315
 30
0.0
 10
14.1410912117
 20
13.0889608303
 30
0.0
 10
14.1463565755
 20
13.0738688725
 30
0.0
 10
14.1522175997
 20
13.0589969139
 30
0.0
 10
14.1552447692
 20
13.0517901546
 30
0.0
  0
SPLINE
  5
304
100
AcDbEntity
  8
0
100
AcDbSpline
 62
7
  6
CONTINUOUS
 70
0
 71
3
 72
9
 73
5
 74
0
 42
0.0000001
 43
0.0000001
 44
0.0000000001
 40
0.0
 40
0.0
 40
0.0
 40
0.0
 40
0.5248440284
 40
1.0
 40
1.0
 40
1.0
 40
1.0
 10
14.1575956703
 20
13.0439780944
 30
0.0
 10
14.1573033274
 20
13.0453767118
 30
0.0
 10
14.1566456187
 20
13.0480219103
 30
0.0
 10
14.1557457289
 20
13.0505975236
 30
0.0
 10
14.1552447692
 20
13.0517901546
 30
0.0
  0
SPLINE
  5
305
100
AcDbEntity
  8
0
100
AcDbSpline
 62
7
  6
CONTINUOUS
 70
0
 71
3
 72
15
 73
11
 74
0
 42
0.0000001
 43
0.0000001
 44
0.0000000001
 40
0.0
 40
0.0
 40
0.0
 40
0.0
 40
0.145994608
 40
0.2864758643
 40
0.4210819021
 40
0.5495525444
 40
0.6717405865
 40
0.7875490357
 40
0.896953064
 40
1.0
 40
1.0
 40
1.0
 40
1.0
 10
16.9899491098
 20
11.8835616843
 30
0.0
 10
16.9853200302
 20
11.8685819772
 30
0.0
 10
16.9757508261
 20
11.8393351903
 30
0.0
 10
16.9601475468
 20
11.7968807752
 30
0.0
 10
16.9436131756
 20
11.7568067431
 30
0.0
 10
16.9262041691
 20
11.7192580136
 30
0.0
 10
16.9079820573
 20
11.6843570741
 30
0.0
 10
16.8889994269
 20
11.6522168555
 30
0.0
 10
16.869323304
 20
11.622941632
 30
0.0
 10
16.8553698802
 20
11.6048620892
 30
0.0
 10
16.8482783352
 20
11.5963664735
 30
0.0
  0
SPLINE
  5
306
100
AcDbEntity
  8
0
100
AcDbSpline
 62
7
  6
CONTINUOUS
 70
0
 71
3
 72
14
 73
10
 74
0
 42
0.0000001
 43
0.0000001
 44
0.0000000001
 40
0.0
 40
0.0
 40
0.0
 40
0.0
 40
0.2863426415
 40
0.4209910388
 40
0.5495131278
 40
0.6717286395
 40
0.7875531012
 40
0.8969566868
 40
1.0
 40
1.0
 40
1.0
 40
1.0
 10
16.5966548181
 20
12.6850111865
 30
0.0
 10
16.5991762828
 20
12.6931706502
 30
0.0
 10
16.6032721407
 20
12.7050555516
 30
0.0
 10
16.6095237906
 20
12.7202094956
 30
0.0
 10
16.6143598176
 20
12.7306412339
 30
0.0
 10
16.6194217368
 20
12.740336434
 30
0.0
 10
16.6246926042
 20
12.7492645361
 30
0.0
 10
16.6301568153
 20
12.7573955666
 30
0.0
 10
16.6340328765
 20
12.7624157955
 30
0.0
 10
16.636002425
 20
12.7647750043
 30
0.0
  0
SPLINE
  5
307
100
AcDbEntity
  8
0
100
AcDbSpline
 62
7
  6
CONTINUOUS
 70
0
 71
3
 72
21
 73
17
 74
0
 42
0.0000001
 43
0.0000001
 44
0.0000000001
 40
0.0
 40
0.0
 40
0.0
 40
0.0
 40
0.0437889666
 40
0.0925573636
 40
0.1460306415
 40
0.2038234877
 40
0.2654700517
 40
0.3303997807
 40
0.4673362011
 40
0.6088356614
 40
0.6793786449
 40
0.7487241561
 40
0.8161408709
 40
0.8809483339
 40
0.942466111
 40
1.0
 40
1.0
 40
1.0
 40
1.0
 10
14.1079060815
 20
12.622247392
 30
0.0
 10
14.1092870991
 20
12.6241415637
 30
0.0
 10
14.1119320652
 20
12.6283473559
 30
0.0
 10
14.1154033398
 20
12.6353627699
 30
0.0
 10
14.118542547
 20
12.6433437089
 30
0.0
 10
14.1213099903
 20
12.6521837873
 30
0.0
 10
14.1236711009
 20
12.6617729963
 30
0.0
 10
14.1262825107
 20
12.6756418069
 30
0.0
 10
14.128299725
 20
12.6939423005
 30
0.0
 10
14.1286863228
 20
12.7126454462
 30
0.0
 10
14.1280028712
 20
12.7276977678
 30
0.0
 10
14.1269968563
 20
12.7387539237
 30
0.0
 10
14.1255102063
 20
12.7494459376
 30
0.0
 10
14.1235618176
 20
12.7596380233
 30
0.0
 10
14.1211766876
 20
12.7691924956
 30
0.0
 10
14.1192521812
 20
12.7752742424
 30
0.0
 10
14.1182130382
 20
12.7781736226
 30
0.0
  0
SPLINE
  5
308
100
AcDbEntity
  8
0
100
AcDbSpline
 62
7
  6
CONTINUOUS
 70
0
 71
3
 72
21
 73
17
 74
0
 42
0.0000001
 43
0.0000001
 44
0.0000000001
 40
0.0
 40
0.0
 40
0.0
 40
0.0
 40
0.053895258
 40
0.1121050935
 40
0.1740189156
 40
0.2390151454
 40
0.3064562637
 40
0.3756429246
 40
0.5161500225
 40
0.6544055259
 40
0.7208217849
 40
0.7844620545
 40
0.8447050178
 40
0.9010169105
 40
0.9529182785
 40
1.0
 40
1.0
 40
1.0
 40
1.0
 10
14.1109267975
 20
12.3379596585
 30
0.0
 10
14.1120639266
 20
12.3406361079
 30
0.0
 10
14.1141910008
 20
12.3463059382
 30
0.0
 10
14.1168806807
 20
12.3553079842
 30
0.0
 10
14.1191562605
 20
12.3650395155
 30
0.0
 10
14.1209884659
 20
12.375369359
 30
0.0
 10
14.1223539605
 20
12.3861666295
 30
0.0
 10
14.1235343745
 20
12.4010776699
 30
0.0
 10
14.1237547323
 20
12.4198761487
 30
0.0
 10
14.1223406887
 20
12.438475005
 30
0.0
 10
14.1202031387
 20
12.4527988035
 30
0.0
 10
14.1181648381
 20
12.4628675771
 30
0.0
 10
14.115696765
 20
12.4722776874
 30
0.0
 10
14.1128301275
 20
12.4809110048
 30
0.0
 10
14.1096015798
 20
12.4886518929
 30
0.0
 10
14.1071167238
 20
12.493391269
 30
0.0
 10
14.1058093594
 20
12.4955693965
 30
0.0
  0
SPLINE
  5
309
100
AcDbEntity
  8
0
100
AcDbSpline
 62
7
  6
CONTINUOUS
 70
0
 71
3
 72
21
 73
17
 74
0
 42
0.0000001
 43
0.0000001
 44
0.0000000001
 40
0.0
 40
0.0
 40
0.0
 40
0.0
 40
0.0649603849
 40
0.1331383901
 40
0.2036969402
 40
0.2758567516
 40
0.421908546
 40
0.5649847146
 40
0.6334723604
 40
0.6989433137
 40
0.7607577567
 40
0.8183378895
 40
0.8712477994
 40
0.9192058096
 40
0.9620882606
 40
1.0
 40
1.0
 40
1.0
 40
1.0
 10
14.1413842881
 20
12.0645324331
 30
0.0
 10
14.1422139843
 20
12.0678017005
 30
0.0
 10
14.1437096441
 20
12.0745552874
 30
0.0
 10
14.1454504869
 20
12.0849917114
 30
0.0
 10
14.1467194776
 20
12.0958726333
 30
0.0
 10
14.1477641628
 20
12.1108342707
 30
0.0
 10
14.1478158206
 20
12.1296186869
 30
0.0
 10
14.1462364874
 20
12.148148099
 30
0.0
 10
14.1439683135
 20
12.1623580239
 30
0.0
 10
14.1418378305
 20
12.1723026589
 30
0.0
 10
14.1392864408
 20
12.1815622433
 30
0.0
 10
14.1363446925
 20
12.1900192397
 30
0.0
 10
14.1330498285
 20
12.197567817
 30
0.0
 10
14.129440876
 20
12.2041167238
 30
0.0
 10
14.1255608536
 20
12.2095797235
 30
0.0
 10
14.1226542876
 20
12.2126364235
 30
0.0
 10
14.1211640027
 20
12.213922479
 30
0.0
  0
SPLINE
  5
30A
100
AcDbEntity
  8
0
100
AcDbSpline
 62
7
  6
CONTINUOUS
 70
0
 71
3
 72
18
 73
14
 74
0
 42
0.0000001
 43
0.0000001
 44
0.0000000001
 40
0.0
 40
0.0
 40
0.0
 40
0.0
 40
0.1373788249
 40
0.2780539844
 40
0.4182209977
 40
0.5544842453
 40
0.683489351
 40
0.7443218018
 40
0.8022533828
 40
0.8569864311
 40
0.9082956836
 40
0.9560043522
 40
1.0
 40
1.0
 40
1.0
 40
1.0
 10
14.1973647973
 20
11.8191461538
 30
0.0
 10
14.1980974925
 20
11.8247072187
 30
0.0
 10
14.1991593562
 20
11.8360215246
 30
0.0
 10
14.1996033481
 20
11.8531033959
 30
0.0
 10
14.1989087459
 20
11.8701328394
 30
0.0
 10
14.1970990026
 20
11.8866005259
 30
0.0
 10
14.1946650424
 20
11.8997069544
 30
0.0
 10
14.1921698201
 20
11.9095138674
 30
0.0
 10
14.1901017288
 20
11.9162921894
 30
0.0
 10
14.1878130329
 20
11.9225874389
 30
0.0
 10
14.1853228449
 20
11.9283546116
 30
0.0
 10
14.1826507107
 20
11.9335517753
 30
0.0
 10
14.1806780314
 20
11.9367408272
 30
0.0
 10
14.1796598406
 20
11.9382207167
 30
0.0
  0
SPLINE
  5
30B
100
AcDbEntity
  8
0
100
AcDbSpline
 62
7
  6
CONTINUOUS
 70
0
 71
3
 72
12
 73
8
 74
0
 42
0.0000001
 43
0.0000001
 44
0.0000000001
 40
0.0
 40
0.0
 40
0.0
 40
0.0
 40
0.2666353651
 40
0.5278929198
 40
0.774816195
 40
0.8905683407
 40
1.0
 40
1.0
 40
1.0
 40
1.0
 10
14.2753508637
 20
11.6172193432
 30
0.0
 10
14.2755444161
 20
11.6238411232
 30
0.0
 10
14.2754192607
 20
11.6369717864
 30
0.0
 10
14.2737481138
 20
11.6561677949
 30
0.0
 10
14.2711175338
 20
11.6714691324
 30
0.0
 10
14.2682770942
 20
11.6828539683
 30
0.0
 10
14.2666307113
 20
11.6882049668
 30
0.0
 10
14.2657490618
 20
11.690776901
 30
0.0
  0
SPLINE
  5
30C
100
AcDbEntity
  8
0
100
AcDbSpline
 62
7
  6
CONTINUOUS
 70
0
 71
3
 72
9
 73
5
 74
0
 42
0.0000001
 43
0.0000001
 44
0.0000000001
 40
0.0
 40
0.0
 40
0.0
 40
0.0
 40
0.5067629428
 40
1.0
 40
1.0
 40
1.0
 40
1.0
 10
14.3704423359
 20
11.4714398053
 30
0.0
 10
14.3701824713
 20
11.4751832738
 30
0.0
 10
14.3694999747
 20
11.4825595547
 30
0.0
 10
14.3684662362
 20
11.4898953501
 30
0.0
 10
14.3678617195
 20
11.493497295
 30
0.0
  0
SPLINE
  5
30D
100
AcDbEntity
  8
0
100
AcDbSpline
 62
7
  6
CONTINUOUS
 70
0
 71
3
 72
26
 73
22
 74
0
 42
0.0000001
 43
0.0000001
 44
0.0000000001
 40
0.0
 40
0.0
 40
0.0
 40
0.0
 40
0.087934712
 40
0.1726534758
 40
0.2539491117
 40
0.3316676192
 40
0.4057226744
 40
0.47605497
 40
0.5426434001
 40
0.6055066196
 40
0.664715437
 40
0.7204173223
 40
0.772829892
 40
0.7979035318
 40
0.8222798599
 40
0.869143914
 40
0.9139515869
 40
0.9357865417
 40
0.9573463621
 40
0.9787201488
 40
1.0
 40
1.0
 40
1.0
 40
1.0
 10
16.3375534069
 20
13.1566966006
 30
0.0
 10
16.3421840039
 20
13.171681218
 30
0.0
 10
16.351747668
 20
13.2009596429
 30
0.0
 10
16.3673069298
 20
13.2435070942
 30
0.0
 10
16.3837740225
 20
13.2837513321
 30
0.0
 10
16.4010969789
 20
13.3215536072
 30
0.0
 10
16.4192158722
 20
13.3567979709
 30
0.0
 10
16.4380794325
 20
13.3893773453
 30
0.0
 10
16.4576281205
 20
13.4191935118
 30
0.0
 10
16.477802239
 20
13.4461543219
 30
0.0
 10
16.4985481933
 20
13.4701715405
 30
0.0
 10
16.5197985839
 20
13.4911724864
 30
0.0
 10
16.5381474414
 20
13.5063222426
 30
0.0
 10
16.5530098651
 20
13.5167848677
 30
0.0
 10
16.5675702782
 20
13.5259128709
 30
0.0
 10
16.5860075098
 20
13.535429362
 30
0.0
 10
16.6050759628
 20
13.5424144281
 30
0.0
 10
16.6203336052
 20
13.5462905645
 30
0.0
 10
16.6317100586
 20
13.5483529113
 30
0.0
 10
16.6431050789
 20
13.5495917354
 30
0.0
 10
16.650715524
 20
13.5498675506
 30
0.0
 10
16.6545109383
 20
13.5498674734
 30
0.0
  0
SPLINE
  5
30E
100
AcDbEntity
  8
AXIS
100
AcDbSpline
 62
7
  6
CONTINUOUS
 70
0
 71
3
 72
26
 73
22
 74
0
 42
0.0000001
 43
0.0000001
 44
0.0000000001
 40
0.0
 40
0.0
 40
0.0
 40
0.0
 40
0.0879408372
 40
0.1726627716
 40
0.2539574393
 40
0.3316744777
 40
0.4057285067
 40
0.4760609927
 40
0.5426499814
 40
0.6055112945
 40
0.6647192624
 40
0.7204202825
 40
0.7728311204
 40
0.7979050354
 40
0.8222817433
 40
0.8691449773
 40
0.9139523019
 40
0.9357873671
 40
0.9573470257
 40
0.9787204087
 40
1.0
 40
1.0
 40
1.0
 40
1.0
 10
15.830394197
 20
13.1566966006
 30
0.0
 10
15.8350251172
 20
13.1716822637
 30
0.0
 10
15.8445896748
 20
13.2009621529
 30
0.0
 10
15.8601503782
 20
13.2435106683
 30
0.0
 10
15.8766181955
 20
13.2837547405
 30
0.0
 10
15.8939401071
 20
13.3215568021
 30
0.0
 10
15.9120581811
 20
13.3568011525
 30
0.0
 10
15.9309218778
 20
13.3893803825
 30
0.0
 10
15.9504699775
 20
13.4191967248
 30
0.0
 10
15.9706452548
 20
13.4461562001
 30
0.0
 10
15.9913905396
 20
13.4701730529
 30
0.0
 10
16.0126398878
 20
13.4911742957
 30
0.0
 10
16.0309895658
 20
13.5063223905
 30
0.0
 10
16.0458514225
 20
13.5167854382
 30
0.0
 10
16.0604113242
 20
13.5259142395
 30
0.0
 10
16.0788490896
 20
13.535429578
 30
0.0
 10
16.0979175081
 20
13.5424138376
 30
0.0
 10
16.1131747309
 20
13.5462912845
 30
0.0
 10
16.1245510355
 20
13.5483541622
 30
0.0
 10
16.1359460462
 20
13.549592052
 30
0.0
 10
16.1435563927
 20
13.5498668801
 30
0.0
 10
16.1473517611
 20
13.5498666815
 30
0.0
  0
SPLINE
  5
30F
100
AcDbEntity
  8
AXIS
100
AcDbSpline
 62
7
  6
CONTINUOUS
 70
0
 71
3
 72
42
 73
38
 74
0
 42
0.0000001
 43
0.0000001
 44
0.0000000001
 40
0.0
 40
0.0
 40
0.0
 40
0.0
 40
0.0330432604
 40
0.0673844354
 40
0.1028774059
 40
0.1393886061
 40
0.17678334
 40
0.2149121142
 40
0.2536192824
 40
0.2927458157
 40
0.3321306506
 40
0.3716102125
 40
0.4110200215
 40
0.450196547
 40
0.4889774069
 40
0.5272038484
 40
0.5647202307
 40
0.6013773986
 40
0.6370316596
 40
0.6715487421
 40
0.7048026982
 40
0.7366803481
 40
0.7670806331
 40
0.7959195652
 40
0.8231307696
 40
0.8486712979
 40
0.8725244473
 40
0.8838244244
 40
0.8947124723
 40
0.9152823839
 40
0.9343471244
 40
0.9520748208
 40
0.9687033063
 40
0.97670679
 40
0.9845577644
 40
0.9923051002
 40
1.0
 40
1.0
 40
1.0
 40
1.0
 10
15.830394197
 20
13.1566966006
 30
0.0
 10
15.8244000114
 20
13.1372994088
 30
0.0
 10
15.8129941604
 20
13.0974866003
 30
0.0
 10
15.7978552122
 20
13.0361038612
 30
0.0
 10
15.7844239217
 20
12.9721462497
 30
0.0
 10
15.7727635321
 20
12.9059376949
 30
0.0
 10
15.7629338568
 20
12.8377967457
 30
0.0
 10
15.7549776176
 20
12.7680541955
 30
0.0
 10
15.7489401552
 20
12.6970518911
 30
0.0
 10
15.7448463042
 20
12.6251383619
 30
0.0
 10
15.7427206805
 20
12.5526651722
 30
0.0
 10
15.7425691894
 20
12.479986993
 30
0.0
 10
15.7443970705
 20
12.4074596241
 30
0.0
 10
15.7481910977
 20
12.3354382222
 30
0.0
 10
15.7539365822
 20
12.2642753122
 30
0.0
 10
15.7616013407
 20
12.1943190851
 30
0.0
 10
15.7711513168
 20
12.1259118705
 30
0.0
 10
15.7825359495
 20
12.0593880296
 30
0.0
 10
15.7957025327
 20
11.9950728047
 30
0.0
 10
15.8105831512
 20
11.9332799185
 30
0.0
 10
15.8271076627
 20
11.8743109094
 30
0.0
 10
15.8451923361
 20
11.8184523924
 30
0.0
 10
15.8647513474
 20
11.7659758304
 30
0.0
 10
15.8856873766
 20
11.7171348088
 30
0.0
 10
15.9079017882
 20
11.6721642116
 30
0.0
 10
15.9312865534
 20
11.6312813182
 30
0.0
 10
15.9520195734
 20
11.6002387918
 30
0.0
 10
15.9691422241
 20
11.5777109772
 30
0.0
 10
15.9859303255
 20
11.5574956647
 30
0.0
 10
16.0073826987
 20
11.5349839918
 30
0.0
 10
16.0343650474
 20
11.5121866754
 30
0.0
 10
16.0619737121
 20
11.4942591617
 30
0.0
 10
16.0857261976
 20
11.4833425584
 30
0.0
 10
16.1047682489
 20
11.4772980205
 30
0.0
 10
16.1189307497
 20
11.4740953924
 30
0.0
 10
16.1331305182
 20
11.472172171
 30
0.0
 10
16.1426239063
 20
11.4717435517
 30
0.0
 10
16.147351762
 20
11.4717433043
 30
0.0
  0
SPLINE
  5
310
100
AcDbEntity
  8
AXIS
100
AcDbSpline
 62
7
  6
CONTINUOUS
 70
0
 71
3
 72
26
 73
22
 74
0
 42
0.0000001
 43
0.0000001
 44
0.0000000001
 40
0.0
 40
0.0
 40
0.0
 40
0.0
 40
0.0876842393
 40
0.1721923267
 40
0.2533200787
 40
0.3309183855
 40
0.4049027574
 40
0.4752146203
 40
0.5418305586
 40
0.6047634769
 40
0.6640808331
 40
0.7199205923
 40
0.7724873913
 40
0.7976402477
 40
0.8220937765
 40
0.8690945926
 40
0.9139960842
 40
0.9358536349
 40
0.9574155029
 40
0.9787677489
 40
1.0
 40
1.0
 40
1.0
 40
1.0
 10
15.8177540247
 20
13.1824545636
 30
0.0
 10
15.8225242784
 20
13.1978911102
 30
0.0
 10
15.8323739451
 20
13.2280591564
 30
0.0
 10
15.8483871138
 20
13.2719137155
 30
0.0
 10
15.8653265021
 20
13.3134202633
 30
0.0
 10
15.8831388309
 20
13.3524392262
 30
0.0
 10
15.9017653308
 20
13.3888532946
 30
0.0
 10
15.9211550385
 20
13.4225536817
 30
0.0
 10
15.941246537
 20
13.4534410529
 30
0.0
 10
15.9619812434
 20
13.481420383
 30
0.0
 10
15.9833022247
 20
13.5064037659
 30
0.0
 10
16.0051422696
 20
13.5283169878
 30
0.0
 10
16.0240019906
 20
13.5441883019
 30
0.0
 10
16.0392810837
 20
13.555201033
 30
0.0
 10
16.0542512119
 20
13.5648451093
 30
0.0
 10
16.0732065019
 20
13.574969861
 30
0.0
 10
16.0928238094
 20
13.5825308046
 30
0.0
 10
16.1085293961
 20
13.5868355839
 30
0.0
 10
16.1202380036
 20
13.5891995246
 30
0.0
 10
16.1319684635
 20
13.5907230482
 30
0.0
 10
16.1398098824
 20
13.591177697
 30
0.0
 10
16.1437212076
 20
13.5912641317
 30
0.0
  0
SPLINE
  5
311
100
AcDbEntity
  8
0
100
AcDbSpline
 62
7
  6
CONTINUOUS
 70
0
 71
3
 72
37
 73
33
 74
0
 42
0.0000001
 43
0.0000001
 44
0.0000000001
 40
0.0
 40
0.0
 40
0.0
 40
0.0
 40
0.0223653865
 40
0.0427899814
 40
0.0615388844
 40
0.0790066138
 40
0.0957165132
 40
0.1122877601
 40
0.1293573941
 40
0.1474962026
 40
0.1671568381
 40
0.1886591355
 40
0.2122002274
 40
0.2378860937
 40
0.2657379954
 40
0.29572591
 40
0.3277664997
 40
0.3617415997
 40
0.3975033269
 40
0.4348743394
 40
0.4736624596
 40
0.5136532263
 40
0.55462273
 40
0.5963342686
 40
0.6809895403
 40
0.7234447818
 40
0.7656452334
 40
0.8482645088
 40
0.8882177048
 40
0.9269736262
 40
0.9643127797
 40
1.0
 40
1.0
 40
1.0
 40
1.0
 10
16.636002425
 20
12.7647750043
 30
0.0
 10
16.6386391416
 20
12.7679333754
 30
0.0
 10
16.6439976416
 20
12.7737277315
 30
0.0
 10
16.6527104506
 20
12.781011862
 30
0.0
 10
16.6616744065
 20
12.7864182489
 30
0.0
 10
16.6708381577
 20
12.7898851317
 30
0.0
 10
16.6801314572
 20
12.7913419081
 30
0.0
 10
16.6894490684
 20
12.7907630515
 30
0.0
 10
16.6986790758
 20
12.7881543092
 30
0.0
 10
16.7077363691
 20
12.7835788046
 30
0.0
 10
16.7165627489
 20
12.7770968604
 30
0.0
 10
16.7251130154
 20
12.7687710401
 30
0.0
 10
16.7333461173
 20
12.7586650319
 30
0.0
 10
16.741210065
 20
12.7468441254
 30
0.0
 10
16.7486623409
 20
12.7333905832
 30
0.0
 10
16.755648587
 20
12.7183919055
 30
0.0
 10
16.7621257317
 20
12.7019516369
 30
0.0
 10
16.7680475368
 20
12.6841814692
 30
0.0
 10
16.7733719793
 20
12.6652039434
 30
0.0
 10
16.7780648888
 20
12.6451508706
 30
0.0
 10
16.7820890448
 20
12.6241608974
 30
0.0
 10
16.7854208131
 20
12.6023806082
 30
0.0
 10
16.7880330961
 20
12.5799608357
 30
0.0
 10
16.7905468893
 20
12.5492760945
 30
0.0
 10
16.7915327467
 20
12.5182087973
 30
0.0
 10
16.7910123519
 20
12.4870624163
 30
0.0
 10
16.7894889995
 20
12.456324322
 30
0.0
 10
16.7864967915
 20
12.4261320154
 30
0.0
 10
16.7819750165
 20
12.3967952457
 30
0.0
 10
16.7779274367
 20
12.3758284644
 30
0.0
 10
16.7732159101
 20
12.3558064565
 30
0.0
 10
16.7695690793
 20
12.3428711234
 30
0.0
 10
16.7676307843
 20
12.3365987993
 30
0.0
  0
SPLINE
  5
312
100
AcDbEntity
  8
0
100
AcDbSpline
 62
7
  6
CONTINUOUS
 70
0
 71
3
 72
9
 73
5
 74
0
 42
0.0000001
 43
0.0000001
 44
0.0000000001
 40
0.0
 40
0.0
 40
0.0
 40
0.0
 40
0.2570010295
 40
1.0
 40
1.0
 40
1.0
 40
1.0
 10
16.8482783352
 20
11.5963664735
 30
0.0
 10
16.846272321
 20
11.5939632842
 30
0.0
 10
16.8383657146
 20
11.5846976563
 30
0.0
 10
16.8300450361
 20
11.5757824065
 30
0.0
 10
16.8236168999
 20
11.5694118991
 30
0.0
  0
SPLINE
  5
313
100
AcDbEntity
  8
0
100
AcDbSpline
 62
7
  6
CONTINUOUS
 70
0
 71
3
 72
50
 73
46
 74
0
 42
0.0000001
 43
0.0000001
 44
0.0000000001
 40
0.0
 40
0.0
 40
0.0
 40
0.0
 40
0.0206364908
 40
0.0303109201
 40
0.0396025151
 40
0.048557884
 40
0.0572311769
 40
0.0656846403
 40
0.0739867919
 40
0.0822106716
 40
0.0904321541
 40
0.0987271639
 40
0.1071689864
 40
0.1158265561
 40
0.1247624669
 40
0.1436656508
 40
0.1537349689
 40
0.1642565401
 40
0.1752552551
 40
0.1867506322
 40
0.1987570788
 40
0.2112828944
 40
0.2243323706
 40
0.2379068565
 40
0.2520040285
 40
0.2666175732
 40
0.2973553749
 40
0.3300314231
 40
0.3645196926
 40
0.4006691546
 40
0.4383072791
 40
0.4772434875
 40
0.5172735508
 40
0.5581805848
 40
0.599739793
 40
0.6417190072
 40
0.6838826447
 40
0.7259926386
 40
0.7678120926
 40
0.8091071346
 40
0.8496476899
 40
0.8892092844
 40
0.9275863226
 40
0.9645860348
 40
1.0
 40
1.0
 40
1.0
 40
1.0
 10
16.8236168999
 20
11.5694118991
 30
0.0
 10
16.8140848072
 20
11.5599652623
 30
0.0
 10
16.7992501332
 20
11.5468666534
 30
0.0
 10
16.77816411
 20
11.5320455182
 30
0.0
 10
16.7625173567
 20
11.5227913138
 30
0.0
 10
16.7467269794
 20
11.5151801724
 30
0.0
 10
16.7308162578
 20
11.5092309312
 30
0.0
 10
16.7148137741
 20
11.5049558069
 30
0.0
 10
16.6987486415
 20
11.5023631798
 30
0.0
 10
16.6826507557
 20
11.5014614401
 30
0.0
 10
16.6665519025
 20
11.5022565519
 30
0.0
 10
16.6504837183
 20
11.5047423165
 30
0.0
 10
16.6344764342
 20
11.5089111461
 30
0.0
 10
16.6185586334
 20
11.514756002
 30
0.0
 10
16.5970968381
 20
11.524953499
 30
0.0
 10
16.576289864
 20
11.5384037868
 30
0.0
 10
16.5563217306
 20
11.5545744753
 30
0.0
 10
16.5412407886
 20
11.5685471563
 30
0.0
 10
16.5264004731
 20
11.5840790422
 30
0.0
 10
16.5118217756
 20
11.6011472471
 30
0.0
 10
16.497530343
 20
11.6197245333
 30
0.0
 10
16.4835467808
 20
11.6397785666
 30
0.0
 10
16.4698933651
 20
11.6612760216
 30
0.0
 10
16.4565935935
 20
11.6841827948
 30
0.0
 10
16.4436695087
 20
11.7084616007
 30
0.0
 10
16.4266779092
 20
11.7431943818
 30
0.0
 10
16.4066024844
 20
11.7898330011
 30
0.0
 10
16.384720553
 20
11.8496509501
 30
0.0
 10
16.3647991167
 20
11.9138421161
 30
0.0
 10
16.346970489
 20
11.9819828601
 30
0.0
 10
16.3313547484
 20
12.0536254884
 30
0.0
 10
16.3180529118
 20
12.1282964189
 30
0.0
 10
16.3071582887
 20
12.2055024354
 30
0.0
 10
16.2987383357
 20
12.2847319533
 30
0.0
 10
16.2928552583
 20
12.3654604094
 30
0.0
 10
16.2895424635
 20
12.4471525534
 30
0.0
 10
16.2888275917
 20
12.5292667446
 30
0.0
 10
16.2907107672
 20
12.6112585645
 30
0.0
 10
16.2951830955
 20
12.6925845834
 30
0.0
 10
16.3022125023
 20
12.7727055916
 30
0.0
 10
16.3117520909
 20
12.8510885669
 30
0.0
 10
16.3237385303
 20
12.9272154261
 30
0.0
 10
16.3380922931
 20
13.0005888359
 30
0.0
 10
16.3547189277
 20
13.0707118657
 30
0.0
 10
16.3675369252
 20
13.1160448931
 30
0.0
 10
16.3743364927
 20
13.1380483015
 30
0.0
  0
SPLINE
  5
314
100
AcDbEntity
  8
0
100
AcDbSpline
 62
7
  6
CONTINUOUS
 70
0
 71
3
 72
42
 73
38
 74
0
 42
0.0000001
 43
0.0000001
 44
0.0000000001
 40
0.0
 40
0.0
 40
0.0
 40
0.0
 40
0.0076948508
 40
0.0154422302
 40
0.0232931932
 40
0.031296438
 40
0.0394975019
 40
0.0479374246
 40
0.0656648199
 40
0.084729774
 40
0.1052994762
 40
0.1274823824
 40
0.1513355317
 40
0.1768758844
 40
0.2040873148
 40
0.232925859
 40
0.2633265336
 40
0.295203662
 40
0.3284580746
 40
0.3629746162
 40
0.3986292909
 40
0.4352860075
 40
0.4728026611
 40
0.5110287747
 40
0.5498096725
 40
0.5889859788
 40
0.6283956574
 40
0.6678750846
 40
0.707259677
 40
0.7463862783
 40
0.7850934385
 40
0.8232219969
 40
0.8606158092
 40
0.8971262789
 40
0.9326189615
 40
0.9669590876
 40
1.0
 40
1.0
 40
1.0
 40
1.0
 10
16.6545109383
 20
11.4717425125
 30
0.0
 10
16.6497830792
 20
11.4717426087
 30
0.0
 10
16.6402896338
 20
11.4721717702
 30
0.0
 10
16.6260898869
 20
11.474096596
 30
0.0
 10
16.6119279061
 20
11.4772990184
 30
0.0
 10
16.5978239698
 20
11.481774191
 30
0.0
 10
16.5837961073
 20
11.487517606
 30
0.0
 10
16.5649111894
 20
11.497005246
 30
0.0
 10
16.541519373
 20
11.5121870607
 30
0.0
 10
16.5145425931
 20
11.5349854093
 30
0.0
 10
16.4882950393
 20
11.5625270964
 30
0.0
 10
16.4628946847
 20
11.5946777172
 30
0.0
 10
16.438445449
 20
11.6312814538
 30
0.0
 10
16.4150598267
 20
11.6721660868
 30
0.0
 10
16.3928463508
 20
11.7171367747
 30
0.0
 10
16.3719089599
 20
11.7659779339
 30
0.0
 10
16.352351643
 20
11.8184551611
 30
0.0
 10
16.3342649472
 20
11.8743136822
 30
0.0
 10
16.3177427187
 20
11.9332833933
 30
0.0
 10
16.3028596983
 20
11.9950763676
 30
0.0
 10
16.2896956924
 20
12.0593922372
 30
0.0
 10
16.2783086188
 20
12.1259162829
 30
0.0
 10
16.2687611915
 20
12.194324039
 30
0.0
 10
16.2610942104
 20
12.2642805031
 30
0.0
 10
16.2553509244
 20
12.3354437909
 30
0.0
 10
16.2515551028
 20
12.4074654107
 30
0.0
 10
16.2497292179
 20
12.4799930543
 30
0.0
 10
16.2498796377
 20
12.5526714289
 30
0.0
 10
16.2520064541
 20
12.6251449104
 30
0.0
 10
16.256099363
 20
12.697058886
 30
0.0
 10
16.2621378755
 20
12.7680615233
 30
0.0
 10
16.2700944633
 20
12.8378038164
 30
0.0
 10
16.2799240276
 20
12.9059441057
 30
0.0
 10
16.2915832055
 20
12.9721521392
 30
0.0
 10
16.3050138639
 20
13.0361090778
 30
0.0
 10
16.3201537095
 20
13.0974897362
 30
0.0
 10
16.3315596049
 20
13.13730065
 30
0.0
 10
16.3375534069
 20
13.1566966006
 30
0.0
  0
SPLINE
  5
315
100
AcDbEntity
  8
0
100
AcDbSpline
 62
7
  6
CONTINUOUS
 70
0
 71
3
 72
32
 73
28
 74
0
 42
0.0000001
 43
0.0000001
 44
0.0000000001
 40
0.0
 40
0.0
 40
0.0
 40
0.0
 40
0.0154288011
 40
0.0312709642
 40
0.0479010204
 40
0.0656293521
 40
0.0846967882
 40
0.1052684991
 40
0.1274527857
 40
0.1513097395
 40
0.176852261
 40
0.2040661648
 40
0.2329091103
 40
0.2633119543
 40
0.2951929757
 40
0.3284512772
 40
0.3986184657
 40
0.4727894488
 40
0.5497965724
 40
0.588976824
 40
0.6283912746
 40
0.7072592001
 40
0.7850960644
 40
0.8606100248
 40
0.9326249873
 40
0.9669693633
 40
1.0
 40
1.0
 40
1.0
 40
1.0
 10
16.6545106928
 20
12.7610540411
 30
0.0
 10
16.656793582
 20
12.7610542149
 30
0.0
 10
16.6614309236
 20
12.7606327974
 30
0.0
 10
16.6682969702
 20
12.7587466932
 30
0.0
 10
16.6750726491
 20
12.7556314011
 30
0.0
 10
16.6817236043
 20
12.7513147761
 30
0.0
 10
16.6882209816
 20
12.7458228902
 30
0.0
 10
16.6945422869
 20
12.7391900265
 30
0.0
 10
16.700660649
 20
12.7314472733
 30
0.0
 10
16.7065479453
 20
12.7226308116
 30
0.0
 10
16.712180954
 20
12.7127844338
 30
0.0
 10
16.7175311104
 20
12.7019535365
 30
0.0
 10
16.7225727705
 20
12.6901900931
 30
0.0
 10
16.7272840999
 20
12.6775516217
 30
0.0
 10
16.731639686
 20
12.6640982319
 30
0.0
 10
16.737041905
 20
12.6448159857
 30
0.0
 10
16.7427088479
 20
12.6191327469
 30
0.0
 10
16.7476993058
 20
12.5867450231
 30
0.0
 10
16.7503462779
 20
12.558686959
 30
0.0
 10
16.751559054
 20
12.535693256
 30
0.0
 10
16.7521458158
 20
12.5123994928
 30
0.0
 10
16.751694875
 20
12.4833690649
 30
0.0
 10
16.7492749068
 20
12.4490770237
 30
0.0
 10
16.7450409067
 20
12.4159825913
 30
0.0
 10
16.7399811115
 20
12.3895298742
 30
0.0
 10
16.7350378464
 20
12.3695027047
 30
0.0
 10
16.7322906628
 20
12.3599165332
 30
0.0
 10
16.7308476985
 20
12.3552470983
 30
0.0
  0
SPLINE
  5
316
100
AcDbEntity
  8
0
100
AcDbSpline
 62
7
  6
CONTINUOUS
 70
0
 71
3
 72
33
 73
29
 74
0
 42
0.0000001
 43
0.0000001
 44
0.0000000001
 40
0.0
 40
0.0
 40
0.0
 40
0.0
 40
0.093919879
 40
0.1828337584
 40
0.266366941
 40
0.3443233713
 40
0.3811840025
 40
0.416626109
 40
0.4506566411
 40
0.4832917364
 40
0.5145630077
 40
0.5445157226
 40
0.5732079238
 40
0.6007136733
 40
0.6525228883
 40
0.6771119162
 40
0.7010060614
 40
0.7243766775
 40
0.7474090197
 40
0.7702985084
 40
0.7932458082
 40
0.8164492083
 40
0.8400988572
 40
0.8643727567
 40
0.8894312454
 40
0.9154143356
 40
0.9424432671
 40
1.0
 40
1.0
 40
1.0
 40
1.0
 10
16.3743364927
 20
13.1380483015
 30
0.0
 10
16.3806251241
 20
13.1583983206
 30
0.0
 10
16.3937554019
 20
13.1977477263
 30
0.0
 10
16.4157575426
 20
13.2540365597
 30
0.0
 10
16.4394255937
 20
13.3056932652
 30
0.0
 10
16.4607919523
 20
13.3453244855
 30
0.0
 10
16.4786629262
 20
13.3743480283
 30
0.0
 10
16.4921353842
 20
13.3943571401
 30
0.0
 10
16.5059064103
 20
13.4129838351
 30
0.0
 10
16.5199570891
 20
13.4301970664
 30
0.0
 10
16.5342653309
 20
13.4459707633
 30
0.0
 10
16.5488081206
 20
13.4602811215
 30
0.0
 10
16.5635671757
 20
13.473106721
 30
0.0
 10
16.5831070648
 20
13.4878958058
 30
0.0
 10
16.603419395
 20
13.5000729159
 30
0.0
 10
16.6243045179
 20
13.5091451328
 30
0.0
 10
16.6398025911
 20
13.5142583978
 30
0.0
 10
16.6553750385
 20
13.5177880252
 30
0.0
 10
16.6709962354
 20
13.5197269217
 30
0.0
 10
16.6866381546
 20
13.5200672288
 30
0.0
 10
16.7022716083
 20
13.5188072082
 30
0.0
 10
16.717868245
 20
13.5159536032
 30
0.0
 10
16.733401
 20
13.5115132301
 30
0.0
 10
16.7488428562
 20
13.5054929823
 30
0.0
 10
16.7641687992
 20
13.4979069521
 30
0.0
 10
16.7793573679
 20
13.4887714991
 30
0.0
 10
16.7998183309
 20
13.4742450173
 30
0.0
 10
16.8142375515
 20
13.4614850239
 30
0.0
 10
16.8235128612
 20
13.4523008982
 30
0.0
  0
SPLINE
  5
317
100
AcDbEntity
  8
0
100
AcDbSpline
 62
7
  6
CONTINUOUS
 70
0
 71
3
 72
9
 73
5
 74
0
 42
0.0000001
 43
0.0000001
 44
0.0000000001
 40
0.0
 40
0.0
 40
0.0
 40
0.0
 40
0.2431083896
 40
1.0
 40
1.0
 40
1.0
 40
1.0
 10
16.8235128612
 20
13.4523008982
 30
0.0
 10
16.8256254774
 20
13.4502090507
 30
0.0
 10
16.8342046288
 20
13.4414928286
 30
0.0
 10
16.8423468542
 20
13.4323496997
 30
0.0
 10
16.84827837
 20
13.4252437083
 30
0.0
  0
SPLINE
  5
318
100
AcDbEntity
  8
0
100
AcDbSpline
 62
7
  6
CONTINUOUS
 70
0
 71
3
 72
26
 73
22
 74
0
 42
0.0000001
 43
0.0000001
 44
0.0000000001
 40
0.0
 40
0.0
 40
0.0
 40
0.0
 40
0.0937772969
 40
0.1823036568
 40
0.265146183
 40
0.3420689463
 40
0.4129977821
 40
0.4780164302
 40
0.5374166093
 40
0.5917395277
 40
0.6418786502
 40
0.6657830262
 40
0.6891389559
 40
0.7121547821
 40
0.7350487139
 40
0.7580428187
 40
0.7813568043
 40
0.8297051366
 40
0.8815947836
 40
0.9381194226
 40
1.0
 40
1.0
 40
1.0
 40
1.0
 10
16.7676307843
 20
12.3365987993
 30
0.0
 10
16.765793367
 20
12.330652914
 30
0.0
 10
16.7619475049
 20
12.3191758922
 30
0.0
 10
16.7554691579
 20
12.3028062601
 30
0.0
 10
16.7484814988
 20
12.2878711177
 30
0.0
 10
16.7410352329
 20
12.2744781132
 30
0.0
 10
16.7331770572
 20
12.2627165315
 30
0.0
 10
16.7249526852
 20
12.2526650248
 30
0.0
 10
16.7164128538
 20
12.244386546
 30
0.0
 10
16.7075996086
 20
12.2379488838
 30
0.0
 10
16.6999409415
 20
12.2341039529
 30
0.0
 10
16.6937943139
 20
12.2320736447
 30
0.0
 10
16.6892322827
 20
12.2310649369
 30
0.0
 10
16.6846560765
 20
12.2305481356
 30
0.0
 10
16.6800747277
 20
12.2305239625
 30
0.0
 10
16.6754973254
 20
12.2309929794
 30
0.0
 10
16.6693406747
 20
12.2322901292
 30
0.0
 10
16.6616218461
 20
12.2352187133
 30
0.0
 10
16.6526773721
 20
12.2406218507
 30
0.0
 10
16.6439832187
 20
12.2478984464
 30
0.0
 10
16.638634106
 20
12.253682118
 30
0.0
 10
16.6360023451
 20
12.2568345284
 30
0.0
  0
SPLINE
  5
319
100
AcDbEntity
  8
AXIS
100
AcDbSpline
 62
7
  6
CONTINUOUS
 70
0
 71
3
 72
43
 73
39
 74
0
 42
0.0000001
 43
0.0000001
 44
0.0000000001
 40
0.0
 40
0.0
 40
0.0
 40
0.0
 40
0.0329756112
 40
0.0672421607
 40
0.1026548728
 40
0.1390813999
 40
0.1763885024
 40
0.2144283346
 40
0.2530468105
 40
0.2920865096
 40
0.3313879739
 40
0.3707892814
 40
0.4101275222
 40
0.4492407004
 40
0.487967907
 40
0.5261517305
 40
0.5636378355
 40
0.6002780981
 40
0.6359298808
 40
0.6704595118
 40
0.7037417336
 40
0.735663375
 40
0.7661235263
 40
0.7950373823
 40
0.8223378696
 40
0.8479800003
 40
0.8719449672
 40
0.8833033664
 40
0.8942508973
 40
0.9149406356
 40
0.9247141802
 40
0.9341278522
 40
0.9519568682
 40
0.9686628535
 40
0.9766926343
 40
0.9845598977
 40
0.9923122601
 40
1.0
 40
1.0
 40
1.0
 40
1.0
 10
15.8177540247
 20
13.1824545636
 30
0.0
 10
15.8115452705
 20
13.1623630277
 30
0.0
 10
15.7997285959
 20
13.1211287679
 30
0.0
 10
15.7840360781
 20
13.057559559
 30
0.0
 10
15.7701051428
 20
12.9913307961
 30
0.0
 10
15.7580009377
 20
12.9227754821
 30
0.0
 10
15.7477850581
 20
12.8522209264
 30
0.0
 10
15.7395015662
 20
12.7800069438
 30
0.0
 10
15.7331971934
 20
12.706484754
 30
0.0
 10
15.7288978755
 20
12.6320125265
 30
0.0
 10
15.7266290018
 20
12.5569515449
 30
0.0
 10
15.7263972176
 20
12.4816663263
 30
0.0
 10
15.7282079492
 20
12.4065225888
 30
0.0
 10
15.7320484132
 20
12.3318855049
 30
0.0
 10
15.7379034646
 20
12.2581175799
 30
0.0
 10
15.7457410656
 20
12.1855770251
 30
0.0
 10
15.7555260415
 20
12.1146160533
 30
0.0
 10
15.7672077178
 20
12.0455789328
 30
0.0
 10
15.7807315773
 20
11.9788005324
 30
0.0
 10
15.7960293711
 20
11.914604252
 30
0.0
 10
15.8130284254
 20
11.8533008227
 30
0.0
 10
15.8316445057
 20
11.7951862176
 30
0.0
 10
15.8517885028
 20
11.7405404619
 30
0.0
 10
15.8733624748
 20
11.68962612
 30
0.0
 10
15.8962636925
 20
11.6426857844
 30
0.0
 10
15.9203834586
 20
11.5999452548
 30
0.0
 10
15.9417729951
 20
11.5674332186
 30
0.0
 10
15.9594448622
 20
11.5437921619
 30
0.0
 10
15.9767793894
 20
11.5225414356
 30
0.0
 10
15.9948382295
 20
11.5032030222
 30
0.0
 10
16.0136509586
 20
11.4860743918
 30
0.0
 10
16.0319948079
 20
11.4712005358
 30
0.0
 10
16.0553432231
 20
11.4555472691
 30
0.0
 10
16.0799097232
 20
11.4437357196
 30
0.0
 10
16.0996215103
 20
11.4370579109
 30
0.0
 10
16.1142791672
 20
11.4334272117
 30
0.0
 10
16.1289801565
 20
11.4311162213
 30
0.0
 10
16.138819842
 20
11.4304550271
 30
0.0
 10
16.1437212097
 20
11.4303462275
 30
0.0
  0
SPLINE
  5
31A
100
AcDbEntity
  8
0
100
AcDbSpline
 62
7
  6
CONTINUOUS
 70
0
 71
3
 72
21
 73
17
 74
0
 42
0.0000001
 43
0.0000001
 44
0.0000000001
 40
0.0
 40
0.0
 40
0.0
 40
0.0
 40
0.172585105
 40
0.3316302411
 40
0.4057052399
 40
0.476050676
 40
0.5426447102
 40
0.6055085148
 40
0.6647268914
 40
0.720441311
 40
0.772862947
 40
0.8223040826
 40
0.8691785221
 40
0.9139962422
 40
0.9573697545
 40
1.0
 40
1.0
 40
1.0
 40
1.0
 10
16.7308476985
 20
12.3552470983
 30
0.0
 10
16.7286591494
 20
12.3481649521
 30
0.0
 10
16.724028421
 20
12.3346821004
 30
0.0
 10
16.7171452859
 20
12.3186501873
 30
0.0
 10
16.711182551
 20
12.307054926
 30
0.0
 10
16.7066383296
 20
12.2992084513
 30
0.0
 10
16.7019297276
 20
12.2920280955
 30
0.0
 10
16.6970698273
 20
12.2855360821
 30
0.0
 10
16.6920740076
 20
12.2797513677
 30
0.0
 10
16.6869565358
 20
12.2746918285
 30
0.0
 10
16.6817297653
 20
12.2703761935
 30
0.0
 10
16.6764085419
 20
12.2668194462
 30
0.0
 10
16.6710091677
 20
12.2640331713
 30
0.0
 10
16.6655468043
 20
12.2620305309
 30
0.0
 10
16.6600409027
 20
12.2608253886
 30
0.0
 10
16.6563416774
 20
12.2605560842
 30
0.0
 10
16.6545106927
 20
12.2605559447
 30
0.0
  0
ENDSEC
  0
SECTION
  2
OBJECTS
  0
DICTIONARY
  5
C
100
AcDbDictionary
280
0
281
1
  3
ACAD_GROUP
350
D
  3
ACAD_MLINESTYLE
350
17
  3
ACAD_LAYOUT
350
1A
  3
ACAD_PLOTSETTINGS
350
19
  3
ACAD_PLOTSTYLENAME
350
E
  0
DICTIONARY
  5
D
102
{ACAD_REACTORS
330
C
102
}
100
AcDbDictionary
280
0
281
1
  0
ACDBDICTIONARYWDFLT
  5
E
102
{ACAD_REACTORS
330
C
102
}
100
AcDbDictionary
281
1
  3
Normal
350
F
100
AcDbDictionaryWithDefault
340
F
  0
DICTIONARY
  5
17
102
{ACAD_REACTORS
330
C
102
}
100
AcDbDictionary
280
0
281
1
  3
Standard
350
18
  0
DICTIONARY
  5
19
102
{ACAD_REACTORS
330
C
102
}
100
AcDbDictionary
281
1
  0
DICTIONARY
  5
1A
102
{ACAD_REACTORS
330
C
102
}
100
AcDbDictionary
281
1
  3
Model
350
31B
  3
Layout1
350
31C
  0
ACDBPLACEHOLDER
  5
F
102
{ACAD_REACTORS
330
E
102
}
  0
MLINESTYLE
  5
18
102
{ACAD_REACTORS
330
17
102
}
100
AcDbMlineStyle
  2
STANDARD
 70
0
  3

 62
256
 51
90.0
 52
90.0
 71
2
 49
0.5
 62
256
  6
BYLAYER
 49
-0.5
 62
256
  6
BYLAYER
  0
LAYOUT
  5
31B
102
{ACAD_REACTORS
330
1A
102
}
100
AcDbPlotSettings
  1

  2
none_device
  4
ANSI_C_(22.00_x_17.00_Inches)
  6

 40
0.0
 41
0.0
 42
0.0
 43
0.0
 44
558.8
 45
431.8
 46
0.0
 47
0.0
 48
0.0
 49
0.0
140
0.0
141
0.0
142
1.0
143
1.0
 70
1024
 72
0
 73
0
 74
0
  7

 75
0
147
1.0
148
0.0
149
0.0
100
AcDbLayout
  1
Model
 70
0
 71
0
 10
0.0
 20
0.0
 11
22.0
 21
17.0
 12
0.0
 22
0.0
 32
0.0
 14
0.0
 24
0.0
 34
0.0
 15
0.0
 25
0.0
 35
0.0
146
0.0
 13
0.0
 23
0.0
 33
0.0
 16
1.0
 26
0.0
 36
0.0
 17
0.0
 27
1.0
 37
0.0
 76
0
330
224
345
0
346
0
  0
LAYOUT
  5
31C
102
{ACAD_REACTORS
330
1A
102
}
100
AcDbPlotSettings
  1

  2
none_device
  4
ANSI_C_(22.00_x_17.00_Inches)
  6

 40
0.0
 41
0.0
 42
0.0
 43
0.0
 44
558.8
 45
431.8
 46
0.0
 47
0.0
 48
0.0
 49
0.0
140
0.0
141
0.0
142
1.0
143
1.0
 70
0
 72
0
 73
0
 74
0
  7

 75
0
147
1.0
148
0.0
149
0.0
100
AcDbLayout
  1
Layout1
 70
0
 71
1
 10
0.0
 20
0.0
 11
22.0
 21
17.0
 12
0.0
 22
0.0
 32
0.0
 14
0.0
 24
0.0
 34
0.0
 15
0.0
 25
0.0
 35
0.0
146
0.0
 13
0.0
 23
0.0
 33
0.0
 16
1.0
 26
0.0
 36
0.0
 17
0.0
 27
1.0
 37
0.0
 76
0
330
225
345
0
346
0
  0
ENDSEC
  0
EOF