999
DXF file: _cgs_temp_output.dxf
999
Pro/ENGINEER 2016360 by Parametric Technology Corporation
  0
SECTION
  2
HEADER
  9
$ACADVER
  1
AC1021
  9
$DWGCODEPAGE
  3
ANSI_1252
  9
$EXTMAX
 10
22.0
 20
17.0
 30
0.0
  9
$EXTMIN
 10
0.0
 20
0.0
 30
0.0
  9
$LIMMIN
 10
0.0
 20
0.0
  9
$LIMMAX
 10
22.0
 20
17.0
  9
$VIEWCTR
 10
11.0
 20
8.5
  9
$VIEWSIZE
 40
17.0
  9
$CLAYER
  8
0
  9
$LTSCALE
 40
1.21
  9
$CELTYPE
  6
BYLAYER
  9
$DIMSCALE
 40
1.0
  9
$DIMASZ
 40
0.1875
  9
$DIMEXO
 40
0.0625
  9
$DIMDLI
 40
0.836
  9
$DIMEXE
 40
0.125
  9
$DIMCEN
 40
0.198
  9
$DIMLFAC
 40
1.0
  9
$DIMBLK
  1
_CLOSED
  9
$DIMALT
 70
0
  9
$DIMALTF
 40
25.4
  9
$DIMTXT
 40
0.15625
  9
$DIMTOL
 70
0
  9
$DIMLIM
 70
0
  9
$DIMTFAC
 40
1.0
  9
$DIMGAP
 40
0.09
  9
$DIMDSEP
 70
46
  9
$AUNITS
 70
0
  9
$PDMODE
 70
3
  9
$PDSIZE
 40
0.3125
  9
$HANDSEED
  5
334
  9
$TILEMODE
 70
1
  9
$MEASUREMENT
 70
0
  9
$INSUNITS
 70
1
  0
ENDSEC
  0
SECTION
  2
CLASSES
  0
CLASS
  1
ACDBDICTIONARYWDFLT
  2
AcDbDictionaryWithDefault
  3
AutoCAD 2000
 90
0
 91
1
280
0
281
0
  0
CLASS
  1
ACDBPLACEHOLDER
  2
AcDbPlaceHolder
  3
AutoCAD 2000
 90
0
 91
1
280
0
281
0
  0
CLASS
  1
LAYOUT
  2
AcDbLayout
  3
AutoCAD 2000
 90
0
 91
0
280
0
281
0
  0
ENDSEC
  0
SECTION
  2
TABLES
  0
TABLE
  2
VPORT
  5
8
100
AcDbSymbolTable
 70
2
  0
VPORT
  5
1F4
100
AcDbSymbolTableRecord
100
AcDbViewportTableRecord
  2
*ACTIVE
 70
0
 10
0.0
 20
0.0
 11
1.0
 21
1.0
 12
11.0
 22
8.5
 13
0.0
 23
0.0
 14
1.0
 24
1.0
 15
0.0
 25
0.0
 16
0.0
 26
0.0
 36
1.0
 17
0.0
 27
0.0
 37
0.0
 40
17.0
 41
1.2941176471
 42
50.0
 43
0.0
 44
0.0
 50
0.0
 51
0.0
 71
0
 72
100
 73
1
 74
1
 75
0
 76
0
 77
0
 78
0
  0
ENDTAB
  0
TABLE
  2
LTYPE
  5
5
100
AcDbSymbolTable
 70
6
  0
LTYPE
  5
14
100
AcDbSymbolTableRecord
100
AcDbLinetypeTableRecord
  2
BYBLOCK
 70
0
  3

 72
65
 73
0
 40
0.0
  0
LTYPE
  5
15
100
AcDbSymbolTableRecord
100
AcDbLinetypeTableRecord
  2
BYLAYER
 70
0
  3

 72
65
 73
0
 40
0.0
  0
LTYPE
  5
16
100
AcDbSymbolTableRecord
100
AcDbLinetypeTableRecord
  2
CONTINUOUS
 70
64
  3
Solid line
 72
65
 73
0
 40
0.0
  0
LTYPE
  5
1F5
100
AcDbSymbolTableRecord
100
AcDbLinetypeTableRecord
  2
CENTER
 70
64
  3
____ _ ____ _ ____ _ ____ _ ____ _ ____ _ ____
 72
65
 73
4
 40
0.6
 49
0.375
 74
0
 49
-0.075
 74
0
 49
0.075
 74
0
 49
-0.075
 74
0
  0
LTYPE
  5
1F6
100
AcDbSymbolTableRecord
100
AcDbLinetypeTableRecord
  2
HIDDEN
 70
64
  3
- - - - - - - - - - - - - - - - - - - -
 72
65
 73
2
 40
0.2
 49
0.1
 74
0
 49
-0.1
 74
0
  0
LTYPE
  5
1F7
100
AcDbSymbolTableRecord
100
AcDbLinetypeTableRecord
  2
PHANTOM
 70
64
  3
_____ _ _ _____ _ _ _____ _ _ _____
 72
65
 73
6
 40
0.8
 49
0.45
 74
0
 49
-0.05
 74
0
 49
0.1
 74
0
 49
-0.05
 74
0
 49
0.1
 74
0
 49
-0.05
 74
0
  0
LTYPE
  5
1F8
100
AcDbSymbolTableRecord
100
AcDbLinetypeTableRecord
  2
DOT
 70
64
  3
. . . . . . . . . . . . . . . . . . . .
 72
65
 73
2
 40
0.2
 49
0.1
 74
0
 49
-0.1
 74
0
  0
LTYPE
  5
1F9
100
AcDbSymbolTableRecord
100
AcDbLinetypeTableRecord
  2
DASHED
 70
64
  3
- - - - - - - - - - - - - - - - - - - -
 72
65
 73
2
 40
0.2
 49
0.1
 74
0
 49
-0.1
 74
0
  0
ENDTAB
  0
TABLE
  2
LAYER
  5
2
100
AcDbSymbolTable
 70
36
  0
LAYER
  5
10
100
AcDbSymbolTableRecord
100
AcDbLayerTableRecord
  2
0
 70
0
 62
7
  6
CONTINUOUS
370
-3
390
F
  0
LAYER
  5
1FA
100
AcDbSymbolTableRecord
100
AcDbLayerTableRecord
  2
DEFAULT_1
 70
0
 62
7
  6
CENTER
370
-3
390
F
  0
LAYER
  5
1FB
100
AcDbSymbolTableRecord
100
AcDbLayerTableRecord
  2
DEFAULT_2
 70
0
 62
8
  6
HIDDEN
370
-3
390
F
  0
LAYER
  5
1FC
100
AcDbSymbolTableRecord
100
AcDbLayerTableRecord
  2
DEFAULT_3
 70
0
 62
7
  6
PHANTOM
370
-3
390
F
  0
LAYER
  5
1FD
100
AcDbSymbolTableRecord
100
AcDbLayerTableRecord
  2
01_ALL_DTM_PLN
 70
0
 62
7
  6
CONTINUOUS
370
-3
390
F
  0
LAYER
  5
1FE
100
AcDbSymbolTableRecord
100
AcDbLayerTableRecord
  2
01__ASM_ALL_DTM_PLN
 70
0
 62
7
  6
CONTINUOUS
370
-3
390
F
  0
LAYER
  5
1FF
100
AcDbSymbolTableRecord
100
AcDbLayerTableRecord
  2
01__ASM_DEF_DTM_PLN
 70
0
 62
7
  6
CONTINUOUS
370
-3
390
F
  0
LAYER
  5
200
100
AcDbSymbolTableRecord
100
AcDbLayerTableRecord
  2
01___PRT_ALL_DTM_PLN
 70
0
 62
7
  6
CONTINUOUS
370
-3
390
F
  0
LAYER
  5
201
100
AcDbSymbolTableRecord
100
AcDbLayerTableRecord
  2
01___PRT_DEF_DTM_PLN
 70
0
 62
7
  6
CONTINUOUS
370
-3
390
F
  0
LAYER
  5
202
100
AcDbSymbolTableRecord
100
AcDbLayerTableRecord
  2
02_ALL_AXES
 70
0
 62
7
  6
CONTINUOUS
370
-3
390
F
  0
LAYER
  5
203
100
AcDbSymbolTableRecord
100
AcDbLayerTableRecord
  2
02__ASM_ALL_AXES
 70
0
 62
7
  6
CONTINUOUS
370
-3
390
F
  0
LAYER
  5
204
100
AcDbSymbolTableRecord
100
AcDbLayerTableRecord
  2
02___PRT_ALL_AXES
 70
0
 62
7
  6
CONTINUOUS
370
-3
390
F
  0
LAYER
  5
205
100
AcDbSymbolTableRecord
100
AcDbLayerTableRecord
  2
03_ALL_CURVES
 70
0
 62
7
  6
CONTINUOUS
370
-3
390
F
  0
LAYER
  5
206
100
AcDbSymbolTableRecord
100
AcDbLayerTableRecord
  2
03__ASM_ALL_CURVES
 70
0
 62
7
  6
CONTINUOUS
370
-3
390
F
  0
LAYER
  5
207
100
AcDbSymbolTableRecord
100
AcDbLayerTableRecord
  2
03___PRT_ALL_CURVES
 70
0
 62
7
  6
CONTINUOUS
370
-3
390
F
  0
LAYER
  5
208
100
AcDbSymbolTableRecord
100
AcDbLayerTableRecord
  2
04_ALL_DTM_PNT
 70
0
 62
7
  6
CONTINUOUS
370
-3
390
F
  0
LAYER
  5
209
100
AcDbSymbolTableRecord
100
AcDbLayerTableRecord
  2
04__ASM_ALL_DTM_PNT
 70
0
 62
7
  6
CONTINUOUS
370
-3
390
F
  0
LAYER
  5
20A
100
AcDbSymbolTableRecord
100
AcDbLayerTableRecord
  2
04___PRT_ALL_DTM_PNT
 70
0
 62
7
  6
CONTINUOUS
370
-3
390
F
  0
LAYER
  5
20B
100
AcDbSymbolTableRecord
100
AcDbLayerTableRecord
  2
05_ALL_DTM_CSYS
 70
0
 62
7
  6
CONTINUOUS
370
-3
390
F
  0
LAYER
  5
20C
100
AcDbSymbolTableRecord
100
AcDbLayerTableRecord
  2
05__ASM_ALL_DTM_CSYS
 70
0
 62
7
  6
CONTINUOUS
370
-3
390
F
  0
LAYER
  5
20D
100
AcDbSymbolTableRecord
100
AcDbLayerTableRecord
  2
05__ASM_DEF_DTM_CSYS
 70
0
 62
7
  6
CONTINUOUS
370
-3
390
F
  0
LAYER
  5
20E
100
AcDbSymbolTableRecord
100
AcDbLayerTableRecord
  2
05___PRT_ALL_DTM_CSYS
 70
0
 62
7
  6
CONTINUOUS
370
-3
390
F
  0
LAYER
  5
20F
100
AcDbSymbolTableRecord
100
AcDbLayerTableRecord
  2
05___PRT_DEF_DTM_CSYS
 70
0
 62
7
  6
CONTINUOUS
370
-3
390
F
  0
LAYER
  5
210
100
AcDbSymbolTableRecord
100
AcDbLayerTableRecord
  2
06_ALL_SURFS
 70
0
 62
7
  6
CONTINUOUS
370
-3
390
F
  0
LAYER
  5
211
100
AcDbSymbolTableRecord
100
AcDbLayerTableRecord
  2
06__ASM_ALL_SURFS
 70
0
 62
7
  6
CONTINUOUS
370
-3
390
F
  0
LAYER
  5
212
100
AcDbSymbolTableRecord
100
AcDbLayerTableRecord
  2
06___PRT_ALL_SURFS
 70
0
 62
7
  6
CONTINUOUS
370
-3
390
F
  0
LAYER
  5
213
100
AcDbSymbolTableRecord
100
AcDbLayerTableRecord
  2
07__ASM_ALL_SKELETONS
 70
0
 62
7
  6
CONTINUOUS
370
-3
390
F
  0
LAYER
  5
214
100
AcDbSymbolTableRecord
100
AcDbLayerTableRecord
  2
ANNOTATIONS
 70
0
 62
7
  6
CONTINUOUS
370
-3
390
F
  0
LAYER
  5
215
100
AcDbSymbolTableRecord
100
AcDbLayerTableRecord
  2
ASM_DATUMS
 70
0
 62
7
  6
CONTINUOUS
370
-3
390
F
  0
LAYER
  5
216
100
AcDbSymbolTableRecord
100
AcDbLayerTableRecord
  2
ASM_DEF_DATUMS
 70
0
 62
7
  6
CONTINUOUS
370
-3
390
F
  0
LAYER
  5
217
100
AcDbSymbolTableRecord
100
AcDbLayerTableRecord
  2
AXIS
 70
0
 62
7
  6
CONTINUOUS
370
-3
390
F
  0
LAYER
  5
218
100
AcDbSymbolTableRecord
100
AcDbLayerTableRecord
  2
CSYS
 70
0
 62
7
  6
CONTINUOUS
370
-3
390
F
  0
LAYER
  5
219
100
AcDbSymbolTableRecord
100
AcDbLayerTableRecord
  2
CURVES
 70
0
 62
7
  6
CONTINUOUS
370
-3
390
F
  0
LAYER
  5
21A
100
AcDbSymbolTableRecord
100
AcDbLayerTableRecord
  2
DATUMS
 70
0
 62
7
  6
CONTINUOUS
370
-3
390
F
  0
LAYER
  5
21B
100
AcDbSymbolTableRecord
100
AcDbLayerTableRecord
  2
DEF_CSYS
 70
0
 62
7
  6
CONTINUOUS
370
-3
390
F
  0
LAYER
  5
21C
100
AcDbSymbolTableRecord
100
AcDbLayerTableRecord
  2
DEF_DATUMS
 70
0
 62
7
  6
CONTINUOUS
370
-3
390
F
  0
LAYER
  5
21D
100
AcDbSymbolTableRecord
100
AcDbLayerTableRecord
  2
GTOL
 70
0
 62
7
  6
CONTINUOUS
370
-3
390
F
  0
LAYER
  5
21E
100
AcDbSymbolTableRecord
100
AcDbLayerTableRecord
  2
POINTS
 70
0
 62
7
  6
CONTINUOUS
370
-3
390
F
  0
LAYER
  5
21F
100
AcDbSymbolTableRecord
100
AcDbLayerTableRecord
  2
SKELETONS
 70
0
 62
7
  6
CONTINUOUS
370
-3
390
F
  0
LAYER
  5
220
100
AcDbSymbolTableRecord
100
AcDbLayerTableRecord
  2
SURFACES
 70
0
 62
7
  6
CONTINUOUS
370
-3
390
F
  0
LAYER
  5
221
100
AcDbSymbolTableRecord
100
AcDbLayerTableRecord
  2
XSEC_DATUMS
 70
0
 62
7
  6
CONTINUOUS
370
-3
390
F
  0
ENDTAB
  0
TABLE
  2
STYLE
  5
3
100
AcDbSymbolTable
 70
1
  0
STYLE
  5
11
100
AcDbSymbolTableRecord
100
AcDbTextStyleTableRecord
  2
STANDARD
 70
0
 40
0.0
 41
0.8
 50
0.0
 71
0
 42
0.2
  3
txt
  4

  0
STYLE
  5
222
100
AcDbSymbolTableRecord
100
AcDbTextStyleTableRecord
  2
TEXTSTYLE_1
 70
0
 40
0.0
 41
0.8
 50
0.0
 71
0
 42
0.2
  3
gdt
  4

  0
ENDTAB
  0
TABLE
  2
VIEW
  5
6
100
AcDbSymbolTable
 70
0
  0
ENDTAB
  0
TABLE
  2
UCS
  5
7
100
AcDbSymbolTable
 70
0
  0
ENDTAB
  0
TABLE
  2
APPID
  5
9
100
AcDbSymbolTable
 70
1
  0
APPID
  5
223
100
AcDbSymbolTableRecord
100
AcDbRegAppTableRecord
  2
ACAD
 70
0
  0
ENDTAB
  0
TABLE
  2
BLOCK_RECORD
  5
1
100
AcDbSymbolTable
 70
0
  0
BLOCK_RECORD
  5
224
100
AcDbSymbolTableRecord
100
AcDbBlockTableRecord
  2
*Model_Space
  0
BLOCK_RECORD
  5
225
100
AcDbSymbolTableRecord
100
AcDbBlockTableRecord
  2
*Paper_Space
  0
ENDTAB
  0
TABLE
  2
DIMSTYLE
  5
A
100
AcDbSymbolTable
 70
1
100
AcDbDimStyleTable
 71
0
  0
DIMSTYLE
105
226
100
AcDbSymbolTableRecord
100
AcDbDimStyleTableRecord
  2
STANDARD
 70
0
  3

  4

 40
1.0
 41
0.1875
 42
0.0625
 43
0.38
 44
0.125
 45
0.0
 46
0.0
 47
0.0001
 48
0.0001
140
0.15625
141
0.09
142
0.0
143
25.4
144
1.0
145
0.0
146
1.0
147
0.09
 71
0.0
 72
0.0
 73
1
 74
1
 75
0
 76
0
 77
0
 78
4
 79
1
170
0
171
3
172
0
173
0
174
0
175
0
176
0
177
0
178
0
270
2
179
4
271
4
272
4
273
2
274
2
275
0
280
0
281
0
282
0
283
1
284
4
285
0
286
0
287
3
288
0
340
11
278
46
  0
ENDTAB
  0
ENDSEC
  0
SECTION
  2
BLOCKS
  0
BLOCK
  5
20
100
AcDbEntity
  8
0
100
AcDbBlockBegin
  2
*Model_Space
 70
0
 10
0.0
 20
0.0
 30
0.0
  3
*Model_Space
  1

  0
ENDBLK
  5
21
100
AcDbEntity
  8
0
100
AcDbBlockEnd
  0
BLOCK
  5
1C
100
AcDbEntity
  8
0
100
AcDbBlockBegin
  2
*Paper_Space
 70
0
 10
0.0
 20
0.0
 30
0.0
  3
*Paper_Space
  1

  0
ENDBLK
  5
1D
100
AcDbEntity
  8
0
100
AcDbBlockEnd
  0
ENDSEC
  0
SECTION
  2
ENTITIES
  0
MTEXT
  5
227
100
AcDbEntity
  8
0
100
AcDbMText
 62
7
  6
CONTINUOUS
  7
STANDARD
 71
1
 72
1
 10
15.9560215477
 20
0.9479130325
 30
0.0
 11
1.0
 21
0.0
 31
0.0
 44
0.9
  1
SCALE: 1:1.000
 40
0.3
 41
3.36
  0
LINE
  5
228
100
AcDbEntity
  8
0
100
AcDbLine
 62
7
  6
CONTINUOUS
 10
0.0
 20
0.0
 11
0.0
 21
17.0
  0
LINE
  5
229
100
AcDbEntity
  8
0
100
AcDbLine
 62
7
  6
CONTINUOUS
 10
0.0
 20
0.0
 11
22.0
 21
0.0
  0
LINE
  5
22A
100
AcDbEntity
  8
0
100
AcDbLine
 62
7
  6
CONTINUOUS
 10
0.0
 20
17.0
 11
22.0
 21
17.0
  0
LINE
  5
22B
100
AcDbEntity
  8
0
100
AcDbLine
 62
7
  6
CONTINUOUS
 10
22.0
 20
0.0
 11
22.0
 21
17.0
  0
LINE
  5
22C
100
AcDbEntity
  8
02___PRT_ALL_AXES
100
AcDbLine
 62
7
  6
CONTINUOUS
 10
4.465183048
 20
7.1931198968
 11
4.37911562
 21
7.1668064433
  0
LINE
  5
22D
100
AcDbEntity
  8
02___PRT_ALL_AXES
100
AcDbLine
 62
7
  6
CONTINUOUS
 10
4.465183048
 20
3.8471198968
 11
4.37911562
 21
3.8734333502
  0
LINE
  5
22E
100
AcDbEntity
  8
02___PRT_ALL_AXES
100
AcDbLine
 62
7
  6
CONTINUOUS
 10
4.37911562
 20
7.1668064433
 11
4.37911562
 21
3.8734333502
  0
LINE
  5
22F
100
AcDbEntity
  8
02___PRT_ALL_AXES
100
AcDbLine
 62
7
  6
CONTINUOUS
 10
4.465183048
 20
7.1931198968
 11
4.465183048
 21
3.8471198968
  0
LINE
  5
230
100
AcDbEntity
  8
02___PRT_ALL_AXES
100
AcDbLine
 62
7
  6
CONTINUOUS
 10
4.50411562
 20
7.0657771918
 11
4.50411562
 21
3.9744626017
  0
LINE
  5
231
100
AcDbEntity
  8
0
100
AcDbLine
 62
7
  6
CONTINUOUS
 10
4.50411562
 20
4.0529412381
 11
7.16911562
 21
4.0529412381
  0
LINE
  5
232
100
AcDbEntity
  8
0
100
AcDbLine
 62
7
  6
CONTINUOUS
 10
4.50411562
 20
4.1124033749
 11
7.16911562
 21
4.1124033749
  0
LINE
  5
233
100
AcDbEntity
  8
0
100
AcDbLine
 62
7
  6
CONTINUOUS
 10
4.50411562
 20
4.2320783348
 11
7.16911562
 21
4.2320783348
  0
LINE
  5
234
100
AcDbEntity
  8
0
100
AcDbLine
 62
7
  6
CONTINUOUS
 10
7.85161562
 20
4.2466823968
 11
7.29411562
 21
4.2466823968
  0
LINE
  5
235
100
AcDbEntity
  8
0
100
AcDbLine
 62
7
  6
CONTINUOUS
 10
4.50411562
 20
4.4067357477
 11
7.16911562
 21
4.4067357477
  0
LINE
  5
236
100
AcDbEntity
  8
02___PRT_ALL_AXES
100
AcDbLine
 62
7
  6
CONTINUOUS
 10
4.50411562
 20
3.9744626017
 11
4.465183048
 21
3.8471198968
  0
LINE
  5
237
100
AcDbEntity
  8
02___PRT_ALL_AXES
100
AcDbLine
 62
7
  6
CONTINUOUS
 10
4.50411562
 20
7.0657771918
 11
4.465183048
 21
7.1931198968
  0
LINE
  5
238
100
AcDbEntity
  8
0
100
AcDbLine
 62
7
  6
CONTINUOUS
 10
4.50411562
 20
4.6287422466
 11
7.16911562
 21
4.6287422466
  0
LINE
  5
239
100
AcDbEntity
  8
0
100
AcDbLine
 62
7
  6
CONTINUOUS
 10
4.50411562
 20
4.8883950821
 11
7.16911562
 21
4.8883950821
  0
LINE
  5
23A
100
AcDbEntity
  8
02___PRT_ALL_AXES
100
AcDbLine
 62
7
  6
CONTINUOUS
 10
7.16911562
 20
7.0657771918
 11
7.2080481919
 21
7.1931198968
  0
LINE
  5
23B
100
AcDbEntity
  8
0
100
AcDbLine
 62
7
  6
CONTINUOUS
 10
7.16911562
 20
6.1518447114
 11
4.50411562
 21
6.1518447114
  0
LINE
  5
23C
100
AcDbEntity
  8
02___PRT_ALL_AXES
100
AcDbLine
 62
7
  6
CONTINUOUS
 10
7.16911562
 20
3.9744626017
 11
7.2080481919
 21
3.8471198968
  0
LINE
  5
23D
100
AcDbEntity
  8
0
100
AcDbLine
 62
7
  6
CONTINUOUS
 10
7.16911562
 20
6.4114975469
 11
4.50411562
 21
6.4114975469
  0
LINE
  5
23E
100
AcDbEntity
  8
02___PRT_ALL_AXES
100
AcDbLine
 62
7
  6
CONTINUOUS
 10
7.16911562
 20
3.9744626017
 11
7.16911562
 21
7.0657771918
  0
LINE
  5
23F
100
AcDbEntity
  8
02___PRT_ALL_AXES
100
AcDbLine
 62
7
  6
CONTINUOUS
 10
7.2080481919
 20
3.8471198968
 11
7.2080481919
 21
7.1931198968
  0
LINE
  5
240
100
AcDbEntity
  8
0
100
AcDbLine
 62
7
  6
CONTINUOUS
 10
7.16911562
 20
6.6335040458
 11
4.50411562
 21
6.6335040458
  0
LINE
  5
241
100
AcDbEntity
  8
02___PRT_ALL_AXES
100
AcDbLine
 62
7
  6
CONTINUOUS
 10
7.29411562
 20
3.8734333502
 11
7.29411562
 21
7.1668064433
  0
LINE
  5
242
100
AcDbEntity
  8
0
100
AcDbLine
 62
7
  6
CONTINUOUS
 10
7.85161562
 20
6.7935573968
 11
7.29411562
 21
6.7935573968
  0
LINE
  5
243
100
AcDbEntity
  8
0
100
AcDbLine
 62
7
  6
CONTINUOUS
 10
7.16911562
 20
6.8081614587
 11
4.50411562
 21
6.8081614587
  0
LINE
  5
244
100
AcDbEntity
  8
0
100
AcDbLine
 62
7
  6
CONTINUOUS
 10
7.16911562
 20
6.9278364186
 11
4.50411562
 21
6.9278364186
  0
LINE
  5
245
100
AcDbEntity
  8
0
100
AcDbLine
 62
7
  6
CONTINUOUS
 10
7.16911562
 20
6.9872985554
 11
4.50411562
 21
6.9872985554
  0
LINE
  5
246
100
AcDbEntity
  8
0
100
AcDbLine
 62
7
  6
CONTINUOUS
 10
7.85161562
 20
4.2466823968
 11
7.85161562
 21
6.7935573968
  0
LINE
  5
247
100
AcDbEntity
  8
0
100
AcDbLine
 62
7
  6
CONTINUOUS
 10
7.88161562
 20
4.2766823968
 11
7.88161562
 21
6.7635573968
  0
LINE
  5
248
100
AcDbEntity
  8
02___PRT_ALL_AXES
100
AcDbLine
 62
7
  6
CONTINUOUS
 10
7.2080481919
 20
3.8471198968
 11
7.29411562
 21
3.8734333502
  0
LINE
  5
249
100
AcDbEntity
  8
02___PRT_ALL_AXES
100
AcDbLine
 62
7
  6
CONTINUOUS
 10
7.2080481919
 20
7.1931198968
 11
7.29411562
 21
7.1668064433
  0
LINE
  5
24A
100
AcDbEntity
  8
0
100
AcDbLine
 62
7
  6
CONTINUOUS
 10
7.8516159291
 20
4.2466820876
 11
7.8816159218
 21
4.2766820949
  0
LINE
  5
24B
100
AcDbEntity
  8
0
100
AcDbLine
 62
7
  6
CONTINUOUS
 10
7.8516159291
 20
6.7935577059
 11
7.8816159218
 21
6.7635576986
  0
LINE
  5
24C
100
AcDbEntity
  8
02___PRT_ALL_AXES
100
AcDbLine
 62
7
  6
CONTINUOUS
 10
4.3196204276
 20
14.2467343279
 11
4.4056878557
 21
14.2730477814
  0
LINE
  5
24D
100
AcDbEntity
  8
02___PRT_ALL_AXES
100
AcDbLine
 62
7
  6
CONTINUOUS
 10
4.3196204276
 20
10.9533612348
 11
4.4056878557
 21
10.9270477814
  0
LINE
  5
24E
100
AcDbEntity
  8
02___PRT_ALL_AXES
100
AcDbLine
 62
7
  6
CONTINUOUS
 10
4.3196204276
 20
10.9533612348
 11
4.3196204276
 21
14.2467343279
  0
LINE
  5
24F
100
AcDbEntity
  8
02___PRT_ALL_AXES
100
AcDbLine
 62
7
  6
CONTINUOUS
 10
4.4056878557
 20
10.9270477814
 11
4.4056878557
 21
14.2730477814
  0
LINE
  5
250
100
AcDbEntity
  8
02___PRT_ALL_AXES
100
AcDbLine
 62
7
  6
CONTINUOUS
 10
4.4446204276
 20
11.0543904863
 11
4.4446204276
 21
14.1457050764
  0
LINE
  5
251
100
AcDbEntity
  8
0
100
AcDbLine
 62
7
  6
CONTINUOUS
 10
4.4446204276
 20
11.1548475763
 11
7.1096204276
 21
11.1548475763
  0
LINE
  5
252
100
AcDbEntity
  8
0
100
AcDbLine
 62
7
  6
CONTINUOUS
 10
4.4446204276
 20
11.2449094933
 11
7.1096204276
 21
11.2449094933
  0
LINE
  5
253
100
AcDbEntity
  8
AXIS
100
AcDbLine
 62
7
  6
CONTINUOUS
 10
7.792121046
 20
11.3266102814
 11
7.2346204276
 21
11.3266102814
  0
LINE
  5
254
100
AcDbEntity
  8
0
100
AcDbLine
 62
7
  6
CONTINUOUS
 10
4.4446204276
 20
11.3928863122
 11
7.1096204276
 21
11.3928863122
  0
LINE
  5
255
100
AcDbEntity
  8
02___PRT_ALL_AXES
100
AcDbLine
 62
7
  6
CONTINUOUS
 10
4.4056878557
 20
10.9270477814
 11
4.4446204276
 21
11.0543904863
  0
LINE
  5
256
100
AcDbEntity
  8
0
100
AcDbLine
 62
7
  6
CONTINUOUS
 10
4.4446204276
 20
11.5923107359
 11
7.1096204276
 21
11.5923107359
  0
LINE
  5
257
100
AcDbEntity
  8
02___PRT_ALL_AXES
100
AcDbLine
 62
7
  6
CONTINUOUS
 10
4.4056878557
 20
14.2730477814
 11
4.4446204276
 21
14.1457050764
  0
LINE
  5
258
100
AcDbEntity
  8
0
100
AcDbLine
 62
7
  6
CONTINUOUS
 10
4.4446204276
 20
11.8344669603
 11
7.1096204276
 21
11.8344669603
  0
LINE
  5
259
100
AcDbEntity
  8
0
100
AcDbLine
 62
7
  6
CONTINUOUS
 10
4.4446204276
 20
12.1084935738
 11
7.1096204276
 21
12.1084935738
  0
LINE
  5
25A
100
AcDbEntity
  8
0
100
AcDbLine
 62
7
  6
CONTINUOUS
 10
4.4446204276
 20
13.0916019889
 11
7.1096204276
 21
13.0916019889
  0
LINE
  5
25B
100
AcDbEntity
  8
02___PRT_ALL_AXES
100
AcDbLine
 62
7
  6
CONTINUOUS
 10
7.1485529996
 20
14.2730477814
 11
7.1096204276
 21
14.1457050764
  0
LINE
  5
25C
100
AcDbEntity
  8
02___PRT_ALL_AXES
100
AcDbLine
 62
7
  6
CONTINUOUS
 10
7.1485529996
 20
10.9270477814
 11
7.1096204276
 21
11.0543904863
  0
LINE
  5
25D
100
AcDbEntity
  8
0
100
AcDbLine
 62
7
  6
CONTINUOUS
 10
7.1096204276
 20
13.3656286025
 11
4.4446204276
 21
13.3656286025
  0
LINE
  5
25E
100
AcDbEntity
  8
02___PRT_ALL_AXES
100
AcDbLine
 62
7
  6
CONTINUOUS
 10
7.1096204276
 20
11.0543904863
 11
7.1096204276
 21
14.1457050764
  0
LINE
  5
25F
100
AcDbEntity
  8
02___PRT_ALL_AXES
100
AcDbLine
 62
7
  6
CONTINUOUS
 10
7.1485529996
 20
10.9270477814
 11
7.1485529996
 21
14.2730477814
  0
LINE
  5
260
100
AcDbEntity
  8
0
100
AcDbLine
 62
7
  6
CONTINUOUS
 10
7.1096204276
 20
13.6077848268
 11
4.4446204276
 21
13.6077848268
  0
LINE
  5
261
100
AcDbEntity
  8
02___PRT_ALL_AXES
100
AcDbLine
 62
7
  6
CONTINUOUS
 10
7.2346204276
 20
10.9533612348
 11
7.2346204276
 21
14.2467343279
  0
LINE
  5
262
100
AcDbEntity
  8
0
100
AcDbLine
 62
7
  6
CONTINUOUS
 10
7.1096204276
 20
13.8072092505
 11
4.4446204276
 21
13.8072092505
  0
LINE
  5
263
100
AcDbEntity
  8
AXIS
100
AcDbLine
 62
7
  6
CONTINUOUS
 10
7.792121046
 20
13.8734852814
 11
7.2346204276
 21
13.8734852814
  0
LINE
  5
264
100
AcDbEntity
  8
0
100
AcDbLine
 62
7
  6
CONTINUOUS
 10
7.1096204276
 20
13.9551860694
 11
4.4446204276
 21
13.9551860694
  0
LINE
  5
265
100
AcDbEntity
  8
0
100
AcDbLine
 62
7
  6
CONTINUOUS
 10
7.1096204276
 20
14.0452479864
 11
4.4446204276
 21
14.0452479864
  0
LINE
  5
266
100
AcDbEntity
  8
0
100
AcDbLine
 62
7
  6
CONTINUOUS
 10
7.7921204291
 20
11.3266102814
 11
7.7921204291
 21
13.8734852814
  0
LINE
  5
267
100
AcDbEntity
  8
0
100
AcDbLine
 62
7
  6
CONTINUOUS
 10
7.8221204276
 20
11.3566242668
 11
7.8221204276
 21
13.843471296
  0
LINE
  5
268
100
AcDbEntity
  8
02___PRT_ALL_AXES
100
AcDbLine
 62
7
  6
CONTINUOUS
 10
7.2346204276
 20
10.9533612348
 11
7.1485529996
 21
10.9270477814
  0
LINE
  5
269
100
AcDbEntity
  8
02___PRT_ALL_AXES
100
AcDbLine
 62
7
  6
CONTINUOUS
 10
7.2346204276
 20
14.2467343279
 11
7.1485529996
 21
14.2730477814
  0
LINE
  5
26A
100
AcDbEntity
  8
0
100
AcDbLine
 62
7
  6
CONTINUOUS
 10
7.8221204276
 20
11.3566096776
 11
7.792121046
 21
11.3266102814
  0
LINE
  5
26B
100
AcDbEntity
  8
0
100
AcDbLine
 62
7
  6
CONTINUOUS
 10
7.8221204276
 20
13.8434858851
 11
7.792121046
 21
13.8734852814
  0
LINE
  5
26C
100
AcDbEntity
  8
02___PRT_ALL_AXES
100
AcDbLine
 62
7
  6
CONTINUOUS
 10
13.8540990124
 20
14.1436768675
 11
13.9320478348
 21
14.1697695675
  0
LINE
  5
26D
100
AcDbEntity
  8
02___PRT_ALL_AXES
100
AcDbLine
 62
7
  6
CONTINUOUS
 10
13.8540990124
 20
10.8779331183
 11
13.9320478348
 21
10.8518404183
  0
LINE
  5
26E
100
AcDbEntity
  8
0
100
AcDbLine
 62
7
  6
CONTINUOUS
 10
13.9180549865
 20
11.0789609906
 11
13.9152687336
 21
11.0798254076
  0
LINE
  5
26F
100
AcDbEntity
  8
0
100
AcDbLine
 62
7
  6
CONTINUOUS
 10
14.0344845109
 20
11.038015568
 11
16.2336881279
 21
11.038015568
  0
LINE
  5
270
100
AcDbEntity
  8
0
100
AcDbLine
 62
7
  6
CONTINUOUS
 10
14.0344845039
 20
11.0380203868
 11
14.0341179925
 21
11.0380303358
  0
LINE
  5
271
100
AcDbEntity
  8
0
100
AcDbLine
 62
7
  6
CONTINUOUS
 10
13.9180549859
 20
11.0789597052
 11
16.206839995
 21
11.0789597052
  0
LINE
  5
272
100
AcDbEntity
  8
0
100
AcDbLine
 62
7
  6
CONTINUOUS
 10
13.8074847521
 20
11.1811712083
 11
16.1479072824
 21
11.1811712083
  0
LINE
  5
273
100
AcDbEntity
  8
AXIS
100
AcDbLine
 62
7
  6
CONTINUOUS
 10
17.1353724023
 20
11.2373674929
 11
16.6195776762
 21
11.2373674929
  0
LINE
  5
274
100
AcDbEntity
  8
0
100
AcDbLine
 62
7
  6
CONTINUOUS
 10
13.7076062593
 20
11.3401829442
 11
16.0780099858
 21
11.3401829442
  0
LINE
  5
275
100
AcDbEntity
  8
0
100
AcDbLine
 62
7
  6
CONTINUOUS
 10
13.6227846769
 20
11.5490453368
 11
16.0101464868
 21
11.5490453368
  0
LINE
  5
276
100
AcDbEntity
  8
0
100
AcDbLine
 62
7
  6
CONTINUOUS
 10
13.5567271152
 20
11.7986300975
 11
15.9536276262
 21
11.7986300975
  0
LINE
  5
277
100
AcDbEntity
  8
0
100
AcDbLine
 62
7
  6
CONTINUOUS
 10
13.5266089198
 20
12.0766247653
 11
15.9139740995
 21
12.0766247653
  0
LINE
  5
278
100
AcDbEntity
  8
02___PRT_ALL_AXES
100
AcDbLine
 62
7
  6
CONTINUOUS
 10
16.3755550108
 20
11.082050335
 11
16.3742148416
 21
11.0832964256
  0
LINE
  5
279
100
AcDbEntity
  8
02___PRT_ALL_AXES
100
AcDbLine
 62
7
  6
CONTINUOUS
 10
16.3753688997
 20
11.0808082689
 11
16.3740384485
 21
11.0821275583
  0
LINE
  5
27A
100
AcDbEntity
  8
02___PRT_ALL_AXES
100
AcDbLine
 62
7
  6
CONTINUOUS
 10
16.2008081082
 20
13.7527386333
 11
16.1988183845
 21
13.7482715901
  0
LINE
  5
27B
100
AcDbEntity
  8
02___PRT_ALL_AXES
100
AcDbLine
 62
7
  6
CONTINUOUS
 10
16.2008824482
 20
13.7525193682
 11
16.1988183845
 21
13.7482715901
  0
LINE
  5
27C
100
AcDbEntity
  8
02___PRT_ALL_AXES
100
AcDbLine
 62
7
  6
CONTINUOUS
 10
16.1874016453
 20
11.3807584409
 11
16.1861603793
 21
11.3835371885
  0
LINE
  5
27D
100
AcDbEntity
  8
02___PRT_ALL_AXES
100
AcDbLine
 62
7
  6
CONTINUOUS
 10
16.1702993617
 20
11.3434859124
 11
16.1696178575
 21
11.3451511097
  0
LINE
  5
27E
100
AcDbEntity
  8
02___PRT_ALL_AXES
100
AcDbLine
 62
7
  6
CONTINUOUS
 10
16.1440863429
 20
13.5275447719
 11
16.1433205365
 21
13.525288965
  0
LINE
  5
27F
100
AcDbEntity
  8
02___PRT_ALL_AXES
100
AcDbLine
 62
7
  6
CONTINUOUS
 10
16.1436307433
 20
13.5285844191
 11
16.1428567098
 21
13.5263432285
  0
LINE
  5
280
100
AcDbEntity
  8
02___PRT_ALL_AXES
100
AcDbLine
 62
7
  6
CONTINUOUS
 10
16.1870835162
 20
11.3798646863
 11
16.185869042
 21
11.3827232273
  0
LINE
  5
281
100
AcDbEntity
  8
02___PRT_ALL_AXES
100
AcDbLine
 62
7
  6
CONTINUOUS
 10
16.1699490757
 20
11.3425804269
 11
16.1692818367
 21
11.3442850454
  0
LINE
  5
282
100
AcDbEntity
  8
02___PRT_ALL_AXES
100
AcDbLine
 62
7
  6
CONTINUOUS
 10
16.1162048552
 20
11.5806560231
 11
16.116004871
 21
11.5813055644
  0
LINE
  5
283
100
AcDbEntity
  8
02___PRT_ALL_AXES
100
AcDbLine
 62
7
  6
CONTINUOUS
 10
16.1157592705
 20
11.5797805882
 11
16.1155632484
 21
11.5804388856
  0
LINE
  5
284
100
AcDbEntity
  8
02___PRT_ALL_AXES
100
AcDbLine
 62
7
  6
CONTINUOUS
 10
16.0611885298
 20
13.3098662481
 11
16.0613694279
 21
13.3107027118
  0
LINE
  5
285
100
AcDbEntity
  8
02___PRT_ALL_AXES
100
AcDbLine
 62
7
  6
CONTINUOUS
 10
16.0615092563
 20
13.3094091689
 11
16.0616995617
 21
13.3102315812
  0
LINE
  5
286
100
AcDbEntity
  8
0
100
AcDbLine
 62
7
  6
CONTINUOUS
 10
15.9275069731
 20
13.0597482918
 11
13.5276751455
 21
13.0597482918
  0
LINE
  5
287
100
AcDbEntity
  8
0
100
AcDbLine
 62
7
  6
CONTINUOUS
 10
15.9746193162
 20
13.3284646844
 11
13.5810552134
 21
13.3284646844
  0
LINE
  5
288
100
AcDbEntity
  8
0
100
AcDbLine
 62
7
  6
CONTINUOUS
 10
16.0363236565
 20
13.5627555002
 11
13.6551216849
 21
13.5627555002
  0
LINE
  5
289
100
AcDbEntity
  8
0
100
AcDbLine
 62
7
  6
CONTINUOUS
 10
16.1062674037
 20
13.7523821751
 11
13.7465388946
 21
13.7523821751
  0
LINE
  5
28A
100
AcDbEntity
  8
AXIS
100
AcDbLine
 62
7
  6
CONTINUOUS
 10
17.1353724023
 20
13.7842424929
 11
16.6195776762
 21
13.7842424929
  0
LINE
  5
28B
100
AcDbEntity
  8
0
100
AcDbLine
 62
7
  6
CONTINUOUS
 10
16.174374451
 20
13.8890571132
 11
13.8513114717
 21
13.8890571132
  0
LINE
  5
28C
100
AcDbEntity
  8
0
100
AcDbLine
 62
7
  6
CONTINUOUS
 10
16.2229602455
 20
13.9668069641
 11
13.9648603519
 21
13.9668069641
  0
LINE
  5
28D
100
AcDbEntity
  8
0
100
AcDbLine
 62
7
  6
CONTINUOUS
 10
14.0697557999
 20
13.9835944178
 11
16.2347218532
 21
13.9835944178
  0
LINE
  5
28E
100
AcDbEntity
  8
0
100
AcDbLine
 62
7
  6
CONTINUOUS
 10
13.9630468471
 20
13.9664433058
 11
13.9648603557
 21
13.9668012773
  0
LINE
  5
28F
100
AcDbEntity
  8
02___PRT_ALL_AXES
100
AcDbLine
 62
7
  6
CONTINUOUS
 10
16.7047688473
 20
10.8779331183
 11
16.626820025
 21
10.8518404183
  0
LINE
  5
290
100
AcDbEntity
  8
02___PRT_ALL_AXES
100
AcDbLine
 62
7
  6
CONTINUOUS
 10
16.7047688473
 20
14.1436768675
 11
16.626820025
 21
14.1697695675
  0
LINE
  5
291
100
AcDbEntity
  8
0
100
AcDbLine
 62
7
  6
CONTINUOUS
 10
17.3677276819
 20
11.3839689458
 11
17.3450356276
 21
11.3567827104
  0
LINE
  5
292
100
AcDbEntity
  8
0
100
AcDbLine
 62
7
  6
CONTINUOUS
 10
17.3677276819
 20
13.63764104
 11
17.3450356276
 21
13.6648272755
  0
CIRCLE
  5
293
100
AcDbEntity
  8
02___PRT_ALL_AXES
100
AcDbCircle
 62
7
  6
CONTINUOUS
 10
15.5603552569
 20
5.4606247044
 40
1.673
  0
CIRCLE
  5
294
100
AcDbEntity
  8
02___PRT_ALL_AXES
100
AcDbCircle
 62
7
  6
CONTINUOUS
 10
15.5603552569
 20
5.4606247044
 40
1.6466865466
  0
CIRCLE
  5
295
100
AcDbEntity
  8
02___PRT_ALL_AXES
100
AcDbCircle
 62
7
  6
CONTINUOUS
 10
15.5603552569
 20
5.4606247044
 40
1.5322067049
  0
CIRCLE
  5
296
100
AcDbEntity
  8
AXIS
100
AcDbCircle
 62
7
  6
CONTINUOUS
 10
15.5603552569
 20
5.4606247044
 40
1.2765
  0
CIRCLE
  5
297
100
AcDbEntity
  8
0
100
AcDbCircle
 62
7
  6
CONTINUOUS
 10
15.5603552569
 20
5.4606247044
 40
1.2734375
  0
CIRCLE
  5
298
100
AcDbEntity
  8
0
100
AcDbCircle
 62
7
  6
CONTINUOUS
 10
15.5603552569
 20
5.4606247044
 40
1.2434377098
  0
CIRCLE
  5
299
100
AcDbEntity
  8
0
100
AcDbCircle
 62
7
  6
CONTINUOUS
 10
15.5603552569
 20
5.4606247044
 40
0.5302469308
  0
CIRCLE
  5
29A
100
AcDbEntity
  8
0
100
AcDbCircle
 62
7
  6
CONTINUOUS
 10
15.5603552569
 20
5.4606247044
 40
0.50025
  0
ARC
  5
29B
100
AcDbEntity
  8
0
100
AcDbCircle
 62
7
  6
CONTINUOUS
 10
17.242326833
 20
12.5104792821
 40
3.764011636
100
AcDbArc
 50
181.1417233501
 51
181.6388117038
  0
ARC
  5
29C
100
AcDbEntity
  8
0
100
AcDbCircle
 62
7
  6
CONTINUOUS
 10
17.1615827319
 20
12.5145966555
 40
3.683190159
100
AcDbArc
 50
176.443381623
 51
176.9475493487
  0
ARC
  5
29D
100
AcDbEntity
  8
0
100
AcDbCircle
 62
7
  6
CONTINUOUS
 10
16.9171876475
 20
12.4861755262
 40
3.4378825362
100
AcDbArc
 50
185.9271217842
 51
186.455346966
  0
ARC
  5
29E
100
AcDbEntity
  8
0
100
AcDbCircle
 62
7
  6
CONTINUOUS
 10
16.6988821404
 20
12.5631959347
 40
3.2178088962
100
AcDbArc
 50
171.4691025266
 51
172.020591548
  0
ARC
  5
29F
100
AcDbEntity
  8
0
100
AcDbCircle
 62
7
  6
CONTINUOUS
 10
16.2817545447
 20
12.3856152906
 40
2.7943191065
100
AcDbArc
 50
191.187745226
 51
191.7944592673
  0
ARC
  5
2A0
100
AcDbEntity
  8
0
100
AcDbCircle
 62
7
  6
CONTINUOUS
 10
15.9888309858
 20
12.7019474654
 40
2.4940439106
100
AcDbArc
 50
165.7744147789
 51
166.4277700146
  0
ARC
  5
2A1
100
AcDbEntity
  8
02___PRT_ALL_AXES
100
AcDbCircle
 62
7
  6
CONTINUOUS
 10
15.9179567179
 20
12.7526162931
 40
2.4454110706
100
AcDbArc
 50
162.9015880972
 51
166.8713044506
  0
ARC
  5
2A2
100
AcDbEntity
  8
02___PRT_ALL_AXES
100
AcDbCircle
 62
7
  6
CONTINUOUS
 10
18.0750827159
 20
12.8606339935
 40
2.0436893414
100
AcDbArc
 50
160.9896495073
 51
162.8507482629
  0
ARC
  5
2A3
100
AcDbEntity
  8
0
100
AcDbCircle
 62
7
  6
CONTINUOUS
 10
15.5158712417
 20
12.1855997938
 40
2.0023521886
100
AcDbArc
 50
197.4575420088
 51
198.2154992819
  0
ARC
  5
2A4
100
AcDbEntity
  8
0
100
AcDbCircle
 62
7
  6
CONTINUOUS
 10
15.227140792
 20
12.9372717936
 40
1.6963489401
100
AcDbArc
 50
158.6810794441
 51
159.5255197455
  0
ARC
  5
2A5
100
AcDbEntity
  8
0
100
AcDbCircle
 62
7
  6
CONTINUOUS
 10
15.2009922358
 20
11.1630991556
 40
1.3075699861
100
AcDbArc
 50
179.3629955568
 51
182.1491951904
  0
ARC
  5
2A6
100
AcDbEntity
  8
0
100
AcDbCircle
 62
7
  6
CONTINUOUS
 10
15.1257607135
 20
13.8606338261
 40
1.2978096396
100
AcDbArc
 50
180.6269677062
 51
183.4257201849
  0
ARC
  5
2A7
100
AcDbEntity
  8
0
100
AcDbCircle
 62
7
  6
CONTINUOUS
 10
15.213697365
 20
13.8461491053
 40
1.2758638864
100
AcDbArc
 50
175.921657778
 51
178.0724054942
  0
ARC
  5
2A8
100
AcDbEntity
  8
0
100
AcDbCircle
 62
7
  6
CONTINUOUS
 10
15.0354552772
 20
11.173888457
 40
1.251957928
100
AcDbArc
 50
174.6116211941
 51
177.4850977288
  0
ARC
  5
2A9
100
AcDbEntity
  8
0
100
AcDbCircle
 62
7
  6
CONTINUOUS
 10
14.8176893434
 20
11.907355341
 40
1.2501263458
100
AcDbArc
 50
205.6194854807
 51
206.6575409685
  0
ARC
  5
2AA
100
AcDbEntity
  8
0
100
AcDbCircle
 62
7
  6
CONTINUOUS
 10
15.1834914532
 20
11.2043996544
 40
1.1814300058
100
AcDbArc
 50
186.0953921796
 51
187.0035481532
  0
ARC
  5
2AB
100
AcDbEntity
  8
0
100
AcDbCircle
 62
7
  6
CONTINUOUS
 10
14.8946047705
 20
13.8077190884
 40
1.1749889053
100
AcDbArc
 50
185.3774696066
 51
188.3624439262
  0
ARC
  5
2AC
100
AcDbEntity
  8
0
100
AcDbCircle
 62
7
  6
CONTINUOUS
 10
14.7472315755
 20
11.2624772616
 40
1.0693098721
100
AcDbArc
 50
169.4333824495
 51
172.6317215738
  0
ARC
  5
2AD
100
AcDbEntity
  8
0
100
AcDbCircle
 62
7
  6
CONTINUOUS
 10
14.5991732488
 20
13.2312903896
 40
1.0021936491
100
AcDbArc
 50
148.9930707681
 51
150.1919279188
  0
ARC
  5
2AE
100
AcDbEntity
  8
0
100
AcDbCircle
 62
7
  6
CONTINUOUS
 10
14.5659664143
 20
13.6701824247
 40
0.9461179014
100
AcDbArc
 50
190.5530829626
 51
193.9951560381
  0
ARC
  5
2AF
100
AcDbEntity
  8
0
100
AcDbCircle
 62
7
  6
CONTINUOUS
 10
14.3321064533
 20
11.6108369144
 40
0.6801768598
100
AcDbArc
 50
217.2931573334
 51
218.8512894601
  0
ARC
  5
2B0
100
AcDbEntity
  8
0
100
AcDbCircle
 62
7
  6
CONTINUOUS
 10
14.2137528062
 20
13.5140209345
 40
0.5230464731
100
AcDbArc
 50
134.501011569
 51
136.3500092324
  0
ARC
  5
2B1
100
AcDbEntity
  8
0
100
AcDbCircle
 62
7
  6
CONTINUOUS
 10
14.100742763
 20
11.3738520291
 40
0.3476381305
100
AcDbArc
 50
235.3187603466
 51
237.7559871258
  0
ARC
  5
2B2
100
AcDbEntity
  8
0
100
AcDbCircle
 62
7
  6
CONTINUOUS
 10
14.0673262973
 20
13.7082585092
 40
0.2784485463
100
AcDbArc
 50
111.9935173694
 51
114.8100184428
  0
ARC
  5
2B3
100
AcDbEntity
  8
0
100
AcDbCircle
 62
7
  6
CONTINUOUS
 10
14.0523307512
 20
11.2638903499
 40
0.2265931388
100
AcDbArc
 50
262.1523358894
 51
265.3897938913
  0
ARC
  5
2B4
100
AcDbEntity
  8
AXIS
100
AcDbCircle
 62
7
  6
CONTINUOUS
 10
16.6195710129
 20
11.4289054902
 40
0.1945995111
100
AcDbArc
 50
270.0383611327
 51
278.2221217253
  0
ARC
  5
2B5
100
AcDbEntity
  8
AXIS
100
AcDbCircle
 62
7
  6
CONTINUOUS
 10
16.6195570317
 20
13.5928959764
 40
0.1944080355
100
AcDbArc
 50
83.6421659431
 51
89.9087510365
  0
ARC
  5
2B6
100
AcDbEntity
  8
AXIS
100
AcDbCircle
 62
7
  6
CONTINUOUS
 10
16.6195881511
 20
11.4280377924
 40
0.1937318027
100
AcDbArc
 50
268.7282978239
 51
270.0334643694
  0
ARC
  5
2B7
100
AcDbEntity
  8
AXIS
100
AcDbCircle
 62
7
  6
CONTINUOUS
 10
16.6195677166
 20
13.5936186574
 40
0.1936853386
100
AcDbArc
 50
89.9115713576
 51
91.2659616408
  0
ARC
  5
2B8
100
AcDbEntity
  8
AXIS
100
AcDbCircle
 62
7
  6
CONTINUOUS
 10
16.6195880582
 20
11.4306259764
 40
0.1932574893
100
AcDbArc
 50
268.8579918022
 51
269.996922148
  0
ARC
  5
2B9
100
AcDbEntity
  8
AXIS
100
AcDbCircle
 62
7
  6
CONTINUOUS
 10
16.6195677283
 20
13.591023327
 40
0.1932181717
100
AcDbArc
 50
89.9970502925
 51
91.2161250906
  0
ARC
  5
2BA
100
AcDbEntity
  8
0
100
AcDbCircle
 62
7
  6
CONTINUOUS
 10
17.1828221558
 20
12.8588887612
 40
0.1670243398
100
AcDbArc
 50
133.0514908441
 51
134.725947145
  0
ARC
  5
2BB
100
AcDbEntity
  8
0
100
AcDbCircle
 62
7
  6
CONTINUOUS
 10
13.5266556305
 20
12.1550725911
 40
0.0784478424
100
AcDbArc
 50
258.8068661701
 51
269.965883954
  0
ARC
  5
2BC
100
AcDbEntity
  8
0
100
AcDbCircle
 62
7
  6
CONTINUOUS
 10
13.8166494548
 20
11.1784923311
 40
0.0768583744
100
AcDbArc
 50
359.3617576564
 51
1.9982315642
  0
ARC
  5
2BD
100
AcDbEntity
  8
0
100
AcDbCircle
 62
7
  6
CONTINUOUS
 10
13.754001147
 20
13.7785127224
 40
0.0764058401
100
AcDbArc
 50
356.0216977707
 51
3.4299070021
  0
ARC
  5
2BE
100
AcDbEntity
  8
0
100
AcDbCircle
 62
7
  6
CONTINUOUS
 10
13.7137755874
 20
11.2985159346
 40
0.0755846264
100
AcDbArc
 50
354.6399770508
 51
2.1124817264
  0
SPLINE
  5
2BF
100
AcDbEntity
  8
02___PRT_ALL_AXES
100
AcDbSpline
 62
7
  6
CONTINUOUS
 70
0
 71
3
 72
41
 73
37
 74
0
 42
0.0000001
 43
0.0000001
 44
0.0000000001
 40
0.0
 40
0.0
 40
0.0
 40
0.0
 40
0.032027984
 40
0.06523626
 40
0.0995132372
 40
0.1347486352
 40
0.1708206164
 40
0.2076023662
 40
0.2449624806
 40
0.2827655305
 40
0.3208732439
 40
0.3591453853
 40
0.3974407022
 40
0.4356177718
 40
0.4735359112
 40
0.5110561355
 40
0.5480420174
 40
0.5843605871
 40
0.6198834288
 40
0.654487665
 40
0.688056953
 40
0.7204826993
 40
0.7516655555
 40
0.7815167724
 40
0.8099598848
 40
0.8369329594
 40
0.8623913221
 40
0.8863106089
 40
0.9086908683
 40
0.9295620004
 40
0.9489902115
 40
0.9581991841
 40
0.9670929312
 40
0.9840167973
 40
0.9921110624
 40
1.0
 40
1.0
 40
1.0
 40
1.0
 10
13.4346791932
 20
13.5344017649
 30
0.0
 10
13.4257373375
 20
13.5054659091
 30
0.0
 10
13.4086692136
 20
13.4461688665
 30
0.0
 10
13.3858435122
 20
13.3548609138
 30
0.0
 10
13.3654062876
 20
13.2598843146
 30
0.0
 10
13.34744632
 20
13.1616559105
 30
0.0
 10
13.332042431
 20
13.0605987298
 30
0.0
 10
13.3192616407
 20
12.9571525354
 30
0.0
 10
13.309159681
 20
12.8517665432
 30
0.0
 10
13.3017810409
 20
12.74489851
 30
0.0
 10
13.2971579848
 20
12.6370129318
 30
0.0
 10
13.2953104664
 20
12.5285787481
 30
0.0
 10
13.2962465809
 20
12.4200672995
 30
0.0
 10
13.2999625222
 20
12.3119502885
 30
0.0
 10
13.306441929
 20
12.2046976701
 30
0.0
 10
13.3156562682
 20
12.0987755493
 30
0.0
 10
13.3275653039
 20
11.9946441914
 30
0.0
 10
13.3421172864
 20
11.8927559954
 30
0.0
 10
13.3592483801
 20
11.7935533248
 30
0.0
 10
13.3788836191
 20
11.6974665981
 30
0.0
 10
13.4009374043
 20
11.6049124981
 30
0.0
 10
13.4253138464
 20
11.5162919942
 30
0.0
 10
13.451906519
 20
11.4319882271
 30
0.0
 10
13.4805998944
 20
11.3523649688
 30
0.0
 10
13.5112701365
 20
11.2777650594
 30
0.0
 10
13.5437856215
 20
11.2085085753
 30
0.0
 10
13.5780077898
 20
11.1448908751
 30
0.0
 10
13.6137928469
 20
11.0871824242
 30
0.0
 10
13.6509956025
 20
11.0356263019
 30
0.0
 10
13.6894645532
 20
10.9904445908
 30
0.0
 10
13.7230394733
 20
10.9576955424
 30
0.0
 10
13.7503971449
 20
10.9350594258
 30
0.0
 10
13.7770970789
 20
10.9154395707
 30
0.0
 10
13.8046522785
 20
10.8988197797
 30
0.0
 10
13.8328751307
 20
10.8856633131
 30
0.0
 10
13.8470249829
 20
10.8803013846
 30
0.0
 10
13.8540990264
 20
10.877933393
 30
0.0
  0
SPLINE
  5
2C0
100
AcDbEntity
  8
02___PRT_ALL_AXES
100
AcDbSpline
 62
7
  6
CONTINUOUS
 70
0
 71
3
 72
23
 73
19
 74
0
 42
0.0000001
 43
0.0000001
 44
0.0000000001
 40
0.0
 40
0.0
 40
0.0
 40
0.0
 40
0.0560924849
 40
0.1111427245
 40
0.165587718
 40
0.219882875
 40
0.2744881686
 40
0.3298542706
 40
0.3864086056
 40
0.4445463087
 40
0.5046210719
 40
0.5669434712
 40
0.6317781415
 40
0.699346184
 40
0.7698276399
 40
0.8433636613
 40
0.9200626227
 40
1.0
 40
1.0
 40
1.0
 40
1.0
 10
13.9320478389
 20
14.1697694859
 30
0.0
 10
13.9403415667
 20
14.1725458525
 30
0.0
 10
13.9570359715
 20
14.1773053582
 30
0.0
 10
13.9824682045
 20
14.1819792852
 30
0.0
 10
14.0079620889
 20
14.1840954973
 30
0.0
 10
14.0334700991
 20
14.1836470943
 30
0.0
 10
14.0589479023
 20
14.1806370649
 30
0.0
 10
14.0843505708
 20
14.1750704487
 30
0.0
 10
14.1096361393
 20
14.166962604
 30
0.0
 10
14.1347633151
 20
14.1563284606
 30
0.0
 10
14.1596946268
 20
14.1431911637
 30
0.0
 10
14.1843925711
 20
14.1275731728
 30
0.0
 10
14.20882215
 20
14.1095022074
 30
0.0
 10
14.2329484431
 20
14.0890074029
 30
0.0
 10
14.2567367398
 20
14.0661208652
 30
0.0
 10
14.2801539336
 20
14.0408783099
 30
0.0
 10
14.3031645136
 20
14.0133179403
 30
0.0
 10
14.3179059265
 20
13.9938326653
 30
0.0
 10
14.3252085864
 20
13.9837319838
 30
0.0
  0
SPLINE
  5
2C1
100
AcDbEntity
  8
02___PRT_ALL_AXES
100
AcDbSpline
 62
7
  6
CONTINUOUS
 70
0
 71
3
 72
23
 73
19
 74
0
 42
0.0000001
 43
0.0000001
 44
0.0000000001
 40
0.0
 40
0.0
 40
0.0
 40
0.0
 40
0.0838346687
 40
0.1650436693
 40
0.2434895293
 40
0.3190804931
 40
0.3917410857
 40
0.4614081462
 40
0.528039855
 40
0.591620661
 40
0.6521628064
 40
0.7097098985
 40
0.7643437711
 40
0.8161881557
 40
0.8654171491
 40
0.9122586948
 40
0.95700246
 40
1.0
 40
1.0
 40
1.0
 40
1.0
 10
13.4346791932
 20
13.5344017649
 30
0.0
 10
13.4409795599
 20
13.5547897589
 30
0.0
 10
13.4539348825
 20
13.5947595876
 30
0.0
 10
13.4747835737
 20
13.6531353763
 30
0.0
 10
13.496702335
 20
13.7088706059
 30
0.0
 10
13.5196377336
 20
13.7618332997
 30
0.0
 10
13.5435383191
 20
13.8119039268
 30
0.0
 10
13.5683491389
 20
13.8589684179
 30
0.0
 10
13.5940141701
 20
13.9029182459
 30
0.0
 10
13.6204751789
 20
13.9436530296
 30
0.0
 10
13.6476727421
 20
13.9810802118
 30
0.0
 10
13.675547581
 20
14.0151138853
 30
0.0
 10
13.7040379898
 20
14.0456767426
 30
0.0
 10
13.7330845329
 20
14.0726966959
 30
0.0
 10
13.7626239989
 20
14.0961106693
 30
0.0
 10
13.7925978435
 20
14.1158584784
 30
0.0
 10
13.8229352413
 20
14.1318870244
 30
0.0
 10
13.8437204825
 20
14.1402024115
 30
0.0
 10
13.8540990257
 20
14.1436766057
 30
0.0
  0
SPLINE
  5
2C2
100
AcDbEntity
  8
02___PRT_ALL_AXES
100
AcDbSpline
 62
7
  6
CONTINUOUS
 70
0
 71
3
 72
23
 73
19
 74
0
 42
0.0000001
 43
0.0000001
 44
0.0000000001
 40
0.0
 40
0.0
 40
0.0
 40
0.0
 40
0.056132199
 40
0.1112228616
 40
0.1657071382
 40
0.2200387323
 40
0.2746760038
 40
0.3300677002
 40
0.3866406022
 40
0.444788136
 40
0.5048640425
 40
0.5671781902
 40
0.6319950793
 40
0.6995366392
 40
0.7699819824
 40
0.843474495
 40
0.9201210659
 40
1.0
 40
1.0
 40
1.0
 40
1.0
 10
13.9320478401
 20
10.8518405222
 30
0.0
 10
13.9403232544
 20
10.8490705134
 30
0.0
 10
13.9569801924
 20
10.8443197195
 30
0.0
 10
13.9823546608
 20
10.8396474375
 30
0.0
 10
14.0077907234
 20
10.8375225678
 30
0.0
 10
14.0332411529
 20
10.8379487615
 30
0.0
 10
14.0586617244
 20
10.8409274077
 30
0.0
 10
14.084008459
 20
10.846448796
 30
0.0
 10
14.1092386509
 20
10.8545023631
 30
0.0
 10
14.1343124625
 20
10.8650694458
 30
0.0
 10
14.1591915591
 20
10.8781299611
 30
0.0
 10
14.1838393108
 20
10.8936601177
 30
0.0
 10
14.2082209561
 20
10.9116327601
 30
0.0
 10
14.2323009326
 20
10.9320197954
 30
0.0
 10
14.2560464094
 20
10.9547878426
 30
0.0
 10
14.2794221572
 20
10.9799035469
 30
0.0
 10
14.3023956054
 20
11.0073269034
 30
0.0
 10
14.3171143597
 20
11.0267181682
 30
0.0
 10
14.3244063066
 20
11.0367704177
 30
0.0
  0
SPLINE
  5
2C3
100
AcDbEntity
  8
02___PRT_ALL_AXES
100
AcDbSpline
 62
7
  6
CONTINUOUS
 70
0
 71
3
 72
36
 73
32
 74
0
 42
0.0000001
 43
0.0000001
 44
0.0000000001
 40
0.0
 40
0.0
 40
0.0
 40
0.0
 40
0.0937286441
 40
0.1826778658
 40
0.2665607712
 40
0.3065447048
 40
0.3451947415
 40
0.3824999581
 40
0.4184565075
 40
0.4530676157
 40
0.4863458672
 40
0.5183122189
 40
0.5489993656
 40
0.578451505
 40
0.6067259516
 40
0.6338952908
 40
0.6600469978
 40
0.6852861895
 40
0.7097346271
 40
0.733531061
 40
0.7568299354
 40
0.7797982915
 40
0.8026126503
 40
0.8254538023
 40
0.8485018534
 40
0.8719308362
 40
0.8959047048
 40
0.920573094
 40
0.9460701365
 40
0.9725125909
 40
1.0
 40
1.0
 40
1.0
 40
1.0
 10
13.5806299689
 20
13.471600975
 30
0.0
 10
13.5898167066
 20
13.5013292689
 30
0.0
 10
13.6089572984
 20
13.5589000428
 30
0.0
 10
13.6408864896
 20
13.6414670346
 30
0.0
 10
13.6698807916
 20
13.7059401111
 30
0.0
 10
13.6942644026
 20
13.7540756402
 30
0.0
 10
13.7127694219
 20
13.7878323919
 30
0.0
 10
13.7317571716
 20
13.8197747031
 30
0.0
 10
13.7512010413
 20
13.8498579844
 30
0.0
 10
13.7710749357
 20
13.8780392823
 30
0.0
 10
13.7913499119
 20
13.9042797751
 30
0.0
 10
13.8119994792
 20
13.9285414809
 30
0.0
 10
13.8329945404
 20
13.950790595
 30
0.0
 10
13.854306751
 20
13.9709954418
 30
0.0
 10
13.875908161
 20
13.9891260129
 30
0.0
 10
13.8977685854
 20
14.0051569869
 30
0.0
 10
13.9198601097
 20
14.0190622027
 30
0.0
 10
13.9421517606
 20
14.0308208629
 30
0.0
 10
13.9646132218
 20
14.0404125182
 30
0.0
 10
13.98721252
 20
14.0478190309
 30
0.0
 10
14.0099155083
 20
14.0530276762
 30
0.0
 10
14.0326874151
 20
14.0560250068
 30
0.0
 10
14.0554910899
 20
14.0568067714
 30
0.0
 10
14.0782892971
 20
14.0553697269
 30
0.0
 10
14.1010444811
 20
14.051717236
 30
0.0
 10
14.1237206729
 20
14.0458585342
 30
0.0
 10
14.1462823427
 20
14.037803502
 30
0.0
 10
14.1686971107
 20
14.0275700098
 30
0.0
 10
14.1909328566
 20
14.0151743019
 30
0.0
 10
14.2129582473
 20
14.0006385941
 30
0.0
 10
14.227194445
 20
13.9897568081
 30
0.0
 10
14.234266725
 20
13.9839905298
 30
0.0
  0
SPLINE
  5
2C4
100
AcDbEntity
  8
02___PRT_ALL_AXES
100
AcDbSpline
 62
7
  6
CONTINUOUS
 70
0
 71
3
 72
22
 73
18
 74
0
 42
0.0000001
 43
0.0000001
 44
0.0000000001
 40
0.0
 40
0.0
 40
0.0
 40
0.0
 40
0.0800358063
 40
0.1579512057
 40
0.2336440445
 40
0.3070429104
 40
0.3780911066
 40
0.4467383498
 40
0.5129422679
 40
0.5766754974
 40
0.6379253511
 40
0.6966954305
 40
0.7530073692
 40
0.8069033271
 40
0.8584495461
 40
0.9077379115
 40
1.0
 40
1.0
 40
1.0
 40
1.0
 10
13.5059258391
 20
13.5507584698
 30
0.0
 10
13.5114087291
 20
13.5685011084
 30
0.0
 10
13.5226417662
 20
13.6033906751
 30
0.0
 10
13.5405457767
 20
13.6545667432
 30
0.0
 10
13.5592549503
 20
13.7038109087
 30
0.0
 10
13.5787352869
 20
13.7510365239
 30
0.0
 10
13.5989552137
 20
13.7961654162
 30
0.0
 10
13.6198800766
 20
13.8391231778
 30
0.0
 10
13.6414757478
 20
13.8798370403
 30
0.0
 10
13.6637054481
 20
13.9182385375
 30
0.0
 10
13.6865325399
 20
13.954263332
 30
0.0
 10
13.7099191538
 20
13.987851151
 30
0.0
 10
13.7338271417
 20
14.0189462653
 30
0.0
 10
13.7582167148
 20
14.0474950057
 30
0.0
 10
13.783052776
 20
14.0734539171
 30
0.0
 10
13.815968954
 20
14.1038693998
 30
0.0
 10
13.8422941517
 20
14.1237665327
 30
0.0
 10
13.8603839538
 20
14.1352134854
 30
0.0
  0
SPLINE
  5
2C5
100
AcDbEntity
  8
02___PRT_ALL_AXES
100
AcDbSpline
 62
7
  6
CONTINUOUS
 70
0
 71
3
 72
9
 73
5
 74
0
 42
0.0000001
 43
0.0000001
 44
0.0000000001
 40
0.0
 40
0.0
 40
0.0
 40
0.0
 40
0.5118900111
 40
1.0
 40
1.0
 40
1.0
 40
1.0
 10
13.8603839538
 20
14.1352134854
 30
0.0
 10
13.8718764404
 20
14.1424857567
 30
0.0
 10
13.8951027572
 20
14.1555169305
 30
0.0
 10
13.9197502663
 20
14.1656528123
 30
0.0
 10
13.9320478389
 20
14.1697694859
 30
0.0
  0
SPLINE
  5
2C6
100
AcDbEntity
  8
02___PRT_ALL_AXES
100
AcDbSpline
 62
7
  6
CONTINUOUS
 70
0
 71
3
 72
39
 73
35
 74
0
 42
0.0000001
 43
0.0000001
 44
0.0000000001
 40
0.0
 40
0.0
 40
0.0
 40
0.0
 40
0.031163063
 40
0.0634201113
 40
0.0966735489
 40
0.1308282206
 40
0.1657787729
 40
0.2014154228
 40
0.2376245738
 40
0.2742889479
 40
0.3112886097
 40
0.3485017337
 40
0.3858052676
 40
0.423075613
 40
0.460189388
 40
0.4970241119
 40
0.5334588599
 40
0.5693750806
 40
0.6046573183
 40
0.6391938891
 40
0.6728777548
 40
0.7056074834
 40
0.7372880233
 40
0.7678317031
 40
0.797159624
 40
0.8252028903
 40
0.8519040712
 40
0.8772192829
 40
0.9011207094
 40
0.9235993305
 40
0.9446686476
 40
0.9643695756
 40
0.9827758275
 40
1.0
 40
1.0
 40
1.0
 40
1.0
 10
13.5059258391
 20
13.5507584698
 30
0.0
 10
13.4973304024
 20
13.5229436267
 30
0.0
 10
13.4808786718
 20
13.4660113513
 30
0.0
 10
13.4587292443
 20
13.378441401
 30
0.0
 10
13.4387481107
 20
13.2874879484
 30
0.0
 10
13.4210133033
 20
13.1935095073
 30
0.0
 10
13.4055943108
 20
13.0968690206
 30
0.0
 10
13.3925513862
 20
12.9979437719
 30
0.0
 10
13.3819355823
 20
12.8971192016
 30
0.0
 10
13.3737889054
 20
12.7947881549
 30
0.0
 10
13.368142981
 20
12.6913496843
 30
0.0
 10
13.3650198418
 20
12.5872071359
 30
0.0
 10
13.3644319874
 20
12.4827666215
 30
0.0
 10
13.3663817744
 20
12.3784354567
 30
0.0
 10
13.370861267
 20
12.2746205076
 30
0.0
 10
13.3778529504
 20
12.1717266094
 30
0.0
 10
13.3873297393
 20
12.070154989
 30
0.0
 10
13.3992542217
 20
11.9703015767
 30
0.0
 10
13.4135795257
 20
11.872555486
 30
0.0
 10
13.4302497484
 20
11.7772975671
 30
0.0
 10
13.4491997026
 20
11.6848987576
 30
0.0
 10
13.4703548881
 20
11.5957184822
 30
0.0
 10
13.4936325845
 20
11.5101034185
 30
0.0
 10
13.5189422556
 20
11.4283861076
 30
0.0
 10
13.5461850183
 20
11.3508832072
 30
0.0
 10
13.5752548788
 20
11.2778943419
 30
0.0
 10
13.6060396988
 20
11.2097011196
 30
0.0
 10
13.6384215718
 20
11.1465656729
 30
0.0
 10
13.6722771752
 20
11.0887293518
 30
0.0
 10
13.7074803535
 20
11.0364122911
 30
0.0
 10
13.7439023304
 20
10.9898141802
 30
0.0
 10
13.7814169469
 20
10.9491112958
 30
0.0
 10
13.8198868475
 20
10.9144679013
 30
0.0
 10
13.8469246676
 20
10.8949049247
 30
0.0
 10
13.8605256427
 20
10.8863066516
 30
0.0
  0
SPLINE
  5
2C7
100
AcDbEntity
  8
02___PRT_ALL_AXES
100
AcDbSpline
 62
7
  6
CONTINUOUS
 70
0
 71
3
 72
9
 73
5
 74
0
 42
0.0000001
 43
0.0000001
 44
0.0000000001
 40
0.0
 40
0.0
 40
0.0
 40
0.0
 40
0.5118606999
 40
1.0
 40
1.0
 40
1.0
 40
1.0
 10
13.8605256427
 20
10.8863066516
 30
0.0
 10
13.8719964501
 20
10.8790550294
 30
0.0
 10
13.8951787854
 20
10.8660603622
 30
0.0
 10
13.9197752742
 20
10.8559484876
 30
0.0
 10
13.9320478401
 20
10.8518405222
 30
0.0
  0
SPLINE
  5
2C8
100
AcDbEntity
  8
02___PRT_ALL_AXES
100
AcDbSpline
 62
7
  6
CONTINUOUS
 70
0
 71
3
 72
52
 73
48
 74
0
 42
0.0000001
 43
0.0000001
 44
0.0000000001
 40
0.0
 40
0.0
 40
0.0
 40
0.0
 40
0.0377363213
 40
0.0766649964
 40
0.1166091172
 40
0.1573837542
 40
0.1987966153
 40
0.2406498357
 40
0.28274191
 40
0.3248692975
 40
0.366828154
 40
0.408416054
 40
0.4494337051
 40
0.4896866766
 40
0.5289871874
 40
0.5671559973
 40
0.6040245
 40
0.6394369363
 40
0.6732528803
 40
0.7053501663
 40
0.7207233888
 40
0.7356315056
 40
0.7500659209
 40
0.764020419
 40
0.7774907404
 40
0.790475091
 40
0.8029746235
 40
0.8149931609
 40
0.8265383754
 40
0.8376214386
 40
0.8482579292
 40
0.858468272
 40
0.8682778528
 40
0.8777180912
 40
0.88682613
 40
0.8956454956
 40
0.9042257977
 40
0.9126222077
 40
0.9208947941
 40
0.9291069436
 40
0.9373238539
 40
0.9456105454
 40
0.9540300889
 40
0.9626417895
 40
0.9715002055
 40
0.9806539733
 40
1.0
 40
1.0
 40
1.0
 40
1.0
 10
13.5364629925
 20
13.308064707
 30
0.0
 10
13.5285073795
 20
13.2741331188
 30
0.0
 10
13.5136730306
 20
13.2048804772
 30
0.0
 10
13.4948535302
 20
13.0988218553
 30
0.0
 10
13.4791954762
 20
12.9894150806
 30
0.0
 10
13.4667889142
 20
12.8772851217
 30
0.0
 10
13.4577047761
 20
12.7630691112
 30
0.0
 10
13.451995246
 20
12.6474171153
 30
0.0
 10
13.449693058
 20
12.5309873979
 30
0.0
 10
13.4508115383
 20
12.4144427708
 30
0.0
 10
13.4553443013
 20
12.2984467404
 30
0.0
 10
13.4632652222
 20
12.1836596042
 30
0.0
 10
13.4745288229
 20
12.0707346068
 30
0.0
 10
13.4890705028
 20
11.9603141629
 30
0.0
 10
13.5068069248
 20
11.8530261574
 30
0.0
 10
13.5276365785
 20
11.7494801289
 30
0.0
 10
13.5514401153
 20
11.6502638571
 30
0.0
 10
13.5780814717
 20
11.5559386837
 30
0.0
 10
13.6074086029
 20
11.4670401145
 30
0.0
 10
13.6343210044
 20
11.3969184576
 30
0.0
 10
13.6571370312
 20
11.3440116241
 30
0.0
 10
13.6745654045
 20
11.3065649666
 30
0.0
 10
13.6925322605
 20
11.2708339883
 30
0.0
 10
13.7110114835
 20
11.2368687937
 30
0.0
 10
13.7299772964
 20
11.2047175714
 30
0.0
 10
13.7494035778
 20
11.1744260673
 30
0.0
 10
13.7692620236
 20
11.1460364252
 30
0.0
 10
13.7895265558
 20
11.1195896613
 30
0.0
 10
13.8101678574
 20
11.0951223355
 30
0.0
 10
13.831158429
 20
11.0726696261
 30
0.0
 10
13.8524698125
 20
11.0522637976
 30
0.0
 10
13.8740724218
 20
11.0339334562
 30
0.0
 10
13.8959386069
 20
11.0177071827
 30
0.0
 10
13.9180376111
 20
11.0036080301
 30
0.0
 10
13.9403405034
 20
10.9916597221
 30
0.0
 10
13.9628160699
 20
10.9818821189
 30
0.0
 10
13.9854320342
 20
10.9742921119
 30
0.0
 10
14.0081553023
 20
10.9689065018
 30
0.0
 10
14.0309499294
 20
10.965734098
 30
0.0
 10
14.053779565
 20
10.964784187
 30
0.0
 10
14.0766063743
 20
10.9660576176
 30
0.0
 10
14.0993930301
 20
10.969551404
 30
0.0
 10
14.1221026354
 20
10.9752593527
 30
0.0
 10
14.1447003211
 20
10.9831670639
 30
0.0
 10
14.1671535863
 20
10.9932627137
 30
0.0
 10
14.1974037945
 20
11.0099143218
 30
0.0
 10
14.2189494829
 20
11.0252334984
 30
0.0
 10
14.2328448478
 20
11.0364654227
 30
0.0
  0
SPLINE
  5
2C9
100
AcDbEntity
  8
02___PRT_ALL_AXES
100
AcDbSpline
 62
7
  6
CONTINUOUS
 70
0
 71
3
 72
28
 73
24
 74
0
 42
0.0000001
 43
0.0000001
 44
0.0000000001
 40
0.0
 40
0.0
 40
0.0
 40
0.0
 40
0.022910253
 40
0.0454449955
 40
0.0677236623
 40
0.0898711362
 40
0.112014933
 40
0.1342827335
 40
0.1567994808
 40
0.1796851489
 40
0.2030525826
 40
0.2270056094
 40
0.2770098096
 40
0.3303593094
 40
0.3875243486
 40
0.4488308955
 40
0.5144813152
 40
0.5845749623
 40
0.6591273658
 40
0.7380837637
 40
0.8213278067
 40
0.9087067175
 40
1.0
 40
1.0
 40
1.0
 40
1.0
 10
16.6268200197
 20
14.1697694636
 30
0.0
 10
16.6199604483
 20
14.1720655509
 30
0.0
 10
16.60617677
 20
14.1761124231
 30
0.0
 10
16.5852289563
 20
14.1805113924
 30
0.0
 10
16.5642310252
 20
14.1831729189
 30
0.0
 10
16.5432086178
 20
14.1840938214
 30
0.0
 10
16.5221853623
 20
14.1832729707
 30
0.0
 10
16.5011857476
 20
14.1807101849
 30
0.0
 10
16.4802334004
 20
14.1764109142
 30
0.0
 10
16.4593519223
 20
14.1703803384
 30
0.0
 10
16.4385634878
 20
14.1626259089
 30
0.0
 10
16.4106033446
 20
14.1498230281
 30
0.0
 10
16.375894015
 20
14.1293031315
 30
0.0
 10
16.3356304299
 20
14.0983511867
 30
0.0
 10
16.2962878199
 20
14.0608686707
 30
0.0
 10
16.2580109241
 20
14.0170201712
 30
0.0
 10
16.2209360987
 20
13.9669848006
 30
0.0
 10
16.1852033526
 20
13.9109647309
 30
0.0
 10
16.1509516007
 20
13.8491849878
 30
0.0
 10
16.1183178815
 20
13.7818956127
 30
0.0
 10
16.0874318613
 20
13.7093677427
 30
0.0
 10
16.0584226534
 20
13.631900463
 30
0.0
 10
16.0407823875
 20
13.5782983043
 30
0.0
 10
16.0322719349
 20
13.5507584698
 30
0.0
  0
SPLINE
  5
2CA
100
AcDbEntity
  8
02___PRT_ALL_AXES
100
AcDbSpline
 62
7
  6
CONTINUOUS
 70
0
 71
3
 72
18
 73
14
 74
0
 42
0.0000001
 43
0.0000001
 44
0.0000000001
 40
0.0
 40
0.0
 40
0.0
 40
0.0
 40
0.1574371179
 40
0.3051253894
 40
0.4430072612
 40
0.5712216611
 40
0.6318303402
 40
0.6901886689
 40
0.8005085172
 40
0.8527766305
 40
0.9033149823
 40
0.9523162116
 40
1.0
 40
1.0
 40
1.0
 40
1.0
 10
17.0278520715
 20
11.2361472476
 30
0.0
 10
17.0166966262
 20
11.2127182745
 30
0.0
 10
16.9938635971
 20
11.1678718786
 30
0.0
 10
16.956746131
 20
11.1049317787
 30
0.0
 10
16.9180062789
 20
11.0487257752
 30
0.0
 10
16.8838952651
 20
11.0069600225
 30
0.0
 10
16.8559015496
 20
10.9773361146
 30
0.0
 10
16.8285661758
 20
10.9512254285
 30
0.0
 10
16.8002019042
 20
10.92822078
 30
0.0
 10
16.7708749564
 20
10.9088438676
 30
0.0
 10
16.7490833543
 20
10.896503161
 30
0.0
 10
16.7271304734
 20
10.8861135295
 30
0.0
 10
16.7122217148
 20
10.8804282153
 30
0.0
 10
16.704768834
 20
10.8779333801
 30
0.0
  0
SPLINE
  5
2CB
100
AcDbEntity
  8
02___PRT_ALL_AXES
100
AcDbSpline
 62
7
  6
CONTINUOUS
 70
0
 71
3
 72
18
 73
14
 74
0
 42
0.0000001
 43
0.0000001
 44
0.0000000001
 40
0.0
 40
0.0
 40
0.0
 40
0.0
 40
0.1574395353
 40
0.3051306601
 40
0.4430144167
 40
0.5712295678
 40
0.6318381485
 40
0.6901962377
 40
0.800514489
 40
0.8527814425
 40
0.9033183294
 40
0.9523180145
 40
1.0
 40
1.0
 40
1.0
 40
1.0
 10
17.0278887687
 20
13.7853858655
 30
0.0
 10
17.0167325836
 20
13.8088198766
 30
0.0
 10
16.9938977761
 20
13.8536760662
 30
0.0
 10
16.9567769524
 20
13.9166301662
 30
0.0
 10
16.9180330624
 20
13.9728487609
 30
0.0
 10
16.8839182093
 20
14.0146239254
 30
0.0
 10
16.855921004
 20
14.0442542848
 30
0.0
 10
16.8285824872
 20
14.0703706462
 30
0.0
 10
16.800214542
 20
14.0933799889
 30
0.0
 10
16.7708837854
 20
14.1127608666
 30
0.0
 10
16.7490892432
 20
14.1251037415
 30
0.0
 10
16.7271335391
 20
14.1354953364
 30
0.0
 10
16.7122227248
 20
14.1411814495
 30
0.0
 10
16.7047688334
 20
14.1436765928
 30
0.0
  0
SPLINE
  5
2CC
100
AcDbEntity
  8
02___PRT_ALL_AXES
100
AcDbSpline
 62
7
  6
CONTINUOUS
 70
0
 71
3
 72
51
 73
47
 74
0
 42
0.0000001
 43
0.0000001
 44
0.0000000001
 40
0.0
 40
0.0
 40
0.0
 40
0.0
 40
0.0081714454
 40
0.0161957385
 40
0.0241301345
 40
0.0320343358
 40
0.0399688934
 40
0.0479935344
 40
0.0561654719
 40
0.0645381762
 40
0.0731603068
 40
0.0820750813
 40
0.0913202393
 40
0.1009276876
 40
0.1109242538
 40
0.1213315067
 40
0.1321665922
 40
0.1434424753
 40
0.1551682523
 40
0.1673499345
 40
0.1799901888
 40
0.193089343
 40
0.2066450501
 40
0.2206529291
 40
0.2351066795
 40
0.2499980496
 40
0.2810512447
 40
0.3137205666
 40
0.3478916827
 40
0.3834338098
 40
0.4202023121
 40
0.4580409341
 40
0.4967837796
 40
0.5362571118
 40
0.5762810488
 40
0.616671197
 40
0.6572402064
 40
0.6977992945
 40
0.7381597508
 40
0.7781344514
 40
0.8175394108
 40
0.8561952607
 40
0.8939293
 40
0.9305756893
 40
0.9659813465
 40
1.0
 40
1.0
 40
1.0
 40
1.0
 10
16.6268200208
 20
10.8518404999
 30
0.0
 10
16.6189326176
 20
10.8492001525
 30
0.0
 10
16.6030643247
 20
10.8446379496
 30
0.0
 10
16.5789066468
 20
10.8400189372
 30
0.0
 10
16.5546902409
 20
10.8377077816
 30
0.0
 10
16.5304552267
 20
10.8377116732
 30
0.0
 10
16.506239198
 20
10.8400281736
 30
0.0
 10
16.4820803949
 20
10.8446548192
 30
0.0
 10
16.458015127
 20
10.8515800449
 30
0.0
 10
16.434078767
 20
10.8607917721
 30
0.0
 10
16.4103048622
 20
10.872273167
 30
0.0
 10
16.3867250435
 20
10.8860043738
 30
0.0
 10
16.363371312
 20
10.9019651227
 30
0.0
 10
16.3402727652
 20
10.9201299238
 30
0.0
 10
16.3174605768
 20
10.940474116
 30
0.0
 10
16.294963275
 20
10.9629679653
 30
0.0
 10
16.2728107077
 20
10.9875809233
 30
0.0
 10
16.2510320772
 20
11.0142792508
 30
0.0
 10
16.2296554408
 20
11.0430261006
 30
0.0
 10
16.2087104863
 20
11.0737830895
 30
0.0
 10
16.1882238674
 20
11.1065076103
 30
0.0
 10
16.1682244583
 20
11.1411558309
 30
0.0
 10
16.1487384059
 20
11.1776801611
 30
0.0
 10
16.1297925332
 20
11.2160309869
 30
0.0
 10
16.1114126265
 20
11.256156244
 30
0.0
 10
16.0873578483
 20
11.3127406053
 30
0.0
 10
16.0589701216
 20
11.3875945933
 30
0.0
 10
16.028001214
 20
11.4823373821
 30
0.0
 10
15.9998377212
 20
11.5827035971
 30
0.0
 10
15.974634291
 20
11.6881448938
 30
0.0
 10
15.9525294185
 20
11.798087164
 30
0.0
 10
15.9336448517
 20
11.9119299792
 30
0.0
 10
15.9180847132
 20
12.0290511724
 30
0.0
 10
15.9059348417
 20
12.1488100633
 30
0.0
 10
15.8972621971
 20
12.2705511919
 30
0.0
 10
15.8921146044
 20
12.3936080235
 30
0.0
 10
15.8905204544
 20
12.5173066973
 30
0.0
 10
15.892488555
 20
12.6409697727
 30
0.0
 10
15.898008071
 20
12.763919991
 30
0.0
 10
15.9070485944
 20
12.8854840742
 30
0.0
 10
15.9195602806
 20
13.0049963901
 30
0.0
 10
15.9354739178
 20
13.1218032057
 30
0.0
 10
15.9547020245
 20
13.2352647061
 30
0.0
 10
15.9771382376
 20
13.3447632064
 30
0.0
 10
16.0026592641
 20
13.4496962298
 30
0.0
 10
16.0220483643
 20
13.517674983
 30
0.0
 10
16.0322719349
 20
13.5507584698
 30
0.0
  0
SPLINE
  5
2CD
100
AcDbEntity
  8
02___PRT_ALL_AXES
100
AcDbSpline
 62
7
  6
CONTINUOUS
 70
0
 71
3
 72
28
 73
24
 74
0
 42
0.0000001
 43
0.0000001
 44
0.0000000001
 40
0.0
 40
0.0
 40
0.0
 40
0.0
 40
0.0251403977
 40
0.0499240307
 40
0.0744380757
 40
0.0987734575
 40
0.1230234464
 40
0.1472826156
 40
0.1716453965
 40
0.1962046684
 40
0.2210507416
 40
0.2462699597
 40
0.2981253218
 40
0.3523809969
 40
0.4095224875
 40
0.4699366732
 40
0.5339174832
 40
0.6016753218
 40
0.6733497941
 40
0.7490168441
 40
0.8287013837
 40
0.9123830261
 40
1.0
 40
1.0
 40
1.0
 40
1.0
 10
16.7047688334
 20
14.1436765928
 30
0.0
 10
16.6992118322
 20
14.145536764
 30
0.0
 10
16.6880594944
 20
14.1488919152
 30
0.0
 10
16.6711462866
 20
14.1528173856
 30
0.0
 10
16.6541955732
 20
14.1555914836
 30
0.0
 10
16.6372208735
 20
14.1572124128
 30
0.0
 10
16.620234551
 20
14.1576785607
 30
0.0
 10
16.6032494925
 20
14.1569885498
 30
0.0
 10
16.5862784415
 20
14.1551439391
 30
0.0
 10
16.5693341034
 20
14.1521466838
 30
0.0
 10
16.5524286102
 20
14.1479981254
 30
0.0
 10
16.5297508344
 20
14.1408732572
 30
0.0
 10
16.5014565621
 20
14.1289801976
 30
0.0
 10
16.4682177251
 20
14.1103065432
 30
0.0
 10
16.435451779
 20
14.0871679586
 30
0.0
 10
16.4032449384
 20
14.059639734
 30
0.0
 10
16.3716758619
 20
14.0278035357
 30
0.0
 10
16.3408232082
 20
13.991750464
 30
0.0
 10
16.3107675295
 20
13.9515793423
 30
0.0
 10
16.2815862386
 20
13.9074015342
 30
0.0
 10
16.2533580139
 20
13.8593371039
 30
0.0
 10
16.2261597202
 20
13.8075193726
 30
0.0
 10
16.2091468014
 20
13.7713817253
 30
0.0
 10
16.2008081082
 20
13.7527386333
 30
0.0
  0
SPLINE
  5
2CE
100
AcDbEntity
  8
02___PRT_ALL_AXES
100
AcDbSpline
 62
7
  6
CONTINUOUS
 70
0
 71
3
 72
11
 73
7
 74
0
 42
0.0000001
 43
0.0000001
 44
0.0000000001
 40
0.0
 40
0.0
 40
0.0
 40
0.0
 40
0.2379154628
 40
0.4840827112
 40
0.7382397605
 40
1.0
 40
1.0
 40
1.0
 40
1.0
 10
16.1988183845
 20
13.7482715901
 30
0.0
 10
16.1914802744
 20
13.7317284432
 30
0.0
 10
16.1771226729
 20
13.6978116311
 30
0.0
 10
16.1568528928
 20
13.6454328348
 30
0.0
 10
16.1375187727
 20
13.5907741898
 30
0.0
 10
16.1254507859
 20
13.553425553
 30
0.0
 10
16.1195719907
 20
13.5344017649
 30
0.0
  0
SPLINE
  5
2CF
100
AcDbEntity
  8
02___PRT_ALL_AXES
100
AcDbSpline
 62
7
  6
CONTINUOUS
 70
0
 71
3
 72
27
 73
23
 74
0
 42
0.0000001
 43
0.0000001
 44
0.0000000001
 40
0.0
 40
0.0
 40
0.0
 40
0.0
 40
0.084342204
 40
0.1641285495
 40
0.2394161291
 40
0.3103351089
 40
0.3770994002
 40
0.4400208705
 40
0.4995246972
 40
0.5561571803
 40
0.5836165605
 40
0.6106197851
 40
0.6372682736
 40
0.6636684087
 40
0.6899302717
 40
0.716166284
 40
0.7424891633
 40
0.7690103104
 40
0.8230458007
 40
0.8791105503
 40
0.9379032721
 40
1.0
 40
1.0
 40
1.0
 40
1.0
 10
16.9211299237
 20
13.7847968716
 30
0.0
 10
16.9121957472
 20
13.8001263037
 30
0.0
 10
16.8940484006
 20
13.829523878
 30
0.0
 10
16.8651348483
 20
13.870800458
 30
0.0
 10
16.8353628893
 20
13.9079143405
 30
0.0
 10
16.8048186348
 20
13.9407521198
 30
0.0
 10
16.7735865539
 20
13.9692128421
 30
0.0
 10
16.7417489206
 20
13.9932039874
 30
0.0
 10
16.7093972651
 20
14.0126421521
 30
0.0
 10
16.6817898606
 20
14.0251089778
 30
0.0
 10
16.6596464218
 20
14.0326283794
 30
0.0
 10
16.6431486905
 20
14.0370364443
 30
0.0
 10
16.6266073085
 20
14.0402657919
 30
0.0
 10
16.6100351692
 20
14.0423139446
 30
0.0
 10
16.5934459388
 20
14.0431776672
 30
0.0
 10
16.576853731
 20
14.0428565534
 30
0.0
 10
16.5602715735
 20
14.0413512784
 30
0.0
 10
16.5380624512
 20
14.037746652
 30
0.0
 10
16.510235624
 20
14.0301829257
 30
0.0
 10
16.4773704209
 20
14.0164471033
 30
0.0
 10
16.4449103818
 20
13.9980655074
 30
0.0
 10
16.4242133304
 20
13.9832004767
 30
0.0
 10
16.4139685419
 20
13.9750954888
 30
0.0
  0
SPLINE
  5
2D0
100
AcDbEntity
  8
02___PRT_ALL_AXES
100
AcDbSpline
 62
7
  6
CONTINUOUS
 70
0
 71
3
 72
11
 73
7
 74
0
 42
0.0000001
 43
0.0000001
 44
0.0000000001
 40
0.0
 40
0.0
 40
0.0
 40
0.0
 40
0.2328603757
 40
0.4767950104
 40
0.7323686578
 40
1.0
 40
1.0
 40
1.0
 40
1.0
 10
16.4139685419
 20
13.9750954888
 30
0.0
 10
16.4056347834
 20
13.9685023794
 30
0.0
 10
16.3890771743
 20
13.9543528369
 30
0.0
 10
16.3651773208
 20
13.9309601169
 30
0.0
 10
16.3416958605
 20
13.9049687458
 30
0.0
 10
16.3266988818
 20
13.8863733393
 30
0.0
 10
16.3192715627
 20
13.8766781763
 30
0.0
  0
SPLINE
  5
2D1
100
AcDbEntity
  8
02___PRT_ALL_AXES
100
AcDbSpline
 62
7
  6
CONTINUOUS
 70
0
 71
3
 72
11
 73
7
 74
0
 42
0.0000001
 43
0.0000001
 44
0.0000000001
 40
0.0
 40
0.0
 40
0.0
 40
0.0
 40
0.2318686475
 40
0.4758229466
 40
0.7318939679
 40
1.0
 40
1.0
 40
1.0
 40
1.0
 10
16.3192715627
 20
13.8766781763
 30
0.0
 10
16.3101385436
 20
13.8647564979
 30
0.0
 10
16.2921438742
 20
13.8397123908
 30
0.0
 10
16.2665880329
 20
13.7997637073
 30
0.0
 10
16.2418448551
 20
13.7565813356
 30
0.0
 10
16.2262860814
 20
13.7263924899
 30
0.0
 10
16.2186389968
 20
13.7108019345
 30
0.0
  0
SPLINE
  5
2D2
100
AcDbEntity
  8
02___PRT_ALL_AXES
100
AcDbSpline
 62
7
  6
CONTINUOUS
 70
0
 71
3
 72
10
 73
6
 74
0
 42
0.0000001
 43
0.0000001
 44
0.0000000001
 40
0.0
 40
0.0
 40
0.0
 40
0.0
 40
0.2374444026
 40
0.4834074588
 40
1.0
 40
1.0
 40
1.0
 40
1.0
 10
16.2186389968
 20
13.7108019345
 30
0.0
 10
16.2117671501
 20
13.6967919014
 30
0.0
 10
16.1982853631
 20
13.6680169474
 30
0.0
 10
16.1723589445
 20
13.6076197596
 30
0.0
 10
16.1547330648
 20
13.5606676675
 30
0.0
 10
16.1436307433
 20
13.5285844191
 30
0.0
  0
SPLINE
  5
2D3
100
AcDbEntity
  8
02___PRT_ALL_AXES
100
AcDbSpline
 62
7
  6
CONTINUOUS
 70
0
 71
3
 72
28
 73
24
 74
0
 42
0.0000001
 43
0.0000001
 44
0.0000000001
 40
0.0
 40
0.0
 40
0.0
 40
0.0
 40
0.0837598247
 40
0.162639068
 40
0.23671525
 40
0.3061566511
 40
0.3712400757
 40
0.4323712064
 40
0.4900998112
 40
0.5179181509
 40
0.5451631403
 40
0.5719459642
 40
0.598384995
 40
0.6246048069
 40
0.6507338294
 40
0.6769020928
 40
0.7032390051
 40
0.7298707389
 40
0.7569185294
 40
0.8126793289
 40
0.8713668813
 40
0.9336386477
 40
1.0
 40
1.0
 40
1.0
 40
1.0
 10
16.9207097657
 20
11.2360930563
 30
0.0
 10
16.9111098227
 20
11.2196517773
 30
0.0
 10
16.8915935241
 20
11.1882250736
 30
0.0
 10
16.8603612151
 20
11.1443642183
 30
0.0
 10
16.8281496996
 20
11.1053413637
 30
0.0
 10
16.7950641162
 20
11.0712955039
 30
0.0
 10
16.7612048343
 20
11.0423495652
 30
0.0
 10
16.7266815784
 20
11.0186162919
 30
0.0
 10
16.6970734567
 20
11.0030771577
 30
0.0
 10
16.673275449
 20
10.9934937173
 30
0.0
 10
16.6555642081
 20
10.9877488808
 30
0.0
 10
16.63779027
 20
10.9833656786
 30
0.0
 10
16.619969417
 20
10.9803499589
 30
0.0
 10
16.6021190525
 20
10.9787051676
 30
0.0
 10
16.5842565128
 20
10.9784322724
 30
0.0
 10
16.5663991652
 20
10.97953278
 30
0.0
 10
16.5485647613
 20
10.9820052106
 30
0.0
 10
16.5307695862
 20
10.9858459492
 30
0.0
 10
16.5068818574
 20
10.9928546001
 30
0.0
 10
16.4770602895
 20
11.005185755
 30
0.0
 10
16.4421322801
 20
11.0252177853
 30
0.0
 10
16.4077967594
 20
11.0505326163
 30
0.0
 10
16.3860986663
 20
11.0702063372
 30
0.0
 10
16.3753688997
 20
11.0808082689
 30
0.0
  0
SPLINE
  5
2D4
100
AcDbEntity
  8
02___PRT_ALL_AXES
100
AcDbSpline
 62
7
  6
CONTINUOUS
 70
0
 71
3
 72
11
 73
7
 74
0
 42
0.0000001
 43
0.0000001
 44
0.0000000001
 40
0.0
 40
0.0
 40
0.0
 40
0.0
 40
0.2332398375
 40
0.4774741364
 40
0.7329987073
 40
1.0
 40
1.0
 40
1.0
 40
1.0
 10
16.3740384485
 20
11.0821275583
 30
0.0
 10
16.3659553141
 20
11.0901713953
 30
0.0
 10
16.3499365633
 20
11.1071760909
 30
0.0
 10
16.3268921156
 20
11.1346443227
 30
0.0
 10
16.3043270997
 20
11.1646001647
 30
0.0
 10
16.2899472538
 20
11.1857287178
 30
0.0
 10
16.2828363868
 20
11.1966761969
 30
0.0
  0
SPLINE
  5
2D5
100
AcDbEntity
  8
02___PRT_ALL_AXES
100
AcDbSpline
 62
7
  6
CONTINUOUS
 70
0
 71
3
 72
11
 73
7
 74
0
 42
0.0000001
 43
0.0000001
 44
0.0000000001
 40
0.0
 40
0.0
 40
0.0
 40
0.0
 40
0.2331538408
 40
0.4776337347
 40
0.7333185079
 40
1.0
 40
1.0
 40
1.0
 40
1.0
 10
16.2828363868
 20
11.1966761969
 30
0.0
 10
16.2740755305
 20
11.2101639039
 30
0.0
 10
16.2568588414
 20
11.2382743486
 30
0.0
 10
16.2324855126
 20
11.2826186274
 30
0.0
 10
16.2090066648
 20
11.3300367999
 30
0.0
 10
16.194293817
 20
11.36294058
 30
0.0
 10
16.1870835162
 20
11.3798646863
 30
0.0
  0
SPLINE
  5
2D6
100
AcDbEntity
  8
02___PRT_ALL_AXES
100
AcDbSpline
 62
7
  6
CONTINUOUS
 70
0
 71
3
 72
10
 73
6
 74
0
 42
0.0000001
 43
0.0000001
 44
0.0000000001
 40
0.0
 40
0.0
 40
0.0
 40
0.0
 40
0.2386280235
 40
0.4850286021
 40
1.0
 40
1.0
 40
1.0
 40
1.0
 10
16.185869042
 20
11.3827232273
 30
0.0
 10
16.1793759193
 20
11.3980486763
 30
0.0
 10
16.1666746574
 20
11.4294115479
 30
0.0
 10
16.1424015082
 20
11.4948084337
 30
0.0
 10
16.126015411
 20
11.5453568871
 30
0.0
 10
16.1157592705
 20
11.5797805882
 30
0.0
  0
SPLINE
  5
2D7
100
AcDbEntity
  8
02___PRT_ALL_AXES
100
AcDbSpline
 62
7
  6
CONTINUOUS
 70
0
 71
3
 72
23
 73
19
 74
0
 42
0.0000001
 43
0.0000001
 44
0.0000000001
 40
0.0
 40
0.0
 40
0.0
 40
0.0
 40
0.0564256934
 40
0.1152913693
 40
0.1762940712
 40
0.2391061037
 40
0.3033798723
 40
0.3687523092
 40
0.4348490303
 40
0.5012883239
 40
0.5676850577
 40
0.6336545201
 40
0.6988163296
 40
0.7627981331
 40
0.8252403095
 40
0.8857981683
 40
0.9441514913
 40
1.0
 40
1.0
 40
1.0
 40
1.0
 10
16.1155632484
 20
11.5804388856
 30
0.0
 10
16.1053375009
 20
11.6147990588
 30
0.0
 10
16.0861201516
 20
11.685512655
 30
0.0
 10
16.0613674126
 20
11.7947798697
 30
0.0
 10
16.0401995177
 20
11.9089265941
 30
0.0
 10
16.0227625968
 20
12.02717363
 30
0.0
 10
16.009176333
 20
12.1487171897
 30
0.0
 10
15.9995342613
 20
12.2727291175
 30
0.0
 10
15.9939027431
 20
12.3983642967
 30
0.0
 10
15.9923205374
 20
12.5247661614
 30
0.0
 10
15.9947985184
 20
12.6510728111
 30
0.0
 10
16.00131959
 20
12.7764230486
 30
0.0
 10
16.0118389329
 20
12.8999622489
 30
0.0
 10
16.0262840037
 20
13.0208488418
 30
0.0
 10
16.0445557209
 20
13.138258693
 30
0.0
 10
16.066528179
 20
13.2513951625
 30
0.0
 10
16.0920504437
 20
13.3594845507
 30
0.0
 10
16.1117797965
 20
13.4293389455
 30
0.0
 10
16.1222560005
 20
13.4632399541
 30
0.0
  0
SPLINE
  5
2D8
100
AcDbEntity
  8
02___PRT_ALL_AXES
100
AcDbSpline
 62
7
  6
CONTINUOUS
 70
0
 71
3
 72
23
 73
19
 74
0
 42
0.0000001
 43
0.0000001
 44
0.0000000001
 40
0.0
 40
0.0
 40
0.0
 40
0.0
 40
0.0524630544
 40
0.1038478918
 40
0.1547588983
 40
0.2058213176
 40
0.2576535156
 40
0.3108406799
 40
0.3659131562
 40
0.4233336252
 40
0.4834911833
 40
0.5467018292
 40
0.6132134749
 40
0.683211329
 40
0.756826732
 40
0.8341417223
 40
0.9151982025
 40
1.0
 40
1.0
 40
1.0
 40
1.0
 10
16.704768834
 20
10.8779333801
 30
0.0
 10
16.6949509206
 20
10.8746468555
 30
0.0
 10
16.6751414406
 20
10.8691953123
 30
0.0
 10
16.6448832173
 20
10.864567423
 30
0.0
 10
16.6145586558
 20
10.8636145206
 30
0.0
 10
16.584255144
 20
10.8663439467
 30
0.0
 10
16.5540532502
 20
10.8727423632
 30
0.0
 10
16.5240306077
 20
10.8827861475
 30
0.0
 10
16.4942576922
 20
10.8964396532
 30
0.0
 10
16.4647995296
 20
10.913661408
 30
0.0
 10
16.4357170446
 20
10.934404615
 30
0.0
 10
16.4070684117
 20
10.9586174627
 30
0.0
 10
16.3789116761
 20
10.9862441057
 30
0.0
 10
16.3513029954
 20
11.0172218338
 30
0.0
 10
16.3243002391
 20
11.0514832454
 30
0.0
 10
16.2979583381
 20
11.0889530131
 30
0.0
 10
16.2723349692
 20
11.1295495617
 30
0.0
 10
16.2561301936
 20
11.1580020234
 30
0.0
 10
16.2481448842
 20
11.1727093609
 30
0.0
  0
SPLINE
  5
2D9
100
AcDbEntity
  8
02___PRT_ALL_AXES
100
AcDbSpline
 62
7
  6
CONTINUOUS
 70
0
 71
3
 72
11
 73
7
 74
0
 42
0.0000001
 43
0.0000001
 44
0.0000000001
 40
0.0
 40
0.0
 40
0.0
 40
0.0
 40
0.2375314476
 40
0.4834760171
 40
0.7376926402
 40
1.0
 40
1.0
 40
1.0
 40
1.0
 10
16.2481448842
 20
11.1727093609
 30
0.0
 10
16.2410757166
 20
11.185729349
 30
0.0
 10
16.2271630889
 20
11.2124913453
 30
0.0
 10
16.2072904754
 20
11.2539979387
 30
0.0
 10
16.1880794857
 20
11.297509172
 30
0.0
 10
16.1759201314
 20
11.3273483365
 30
0.0
 10
16.1699490757
 20
11.3425804269
 30
0.0
  0
SPLINE
  5
2DA
100
AcDbEntity
  8
02___PRT_ALL_AXES
100
AcDbSpline
 62
7
  6
CONTINUOUS
 70
0
 71
3
 72
11
 73
7
 74
0
 42
0.0000001
 43
0.0000001
 44
0.0000000001
 40
0.0
 40
0.0
 40
0.0
 40
0.0
 40
0.2389516555
 40
0.4854826568
 40
0.7392800672
 40
1.0
 40
1.0
 40
1.0
 40
1.0
 10
16.1692818367
 20
11.3442850454
 30
0.0
 10
16.1623142391
 20
11.3621115515
 30
0.0
 10
16.1487217715
 20
11.3985525766
 30
0.0
 10
16.1296266257
 20
11.4546125829
 30
0.0
 10
16.1115374334
 20
11.5128332412
 30
0.0
 10
16.1003187026
 20
11.5524944003
 30
0.0
 10
16.0948759053
 20
11.5726560686
 30
0.0
  0
SPLINE
  5
2DB
100
AcDbEntity
  8
02___PRT_ALL_AXES
100
AcDbSpline
 62
7
  6
CONTINUOUS
 70
0
 71
3
 72
9
 73
5
 74
0
 42
0.0000001
 43
0.0000001
 44
0.0000000001
 40
0.0
 40
0.0
 40
0.0
 40
0.0
 40
0.490258835
 40
1.0
 40
1.0
 40
1.0
 40
1.0
 10
16.0948759053
 20
11.5726560686
 30
0.0
 10
16.0844495569
 20
11.6112782261
 30
0.0
 10
16.0649872005
 20
11.6905523405
 30
0.0
 10
16.0488067926
 20
11.7705552227
 30
0.0
 10
16.0413321517
 20
11.8114725953
 30
0.0
  0
SPLINE
  5
2DC
100
AcDbEntity
  8
02___PRT_ALL_AXES
100
AcDbSpline
 62
7
  6
CONTINUOUS
 70
0
 71
3
 72
23
 73
19
 74
0
 42
0.0000001
 43
0.0000001
 44
0.0000000001
 40
0.0
 40
0.0
 40
0.0
 40
0.0
 40
0.0600405183
 40
0.1212647795
 40
0.1834992414
 40
0.2465647077
 40
0.3102778001
 40
0.3744517057
 40
0.4388971828
 40
0.5034237109
 40
0.5678402595
 40
0.6319564234
 40
0.6955833275
 40
0.7585345478
 40
0.820627226
 40
0.8816831143
 40
0.9415297986
 40
1.0
 40
1.0
 40
1.0
 40
1.0
 10
16.0413321517
 20
11.8114725953
 30
0.0
 10
16.0359106274
 20
11.8411508809
 30
0.0
 10
16.0257823884
 20
11.9012455242
 30
0.0
 10
16.0128252713
 20
11.9925456018
 30
0.0
 10
16.0019866895
 20
12.0856520121
 30
0.0
 10
15.9933040354
 20
12.1802395141
 30
0.0
 10
15.9868078951
 20
12.2759788801
 30
0.0
 10
15.9825213967
 20
12.3725365117
 30
0.0
 10
15.9804589439
 20
12.4695759582
 30
0.0
 10
15.9806280323
 20
12.5667590684
 30
0.0
 10
15.9830283693
 20
12.6637471941
 30
0.0
 10
15.9876509571
 20
12.7602023862
 30
0.0
 10
15.9944799513
 20
12.8557885476
 30
0.0
 10
16.0034916819
 20
12.9501726328
 30
0.0
 10
16.0146539618
 20
13.0430258605
 30
0.0
 10
16.0279281954
 20
13.134025283
 30
0.0
 10
16.0432680913
 20
13.2228525395
 30
0.0
 10
16.0549822123
 20
13.2811488862
 30
0.0
 10
16.0611885298
 20
13.3098662481
 30
0.0
  0
SPLINE
  5
2DD
100
AcDbEntity
  8
02___PRT_ALL_AXES
100
AcDbSpline
 62
7
  6
CONTINUOUS
 70
0
 71
3
 72
9
 73
5
 74
0
 42
0.0000001
 43
0.0000001
 44
0.0000000001
 40
0.0
 40
0.0
 40
0.0
 40
0.0
 40
0.5108608777
 40
1.0
 40
1.0
 40
1.0
 40
1.0
 10
16.0613694279
 20
13.3107027118
 30
0.0
 10
16.0696969402
 20
13.3491823723
 30
0.0
 10
16.0874662526
 20
13.4241971903
 30
0.0
 10
16.1084422233
 20
13.4983858242
 30
0.0
 10
16.1195719907
 20
13.5344017649
 30
0.0
  0
SPLINE
  5
2DE
100
AcDbEntity
  8
0
100
AcDbSpline
 62
7
  6
CONTINUOUS
 70
0
 71
3
 72
15
 73
11
 74
0
 42
0.0000001
 43
0.0000001
 44
0.0000000001
 40
0.0
 40
0.0
 40
0.0
 40
0.0
 40
0.0795805493
 40
0.1665630537
 40
0.2662410761
 40
0.3814746803
 40
0.5132616113
 40
0.6613337016
 40
0.8244120796
 40
1.0
 40
1.0
 40
1.0
 40
1.0
 10
13.5567271111
 20
11.7986314513
 30
0.0
 10
13.556195417
 20
11.7986317167
 30
0.0
 10
13.5550752267
 20
11.7988342925
 30
0.0
 10
13.5534971761
 20
11.7997039656
 30
0.0
 10
13.5520088022
 20
11.8010870745
 30
0.0
 10
13.5506191871
 20
11.8029519248
 30
0.0
 10
13.549341953
 20
11.805269199
 30
0.0
 10
13.5481961977
 20
11.8080026828
 30
0.0
 10
13.5472038184
 20
11.8111029867
 30
0.0
 10
13.5466712568
 20
11.8133042118
 30
0.0
 10
13.546431451
 20
11.8144525798
 30
0.0
  0
SPLINE
  5
2DF
100
AcDbEntity
  8
0
100
AcDbSpline
 62
7
  6
CONTINUOUS
 70
0
 71
3
 72
14
 73
10
 74
0
 42
0.0000001
 43
0.0000001
 44
0.0000000001
 40
0.0
 40
0.0
 40
0.0
 40
0.0
 40
0.0871439628
 40
0.179670315
 40
0.2819626375
 40
0.3969156626
 40
0.5260901372
 40
0.6701460205
 40
1.0
 40
1.0
 40
1.0
 40
1.0
 10
13.6227846777
 20
11.5490452323
 30
0.0
 10
13.6223582201
 20
11.549045274
 30
0.0
 10
13.6214748679
 20
11.5491732595
 30
0.0
 10
13.6201975104
 20
11.5497287436
 30
0.0
 10
13.618966429
 20
11.5506304284
 30
0.0
 10
13.6177902859
 20
11.5518605245
 30
0.0
 10
13.6166753415
 20
11.553404622
 30
0.0
 10
13.6152228562
 20
11.55597868
 30
0.0
 10
13.6143665005
 20
11.558147437
 30
0.0
 10
13.6138618752
 20
11.559680744
 30
0.0
  0
SPLINE
  5
2E0
100
AcDbEntity
  8
0
100
AcDbSpline
 62
7
  6
CONTINUOUS
 70
0
 71
3
 72
13
 73
9
 74
0
 42
0.0000001
 43
0.0000001
 44
0.0000000001
 40
0.0
 40
0.0
 40
0.0
 40
0.0
 40
0.0967639365
 40
0.197101698
 40
0.3041323663
 40
0.4203104338
 40
0.6860075438
 40
1.0
 40
1.0
 40
1.0
 40
1.0
 10
13.7076062578
 20
11.3401830846
 30
0.0
 10
13.7072838496
 20
11.3401829786
 30
0.0
 10
13.7066251183
 20
11.3402539362
 30
0.0
 10
13.7056556664
 20
11.3405695587
 30
0.0
 10
13.7047043361
 20
11.3410878996
 30
0.0
 10
13.7034106852
 20
11.3420871945
 30
0.0
 10
13.701891133
 20
11.3438673669
 30
0.0
 10
13.7009157116
 20
11.3455426355
 30
0.0
 10
13.7004462892
 20
11.346477602
 30
0.0
  0
SPLINE
  5
2E1
100
AcDbEntity
  8
0
100
AcDbSpline
 62
7
  6
CONTINUOUS
 70
0
 71
3
 72
11
 73
7
 74
0
 42
0.0000001
 43
0.0000001
 44
0.0000000001
 40
0.0
 40
0.0
 40
0.0
 40
0.0
 40
0.2178215104
 40
0.4504496295
 40
0.7090103948
 40
1.0
 40
1.0
 40
1.0
 40
1.0
 10
13.8074847519
 20
11.1811714975
 30
0.0
 10
13.8070427431
 20
11.181171414
 30
0.0
 10
13.8061238742
 20
11.1813082462
 30
0.0
 10
13.804800474
 20
11.1819090231
 30
0.0
 10
13.803529653
 20
11.1828769369
 30
0.0
 10
13.8027709864
 20
11.183701329
 30
0.0
 10
13.8024005386
 20
11.1841611539
 30
0.0
  0
SPLINE
  5
2E2
100
AcDbEntity
  8
0
100
AcDbSpline
 62
7
  6
CONTINUOUS
 70
0
 71
3
 72
16
 73
12
 74
0
 42
0.0000001
 43
0.0000001
 44
0.0000000001
 40
0.0
 40
0.0
 40
0.0
 40
0.0
 40
0.1765184604
 40
0.3415415347
 40
0.4917293479
 40
0.6251722533
 40
0.7409351626
 40
0.8395917792
 40
0.9238770718
 40
0.9625051796
 40
1.0
 40
1.0
 40
1.0
 40
1.0
 10
13.5166750449
 20
13.0405344875
 30
0.0
 10
13.5168809744
 20
13.0419070951
 30
0.0
 10
13.5173655631
 20
13.0445510741
 30
0.0
 10
13.5183379857
 20
13.0482973033
 30
0.0
 10
13.5195192541
 20
13.0516270448
 30
0.0
 10
13.5208780017
 20
13.0544664926
 30
0.0
 10
13.5223919505
 20
13.0567581207
 30
0.0
 10
13.5240341306
 20
13.0584613457
 30
0.0
 10
13.5255568416
 20
13.0593710069
 30
0.0
 10
13.5267791373
 20
13.0597078076
 30
0.0
 10
13.527380392
 20
13.0597546806
 30
0.0
 10
13.5276751455
 20
13.0597482918
 30
0.0
  0
SPLINE
  5
2E3
100
AcDbEntity
  8
0
100
AcDbSpline
 62
7
  6
CONTINUOUS
 70
0
 71
3
 72
15
 73
11
 74
0
 42
0.0000001
 43
0.0000001
 44
0.0000000001
 40
0.0
 40
0.0
 40
0.0
 40
0.0
 40
0.1021345597
 40
0.2152435694
 40
0.3372838438
 40
0.4660725558
 40
0.5993012862
 40
0.7345037941
 40
0.8690714905
 40
1.0
 40
1.0
 40
1.0
 40
1.0
 10
13.5156508267
 20
12.9768704973
 30
0.0
 10
13.51517513
 20
12.9779095354
 30
0.0
 10
13.5143059085
 20
12.9801609946
 30
0.0
 10
13.5132678511
 20
12.9837931411
 30
0.0
 10
13.512454145
 20
12.9877867436
 30
0.0
 10
13.5118803606
 20
12.9920483003
 30
0.0
 10
13.5115616214
 20
12.9964839282
 30
0.0
 10
13.5115033985
 20
13.0009952334
 30
0.0
 10
13.5117104735
 20
13.005476206
 30
0.0
 10
13.5120246302
 20
13.0084324167
 30
0.0
 10
13.5122279983
 20
13.0098831533
 30
0.0
  0
SPLINE
  5
2E4
100
AcDbEntity
  8
0
100
AcDbSpline
 62
7
  6
CONTINUOUS
 70
0
 71
3
 72
9
 73
5
 74
0
 42
0.0000001
 43
0.0000001
 44
0.0000000001
 40
0.0
 40
0.0
 40
0.0
 40
0.0
 40
0.5139118875
 40
1.0
 40
1.0
 40
1.0
 40
1.0
 10
13.5156508267
 20
12.9768704973
 30
0.0
 10
13.5187155501
 20
12.9701763903
 30
0.0
 10
13.5249826233
 20
12.9572866702
 30
0.0
 10
13.5319254782
 20
12.9447454001
 30
0.0
 10
13.5354833436
 20
12.9387591836
 30
0.0
  0
SPLINE
  5
2E5
100
AcDbEntity
  8
0
100
AcDbSpline
 62
7
  6
CONTINUOUS
 70
0
 71
3
 72
9
 73
5
 74
0
 42
0.0000001
 43
0.0000001
 44
0.0000000001
 40
0.0
 40
0.0
 40
0.0
 40
0.0
 40
0.5322054682
 40
1.0
 40
1.0
 40
1.0
 40
1.0
 10
13.5383086599
 20
12.9320632987
 30
0.0
 10
13.537934882
 20
12.9332995999
 30
0.0
 10
13.5371299771
 20
12.9355934853
 30
0.0
 10
13.536063363
 20
12.9377832833
 30
0.0
 10
13.5354833436
 20
12.9387591836
 30
0.0
  0
SPLINE
  5
2E6
100
AcDbEntity
  8
0
100
AcDbSpline
 62
7
  6
CONTINUOUS
 70
0
 71
3
 72
11
 73
7
 74
0
 42
0.0000001
 43
0.0000001
 44
0.0000000001
 40
0.0
 40
0.0
 40
0.0
 40
0.0
 40
0.223140894
 40
0.4607780533
 40
0.7184487585
 40
1.0
 40
1.0
 40
1.0
 40
1.0
 10
13.519223784
 20
12.7765375616
 30
0.0
 10
13.5195514362
 20
12.776601794
 30
0.0
 10
13.5202153715
 20
12.7768066742
 30
0.0
 10
13.5211699788
 20
12.7773120618
 30
0.0
 10
13.522100399
 20
12.7780157847
 30
0.0
 10
13.5226743882
 20
12.7785861369
 30
0.0
 10
13.5229568878
 20
12.7788986724
 30
0.0
  0
SPLINE
  5
2E7
100
AcDbEntity
  8
0
100
AcDbSpline
 62
7
  6
CONTINUOUS
 70
0
 71
3
 72
9
 73
5
 74
0
 42
0.0000001
 43
0.0000001
 44
0.0000000001
 40
0.0
 40
0.0
 40
0.0
 40
0.0
 40
0.4892632006
 40
1.0
 40
1.0
 40
1.0
 40
1.0
 10
13.519223784
 20
12.7765375616
 30
0.0
 10
13.5150422296
 20
12.7757178161
 30
0.0
 10
13.5066179916
 20
12.7733622143
 30
0.0
 10
13.4986318252
 20
12.7698118543
 30
0.0
 10
13.4946905384
 20
12.7677497058
 30
0.0
  0
SPLINE
  5
2E8
100
AcDbEntity
  8
0
100
AcDbSpline
 62
7
  6
CONTINUOUS
 70
0
 71
3
 72
15
 73
11
 74
0
 42
0.0000001
 43
0.0000001
 44
0.0000000001
 40
0.0
 40
0.0
 40
0.0
 40
0.0
 40
0.1630893742
 40
0.3201018066
 40
0.4675874687
 40
0.6030961228
 40
0.7247134915
 40
0.8312803673
 40
0.9225771186
 40
1.0
 40
1.0
 40
1.0
 40
1.0
 10
13.4854864549
 20
12.7430827806
 30
0.0
 10
13.4855780421
 20
12.7445560989
 30
0.0
 10
13.4858443401
 20
12.7474432796
 30
0.0
 10
13.486496698
 20
12.7516279669
 30
0.0
 10
13.4873869787
 20
12.7555136066
 30
0.0
 10
13.4884904048
 20
12.7590106795
 30
0.0
 10
13.489784549
 20
12.7620441644
 30
0.0
 10
13.491241732
 20
12.7645537341
 30
0.0
 10
13.4928377339
 20
12.766483786
 30
0.0
 10
13.4940696198
 20
12.7674248306
 30
0.0
 10
13.4946905384
 20
12.7677497058
 30
0.0
  0
SPLINE
  5
2E9
100
AcDbEntity
  8
0
100
AcDbSpline
 62
7
  6
CONTINUOUS
 70
0
 71
3
 72
15
 73
11
 74
0
 42
0.0000001
 43
0.0000001
 44
0.0000000001
 40
0.0
 40
0.0
 40
0.0
 40
0.0
 40
0.0909153791
 40
0.1950880946
 40
0.3112630675
 40
0.4376941918
 40
0.5723258807
 40
0.7127803717
 40
0.8564204706
 40
1.0
 40
1.0
 40
1.0
 40
1.0
 10
13.4896391494
 20
12.6802631679
 30
0.0
 10
13.4890805692
 20
12.6810382252
 30
0.0
 10
13.4880332587
 20
12.6828110111
 30
0.0
 10
13.4867277496
 20
12.6858160499
 30
0.0
 10
13.4856129766
 20
12.6892908273
 30
0.0
 10
13.4847108336
 20
12.6931546463
 30
0.0
 10
13.4840437856
 20
12.6973240385
 30
0.0
 10
13.4836251646
 20
12.7017070084
 30
0.0
 10
13.4834684579
 20
12.7062008759
 30
0.0
 10
13.4835379137
 20
12.7092203224
 30
0.0
 10
13.4836182607
 20
12.7107269593
 30
0.0
  0
SPLINE
  5
2EA
100
AcDbEntity
  8
0
100
AcDbSpline
 62
7
  6
CONTINUOUS
 70
0
 71
3
 72
9
 73
5
 74
0
 42
0.0000001
 43
0.0000001
 44
0.0000000001
 40
0.0
 40
0.0
 40
0.0
 40
0.0
 40
0.5167246774
 40
1.0
 40
1.0
 40
1.0
 40
1.0
 10
13.4896391494
 20
12.6802631679
 30
0.0
 10
13.4931565014
 20
12.6753826702
 30
0.0
 10
13.50028835
 20
12.6661655828
 30
0.0
 10
13.508140944
 20
12.6575473414
 30
0.0
 10
13.5121239465
 20
12.6535733217
 30
0.0
  0
SPLINE
  5
2EB
100
AcDbEntity
  8
0
100
AcDbSpline
 62
7
  6
CONTINUOUS
 70
0
 71
3
 72
9
 73
5
 74
0
 42
0.0000001
 43
0.0000001
 44
0.0000000001
 40
0.0
 40
0.0
 40
0.0
 40
0.0
 40
0.5410687559
 40
1.0
 40
1.0
 40
1.0
 40
1.0
 10
13.5154296527
 20
12.6485322033
 30
0.0
 10
13.5149725788
 20
12.6495232099
 30
0.0
 10
13.514021459
 20
12.6513090077
 30
0.0
 10
13.5127792277
 20
12.6529195183
 30
0.0
 10
13.5121239465
 20
12.6535733217
 30
0.0
  0
SPLINE
  5
2EC
100
AcDbEntity
  8
0
100
AcDbSpline
 62
7
  6
CONTINUOUS
 70
0
 71
3
 72
9
 73
5
 74
0
 42
0.0000001
 43
0.0000001
 44
0.0000000001
 40
0.0
 40
0.0
 40
0.0
 40
0.0
 40
0.4563999343
 40
1.0
 40
1.0
 40
1.0
 40
1.0
 10
13.5093539102
 20
12.4862156008
 30
0.0
 10
13.5100281722
 20
12.4867240658
 30
0.0
 10
13.5113299113
 20
12.488070418
 30
0.0
 10
13.5123296425
 20
12.48963684
 30
0.0
 10
13.5128142703
 20
12.4905182317
 30
0.0
  0
SPLINE
  5
2ED
100
AcDbEntity
  8
0
100
AcDbSpline
 62
7
  6
CONTINUOUS
 70
0
 71
3
 72
9
 73
5
 74
0
 42
0.0000001
 43
0.0000001
 44
0.0000000001
 40
0.0
 40
0.0
 40
0.0
 40
0.0
 40
0.4830836556
 40
1.0
 40
1.0
 40
1.0
 40
1.0
 10
13.5093539102
 20
12.4862156008
 30
0.0
 10
13.5052573359
 20
12.4831263492
 30
0.0
 10
13.497139354
 20
12.4762432655
 30
0.0
 10
13.4897294658
 20
12.4686125678
 30
0.0
 10
13.4860682803
 20
12.4645214029
 30
0.0
  0
SPLINE
  5
2EE
100
AcDbEntity
  8
0
100
AcDbSpline
 62
7
  6
CONTINUOUS
 70
0
 71
3
 72
15
 73
11
 74
0
 42
0.0000001
 43
0.0000001
 44
0.0000000001
 40
0.0
 40
0.0
 40
0.0
 40
0.0
 40
0.1490176094
 40
0.2964813541
 40
0.43906496
 40
0.5741487573
 40
0.6994325903
 40
0.8130276572
 40
0.9134697266
 40
1.0
 40
1.0
 40
1.0
 40
1.0
 10
13.4790624765
 20
12.4354794198
 30
0.0
 10
13.4790323694
 20
12.4369898219
 30
0.0
 10
13.479061824
 20
12.4399973545
 30
0.0
 10
13.479364978
 20
12.4444407023
 30
0.0
 10
13.4799253713
 20
12.4487169853
 30
0.0
 10
13.4807260783
 20
12.452726297
 30
0.0
 10
13.481750817
 20
12.4563805525
 30
0.0
 10
13.4829747064
 20
12.459602004
 30
0.0
 10
13.4843739436
 20
12.4623163541
 30
0.0
 10
13.4854832941
 20
12.4638677142
 30
0.0
 10
13.4860682803
 20
12.4645214029
 30
0.0
  0
SPLINE
  5
2EF
100
AcDbEntity
  8
0
100
AcDbSpline
 62
7
  6
CONTINUOUS
 70
0
 71
3
 72
15
 73
11
 74
0
 42
0.0000001
 43
0.0000001
 44
0.0000000001
 40
0.0
 40
0.0
 40
0.0
 40
0.0
 40
0.0806572439
 40
0.1756014744
 40
0.2851427452
 40
0.4084291009
 40
0.5439325026
 40
0.6895383208
 40
0.8426996026
 40
1.0
 40
1.0
 40
1.0
 40
1.0
 10
13.4882105912
 20
12.3762497031
 30
0.0
 10
13.4875980464
 20
12.376712177
 30
0.0
 10
13.4864099249
 20
12.3779120805
 30
0.0
 10
13.48488858
 20
12.3801702977
 30
0.0
 10
13.4835198626
 20
12.3829821585
 30
0.0
 10
13.4823290021
 20
12.3862840554
 30
0.0
 10
13.481343257
 20
12.3900081225
 30
0.0
 10
13.4805828307
 20
12.3940734225
 30
0.0
 10
13.4800694581
 20
12.398385613
 30
0.0
 10
13.479897594
 20
12.4013369778
 30
0.0
 10
13.4798547839
 20
12.402833216
 30
0.0
  0
SPLINE
  5
2F0
100
AcDbEntity
  8
0
100
AcDbSpline
 62
7
  6
CONTINUOUS
 70
0
 71
3
 72
9
 73
5
 74
0
 42
0.0000001
 43
0.0000001
 44
0.0000000001
 40
0.0
 40
0.0
 40
0.0
 40
0.0
 40
0.5147446583
 40
1.0
 40
1.0
 40
1.0
 40
1.0
 10
13.4882105912
 20
12.3762497031
 30
0.0
 10
13.4920481917
 20
12.3733522989
 30
0.0
 10
13.4998131637
 20
12.3681168469
 30
0.0
 10
13.5081817508
 20
12.3638940393
 30
0.0
 10
13.5123649749
 20
12.3621477988
 30
0.0
  0
SPLINE
  5
2F1
100
AcDbEntity
  8
0
100
AcDbSpline
 62
7
  6
CONTINUOUS
 70
0
 71
3
 72
9
 73
5
 74
0
 42
0.0000001
 43
0.0000001
 44
0.0000000001
 40
0.0
 40
0.0
 40
0.0
 40
0.0
 40
0.5438727095
 40
1.0
 40
1.0
 40
1.0
 40
1.0
 10
13.5160065957
 20
12.358981768
 30
0.0
 10
13.5154874648
 20
12.3596958186
 30
0.0
 10
13.5144210742
 20
12.3609361281
 30
0.0
 10
13.5130482224
 20
12.3618625846
 30
0.0
 10
13.5123649749
 20
12.3621477988
 30
0.0
  0
SPLINE
  5
2F2
100
AcDbEntity
  8
0
100
AcDbSpline
 62
7
  6
CONTINUOUS
 70
0
 71
3
 72
9
 73
5
 74
0
 42
0.0000001
 43
0.0000001
 44
0.0000000001
 40
0.0
 40
0.0
 40
0.0
 40
0.0
 40
0.4640164537
 40
1.0
 40
1.0
 40
1.0
 40
1.0
 10
13.5232055259
 20
12.1969683144
 30
0.0
 10
13.5238199345
 20
12.1978201802
 30
0.0
 10
13.524962463
 20
12.199787428
 30
0.0
 10
13.5258317232
 20
12.2018826431
 30
0.0
 10
13.5262419079
 20
12.2030244197
 30
0.0
  0
SPLINE
  5
2F3
100
AcDbEntity
  8
0
100
AcDbSpline
 62
7
  6
CONTINUOUS
 70
0
 71
3
 72
9
 73
5
 74
0
 42
0.0000001
 43
0.0000001
 44
0.0000000001
 40
0.0
 40
0.0
 40
0.0
 40
0.0
 40
0.4847390669
 40
1.0
 40
1.0
 40
1.0
 40
1.0
 10
13.5232055259
 20
12.1969683144
 30
0.0
 10
13.5194533505
 20
12.1917659945
 30
0.0
 10
13.5121019062
 20
12.1807499622
 30
0.0
 10
13.5054508297
 20
12.1693011423
 30
0.0
 10
13.5021852055
 20
12.1633159149
 30
0.0
  0
SPLINE
  5
2F4
100
AcDbEntity
  8
0
100
AcDbSpline
 62
7
  6
CONTINUOUS
 70
0
 71
3
 72
15
 73
11
 74
0
 42
0.0000001
 43
0.0000001
 44
0.0000000001
 40
0.0
 40
0.0
 40
0.0
 40
0.0
 40
0.1359408741
 40
0.2741289086
 40
0.4114547463
 40
0.5452879202
 40
0.6731841219
 40
0.7929168237
 40
0.9024478101
 40
1.0
 40
1.0
 40
1.0
 40
1.0
 10
13.4976838686
 20
12.1311681479
 30
0.0
 10
13.4975300485
 20
12.1326495181
 30
0.0
 10
13.4973148631
 20
12.1356472581
 30
0.0
 10
13.4972551657
 20
12.1401570877
 30
0.0
 10
13.4974608017
 20
12.144639753
 30
0.0
 10
13.4979234409
 20
12.1489899974
 30
0.0
 10
13.4986343435
 20
12.1531114666
 30
0.0
 10
13.4995752466
 20
12.1569138795
 30
0.0
 10
13.5007278014
 20
12.1603084198
 30
0.0
 10
13.5016733132
 20
12.1623777201
 30
0.0
 10
13.5021852055
 20
12.1633159149
 30
0.0
  0
SPLINE
  5
2F5
100
AcDbEntity
  8
0
100
AcDbSpline
 62
7
  6
CONTINUOUS
 70
0
 71
3
 72
15
 73
11
 74
0
 42
0.0000001
 43
0.0000001
 44
0.0000000001
 40
0.0
 40
0.0
 40
0.0
 40
0.0
 40
0.0749567376
 40
0.1615296066
 40
0.2634593297
 40
0.3819736616
 40
0.5167536613
 40
0.6663553407
 40
0.8285807251
 40
1.0
 40
1.0
 40
1.0
 40
1.0
 10
13.5114275868
 20
12.0781169502
 30
0.0
 10
13.5108141031
 20
12.0782377267
 30
0.0
 10
13.5095415476
 20
12.0787698565
 30
0.0
 10
13.5078420857
 20
12.0801969038
 30
0.0
 10
13.5062692086
 20
12.0822361848
 30
0.0
 10
13.5048390285
 20
12.0848410502
 30
0.0
 10
13.5035774774
 20
12.0879626785
 30
0.0
 10
13.5025088149
 20
12.0915362362
 30
0.0
 10
13.5016617662
 20
12.095480811
 30
0.0
 10
13.5012628217
 20
12.0982375128
 30
0.0
 10
13.5011020498
 20
12.0996583575
 30
0.0
  0
SPLINE
  5
2F6
100
AcDbEntity
  8
0
100
AcDbSpline
 62
7
  6
CONTINUOUS
 70
0
 71
3
 72
9
 73
5
 74
0
 42
0.0000001
 43
0.0000001
 44
0.0000000001
 40
0.0
 40
0.0
 40
0.0
 40
0.0
 40
0.4733011959
 40
1.0
 40
1.0
 40
1.0
 40
1.0
 10
13.5601732488
 20
11.9214371968
 30
0.0
 10
13.5606957592
 20
11.9225777432
 30
0.0
 10
13.5616405181
 20
11.9250612079
 30
0.0
 10
13.5623385346
 20
11.9276218881
 30
0.0
 10
13.5626529483
 20
11.9289820957
 30
0.0
  0
SPLINE
  5
2F7
100
AcDbEntity
  8
0
100
AcDbSpline
 62
7
  6
CONTINUOUS
 70
0
 71
3
 72
9
 73
5
 74
0
 42
0.0000001
 43
0.0000001
 44
0.0000000001
 40
0.0
 40
0.0
 40
0.0
 40
0.0
 40
0.4881959488
 40
1.0
 40
1.0
 40
1.0
 40
1.0
 10
13.5601732488
 20
11.9214371968
 30
0.0
 10
13.5569457913
 20
11.9143922359
 30
0.0
 10
13.5506872534
 20
11.8997984339
 30
0.0
 10
13.5450657806
 20
11.8849491195
 30
0.0
 10
13.5423369268
 20
11.8772973672
 30
0.0
  0
SPLINE
  5
2F8
100
AcDbEntity
  8
0
100
AcDbSpline
 62
7
  6
CONTINUOUS
 70
0
 71
3
 72
15
 73
11
 74
0
 42
0.0000001
 43
0.0000001
 44
0.0000000001
 40
0.0
 40
0.0
 40
0.0
 40
0.0
 40
0.1238162937
 40
0.2531946048
 40
0.3853022134
 40
0.5175842451
 40
0.6475684867
 40
0.7728621296
 40
0.8911229481
 40
1.0
 40
1.0
 40
1.0
 40
1.0
 10
13.5405367869
 20
11.8434488279
 30
0.0
 10
13.5402624919
 20
11.844835404
 30
0.0
 10
13.5398056975
 20
11.8476920902
 30
0.0
 10
13.5393856963
 20
11.8520730532
 30
0.0
 10
13.5392274703
 20
11.8565680751
 30
0.0
 10
13.5393314068
 20
11.8610714949
 30
0.0
 10
13.5396969509
 20
11.8654833157
 30
0.0
 10
13.5403138033
 20
11.8697058627
 30
0.0
 10
13.541170846
 20
11.8736400576
 30
0.0
 10
13.5419194239
 20
11.8761266819
 30
0.0
 10
13.5423369268
 20
11.8772973672
 30
0.0
  0
SPLINE
  5
2F9
100
AcDbEntity
  8
0
100
AcDbSpline
 62
7
  6
CONTINUOUS
 70
0
 71
3
 72
9
 73
5
 74
0
 42
0.0000001
 43
0.0000001
 44
0.0000000001
 40
0.0
 40
0.0
 40
0.0
 40
0.0
 40
0.4819995763
 40
1.0
 40
1.0
 40
1.0
 40
1.0
 10
13.6186414122
 20
11.67166428
 30
0.0
 10
13.6190525478
 20
11.6730335194
 30
0.0
 10
13.6197677488
 20
11.6759164172
 30
0.0
 10
13.6202553596
 20
11.678844976
 30
0.0
 10
13.6204560544
 20
11.6803682243
 30
0.0
  0
SPLINE
  5
2FA
100
AcDbEntity
  8
0
100
AcDbSpline
 62
7
  6
CONTINUOUS
 70
0
 71
3
 72
9
 73
5
 74
0
 42
0.0000001
 43
0.0000001
 44
0.0000000001
 40
0.0
 40
0.0
 40
0.0
 40
0.0
 40
0.2436533666
 40
1.0
 40
1.0
 40
1.0
 40
1.0
 10
13.6186414122
 20
11.67166428
 30
0.0
 10
13.6173684882
 20
11.6674249546
 30
0.0
 10
13.6123003591
 20
11.6499792502
 30
0.0
 10
13.6078387023
 20
11.6323588738
 30
0.0
 10
13.6047686214
 20
11.6189661425
 30
0.0
  0
SPLINE
  5
2FB
100
AcDbEntity
  8
0
100
AcDbSpline
 62
7
  6
CONTINUOUS
 70
0
 71
3
 72
15
 73
11
 74
0
 42
0.0000001
 43
0.0000001
 44
0.0000000001
 40
0.0
 40
0.0
 40
0.0
 40
0.0
 40
0.1122505416
 40
0.2330520843
 40
0.3599257211
 40
0.4904669753
 40
0.6222534821
 40
0.7528201502
 40
0.8796482924
 40
1.0
 40
1.0
 40
1.0
 40
1.0
 10
13.6057483532
 20
11.5848961747
 30
0.0
 10
13.6053618104
 20
11.5861250088
 30
0.0
 10
13.6046768129
 20
11.588713946
 30
0.0
 10
13.603915123
 20
11.5927767062
 30
0.0
 10
13.6034001755
 20
11.5970895122
 30
0.0
 10
13.6031407378
 20
11.6015510958
 30
0.0
 10
13.6031446472
 20
11.6060625393
 30
0.0
 10
13.6034099764
 20
11.6105236684
 30
0.0
 10
13.6039338018
 20
11.6148296316
 30
0.0
 10
13.6044600148
 20
11.6176198959
 30
0.0
 10
13.6047686214
 20
11.6189661425
 30
0.0
  0
SPLINE
  5
2FC
100
AcDbEntity
  8
0
100
AcDbSpline
 62
7
  6
CONTINUOUS
 70
0
 71
3
 72
9
 73
5
 74
0
 42
0.0000001
 43
0.0000001
 44
0.0000000001
 40
0.0
 40
0.0
 40
0.0
 40
0.0
 40
0.2418300655
 40
1.0
 40
1.0
 40
1.0
 40
1.0
 10
13.6960546768
 20
11.458565839
 30
0.0
 10
13.6961960411
 20
11.4593223404
 30
0.0
 10
13.6967197036
 20
11.4624617965
 30
0.0
 10
13.697014816
 20
11.4656381517
 30
0.0
 10
13.6971249531
 20
11.4680484245
 30
0.0
  0
SPLINE
  5
2FD
100
AcDbEntity
  8
0
100
AcDbSpline
 62
7
  6
CONTINUOUS
 70
0
 71
3
 72
15
 73
11
 74
0
 42
0.0000001
 43
0.0000001
 44
0.0000000001
 40
0.0
 40
0.0
 40
0.0
 40
0.0
 40
0.1008953826
 40
0.2130441203
 40
0.3344694544
 40
0.4630242173
 40
0.5964198709
 40
0.7321945227
 40
0.8677324452
 40
1.0
 40
1.0
 40
1.0
 40
1.0
 10
13.6904685092
 20
11.3668101798
 30
0.0
 10
13.6899827344
 20
11.3678228512
 30
0.0
 10
13.6890924027
 20
11.370026808
 30
0.0
 10
13.6880226656
 20
11.3735972109
 30
0.0
 10
13.6871739931
 20
11.3775419049
 30
0.0
 10
13.6865627294
 20
11.3817685841
 30
0.0
 10
13.6862048611
 20
11.3861842559
 30
0.0
 10
13.6861067505
 20
11.3906910019
 30
0.0
 10
13.6862741372
 20
11.3951829358
 30
0.0
 10
13.6865616621
 20
11.3981524856
 30
0.0
 10
13.6867517247
 20
11.3996125552
 30
0.0
  0
SPLINE
  5
2FE
100
AcDbEntity
  8
0
100
AcDbSpline
 62
7
  6
CONTINUOUS
 70
0
 71
3
 72
15
 73
11
 74
0
 42
0.0000001
 43
0.0000001
 44
0.0000000001
 40
0.0
 40
0.0
 40
0.0
 40
0.0
 40
0.0897142221
 40
0.1928846911
 40
0.3083765202
 40
0.4345116516
 40
0.5692747194
 40
0.7103058808
 40
0.8549706376
 40
1.0
 40
1.0
 40
1.0
 40
1.0
 10
13.7909945775
 20
11.1987222477
 30
0.0
 10
13.7904283726
 20
11.1994653165
 30
0.0
 10
13.7893636926
 20
11.2011798053
 30
0.0
 10
13.7880320163
 20
11.2041082027
 30
0.0
 10
13.7868869854
 20
11.2075168421
 30
0.0
 10
13.7859510591
 20
11.2113266848
 30
0.0
 10
13.7852474003
 20
11.2154557211
 30
0.0
 10
13.7847901546
 20
11.219812936
 30
0.0
 10
13.7845937464
 20
11.2242963168
 30
0.0
 10
13.7846364116
 20
11.2273146776
 30
0.0
 10
13.7847031817
 20
11.2288234095
 30
0.0
  0
SPLINE
  5
2FF
100
AcDbEntity
  8
0
100
AcDbSpline
 62
7
  6
CONTINUOUS
 70
0
 71
3
 72
15
 73
11
 74
0
 42
0.0000001
 43
0.0000001
 44
0.0000000001
 40
0.0
 40
0.0
 40
0.0
 40
0.0
 40
0.0797004562
 40
0.1736437774
 40
0.2823989521
 40
0.4052635328
 40
0.5407969938
 40
0.6869316107
 40
0.8411419929
 40
1.0
 40
1.0
 40
1.0
 40
1.0
 10
13.9029330866
 20
11.0879786276
 30
0.0
 10
13.9023173182
 20
11.0884043867
 30
0.0
 10
13.9011164623
 20
11.0895359715
 30
0.0
 10
13.8995743843
 20
11.0917068034
 30
0.0
 10
13.8981809638
 20
11.0944387229
 30
0.0
 10
13.8969613854
 20
11.0976702536
 30
0.0
 10
13.8959431337
 20
11.1013355167
 30
0.0
 10
13.8951470606
 20
11.1053550858
 30
0.0
 10
13.8945957451
 20
11.1096358386
 30
0.0
 10
13.8943981226
 20
11.1125719113
 30
0.0
 10
13.8943420436
 20
11.1140630106
 30
0.0
  0
SPLINE
  5
300
100
AcDbEntity
  8
0
100
AcDbSpline
 62
7
  6
CONTINUOUS
 70
0
 71
3
 72
15
 73
11
 74
0
 42
0.0000001
 43
0.0000001
 44
0.0000000001
 40
0.0
 40
0.0
 40
0.0
 40
0.0
 40
0.0749405318
 40
0.1607971225
 40
0.2618496323
 40
0.3796846491
 40
0.5141930524
 40
0.6640497432
 40
0.8271231507
 40
1.0
 40
1.0
 40
1.0
 40
1.0
 10
14.0213917865
 20
11.0394193472
 30
0.0
 10
14.0207822456
 20
11.03950329
 30
0.0
 10
14.0195068371
 20
11.0399565599
 30
0.0
 10
14.0177883115
 20
11.0412874621
 30
0.0
 10
14.0161956195
 20
11.0432370631
 30
0.0
 10
14.0147423021
 20
11.0457588965
 30
0.0
 10
14.0134535836
 20
11.0488062637
 30
0.0
 10
14.0123537653
 20
11.052316349
 30
0.0
 10
14.01147221
 20
11.0562100412
 30
0.0
 10
14.0110497146
 20
11.0589381463
 30
0.0
 10
14.0108765661
 20
11.0603469386
 30
0.0
  0
SPLINE
  5
301
100
AcDbEntity
  8
0
100
AcDbSpline
 62
7
  6
CONTINUOUS
 70
0
 71
3
 72
9
 73
5
 74
0
 42
0.0000001
 43
0.0000001
 44
0.0000000001
 40
0.0
 40
0.0
 40
0.0
 40
0.0
 40
0.2449342105
 40
1.0
 40
1.0
 40
1.0
 40
1.0
 10
13.8278054965
 20
13.7522080592
 30
0.0
 10
13.8280834904
 20
13.7539120392
 30
0.0
 10
13.8291323706
 20
13.760882789
 30
0.0
 10
13.829851793
 20
13.7679023824
 30
0.0
 10
13.8302228792
 20
13.773211785
 30
0.0
  0
SPLINE
  5
302
100
AcDbEntity
  8
0
100
AcDbSpline
 62
7
  6
CONTINUOUS
 70
0
 71
3
 72
11
 73
7
 74
0
 42
0.0000001
 43
0.0000001
 44
0.0000000001
 40
0.0
 40
0.0
 40
0.0
 40
0.0
 40
0.2290656235
 40
0.4761167533
 40
0.7354410281
 40
1.0
 40
1.0
 40
1.0
 40
1.0
 10
13.7245927135
 20
13.5622954773
 30
0.0
 10
13.7260543161
 20
13.567087437
 30
0.0
 10
13.7285803061
 20
13.5772071921
 30
0.0
 10
13.7311829578
 20
13.5930948783
 30
0.0
 10
13.7326882624
 20
13.6099023133
 30
0.0
 10
13.7329333616
 20
13.621367769
 30
0.0
 10
13.7328615733
 20
13.6271535066
 30
0.0
  0
SPLINE
  5
303
100
AcDbEntity
  8
0
100
AcDbSpline
 62
7
  6
CONTINUOUS
 70
0
 71
3
 72
15
 73
11
 74
0
 42
0.0000001
 43
0.0000001
 44
0.0000000001
 40
0.0
 40
0.0
 40
0.0
 40
0.0
 40
0.0983843661
 40
0.2081545401
 40
0.3278258631
 40
0.4555149438
 40
0.5889862164
 40
0.7259096827
 40
0.8638646824
 40
1.0
 40
1.0
 40
1.0
 40
1.0
 10
13.6346752111
 20
13.3277841652
 30
0.0
 10
13.6363173791
 20
13.3308781508
 30
0.0
 10
13.6393566359
 20
13.3376579834
 30
0.0
 10
13.6430615809
 20
13.3487401596
 30
0.0
 10
13.6461054277
 20
13.361098174
 30
0.0
 10
13.6484171802
 20
13.3744683044
 30
0.0
 10
13.6499495014
 20
13.3885669226
 30
0.0
 10
13.6506670325
 20
13.4030959609
 30
0.0
 10
13.6505499246
 20
13.4177362751
 30
0.0
 10
13.6499157539
 20
13.4274807179
 30
0.0
 10
13.6494533995
 20
13.4323054414
 30
0.0
  0
SPLINE
  5
304
100
AcDbEntity
  8
0
100
AcDbSpline
 62
7
  6
CONTINUOUS
 70
0
 71
3
 72
27
 73
23
 74
0
 42
0.0000001
 43
0.0000001
 44
0.0000000001
 40
0.0
 40
0.0
 40
0.0
 40
0.0
 40
0.0202810277
 40
0.0417795737
 40
0.0645087737
 40
0.0884638588
 40
0.1136237068
 40
0.1399589402
 40
0.1674306719
 40
0.1959872547
 40
0.2561152773
 40
0.3198211565
 40
0.3864901143
 40
0.4554433757
 40
0.5259601153
 40
0.5972861908
 40
0.6686560927
 40
0.7393007453
 40
0.8084567596
 40
0.8753998392
 40
0.9394756905
 40
1.0
 40
1.0
 40
1.0
 40
1.0
 10
17.075702523
 20
12.0302782591
 30
0.0
 10
17.0720774751
 20
12.0346217753
 30
0.0
 10
17.064940588
 20
12.0438492503
 30
0.0
 10
17.0548576934
 20
12.0587663452
 30
0.0
 10
17.0451202347
 20
12.0751156879
 30
0.0
 10
17.0357587259
 20
12.0928449624
 30
0.0
 10
17.0267992752
 20
12.111897487
 30
0.0
 10
17.0182717138
 20
12.1322145183
 30
0.0
 10
17.0102044285
 20
12.1537330676
 30
0.0
 10
16.9999148654
 20
12.1844642204
 30
0.0
 10
16.9884547531
 20
12.2254319371
 30
0.0
 10
16.9771152781
 20
12.277375539
 30
0.0
 10
16.9681106784
 20
12.332269015
 30
0.0
 10
16.9615508677
 20
12.3894180992
 30
0.0
 10
16.9575249686
 20
12.4481024833
 30
0.0
 10
16.9560833827
 20
12.5075807265
 30
0.0
 10
16.9572438294
 20
12.5671008095
 30
0.0
 10
16.9609935411
 20
12.6259080218
 30
0.0
 10
16.967279543
 20
12.683257393
 30
0.0
 10
16.97602976
 20
12.7384311899
 30
0.0
 10
16.9871244684
 20
12.7907230192
 30
0.0
 10
16.9962703967
 20
12.8242828087
 30
0.0
 10
17.0012552128
 20
12.8404136786
 30
0.0
  0
SPLINE
  5
305
100
AcDbEntity
  8
0
100
AcDbSpline
 62
7
  6
CONTINUOUS
 70
0
 71
3
 72
9
 73
5
 74
0
 42
0.0000001
 43
0.0000001
 44
0.0000000001
 40
0.0
 40
0.0
 40
0.0
 40
0.0
 40
0.2551869578
 40
1.0
 40
1.0
 40
1.0
 40
1.0
 10
17.0688020982
 20
12.9809402115
 30
0.0
 10
17.0695699534
 20
12.9816571963
 30
0.0
 10
17.0726063593
 20
12.9844372567
 30
0.0
 10
17.0757541792
 20
12.9870962625
 30
0.0
 10
17.0781615908
 20
12.9889952849
 30
0.0
  0
SPLINE
  5
306
100
AcDbEntity
  8
0
100
AcDbSpline
 62
7
  6
CONTINUOUS
 70
0
 71
3
 72
13
 73
9
 74
0
 42
0.0000001
 43
0.0000001
 44
0.0000000001
 40
0.0
 40
0.0
 40
0.0
 40
0.0
 40
0.2721858878
 40
0.5258850538
 40
0.6474631295
 40
0.766451958
 40
0.883674951
 40
1.0
 40
1.0
 40
1.0
 40
1.0
 10
17.0781615908
 20
12.9889952849
 30
0.0
 10
17.0826105173
 20
12.992504702
 30
0.0
 10
17.0916396159
 20
12.998765105
 30
0.0
 10
17.1037984201
 20
13.0047282896
 30
0.0
 10
17.113558566
 20
13.0080249172
 30
0.0
 10
17.1208107603
 20
13.0097705124
 30
0.0
 10
17.1280849525
 20
13.0108200304
 30
0.0
 10
17.1329501901
 20
13.011054425
 30
0.0
 10
17.1353718922
 20
13.0110546997
 30
0.0
  0
SPLINE
  5
307
100
AcDbEntity
  8
0
100
AcDbSpline
 62
7
  6
CONTINUOUS
 70
0
 71
3
 72
17
 73
13
 74
0
 42
0.0000001
 43
0.0000001
 44
0.0000000001
 40
0.0
 40
0.0
 40
0.0
 40
0.0
 40
0.1491118838
 40
0.2896357017
 40
0.4221317844
 40
0.4856261799
 40
0.5474287675
 40
0.6664599732
 40
0.780523933
 40
0.8911217413
 40
0.9456737365
 40
1.0
 40
1.0
 40
1.0
 40
1.0
 10
17.345034731
 20
11.3567828943
 30
0.0
 10
17.3370985685
 20
11.3472754575
 30
0.0
 10
17.3210488645
 20
11.3293219424
 30
0.0
 10
17.2956776968
 20
11.3050704761
 30
0.0
 10
17.2738076538
 20
11.2875938866
 30
0.0
 10
17.2561101678
 20
11.2755269691
 30
0.0
 10
17.2387600262
 20
11.2649883163
 30
0.0
 10
17.2168002436
 20
11.2540067626
 30
0.0
 10
17.1898312176
 20
11.2444291839
 30
0.0
 10
17.1670699354
 20
11.2395974543
 30
0.0
 10
17.1489301849
 20
11.2376855336
 30
0.0
 10
17.1398838084
 20
11.2373674181
 30
0.0
 10
17.1353717627
 20
11.2373675286
 30
0.0
  0
SPLINE
  5
308
100
AcDbEntity
  8
0
100
AcDbSpline
 62
7
  6
CONTINUOUS
 70
0
 71
3
 72
32
 73
28
 74
0
 42
0.0000001
 43
0.0000001
 44
0.0000000001
 40
0.0
 40
0.0
 40
0.0
 40
0.0
 40
0.0202802221
 40
0.0417790658
 40
0.064507468
 40
0.088461572
 40
0.1136209941
 40
0.1399562153
 40
0.1674267264
 40
0.1959821273
 40
0.2255668093
 40
0.2561162061
 40
0.3198203451
 40
0.3864871167
 40
0.4207245339
 40
0.4554442274
 40
0.490555127
 40
0.5259635315
 40
0.5972879765
 40
0.6686540341
 40
0.7392933187
 40
0.8084506462
 40
0.8753931665
 40
0.907825503
 40
0.9394600507
 40
0.970213876
 40
1.0
 40
1.0
 40
1.0
 40
1.0
 10
17.3677275684
 20
13.6376404152
 30
0.0
 10
17.3762290078
 20
13.6274556239
 30
0.0
 10
17.3929649971
 20
13.6058164406
 30
0.0
 10
17.4166070591
 20
13.5708338485
 30
0.0
 10
17.4394427477
 20
13.5324950702
 30
0.0
 10
17.4613959839
 20
13.4909201808
 30
0.0
 10
17.4824056134
 20
13.4462412611
 30
0.0
 10
17.5024010706
 20
13.3985965584
 30
0.0
 10
17.5213201008
 20
13.3481363179
 30
0.0
 10
17.5391063929
 20
13.2950205624
 30
0.0
 10
17.5556982658
 20
13.2394152437
 30
0.0
 10
17.5764524345
 20
13.1610966891
 30
0.0
 10
17.5989112011
 20
13.0581915383
 30
0.0
 10
17.6163552656
 20
12.951885194
 30
0.0
 10
17.6275579326
 20
12.8638677587
 30
0.0
 10
17.6345630419
 20
12.7961447373
 30
0.0
 10
17.6400700403
 20
12.7275152724
 30
0.0
 10
17.6454088323
 20
12.6348729588
 30
0.0
 10
17.6482320312
 20
12.5183594144
 30
0.0
 10
17.6455107781
 20
12.3787891175
 30
0.0
 10
17.6367205513
 20
12.2408862367
 30
0.0
 10
17.6219744574
 20
12.1064030957
 30
0.0
 10
17.6047055028
 20
11.9974641489
 30
0.0
 10
17.5879667689
 20
11.9134036433
 30
0.0
 10
17.5741940759
 20
11.8529146121
 30
0.0
 10
17.5591210899
 20
11.79452294
 30
0.0
 10
17.5480570894
 20
11.7564883386
 30
0.0
 10
17.5423041587
 20
11.737871848
 30
0.0
  0
SPLINE
  5
309
100
AcDbEntity
  8
0
100
AcDbSpline
 62
7
  6
CONTINUOUS
 70
0
 71
3
 72
12
 73
8
 74
0
 42
0.0000001
 43
0.0000001
 44
0.0000000001
 40
0.0
 40
0.0
 40
0.0
 40
0.0
 40
0.1164742378
 40
0.2338348943
 40
0.4743582987
 40
0.7280492525
 40
1.0
 40
1.0
 40
1.0
 40
1.0
 10
17.1353718922
 20
12.0105552861
 30
0.0
 10
17.1329712358
 20
12.0105550137
 30
0.0
 10
17.12814825
 20
12.0107846786
 30
0.0
 10
17.1184581052
 20
12.0121706651
 30
0.0
 10
17.1062792635
 20
12.0156991323
 30
0.0
 10
17.0920192678
 20
12.0226286085
 30
0.0
 10
17.0830563311
 20
12.0287872361
 30
0.0
 10
17.0786403408
 20
12.0322393647
 30
0.0
  0
SPLINE
  5
30A
100
AcDbEntity
  8
0
100
AcDbSpline
 62
7
  6
CONTINUOUS
 70
0
 71
3
 72
9
 73
5
 74
0
 42
0.0000001
 43
0.0000001
 44
0.0000000001
 40
0.0
 40
0.0
 40
0.0
 40
0.0
 40
0.2427622215
 40
1.0
 40
1.0
 40
1.0
 40
1.0
 10
17.0786403408
 20
12.0322393647
 30
0.0
 10
17.0774997858
 20
12.033130975
 30
0.0
 10
17.0728603203
 20
12.0368786642
 30
0.0
 10
17.0684545581
 20
12.0409128321
 30
0.0
 10
17.0652465237
 20
12.0440909594
 30
0.0
  0
SPLINE
  5
30B
100
AcDbEntity
  8
0
100
AcDbSpline
 62
7
  6
CONTINUOUS
 70
0
 71
3
 72
17
 73
13
 74
0
 42
0.0000001
 43
0.0000001
 44
0.0000000001
 40
0.0
 40
0.0
 40
0.0
 40
0.0
 40
0.0543263031
 40
0.1088783086
 40
0.2194756679
 40
0.3335399389
 40
0.4525703549
 40
0.5143721376
 40
0.5778662285
 40
0.7103647139
 40
0.8508891564
 40
1.0
 40
1.0
 40
1.0
 40
1.0
 10
17.1353717627
 20
13.7842424572
 30
0.0
 10
17.1398838126
 20
13.7842423467
 30
0.0
 10
17.148930177
 20
13.7839239704
 30
0.0
 10
17.1670698977
 20
13.782012257
 30
0.0
 10
17.1898314226
 20
13.7771814762
 30
0.0
 10
17.2168000015
 20
13.7676027457
 30
0.0
 10
17.2387597765
 20
13.7566215446
 30
0.0
 10
17.2561100103
 20
13.7460833273
 30
0.0
 10
17.2738076992
 20
13.7340164841
 30
0.0
 10
17.295677214
 20
13.7165388648
 30
0.0
 10
17.3210490608
 20
13.6922879364
 30
0.0
 10
17.3370990048
 20
13.6743346326
 30
0.0
 10
17.3450350407
 20
13.6648271993
 30
0.0
  0
SPLINE
  5
30C
100
AcDbEntity
  8
0
100
AcDbSpline
 62
7
  6
CONTINUOUS
 70
0
 71
3
 72
15
 73
11
 74
0
 42
0.0000001
 43
0.0000001
 44
0.0000000001
 40
0.0
 40
0.0
 40
0.0
 40
0.0
 40
0.1761381443
 40
0.3396784505
 40
0.4881800319
 40
0.6203626562
 40
0.7357482459
 40
0.835222462
 40
0.9215288565
 40
1.0
 40
1.0
 40
1.0
 40
1.0
 10
14.0592882822
 20
13.9669147897
 30
0.0
 10
14.0595212333
 20
13.9681205383
 30
0.0
 10
14.0600430088
 20
13.9704327661
 30
0.0
 10
14.0610323658
 20
13.9736930329
 30
0.0
 10
14.0621875446
 20
13.9765716938
 30
0.0
 10
14.0634838065
 20
13.9790174086
 30
0.0
 10
14.0649033469
 20
13.9809885407
 30
0.0
 10
14.0664285912
 20
13.9824547356
 30
0.0
 10
14.0680528074
 20
13.9833747713
 30
0.0
 10
14.069208701
 20
13.9835937596
 30
0.0
 10
14.0697558062
 20
13.9835942378
 30
0.0
  0
SPLINE
  5
30D
100
AcDbEntity
  8
0
100
AcDbSpline
 62
7
  6
CONTINUOUS
 70
0
 71
3
 72
15
 73
11
 74
0
 42
0.0000001
 43
0.0000001
 44
0.0000000001
 40
0.0
 40
0.0
 40
0.0
 40
0.0
 40
0.1646529064
 40
0.3226795212
 40
0.4706264656
 40
0.6060785647
 40
0.7271898478
 40
0.8329246805
 40
0.9232762798
 40
1.0
 40
1.0
 40
1.0
 40
1.0
 10
13.9410643007
 20
13.9368890643
 30
0.0
 10
13.9411688645
 20
13.9383543819
 30
0.0
 10
13.941460164
 20
13.9412207248
 30
0.0
 10
13.942149264
 20
13.9453658479
 30
0.0
 10
13.9430735338
 20
13.9491982338
 30
0.0
 10
13.9442074174
 20
13.9526298087
 30
0.0
 10
13.9455279903
 20
13.9555873007
 30
0.0
 10
13.9470076684
 20
13.9580124823
 30
0.0
 10
13.9486230064
 20
13.9598518814
 30
0.0
 10
13.9498648927
 20
13.9607202327
 30
0.0
 10
13.9504862786
 20
13.9610074022
 30
0.0
  0
SPLINE
  5
30E
100
AcDbEntity
  8
0
100
AcDbSpline
 62
7
  6
CONTINUOUS
 70
0
 71
3
 72
21
 73
17
 74
0
 42
0.0000001
 43
0.0000001
 44
0.0000000001
 40
0.0
 40
0.0
 40
0.0
 40
0.0
 40
0.0380415345
 40
0.0806372786
 40
0.1279393486
 40
0.1799011654
 40
0.2363112062
 40
0.2967947694
 40
0.3609085409
 40
0.4281156319
 40
0.569382799
 40
0.715416881
 40
0.7885380747
 40
0.8608325167
 40
0.9315805952
 40
1.0
 40
1.0
 40
1.0
 40
1.0
 10
13.5611287376
 20
13.0589486115
 30
0.0
 10
13.5625068237
 20
13.0601522748
 30
0.0
 10
13.5652012281
 20
13.0629675177
 30
0.0
 10
13.568822661
 20
13.0679591796
 30
0.0
 10
13.5722155041
 20
13.0738919386
 30
0.0
 10
13.575344959
 20
13.0807031121
 30
0.0
 10
13.5781779191
 20
13.0883215169
 30
0.0
 10
13.5806870721
 20
13.0966636582
 30
0.0
 10
13.5828392228
 20
13.1056392479
 30
0.0
 10
13.5852447151
 20
13.1185324575
 30
0.0
 10
13.5871756079
 20
13.1354983237
 30
0.0
 10
13.5876993166
 20
13.1528463653
 30
0.0
 10
13.5872633969
 20
13.1668611829
 30
0.0
 10
13.5865056272
 20
13.177233963
 30
0.0
 10
13.5853275281
 20
13.1873395114
 30
0.0
 10
13.5842531662
 20
13.1939494559
 30
0.0
 10
13.583643695
 20
13.1971833847
 30
0.0
  0
SPLINE
  5
30F
100
AcDbEntity
  8
0
100
AcDbSpline
 62
7
  6
CONTINUOUS
 70
0
 71
3
 72
11
 73
7
 74
0
 42
0.0000001
 43
0.0000001
 44
0.0000000001
 40
0.0
 40
0.0
 40
0.0
 40
0.0
 40
0.280147281
 40
0.5358954239
 40
0.7731220728
 40
1.0
 40
1.0
 40
1.0
 40
1.0
 10
13.8471381011
 20
13.8870775937
 30
0.0
 10
13.8474533414
 20
13.8873872076
 30
0.0
 10
13.8480964796
 20
13.8879413005
 30
0.0
 10
13.8491442482
 20
13.888577697
 30
0.0
 10
13.8502189502
 20
13.8889687247
 30
0.0
 10
13.8509536313
 20
13.8890572705
 30
0.0
 10
13.8513114698
 20
13.8890571601
 30
0.0
  0
SPLINE
  5
310
100
AcDbEntity
  8
0
100
AcDbSpline
 62
7
  6
CONTINUOUS
 70
0
 71
3
 72
15
 73
11
 74
0
 42
0.0000001
 43
0.0000001
 44
0.0000000001
 40
0.0
 40
0.0
 40
0.0
 40
0.0
 40
0.1505175458
 40
0.2990256839
 40
0.4421787751
 40
0.5773657874
 40
0.7023134077
 40
0.8151872973
 40
0.9146152884
 40
1.0
 40
1.0
 40
1.0
 40
1.0
 10
13.8280287741
 20
13.8464326319
 30
0.0
 10
13.8280121897
 20
13.8479421768
 30
0.0
 10
13.8280681603
 20
13.8509427974
 30
0.0
 10
13.8284105131
 20
13.8553670433
 30
0.0
 10
13.8290085225
 20
13.8596092642
 30
0.0
 10
13.8298443529
 20
13.8635704445
 30
0.0
 10
13.8309009585
 20
13.8671636874
 30
0.0
 10
13.8321528982
 20
13.8703129375
 30
0.0
 10
13.8335759546
 20
13.8729457485
 30
0.0
 10
13.8347009512
 20
13.8744347588
 30
0.0
 10
13.8352921269
 20
13.8750543503
 30
0.0
  0
SPLINE
  5
311
100
AcDbEntity
  8
0
100
AcDbSpline
 62
7
  6
CONTINUOUS
 70
0
 71
3
 72
11
 73
7
 74
0
 42
0.0000001
 43
0.0000001
 44
0.0000000001
 40
0.0
 40
0.0
 40
0.0
 40
0.0
 40
0.3057581622
 40
0.5688064538
 40
0.7952197707
 40
1.0
 40
1.0
 40
1.0
 40
1.0
 10
13.7401880544
 20
13.747562165
 30
0.0
 10
13.7406242043
 20
13.7482875669
 30
0.0
 10
13.7415241586
 20
13.7495884006
 30
0.0
 10
13.7430922719
 20
13.7511564252
 30
0.0
 10
13.7447703001
 20
13.752146931
 30
0.0
 10
13.7459720057
 20
13.7523819627
 30
0.0
 10
13.746538895
 20
13.7523821178
 30
0.0
  0
SPLINE
  5
312
100
AcDbEntity
  8
0
100
AcDbSpline
 62
7
  6
CONTINUOUS
 70
0
 71
3
 72
15
 73
11
 74
0
 42
0.0000001
 43
0.0000001
 44
0.0000000001
 40
0.0
 40
0.0
 40
0.0
 40
0.0
 40
0.1373205528
 40
0.2764994558
 40
0.4144005922
 40
0.5483898254
 40
0.6760317131
 40
0.7951260972
 40
0.9036803821
 40
1.0
 40
1.0
 40
1.0
 40
1.0
 10
13.7247871162
 20
13.6976028627
 30
0.0
 10
13.7246467802
 20
13.6990906483
 30
0.0
 10
13.7244584331
 20
13.7020958918
 30
0.0
 10
13.7244386449
 20
13.7066079871
 30
0.0
 10
13.7246838695
 20
13.7110774132
 30
0.0
 10
13.7251848204
 20
13.715399256
 30
0.0
 10
13.7259318916
 20
13.7194778421
 30
0.0
 10
13.7269060041
 20
13.7232240072
 30
0.0
 10
13.7280881035
 20
13.7265503199
 30
0.0
 10
13.7290532958
 20
13.7285675675
 30
0.0
 10
13.7295744006
 20
13.729477055
 30
0.0
  0
SPLINE
  5
313
100
AcDbEntity
  8
0
100
AcDbSpline
 62
7
  6
CONTINUOUS
 70
0
 71
3
 72
9
 73
5
 74
0
 42
0.0000001
 43
0.0000001
 44
0.0000000001
 40
0.0
 40
0.0
 40
0.0
 40
0.0
 40
0.2545620957
 40
1.0
 40
1.0
 40
1.0
 40
1.0
 10
13.7328615733
 20
13.6271535066
 30
0.0
 10
13.7328513458
 20
13.6279777863
 30
0.0
 10
13.7327589612
 20
13.6312148215
 30
0.0
 10
13.7324611327
 20
13.6344470639
 30
0.0
 10
13.7321084947
 20
13.6368351035
 30
0.0
  0
SPLINE
  5
314
100
AcDbEntity
  8
0
100
AcDbSpline
 62
7
  6
CONTINUOUS
 70
0
 71
3
 72
14
 73
10
 74
0
 42
0.0000001
 43
0.0000001
 44
0.0000000001
 40
0.0
 40
0.0
 40
0.0
 40
0.0
 40
0.3242969014
 40
0.4664112084
 40
0.5946537255
 40
0.7098812358
 40
0.8138264039
 40
0.9092254036
 40
1.0
 40
1.0
 40
1.0
 40
1.0
 10
13.6468709373
 20
13.5539945132
 30
0.0
 10
13.6473698962
 20
13.5552726899
 30
0.0
 10
13.6481997739
 20
13.5570752411
 30
0.0
 10
13.6495617791
 20
13.5591951015
 30
0.0
 10
13.650594562
 20
13.5604634959
 30
0.0
 10
13.6516740074
 20
13.5614693907
 30
0.0
 10
13.6527936523
 20
13.562203757
 30
0.0
 10
13.6539467667
 20
13.5626529977
 30
0.0
 10
13.6547376155
 20
13.5627551582
 30
0.0
 10
13.6551216865
 20
13.5627552798
 30
0.0
  0
SPLINE
  5
315
100
AcDbEntity
  8
0
100
AcDbSpline
 62
7
  6
CONTINUOUS
 70
0
 71
3
 72
15
 73
11
 74
0
 42
0.0000001
 43
0.0000001
 44
0.0000000001
 40
0.0
 40
0.0
 40
0.0
 40
0.0
 40
0.125109432
 40
0.255435786
 40
0.3881129612
 40
0.5205743061
 40
0.650346615
 40
0.775049956
 40
0.8923677156
 40
1.0
 40
1.0
 40
1.0
 40
1.0
 10
13.6358514828
 20
13.4969043316
 30
0.0
 10
13.6355900683
 20
13.498304428
 30
0.0
 10
13.6351592621
 20
13.5011828681
 30
0.0
 10
13.6347780982
 20
13.5055873637
 30
0.0
 10
13.634659667
 20
13.5100905888
 30
0.0
 10
13.6348034096
 20
13.5145866897
 30
0.0
 10
13.635207857
 20
13.5189758402
 30
0.0
 10
13.6358618073
 20
13.5231609331
 30
0.0
 10
13.636753293
 20
13.5270438005
 30
0.0
 10
13.6375248309
 20
13.5294900359
 30
0.0
 10
13.6379534715
 20
13.5306379428
 30
0.0
  0
SPLINE
  5
316
100
AcDbEntity
  8
0
100
AcDbSpline
 62
7
  6
CONTINUOUS
 70
0
 71
3
 72
9
 73
5
 74
0
 42
0.0000001
 43
0.0000001
 44
0.0000000001
 40
0.0
 40
0.0
 40
0.0
 40
0.0
 40
0.514696179
 40
1.0
 40
1.0
 40
1.0
 40
1.0
 10
13.6494533995
 20
13.4323054414
 30
0.0
 10
13.6493028157
 20
13.4338768013
 30
0.0
 10
13.6489097662
 20
13.4369211784
 30
0.0
 10
13.6482947791
 20
13.4399296474
 30
0.0
 10
13.6479329105
 20
13.4413734011
 30
0.0
  0
SPLINE
  5
317
100
AcDbEntity
  8
0
100
AcDbSpline
 62
7
  6
CONTINUOUS
 70
0
 71
3
 72
20
 73
16
 74
0
 42
0.0000001
 43
0.0000001
 44
0.0000000001
 40
0.0
 40
0.0
 40
0.0
 40
0.0
 40
0.040713263
 40
0.0864678755
 40
0.1371561757
 40
0.1925084362
 40
0.2521409456
 40
0.3155437664
 40
0.4510466854
 40
0.5934148643
 40
0.7364300627
 40
0.8062381015
 40
0.8739301824
 40
0.9387737836
 40
1.0
 40
1.0
 40
1.0
 40
1.0
 10
13.5229568878
 20
12.7788986724
 30
0.0
 10
13.5243995671
 20
12.7804947399
 30
0.0
 10
13.5271855097
 20
12.7841385811
 30
0.0
 10
13.5308735384
 20
12.7903921204
 30
0.0
 10
13.5342601658
 20
12.7976757072
 30
0.0
 10
13.5373034336
 20
12.8058928272
 30
0.0
 10
13.5399661759
 20
12.8149425347
 30
0.0
 10
13.5430307528
 20
12.8282633087
 30
0.0
 10
13.545633073
 20
12.846142654
 30
0.0
 10
13.5468080834
 20
12.8683794374
 30
0.0
 10
13.5461634101
 20
12.8871657454
 30
0.0
 10
13.5446382897
 20
12.9019151803
 30
0.0
 10
13.5430262907
 20
12.9124904323
 30
0.0
 10
13.54095841
 20
12.9225232516
 30
0.0
 10
13.5392449914
 20
12.9289663054
 30
0.0
 10
13.5383086599
 20
12.9320632987
 30
0.0
  0
SPLINE
  5
318
100
AcDbEntity
  8
0
100
AcDbSpline
 62
7
  6
CONTINUOUS
 70
0
 71
3
 72
15
 73
11
 74
0
 42
0.0000001
 43
0.0000001
 44
0.0000000001
 40
0.0
 40
0.0
 40
0.0
 40
0.0
 40
0.1744806354
 40
0.3359675991
 40
0.4825097311
 40
0.6131749543
 40
0.7281266663
 40
0.8286053767
 40
0.9175795515
 40
1.0
 40
1.0
 40
1.0
 40
1.0
 10
13.5712651557
 20
13.3148344736
 30
0.0
 10
13.5715195764
 20
13.3158378452
 30
0.0
 10
13.5720703829
 20
13.3177552812
 30
0.0
 10
13.5730607404
 20
13.3204441433
 30
0.0
 10
13.574173123
 20
13.3228016274
 30
0.0
 10
13.5753916104
 20
13.3247901444
 30
0.0
 10
13.5766988434
 20
13.3263842528
 30
0.0
 10
13.5780864546
 20
13.3275599612
 30
0.0
 10
13.5795431742
 20
13.3282946953
 30
0.0
 10
13.580566244
 20
13.3284640981
 30
0.0
 10
13.5810552121
 20
13.3284636146
 30
0.0
  0
SPLINE
  5
319
100
AcDbEntity
  8
0
100
AcDbSpline
 62
7
  6
CONTINUOUS
 70
0
 71
3
 72
15
 73
11
 74
0
 42
0.0000001
 43
0.0000001
 44
0.0000000001
 40
0.0
 40
0.0
 40
0.0
 40
0.0
 40
0.1135020989
 40
0.235241153
 40
0.3626941875
 40
0.4934360427
 40
0.6250352474
 40
0.7550309589
 40
0.8809195382
 40
1.0
 40
1.0
 40
1.0
 40
1.0
 10
13.5651087879
 20
13.2531085277
 30
0.0
 10
13.5647339907
 20
13.2543575773
 30
0.0
 10
13.5640730316
 20
13.2569817617
 30
0.0
 10
13.5633473797
 20
13.2610882159
 30
0.0
 10
13.5628706571
 20
13.2654302781
 30
0.0
 10
13.5626507435
 20
13.2699059715
 30
0.0
 10
13.56269456
 20
13.2744160265
 30
0.0
 10
13.5629992588
 20
13.2788603085
 30
0.0
 10
13.5635609879
 20
13.2831343712
 30
0.0
 10
13.5641125249
 20
13.2858972864
 30
0.0
 10
13.5644336139
 20
13.2872272369
 30
0.0
  0
SPLINE
  5
31A
100
AcDbEntity
  8
0
100
AcDbSpline
 62
7
  6
CONTINUOUS
 70
0
 71
3
 72
9
 73
5
 74
0
 42
0.0000001
 43
0.0000001
 44
0.0000000001
 40
0.0
 40
0.0
 40
0.0
 40
0.0
 40
0.25772719
 40
1.0
 40
1.0
 40
1.0
 40
1.0
 10
13.5651087879
 20
13.2531085277
 30
0.0
 10
13.5663575855
 20
13.2489467825
 30
0.0
 10
13.5713450978
 20
13.2328422145
 30
0.0
 10
13.5769132054
 20
13.2169149299
 30
0.0
 10
13.5814222484
 20
13.2052413939
 30
0.0
  0
SPLINE
  5
31B
100
AcDbEntity
  8
0
100
AcDbSpline
 62
7
  6
CONTINUOUS
 70
0
 71
3
 72
9
 73
5
 74
0
 42
0.0000001
 43
0.0000001
 44
0.0000000001
 40
0.0
 40
0.0
 40
0.0
 40
0.0
 40
0.5230721782
 40
1.0
 40
1.0
 40
1.0
 40
1.0
 10
13.583643695
 20
13.1971833847
 30
0.0
 10
13.5833735116
 20
13.1986170109
 30
0.0
 10
13.5827565486
 20
13.2013401975
 30
0.0
 10
13.5819015294
 20
13.2040005754
 30
0.0
 10
13.5814222484
 20
13.2052413939
 30
0.0
  0
SPLINE
  5
31C
100
AcDbEntity
  8
0
100
AcDbSpline
 62
7
  6
CONTINUOUS
 70
0
 71
3
 72
15
 73
11
 74
0
 42
0.0000001
 43
0.0000001
 44
0.0000000001
 40
0.0
 40
0.0
 40
0.0
 40
0.0
 40
0.1459949156
 40
0.2864756573
 40
0.4210807409
 40
0.5495511991
 40
0.6717394892
 40
0.787548322
 40
0.8969527966
 40
1.0
 40
1.0
 40
1.0
 40
1.0
 10
17.5423041587
 20
11.737871848
 30
0.0
 10
17.5365998723
 20
11.7194127705
 30
0.0
 10
17.5248080479
 20
11.6833728665
 30
0.0
 10
17.5055806589
 20
11.6310577198
 30
0.0
 10
17.4852058793
 20
11.5816759337
 30
0.0
 10
17.4637534354
 20
11.5354058374
 30
0.0
 10
17.4412988923
 20
11.4923983921
 30
0.0
 10
17.4179070584
 20
11.4527928799
 30
0.0
 10
17.393660753
 20
11.4167177435
 30
0.0
 10
17.3764662317
 20
11.394438859
 30
0.0
 10
17.3677275008
 20
11.3839699526
 30
0.0
  0
SPLINE
  5
31D
100
AcDbEntity
  8
0
100
AcDbSpline
 62
7
  6
CONTINUOUS
 70
0
 71
3
 72
15
 73
11
 74
0
 42
0.0000001
 43
0.0000001
 44
0.0000000001
 40
0.0
 40
0.0
 40
0.0
 40
0.0
 40
0.1459413183
 40
0.2864084188
 40
0.4210466506
 40
0.5495488098
 40
0.6717496725
 40
0.787562319
 40
0.8969568923
 40
1.0
 40
1.0
 40
1.0
 40
1.0
 10
17.0012552128
 20
12.8404136786
 30
0.0
 10
17.0036868516
 20
12.8482824649
 30
0.0
 10
17.0087147747
 20
12.8636475088
 30
0.0
 10
17.0169149625
 20
12.8859543529
 30
0.0
 10
17.025603888
 20
12.9070156579
 30
0.0
 10
17.0347534362
 20
12.926751254
 30
0.0
 10
17.0443303477
 20
12.9450935951
 30
0.0
 10
17.0543031068
 20
12.9619848083
 30
0.0
 10
17.0646431841
 20
12.9773677501
 30
0.0
 10
17.071976338
 20
12.9868667266
 30
0.0
 10
17.0757026673
 20
12.9913309531
 30
0.0
  0
SPLINE
  5
31E
100
AcDbEntity
  8
0
100
AcDbSpline
 62
7
  6
CONTINUOUS
 70
0
 71
3
 72
21
 73
17
 74
0
 42
0.0000001
 43
0.0000001
 44
0.0000000001
 40
0.0
 40
0.0
 40
0.0
 40
0.0
 40
0.0487080898
 40
0.1021326992
 40
0.159809211
 40
0.2212191126
 40
0.2858002267
 40
0.3529098761
 40
0.4917546292
 40
0.6317483951
 40
0.7002718801
 40
0.76679283
 40
0.8306289034
 40
0.8911652296
 40
0.9478111828
 40
1.0
 40
1.0
 40
1.0
 40
1.0
 10
13.5128142703
 20
12.4905182317
 30
0.0
 10
13.5140829285
 20
12.4928255381
 30
0.0
 10
13.5164854071
 20
12.4978070063
 30
0.0
 10
13.51958965
 20
12.5058769606
 30
0.0
 10
13.5223183577
 20
12.5148017709
 30
0.0
 10
13.5246365324
 20
12.5244616721
 30
0.0
 10
13.5265147616
 20
12.5347350277
 30
0.0
 10
13.5284210986
 20
12.5492400681
 30
0.0
 10
13.5295437995
 20
12.5679350214
 30
0.0
 10
13.5290311815
 20
12.5867319604
 30
0.0
 10
13.527613998
 20
12.6015370787
 30
0.0
 10
13.5260796215
 20
12.6121827674
 30
0.0
 10
13.5240864159
 20
12.622312748
 30
0.0
 10
13.5216597606
 20
12.6317988702
 30
0.0
 10
13.5188308721
 20
12.6405134296
 30
0.0
 10
13.5166112526
 20
12.6459703127
 30
0.0
 10
13.5154296527
 20
12.6485322033
 30
0.0
  0
SPLINE
  5
31F
100
AcDbEntity
  8
0
100
AcDbSpline
 62
7
  6
CONTINUOUS
 70
0
 71
3
 72
20
 73
16
 74
0
 42
0.0000001
 43
0.0000001
 44
0.0000000001
 40
0.0
 40
0.0
 40
0.0
 40
0.0
 40
0.0574847359
 40
0.1189583872
 40
0.1837278268
 40
0.2511133676
 40
0.3909257069
 40
0.5324172917
 40
0.669377906
 40
0.7343310474
 40
0.7960078607
 40
0.8538370009
 40
0.9073515638
 40
0.9561647759
 40
1.0
 40
1.0
 40
1.0
 40
1.0
 10
13.5262419079
 20
12.2030244197
 30
0.0
 10
13.5272824567
 20
12.2059208571
 30
0.0
 10
13.5292098672
 20
12.2119971984
 30
0.0
 10
13.531599309
 20
12.2215444243
 30
0.0
 10
13.5335525051
 20
12.2317307218
 30
0.0
 10
13.5355650158
 20
12.2461568313
 30
0.0
 10
13.5368192654
 20
12.264811863
 30
0.0
 10
13.5363674327
 20
12.2872268447
 30
0.0
 10
13.5343581905
 20
12.3055333449
 30
0.0
 10
13.5317533118
 20
12.3194090581
 30
0.0
 10
13.5293965647
 20
12.3290054232
 30
0.0
 10
13.5266331493
 20
12.3378538489
 30
0.0
 10
13.5234975803
 20
12.3458442392
 30
0.0
 10
13.5200295192
 20
12.3528700666
 30
0.0
 10
13.5173866622
 20
12.3570835236
 30
0.0
 10
13.5160065957
 20
12.358981768
 30
0.0
  0
SPLINE
  5
320
100
AcDbEntity
  8
0
100
AcDbSpline
 62
7
  6
CONTINUOUS
 70
0
 71
3
 72
20
 73
16
 74
0
 42
0.0000001
 43
0.0000001
 44
0.0000000001
 40
0.0
 40
0.0
 40
0.0
 40
0.0
 40
0.0668942438
 40
0.1367888344
 40
0.2821288994
 40
0.4296932794
 40
0.573072027
 40
0.6412640697
 40
0.7061568197
 40
0.7671336509
 40
0.823648652
 40
0.8753105663
 40
0.921900198
 40
0.963384455
 40
1.0
 40
1.0
 40
1.0
 40
1.0
 10
13.5626529483
 20
11.9289820957
 30
0.0
 10
13.5634267949
 20
11.9323298884
 30
0.0
 10
13.5648089719
 20
11.9392231395
 30
0.0
 10
13.5669295931
 20
11.9535636172
 30
0.0
 10
13.5683178201
 20
11.9721766271
 30
0.0
 10
13.5680229402
 20
11.9946106007
 30
0.0
 10
13.5661458369
 20
12.0129925381
 30
0.0
 10
13.5636441664
 20
12.026976903
 30
0.0
 10
13.561354606
 20
12.0366842331
 30
0.0
 10
13.5586557815
 20
12.0456620756
 30
0.0
 10
13.5555798911
 20
12.0537968975
 30
0.0
 10
13.5521655529
 20
12.060987425
 30
0.0
 10
13.5484520932
 20
12.0671476318
 30
0.0
 10
13.5444824887
 20
12.0721965117
 30
0.0
 10
13.5415226266
 20
12.0749432543
 30
0.0
 10
13.5400142739
 20
12.076066736
 30
0.0
  0
SPLINE
  5
321
100
AcDbEntity
  8
0
100
AcDbSpline
 62
7
  6
CONTINUOUS
 70
0
 71
3
 72
18
 73
14
 74
0
 42
0.0000001
 43
0.0000001
 44
0.0000000001
 40
0.0
 40
0.0
 40
0.0
 40
0.0
 40
0.1372343112
 40
0.2777639303
 40
0.4178086061
 40
0.5539964464
 40
0.682995629
 40
0.7438554806
 40
0.8018370167
 40
0.8566427658
 40
0.9080465011
 40
0.9558709534
 40
1.0
 40
1.0
 40
1.0
 40
1.0
 10
13.6204560544
 20
11.6803682243
 30
0.0
 10
13.62118646
 20
11.6859119115
 30
0.0
 10
13.6222462902
 20
11.6971907747
 30
0.0
 10
13.6226942092
 20
11.7142201829
 30
0.0
 10
13.6220103296
 20
11.7312005695
 30
0.0
 10
13.6202175762
 20
11.7476270798
 30
0.0
 10
13.6178031708
 20
11.7607065973
 30
0.0
 10
13.6153264685
 20
11.7704995097
 30
0.0
 10
13.6132726758
 20
11.7772731599
 30
0.0
 10
13.610999073
 20
11.7835684565
 30
0.0
 10
13.6085243809
 20
11.7893405874
 30
0.0
 10
13.6058681165
 20
11.7945478942
 30
0.0
 10
13.603907181
 20
11.7977468363
 30
0.0
 10
13.6028948535
 20
11.7992328097
 30
0.0
  0
SPLINE
  5
322
100
AcDbEntity
  8
0
100
AcDbSpline
 62
7
  6
CONTINUOUS
 70
0
 71
3
 72
14
 73
10
 74
0
 42
0.0000001
 43
0.0000001
 44
0.0000000001
 40
0.0
 40
0.0
 40
0.0
 40
0.0
 40
0.134089354
 40
0.2685027832
 40
0.5316979259
 40
0.6578423196
 40
0.7786907427
 40
0.893091702
 40
1.0
 40
1.0
 40
1.0
 40
1.0
 10
13.6971249531
 20
11.4680484245
 30
0.0
 10
13.6972938933
 20
11.4717455614
 30
0.0
 10
13.6974682701
 20
11.4791574676
 30
0.0
 10
13.6971836558
 20
11.4938328078
 30
0.0
 10
13.695969865
 20
11.5082618775
 30
0.0
 10
13.6937911353
 20
11.5221785849
 30
0.0
 10
13.6917456446
 20
11.5319465488
 30
0.0
 10
13.6892962387
 20
11.5410724683
 30
0.0
 10
13.6873389751
 20
11.5468648537
 30
0.0
 10
13.6862886551
 20
11.5496223672
 30
0.0
  0
SPLINE
  5
323
100
AcDbEntity
  8
0
100
AcDbSpline
 62
7
  6
CONTINUOUS
 70
0
 71
3
 72
9
 73
5
 74
0
 42
0.0000001
 43
0.0000001
 44
0.0000000001
 40
0.0
 40
0.0
 40
0.0
 40
0.0
 40
0.5132392301
 40
1.0
 40
1.0
 40
1.0
 40
1.0
 10
13.7893088455
 20
11.3013020904
 30
0.0
 10
13.789063919
 20
11.3080724589
 30
0.0
 10
13.7880620283
 20
11.3212505534
 30
0.0
 10
13.7859402118
 20
11.33430106
 30
0.0
 10
13.7845828183
 20
11.3405813228
 30
0.0
  0
SPLINE
  5
324
100
AcDbEntity
  8
AXIS
100
AcDbSpline
 62
7
  6
CONTINUOUS
 70
0
 71
3
 72
41
 73
37
 74
0
 42
0.0000001
 43
0.0000001
 44
0.0000000001
 40
0.0
 40
0.0
 40
0.0
 40
0.0
 40
0.0329829372
 40
0.0672575416
 40
0.1026788983
 40
0.1391145343
 40
0.1764310597
 40
0.2144804591
 40
0.2531084856
 40
0.2921575525
 40
0.3314680363
 40
0.3708778444
 40
0.4102239047
 40
0.4493440628
 40
0.4880772571
 40
0.5262659375
 40
0.5637556328
 40
0.6003981123
 40
0.636050628
 40
0.6705794454
 40
0.7038592333
 40
0.7357768185
 40
0.7662312723
 40
0.7951378712
 40
0.8224296091
 40
0.8480617037
 40
0.8720155575
 40
0.8943046878
 40
0.9149824102
 40
0.9341502153
 40
0.9519689891
 40
0.9686670962
 40
0.9766941849
 40
0.9845597614
 40
0.9923115745
 40
1.0
 40
1.0
 40
1.0
 40
1.0
 10
16.2311259241
 20
13.3023864369
 30
0.0
 10
16.2238055656
 20
13.2786977479
 30
0.0
 10
16.2098735603
 20
13.2300805338
 30
0.0
 10
16.1913728868
 20
13.1551287041
 30
0.0
 10
16.1749500547
 20
13.0770402546
 30
0.0
 10
16.1606819186
 20
12.9962081119
 30
0.0
 10
16.1486411457
 20
12.9130185041
 30
0.0
 10
16.1388797088
 20
12.8278724253
 30
0.0
 10
16.1314527355
 20
12.7411843214
 30
0.0
 10
16.1263907781
 20
12.6533768294
 30
0.0
 10
16.1237237868
 20
12.5648762613
 30
0.0
 10
16.1234595304
 20
12.4761127397
 30
0.0
 10
16.1256044105
 20
12.3875177995
 30
0.0
 10
16.1301432412
 20
12.2995223181
 30
0.0
 10
16.1370581619
 20
12.2125540207
 30
0.0
 10
16.1463112385
 20
12.1270355469
 30
0.0
 10
16.1578609915
 20
12.0433824546
 30
0.0
 10
16.1716474652
 20
11.9620008982
 30
0.0
 10
16.1876063775
 20
11.8832859445
 30
0.0
 10
16.2056570039
 20
11.8076190805
 30
0.0
 10
16.2257136647
 20
11.7353668695
 30
0.0
 10
16.2476767466
 20
11.6668783646
 30
0.0
 10
16.2714411921
 20
11.6024839372
 30
0.0
 10
16.2968912611
 20
11.5424929293
 30
0.0
 10
16.323905608
 20
11.4871922938
 30
0.0
 10
16.3523566913
 20
11.4368453004
 30
0.0
 10
16.3821120206
 20
11.3916894408
 30
0.0
 10
16.4130395769
 20
11.35193828
 30
0.0
 10
16.4450037414
 20
11.3177786221
 30
0.0
 10
16.4778794885
 20
11.2893801131
 30
0.0
 10
16.5115270394
 20
11.266893979
 30
0.0
 10
16.5404975798
 20
11.2530277846
 30
0.0
 10
16.5637399137
 20
11.2452047022
 30
0.0
 10
16.5810233639
 20
11.2409617275
 30
0.0
 10
16.5983572994
 20
11.2382754284
 30
0.0
 10
16.609957936
 20
11.2375220583
 30
0.0
 10
16.6157363431
 20
11.2374068742
 30
0.0
  0
SPLINE
  5
325
100
AcDbEntity
  8
AXIS
100
AcDbSpline
 62
7
  6
CONTINUOUS
 70
0
 71
3
 72
25
 73
21
 74
0
 42
0.0000001
 43
0.0000001
 44
0.0000000001
 40
0.0
 40
0.0
 40
0.0
 40
0.0
 40
0.0876864549
 40
0.1721966777
 40
0.2533264796
 40
0.3309267472
 40
0.4049129886
 40
0.4752266281
 40
0.5418442497
 40
0.6047787582
 40
0.6640976132
 40
0.7199387834
 40
0.7725069106
 40
0.7976604026
 40
0.8221145493
 40
0.8691165531
 40
0.9140191792
 40
0.9574144268
 40
0.9787672124
 40
1.0
 40
1.0
 40
1.0
 40
1.0
 10
16.2301917334
 20
13.3042901174
 30
0.0
 10
16.2358272992
 20
13.3225268149
 30
0.0
 10
16.2474636709
 20
13.3581672693
 30
0.0
 10
16.2663815883
 20
13.4099769359
 30
0.0
 10
16.2863937393
 20
13.4590126678
 30
0.0
 10
16.3074371801
 20
13.505109573
 30
0.0
 10
16.3294424805
 20
13.5481290624
 30
0.0
 10
16.3523494328
 20
13.5879426155
 30
0.0
 10
16.3760854785
 20
13.6244328786
 30
0.0
 10
16.4005814105
 20
13.6574875895
 30
0.0
 10
16.4257699589
 20
13.687002895
 30
0.0
 10
16.4515717524
 20
13.7128911227
 30
0.0
 10
16.4738525247
 20
13.7316414476
 30
0.0
 10
16.491903313
 20
13.744651872
 30
0.0
 10
16.5095885824
 20
13.7560453158
 30
0.0
 10
16.5319852091
 20
13.7680069873
 30
0.0
 10
16.5595372886
 20
13.7786292988
 30
0.0
 10
16.5828305364
 20
13.7842059796
 30
0.0
 10
16.6014035545
 20
13.7866172929
 30
0.0
 10
16.610667719
 20
13.7871546058
 30
0.0
 10
16.6152885487
 20
13.7872567196
 30
0.0
  0
SPLINE
  5
326
100
AcDbEntity
  8
0
100
AcDbSpline
 62
7
  6
CONTINUOUS
 70
0
 71
3
 72
25
 73
21
 74
0
 42
0.0000001
 43
0.0000001
 44
0.0000000001
 40
0.0
 40
0.0
 40
0.0
 40
0.0
 40
0.0879369415
 40
0.1726573887
 40
0.2539543162
 40
0.3316744618
 40
0.4057313937
 40
0.4760655898
 40
0.5426559053
 40
0.6055208128
 40
0.6647314024
 40
0.7204351238
 40
0.7728493342
 40
0.7979237867
 40
0.8223009109
 40
0.8691664106
 40
0.9139753438
 40
0.9573452067
 40
0.9787195699
 40
1.0
 40
1.0
 40
1.0
 40
1.0
 10
16.7469200808
 20
13.3023864369
 30
0.0
 10
16.7525951689
 20
13.3207510287
 30
0.0
 10
16.7643159648
 20
13.3566334981
 30
0.0
 10
16.7833846312
 20
13.4087778608
 30
0.0
 10
16.8035660337
 20
13.4580993612
 30
0.0
 10
16.8247963156
 20
13.5044282036
 30
0.0
 10
16.8470021149
 20
13.5476223602
 30
0.0
 10
16.8701205827
 20
13.5875505163
 30
0.0
 10
16.8940785534
 20
13.6240923276
 30
0.0
 10
16.918803263
 20
13.6571346157
 30
0.0
 10
16.9442288406
 20
13.6865693545
 30
0.0
 10
16.9702726118
 20
13.712307595
 30
0.0
 10
16.9927604558
 20
13.7308746185
 30
0.0
 10
17.0109755012
 20
13.7436973406
 30
0.0
 10
17.0288198677
 20
13.754884373
 30
0.0
 10
17.0514189133
 20
13.7665478191
 30
0.0
 10
17.0792104933
 20
13.776731434
 30
0.0
 10
17.1026865492
 20
13.7818716268
 30
0.0
 10
17.1213927801
 20
13.7839043847
 30
0.0
 10
17.1307202349
 20
13.7842425711
 30
0.0
 10
17.1353717627
 20
13.7842424572
 30
0.0
  0
SPLINE
  5
327
100
AcDbEntity
  8
0
100
AcDbSpline
 62
7
  6
CONTINUOUS
 70
0
 71
3
 72
43
 73
39
 74
0
 42
0.0000001
 43
0.0000001
 44
0.0000000001
 40
0.0
 40
0.0
 40
0.0
 40
0.0
 40
0.0223633113
 40
0.042784538
 40
0.0615314031
 40
0.070403791
 40
0.0790163858
 40
0.0874391843
 40
0.0957476731
 40
0.1040211754
 40
0.112340667
 40
0.1207853184
 40
0.1294296783
 40
0.1383422098
 40
0.1475843445
 40
0.1572084608
 40
0.167257663
 40
0.1887559856
 40
0.2122961104
 40
0.2379765773
 40
0.2658265985
 40
0.2958093758
 40
0.327846131
 40
0.3618172708
 40
0.3975736163
 40
0.4349416148
 40
0.4737243366
 40
0.5137115002
 40
0.596369933
 40
0.6810140003
 40
0.7234630405
 40
0.765657445
 40
0.8073466876
 40
0.8482822661
 40
0.8882306863
 40
0.9269794464
 40
0.9643133038
 40
1.0
 40
1.0
 40
1.0
 40
1.0
 10
17.0757026673
 20
12.9913309531
 30
0.0
 10
17.0806912033
 20
12.9973073316
 30
0.0
 10
17.0908298808
 20
13.0082718142
 30
0.0
 10
17.1073127843
 20
13.0220506811
 30
0.0
 10
17.1217081053
 20
13.0307336445
 30
0.0
 10
17.1333180509
 20
13.0357045416
 30
0.0
 10
17.141927359
 20
13.0384410992
 30
0.0
 10
17.1505786565
 20
13.0402485826
 30
0.0
 10
17.1592555952
 20
13.041122646
 30
0.0
 10
17.167940552
 20
13.041059459
 30
0.0
 10
17.176615067
 20
13.0400565734
 30
0.0
 10
17.1852613682
 20
13.0381199032
 30
0.0
 10
17.1938629184
 20
13.0352557429
 30
0.0
 10
17.2024040952
 20
13.0314708021
 30
0.0
 10
17.2108689115
 20
13.0267712803
 30
0.0
 10
17.2192436338
 20
13.0211680333
 30
0.0
 10
17.2305253131
 20
13.0123100699
 30
0.0
 10
17.244308795
 20
12.9988940661
 30
0.0
 10
17.2598792291
 20
12.9797714097
 30
0.0
 10
17.2747646157
 20
12.9574083829
 30
0.0
 10
17.2888594744
 20
12.9319514739
 30
0.0
 10
17.302081686
 20
12.9035748712
 30
0.0
 10
17.3143349707
 20
12.8724684479
 30
0.0
 10
17.3255395175
 20
12.8388466082
 30
0.0
 10
17.3356156951
 20
12.8029401666
 30
0.0
 10
17.3444920691
 20
12.7649979684
 30
0.0
 10
17.3521099236
 20
12.7252833541
 30
0.0
 10
17.3606031507
 20
12.6697237605
 30
0.0
 10
17.3676546977
 20
12.5978492589
 30
0.0
 10
17.3699777051
 20
12.5248164574
 30
0.0
 10
17.3689914272
 20
12.4658862992
 30
0.0
 10
17.3668162102
 20
12.4219548361
 30
0.0
 10
17.3632239175
 20
12.3786453058
 30
0.0
 10
17.3582395809
 20
12.3362603057
 30
0.0
 10
17.3518941172
 20
12.2950924907
 30
0.0
 10
17.3442369456
 20
12.2554233565
 30
0.0
 10
17.3353211168
 20
12.2175403998
 30
0.0
 10
17.3284198808
 20
12.1930652092
 30
0.0
 10
17.3247521124
 20
12.1811963072
 30
0.0
  0
SPLINE
  5
328
100
AcDbEntity
  8
0
100
AcDbSpline
 62
7
  6
CONTINUOUS
 70
0
 71
3
 72
9
 73
5
 74
0
 42
0.0000001
 43
0.0000001
 44
0.0000000001
 40
0.0
 40
0.0
 40
0.0
 40
0.0
 40
0.2556561033
 40
1.0
 40
1.0
 40
1.0
 40
1.0
 10
17.3677275008
 20
11.3839699526
 30
0.0
 10
17.3657196992
 20
11.3815646276
 30
0.0
 10
17.3577834449
 20
11.3722257497
 30
0.0
 10
17.3495102124
 20
11.3631717043
 30
0.0
 10
17.3431535091
 20
11.3566288896
 30
0.0
  0
SPLINE
  5
329
100
AcDbEntity
  8
0
100
AcDbSpline
 62
7
  6
CONTINUOUS
 70
0
 71
3
 72
51
 73
47
 74
0
 42
0.0000001
 43
0.0000001
 44
0.0000000001
 40
0.0
 40
0.0
 40
0.0
 40
0.0
 40
0.0107149008
 40
0.0209643589
 40
0.0307779826
 40
0.0401935693
 40
0.0492560729
 40
0.0580179295
 40
0.0665398211
 40
0.0748894706
 40
0.0831396182
 40
0.0913664418
 40
0.0996470382
 40
0.1080564237
 40
0.1166656191
 40
0.1255398128
 40
0.1347362371
 40
0.1443044342
 40
0.164705468
 40
0.1756111937
 40
0.1870128341
 40
0.1989262062
 40
0.2113609248
 40
0.2243220373
 40
0.2378114954
 40
0.2518278595
 40
0.2663653332
 40
0.2969660592
 40
0.3295274889
 40
0.3639243065
 40
0.4000060776
 40
0.4375994843
 40
0.4765132079
 40
0.516541302
 40
0.5574652226
 40
0.5990579611
 40
0.6410850824
 40
0.6833084521
 40
0.7254873309
 40
0.7673819429
 40
0.808755654
 40
0.8493756241
 40
0.8890146596
 40
0.9274641987
 40
0.9645294221
 40
1.0
 40
1.0
 40
1.0
 40
1.0
 10
17.3431535091
 20
11.3566288896
 30
0.0
 10
17.3371495321
 20
11.3504491285
 30
0.0
 10
17.3250488092
 20
11.3386938622
 30
0.0
 10
17.3062044631
 20
11.322621537
 30
0.0
 10
17.2871076244
 20
11.308541615
 30
0.0
 10
17.2677913118
 20
11.2964772017
 30
0.0
 10
17.2482859608
 20
11.2864501572
 30
0.0
 10
17.2286218214
 20
11.278484784
 30
0.0
 10
17.2088327852
 20
11.2725997077
 30
0.0
 10
17.1889554885
 20
11.2688055628
 30
0.0
 10
17.1690268399
 20
11.2671129359
 30
0.0
 10
17.1490859994
 20
11.2675317395
 30
0.0
 10
17.1291731273
 20
11.2700572069
 30
0.0
 10
17.1093262483
 20
11.2746800243
 30
0.0
 10
17.089582267
 20
11.2813907092
 30
0.0
 10
17.0699776686
 20
11.2901758636
 30
0.0
 10
17.0505426145
 20
11.3010120999
 30
0.0
 10
17.0243418792
 20
11.3185380201
 30
0.0
 10
16.9991844132
 20
11.3398828023
 30
0.0
 10
16.9751258336
 20
11.3644048607
 30
0.0
 10
16.9569966734
 20
11.3851275681
 30
0.0
 10
16.9392204243
 20
11.4077342351
 30
0.0
 10
16.9218213585
 20
11.4321879851
 30
0.0
 10
16.9048274624
 20
11.4584464971
 30
0.0
 10
16.8882675351
 20
11.4864676217
 30
0.0
 10
16.872170261
 20
11.5162059487
 30
0.0
 10
16.8509943069
 20
11.5588089393
 30
0.0
 10
16.8259618031
 20
11.6161021709
 30
0.0
 10
16.7986641186
 20
11.689686805
 30
0.0
 10
16.7737902704
 20
11.7687555892
 30
0.0
 10
16.7515095857
 20
11.8527822562
 30
0.0
 10
16.7319712284
 20
11.9412090815
 30
0.0
 10
16.7153049351
 20
12.0334460593
 30
0.0
 10
16.7016269842
 20
12.1288778097
 30
0.0
 10
16.6910242493
 20
12.2268658115
 30
0.0
 10
16.683574936
 20
12.326754967
 30
0.0
 10
16.6793222179
 20
12.4278764877
 30
0.0
 10
16.6783019212
 20
12.5295533765
 30
0.0
 10
16.6805145022
 20
12.6311047656
 30
0.0
 10
16.6859504853
 20
12.7318508545
 30
0.0
 10
16.6945693798
 20
12.8311170908
 30
0.0
 10
16.7063141746
 20
12.9282365515
 30
0.0
 10
16.7211051885
 20
13.0225607888
 30
0.0
 10
16.738843991
 20
13.1134673439
 30
0.0
 10
16.7594121225
 20
13.2003349901
 30
0.0
 10
16.7752819098
 20
13.2564869412
 30
0.0
 10
16.7837031666
 20
13.2837381378
 30
0.0
  0
SPLINE
  5
32A
100
AcDbEntity
  8
AXIS
100
AcDbSpline
 62
7
  6
CONTINUOUS
 70
0
 71
3
 72
25
 73
21
 74
0
 42
0.0000001
 43
0.0000001
 44
0.0000000001
 40
0.0
 40
0.0
 40
0.0
 40
0.0
 40
0.0876966031
 40
0.1722152968
 40
0.2533517287
 40
0.3309567354
 40
0.4049457901
 40
0.4752603176
 40
0.5418769577
 40
0.6048087259
 40
0.6641233456
 40
0.7199591125
 40
0.7725211322
 40
0.7976715196
 40
0.8221226346
 40
0.8691191666
 40
0.9140179625
 40
0.9574120064
 40
0.9787654956
 40
1.0
 40
1.0
 40
1.0
 40
1.0
 10
16.2311259241
 20
13.3023864369
 30
0.0
 10
16.236750069
 20
13.3205861763
 30
0.0
 10
16.2483629823
 20
13.3561540696
 30
0.0
 10
16.2672432894
 20
13.4078575432
 30
0.0
 10
16.287215992
 20
13.4567915113
 30
0.0
 10
16.3082182126
 20
13.5027913178
 30
0.0
 10
16.3301806192
 20
13.5457185681
 30
0.0
 10
16.353043077
 20
13.5854449162
 30
0.0
 10
16.3767330972
 20
13.6218531828
 30
0.0
 10
16.4011815963
 20
13.654831251
 30
0.0
 10
16.4263213524
 20
13.684275456
 30
0.0
 10
16.4520731172
 20
13.7100982619
 30
0.0
 10
16.4743106967
 20
13.7287982174
 30
0.0
 10
16.4923263038
 20
13.7417714111
 30
0.0
 10
16.5099770287
 20
13.7531306311
 30
0.0
 10
16.5323299992
 20
13.7650531123
 30
0.0
 10
16.5598279833
 20
13.7756338688
 30
0.0
 10
16.5830747264
 20
13.7811808409
 30
0.0
 10
16.6016102043
 20
13.7835718094
 30
0.0
 10
16.6108555144
 20
13.7841000841
 30
0.0
 10
16.6154669058
 20
13.7841979763
 30
0.0
  0
SPLINE
  5
32B
100
AcDbEntity
  8
0
100
AcDbSpline
 62
7
  6
CONTINUOUS
 70
0
 71
3
 72
42
 73
38
 74
0
 42
0.0000001
 43
0.0000001
 44
0.0000000001
 40
0.0
 40
0.0
 40
0.0
 40
0.0
 40
0.0076948616
 40
0.0154422482
 40
0.0232932159
 40
0.0312964704
 40
0.0394975512
 40
0.0479374858
 40
0.0656649145
 40
0.0847299427
 40
0.1052997145
 40
0.127482703
 40
0.1513359208
 40
0.1768763469
 40
0.2040878535
 40
0.2329264794
 40
0.2633272534
 40
0.2952044837
 40
0.3284590199
 40
0.3629756896
 40
0.3986305043
 40
0.4352873433
 40
0.472804071
 40
0.5110302299
 40
0.5498111306
 40
0.5889874423
 40
0.6283971364
 40
0.6678766002
 40
0.7072612263
 40
0.7463878163
 40
0.7850949132
 40
0.8232233484
 40
0.8606170387
 40
0.8971272553
 40
0.9326195169
 40
0.9669592552
 40
1.0
 40
1.0
 40
1.0
 40
1.0
 10
17.1353717627
 20
11.2373675286
 30
0.0
 10
17.1295774611
 20
11.2373676705
 30
0.0
 10
17.1179426261
 20
11.2378936453
 30
0.0
 10
17.1005399072
 20
11.2402526027
 30
0.0
 10
17.0831834682
 20
11.2441773369
 30
0.0
 10
17.0658981771
 20
11.2496619825
 30
0.0
 10
17.0487061398
 20
11.2567009898
 30
0.0
 10
17.0255614214
 20
11.268328709
 30
0.0
 10
16.9968931771
 20
11.2869350465
 30
0.0
 10
16.9638313819
 20
11.3148760509
 30
0.0
 10
16.9316631818
 20
11.3486302427
 30
0.0
 10
16.900533399
 20
11.3880330781
 30
0.0
 10
16.8705692392
 20
11.4328934575
 30
0.0
 10
16.8419086561
 20
11.4830003731
 30
0.0
 10
16.8146846019
 20
11.5381150078
 30
0.0
 10
16.789024461
 20
11.5979731674
 30
0.0
 10
16.7650557265
 20
11.6622875922
 30
0.0
 10
16.742889297
 20
11.7307460273
 30
0.0
 10
16.7226403048
 20
11.803017468
 30
0.0
 10
16.7044002009
 20
11.8787490063
 30
0.0
 10
16.6882668902
 20
11.9575725182
 30
0.0
 10
16.6743113124
 20
12.0391022449
 30
0.0
 10
16.6626103646
 20
12.1229405104
 30
0.0
 10
16.653214132
 20
12.2086767351
 30
0.0
 10
16.6461754507
 20
12.295891939
 30
0.0
 10
16.6415236435
 20
12.3841590646
 30
0.0
 10
16.6392859285
 20
12.4730463694
 30
0.0
 10
16.6394704228
 20
12.562118425
 30
0.0
 10
16.6420769092
 20
12.6509393534
 30
0.0
 10
16.6470931448
 20
12.739074488
 30
0.0
 10
16.6544936904
 20
12.8260926112
 30
0.0
 10
16.6642452474
 20
12.9115659865
 30
0.0
 10
16.676292085
 20
12.9950758726
 30
0.0
 10
16.6905810815
 20
13.0762174504
 30
0.0
 10
16.7070409798
 20
13.1545999965
 30
0.0
 10
16.7255957072
 20
13.2298251898
 30
0.0
 10
16.7395743307
 20
13.2786155807
 30
0.0
 10
16.7469200808
 20
13.3023864369
 30
0.0
  0
SPLINE
  5
32C
100
AcDbEntity
  8
0
100
AcDbSpline
 62
7
  6
CONTINUOUS
 70
0
 71
3
 72
35
 73
31
 74
0
 42
0.0000001
 43
0.0000001
 44
0.0000000001
 40
0.0
 40
0.0
 40
0.0
 40
0.0
 40
0.0154280764
 40
0.0312694365
 40
0.0478984178
 40
0.065628023
 40
0.0846938728
 40
0.1052650601
 40
0.1274503842
 40
0.1513045095
 40
0.1768473154
 40
0.2040608891
 40
0.2329009537
 40
0.2633045344
 40
0.2951840954
 40
0.3284406186
 40
0.3629608699
 40
0.3986174539
 40
0.4352773767
 40
0.4727966107
 40
0.5498009049
 40
0.5889800029
 40
0.6283925219
 40
0.6678752917
 40
0.707264105
 40
0.7850985932
 40
0.860612883
 40
0.9326223696
 40
0.9669662945
 40
1.0
 40
1.0
 40
1.0
 40
1.0
 10
17.1353718922
 20
13.0110546997
 30
0.0
 10
17.1399352932
 20
13.0110552175
 30
0.0
 10
17.149204821
 20
13.0102089066
 30
0.0
 10
17.1629297456
 20
13.0064408086
 30
0.0
 10
17.176475987
 20
13.0002154826
 30
0.0
 10
17.1897681661
 20
12.9915819027
 30
0.0
 10
17.2027593964
 20
12.9806072114
 30
0.0
 10
17.2153954164
 20
12.9673472049
 30
0.0
 10
17.2276233975
 20
12.9518678051
 30
0.0
 10
17.2393958789
 20
12.934246102
 30
0.0
 10
17.2506536308
 20
12.9145618343
 30
0.0
 10
17.2613481722
 20
12.8929110687
 30
0.0
 10
17.271429231
 20
12.86939715
 30
0.0
 10
17.2808438264
 20
12.8441318976
 30
0.0
 10
17.2895518538
 20
12.8172392352
 30
0.0
 10
17.2975072921
 20
12.7888486582
 30
0.0
 10
17.304670986
 20
12.7590984631
 30
0.0
 10
17.311011179
 20
12.7281343558
 30
0.0
 10
17.3164919276
 20
12.696106425
 30
0.0
 10
17.3226747805
 20
12.6518126017
 30
0.0
 10
17.3269486159
 20
12.6065208171
 30
0.0
 10
17.3293710336
 20
12.5605575846
 30
0.0
 10
17.3302506952
 20
12.5256393068
 30
0.0
 10
17.3301787132
 20
12.4906481948
 30
0.0
 10
17.3288206227
 20
12.4443121294
 30
0.0
 10
17.3248061206
 20
12.387412016
 30
0.0
 10
17.3163372254
 20
12.3212584136
 30
0.0
 10
17.3062240105
 20
12.268379344
 30
0.0
 10
17.2963452749
 20
12.2283441059
 30
0.0
 10
17.290853856
 20
12.2091799188
 30
0.0
 10
17.2879690266
 20
12.1998446063
 30
0.0
  0
SPLINE
  5
32D
100
AcDbEntity
  8
0
100
AcDbSpline
 62
7
  6
CONTINUOUS
 70
0
 71
3
 72
34
 73
30
 74
0
 42
0.0000001
 43
0.0000001
 44
0.0000000001
 40
0.0
 40
0.0
 40
0.0
 40
0.0
 40
0.0939225132
 40
0.1827814218
 40
0.2661983894
 40
0.3439762246
 40
0.3807248384
 40
0.4160403955
 40
0.4499307142
 40
0.4824137238
 40
0.5135236942
 40
0.5433082931
 40
0.5718286625
 40
0.5991634647
 40
0.6506525124
 40
0.6751055849
 40
0.6988886803
 40
0.7221798866
 40
0.7451707824
 40
0.7680625578
 40
0.7910601836
 40
0.8143644869
 40
0.8381668539
 40
0.8626449587
 40
0.8879567191
 40
0.9142395972
 40
0.9416120456
 40
0.97017306
 40
1.0
 40
1.0
 40
1.0
 40
1.0
 10
16.7837031666
 20
13.2837381378
 30
0.0
 10
16.7915292929
 20
13.3090634919
 30
0.0
 10
16.8078754417
 20
13.3580148708
 30
0.0
 10
16.8352942437
 20
13.4279985509
 30
0.0
 10
16.8648036666
 20
13.4921498618
 30
0.0
 10
16.8914591159
 20
13.5413045458
 30
0.0
 10
16.9137587505
 20
13.5772478321
 30
0.0
 10
16.9305663086
 20
13.6019913262
 30
0.0
 10
16.9477468544
 20
13.6249924758
 30
0.0
 10
16.9652763568
 20
13.64621221
 30
0.0
 10
16.9831261866
 20
13.6656183538
 30
0.0
 10
17.0012674613
 20
13.6831806754
 30
0.0
 10
17.0196775137
 20
13.6988716208
 30
0.0
 10
17.0440478167
 20
13.7168926338
 30
0.0
 10
17.0693829327
 20
13.7316130903
 30
0.0
 10
17.0954122048
 20
13.7424054168
 30
0.0
 10
17.1147272216
 20
13.748380805
 30
0.0
 10
17.1341291728
 20
13.7523625223
 30
0.0
 10
17.1535852902
 20
13.7543416022
 30
0.0
 10
17.1730593827
 20
13.7543080352
 30
0.0
 10
17.1925142309
 20
13.7522636342
 30
0.0
 10
17.2119142068
 20
13.7482169756
 30
0.0
 10
17.2312250547
 20
13.7421768721
 30
0.0
 10
17.2504124049
 20
13.7341531591
 30
0.0
 10
17.2694462755
 20
13.7241665505
 30
0.0
 10
17.2882979383
 20
13.7122378266
 30
0.0
 10
17.3069383979
 20
13.6983864609
 30
0.0
 10
17.325337293
 20
13.6826350474
 30
0.0
 10
17.3371626595
 20
13.6711422832
 30
0.0
 10
17.3430309633
 20
13.6651071559
 30
0.0
  0
SPLINE
  5
32E
100
AcDbEntity
  8
0
100
AcDbSpline
 62
7
  6
CONTINUOUS
 70
0
 71
3
 72
9
 73
5
 74
0
 42
0.0000001
 43
0.0000001
 44
0.0000000001
 40
0.0
 40
0.0
 40
0.0
 40
0.0
 40
0.2444028891
 40
1.0
 40
1.0
 40
1.0
 40
1.0
 10
17.3430309633
 20
13.6651071559
 30
0.0
 10
17.3451290293
 20
13.6629494463
 30
0.0
 10
17.3536239169
 20
13.6540340999
 30
0.0
 10
17.3617651704
 20
13.644783415
 30
0.0
 10
17.3677275684
 20
13.6376404152
 30
0.0
  0
SPLINE
  5
32F
100
AcDbEntity
  8
0
100
AcDbSpline
 62
7
  6
CONTINUOUS
 70
0
 71
3
 72
28
 73
24
 74
0
 42
0.0000001
 43
0.0000001
 44
0.0000000001
 40
0.0
 40
0.0
 40
0.0
 40
0.0
 40
0.0937827717
 40
0.182303377
 40
0.2651310693
 40
0.3420429005
 40
0.4129637204
 40
0.4779799246
 40
0.5373713251
 40
0.5916887965
 40
0.6418210239
 40
0.6657216774
 40
0.6890756583
 40
0.7120895404
 40
0.7349810278
 40
0.7579732103
 40
0.781285437
 40
0.8051249833
 40
0.8296827788
 40
0.8815714782
 40
0.9092172979
 40
0.9381234313
 40
1.0
 40
1.0
 40
1.0
 40
1.0
 10
17.3247521124
 20
12.1811963072
 30
0.0
 10
17.3212750748
 20
12.1699446088
 30
0.0
 10
17.3139984886
 20
12.1482271556
 30
0.0
 10
17.3017417252
 20
12.1172531547
 30
0.0
 10
17.2885202286
 20
12.0889962883
 30
0.0
 10
17.2744318727
 20
12.0636572665
 30
0.0
 10
17.2595609248
 20
12.0414058597
 30
0.0
 10
17.2440024195
 20
12.0223858327
 30
0.0
 10
17.2278427398
 20
12.0067241616
 30
0.0
 10
17.2111691468
 20
11.9945430898
 30
0.0
 10
17.1966787057
 20
11.9872680586
 30
0.0
 10
17.185048126
 20
11.9834304484
 30
0.0
 10
17.1764169211
 20
11.9815209951
 30
0.0
 10
17.1677586592
 20
11.9805413453
 30
0.0
 10
17.1590902483
 20
11.9804947821
 30
0.0
 10
17.1504300423
 20
11.9813845391
 30
0.0
 10
17.1417960058
 20
11.9832052922
 30
0.0
 10
17.1332041288
 20
11.9859510878
 30
0.0
 10
17.1216172824
 20
11.9909252191
 30
0.0
 10
17.1103668042
 20
11.9977223385
 30
0.0
 10
17.0995715338
 20
12.0060341698
 30
0.0
 10
17.0884445109
 20
12.0159169247
 30
0.0
 10
17.0806812357
 20
12.0243127876
 30
0.0
 10
17.075702523
 20
12.0302782591
 30
0.0
  0
SPLINE
  5
330
100
AcDbEntity
  8
AXIS
100
AcDbSpline
 62
7
  6
CONTINUOUS
 70
0
 71
3
 72
41
 73
37
 74
0
 42
0.0000001
 43
0.0000001
 44
0.0000000001
 40
0.0
 40
0.0
 40
0.0
 40
0.0
 40
0.0329760361
 40
0.0672430272
 40
0.1026561955
 40
0.139083192
 40
0.1763907752
 40
0.2144310975
 40
0.253050071
 40
0.2920902732
 40
0.3313922439
 40
0.3707940591
 40
0.4101328068
 40
0.449246489
 40
0.4879741946
 40
0.5261585101
 40
0.563645098
 40
0.6002858328
 40
0.6359380749
 40
0.6704681508
 40
0.7037508014
 40
0.7356728542
 40
0.766133398
 40
0.7950476265
 40
0.8223484655
 40
0.8479909267
 40
0.8719562024
 40
0.8942574101
 40
0.914947415
 40
0.9341270034
 40
0.9519562491
 40
0.9686624497
 40
0.976692334
 40
0.9845596988
 40
0.992312161
 40
1.0
 40
1.0
 40
1.0
 40
1.0
 10
16.2301917334
 20
13.3042901174
 30
0.0
 10
16.2228567267
 20
13.2805540271
 30
0.0
 10
16.2088965368
 20
13.2318399755
 30
0.0
 10
16.1903574355
 20
13.1567394711
 30
0.0
 10
16.1738994634
 20
13.078496976
 30
0.0
 10
16.1595995858
 20
12.9975058993
 30
0.0
 10
16.1475305711
 20
12.9141529236
 30
0.0
 10
16.1377444745
 20
12.828839505
 30
0.0
 10
16.1302965042
 20
12.7419805737
 30
0.0
 10
16.1252173008
 20
12.6539992702
 30
0.0
 10
16.1225368591
 20
12.5653224141
 30
0.0
 10
16.1222630298
 20
12.476380645
 30
0.0
 10
16.1244022236
 20
12.3876060213
 30
0.0
 10
16.1289393382
 20
12.2994299568
 30
0.0
 10
16.1358564813
 20
12.2122807146
 30
0.0
 10
16.1451158035
 20
12.1265814845
 30
0.0
 10
16.1566757495
 20
12.0427483696
 30
0.0
 10
16.1704764528
 20
11.961188088
 30
0.0
 10
16.1864535066
 20
11.8822962528
 30
0.0
 10
16.2045262822
 20
11.8064549267
 30
0.0
 10
16.2246089213
 20
11.7340312119
 30
0.0
 10
16.2466019162
 20
11.6653747505
 30
0.0
 10
16.2703999693
 20
11.6008164337
 30
0.0
 10
16.2958874569
 20
11.5406662108
 30
0.0
 10
16.3229427237
 20
11.4852115176
 30
0.0
 10
16.3514383485
 20
11.4347162574
 30
0.0
 10
16.3812414495
 20
11.3894183362
 30
0.0
 10
16.4122201122
 20
11.3495319772
 30
0.0
 10
16.4442382395
 20
11.3152442612
 30
0.0
 10
16.4771708811
 20
11.2867254535
 30
0.0
 10
16.5108778056
 20
11.2641268057
 30
0.0
 10
16.5399019606
 20
11.2501719447
 30
0.0
 10
16.5631892513
 20
11.2422828869
 30
0.0
 10
16.5805058024
 20
11.2379935708
 30
0.0
 10
16.597873506
 20
11.2352633771
 30
0.0
 10
16.6094980877
 20
11.2344822429
 30
0.0
 10
16.6152885512
 20
11.2343537073
 30
0.0
  0
SPLINE
  5
331
100
AcDbEntity
  8
0
100
AcDbSpline
 62
7
  6
CONTINUOUS
 70
0
 71
3
 72
21
 73
17
 74
0
 42
0.0000001
 43
0.0000001
 44
0.0000000001
 40
0.0
 40
0.0
 40
0.0
 40
0.0
 40
0.1726064103
 40
0.3316433072
 40
0.4057144966
 40
0.4760576624
 40
0.5426496068
 40
0.6055158916
 40
0.6647374533
 40
0.7204501461
 40
0.7728692952
 40
0.8223112345
 40
0.8691835825
 40
0.9139964354
 40
0.957369528
 40
1.0
 40
1.0
 40
1.0
 40
1.0
 10
17.2879690266
 20
12.1998446063
 30
0.0
 10
17.2835935898
 20
12.1856856895
 30
0.0
 10
17.2743357325
 20
12.158732633
 30
0.0
 10
17.260573176
 20
12.1266855217
 30
0.0
 10
17.2486551626
 20
12.1035073437
 30
0.0
 10
17.2395728188
 20
12.0878221963
 30
0.0
 10
17.2301605221
 20
12.0734687782
 30
0.0
 10
17.2204461293
 20
12.0604905434
 30
0.0
 10
17.2104601163
 20
12.0489259253
 30
0.0
 10
17.2002293336
 20
12.0388129466
 30
0.0
 10
17.1897799511
 20
12.0301879174
 30
0.0
 10
17.1791442126
 20
12.0230767743
 30
0.0
 10
17.1683518006
 20
12.0175060009
 30
0.0
 10
17.1574319875
 20
12.0135062104
 30
0.0
 10
17.1464267212
 20
12.0110956706
 30
0.0
 10
17.1390320393
 20
12.0105557014
 30
0.0
 10
17.1353718922
 20
12.0105552861
 30
0.0
  0
ENDSEC
  0
SECTION
  2
OBJECTS
  0
DICTIONARY
  5
C
100
AcDbDictionary
280
0
281
1
  3
ACAD_GROUP
350
D
  3
ACAD_MLINESTYLE
350
17
  3
ACAD_LAYOUT
350
1A
  3
ACAD_PLOTSETTINGS
350
19
  3
ACAD_PLOTSTYLENAME
350
E
  0
DICTIONARY
  5
D
102
{ACAD_REACTORS
330
C
102
}
100
AcDbDictionary
280
0
281
1
  0
ACDBDICTIONARYWDFLT
  5
E
102
{ACAD_REACTORS
330
C
102
}
100
AcDbDictionary
281
1
  3
Normal
350
F
100
AcDbDictionaryWithDefault
340
F
  0
DICTIONARY
  5
17
102
{ACAD_REACTORS
330
C
102
}
100
AcDbDictionary
280
0
281
1
  3
Standard
350
18
  0
DICTIONARY
  5
19
102
{ACAD_REACTORS
330
C
102
}
100
AcDbDictionary
281
1
  0
DICTIONARY
  5
1A
102
{ACAD_REACTORS
330
C
102
}
100
AcDbDictionary
281
1
  3
Model
350
332
  3
Layout1
350
333
  0
ACDBPLACEHOLDER
  5
F
102
{ACAD_REACTORS
330
E
102
}
  0
MLINESTYLE
  5
18
102
{ACAD_REACTORS
330
17
102
}
100
AcDbMlineStyle
  2
STANDARD
 70
0
  3

 62
256
 51
90.0
 52
90.0
 71
2
 49
0.5
 62
256
  6
BYLAYER
 49
-0.5
 62
256
  6
BYLAYER
  0
LAYOUT
  5
332
102
{ACAD_REACTORS
330
1A
102
}
100
AcDbPlotSettings
  1

  2
none_device
  4
ANSI_C_(22.00_x_17.00_Inches)
  6

 40
0.0
 41
0.0
 42
0.0
 43
0.0
 44
558.8
 45
431.8
 46
0.0
 47
0.0
 48
0.0
 49
0.0
140
0.0
141
0.0
142
1.0
143
1.0
 70
1024
 72
0
 73
0
 74
0
  7

 75
0
147
1.0
148
0.0
149
0.0
100
AcDbLayout
  1
Model
 70
0
 71
0
 10
0.0
 20
0.0
 11
22.0
 21
17.0
 12
0.0
 22
0.0
 32
0.0
 14
0.0
 24
0.0
 34
0.0
 15
0.0
 25
0.0
 35
0.0
146
0.0
 13
0.0
 23
0.0
 33
0.0
 16
1.0
 26
0.0
 36
0.0
 17
0.0
 27
1.0
 37
0.0
 76
0
330
224
345
0
346
0
  0
LAYOUT
  5
333
102
{ACAD_REACTORS
330
1A
102
}
100
AcDbPlotSettings
  1

  2
none_device
  4
ANSI_C_(22.00_x_17.00_Inches)
  6

 40
0.0
 41
0.0
 42
0.0
 43
0.0
 44
558.8
 45
431.8
 46
0.0
 47
0.0
 48
0.0
 49
0.0
140
0.0
141
0.0
142
1.0
143
1.0
 70
0
 72
0
 73
0
 74
0
  7

 75
0
147
1.0
148
0.0
149
0.0
100
AcDbLayout
  1
Layout1
 70
0
 71
1
 10
0.0
 20
0.0
 11
22.0
 21
17.0
 12
0.0
 22
0.0
 32
0.0
 14
0.0
 24
0.0
 34
0.0
 15
0.0
 25
0.0
 35
0.0
146
0.0
 13
0.0
 23
0.0
 33
0.0
 16
1.0
 26
0.0
 36
0.0
 17
0.0
 27
1.0
 37
0.0
 76
0
330
225
345
0
346
0
  0
ENDSEC
  0
EOF