999
DXF file: _cgs_temp_output.dxf
999
Pro/ENGINEER 2015110 by Parametric Technology Corporation
  0
SECTION
  2
HEADER
  9
$ACADVER
  1
AC1021
  9
$DWGCODEPAGE
  3
ANSI_1252
  9
$EXTMAX
 10
22.0
 20
17.0
 30
0.0
  9
$EXTMIN
 10
0.0
 20
0.0
 30
0.0
  9
$LIMMIN
 10
0.0
 20
0.0
  9
$LIMMAX
 10
22.0
 20
17.0
  9
$VIEWCTR
 10
11.0
 20
8.5
  9
$VIEWSIZE
 40
17.0
  9
$CLAYER
  8
0
  9
$LTSCALE
 40
1.21
  9
$CELTYPE
  6
BYLAYER
  9
$DIMSCALE
 40
1.0
  9
$DIMASZ
 40
0.1875
  9
$DIMEXO
 40
0.0625
  9
$DIMDLI
 40
0.836
  9
$DIMEXE
 40
0.125
  9
$DIMCEN
 40
0.198
  9
$DIMLFAC
 40
1.0
  9
$DIMBLK
  1
_CLOSED
  9
$DIMALT
 70
0
  9
$DIMALTF
 40
25.4
  9
$DIMTXT
 40
0.15625
  9
$DIMTOL
 70
0
  9
$DIMLIM
 70
0
  9
$DIMTFAC
 40
1.0
  9
$DIMGAP
 40
0.09
  9
$DIMDSEP
 70
46
  9
$AUNITS
 70
0
  9
$PDMODE
 70
3
  9
$PDSIZE
 40
0.3125
  9
$HANDSEED
  5
290
  9
$TILEMODE
 70
1
  9
$MEASUREMENT
 70
0
  9
$INSUNITS
 70
1
  0
ENDSEC
  0
SECTION
  2
CLASSES
  0
CLASS
  1
ACDBDICTIONARYWDFLT
  2
AcDbDictionaryWithDefault
  3
AutoCAD 2000
 90
0
 91
1
280
0
281
0
  0
CLASS
  1
ACDBPLACEHOLDER
  2
AcDbPlaceHolder
  3
AutoCAD 2000
 90
0
 91
1
280
0
281
0
  0
CLASS
  1
LAYOUT
  2
AcDbLayout
  3
AutoCAD 2000
 90
0
 91
0
280
0
281
0
  0
ENDSEC
  0
SECTION
  2
TABLES
  0
TABLE
  2
VPORT
  5
8
100
AcDbSymbolTable
 70
2
  0
VPORT
  5
1F4
100
AcDbSymbolTableRecord
100
AcDbViewportTableRecord
  2
*ACTIVE
 70
0
 10
0.0
 20
0.0
 11
1.0
 21
1.0
 12
11.0
 22
8.5
 13
0.0
 23
0.0
 14
1.0
 24
1.0
 15
0.0
 25
0.0
 16
0.0
 26
0.0
 36
1.0
 17
0.0
 27
0.0
 37
0.0
 40
17.0
 41
1.2941176471
 42
50.0
 43
0.0
 44
0.0
 50
0.0
 51
0.0
 71
0
 72
100
 73
1
 74
1
 75
0
 76
0
 77
0
 78
0
  0
ENDTAB
  0
TABLE
  2
LTYPE
  5
5
100
AcDbSymbolTable
 70
6
  0
LTYPE
  5
14
100
AcDbSymbolTableRecord
100
AcDbLinetypeTableRecord
  2
BYBLOCK
 70
0
  3

 72
65
 73
0
 40
0.0
  0
LTYPE
  5
15
100
AcDbSymbolTableRecord
100
AcDbLinetypeTableRecord
  2
BYLAYER
 70
0
  3

 72
65
 73
0
 40
0.0
  0
LTYPE
  5
16
100
AcDbSymbolTableRecord
100
AcDbLinetypeTableRecord
  2
CONTINUOUS
 70
64
  3
Solid line
 72
65
 73
0
 40
0.0
  0
LTYPE
  5
1F5
100
AcDbSymbolTableRecord
100
AcDbLinetypeTableRecord
  2
CENTER
 70
64
  3
____ _ ____ _ ____ _ ____ _ ____ _ ____ _ ____
 72
65
 73
4
 40
0.6
 49
0.375
 74
0
 49
-0.075
 74
0
 49
0.075
 74
0
 49
-0.075
 74
0
  0
LTYPE
  5
1F6
100
AcDbSymbolTableRecord
100
AcDbLinetypeTableRecord
  2
HIDDEN
 70
64
  3
- - - - - - - - - - - - - - - - - - - -
 72
65
 73
2
 40
0.2
 49
0.1
 74
0
 49
-0.1
 74
0
  0
LTYPE
  5
1F7
100
AcDbSymbolTableRecord
100
AcDbLinetypeTableRecord
  2
PHANTOM
 70
64
  3
_____ _ _ _____ _ _ _____ _ _ _____
 72
65
 73
6
 40
0.8
 49
0.45
 74
0
 49
-0.05
 74
0
 49
0.1
 74
0
 49
-0.05
 74
0
 49
0.1
 74
0
 49
-0.05
 74
0
  0
LTYPE
  5
1F8
100
AcDbSymbolTableRecord
100
AcDbLinetypeTableRecord
  2
DOT
 70
64
  3
. . . . . . . . . . . . . . . . . . . .
 72
65
 73
2
 40
0.2
 49
0.1
 74
0
 49
-0.1
 74
0
  0
LTYPE
  5
1F9
100
AcDbSymbolTableRecord
100
AcDbLinetypeTableRecord
  2
DASHED
 70
64
  3
- - - - - - - - - - - - - - - - - - - -
 72
65
 73
2
 40
0.2
 49
0.1
 74
0
 49
-0.1
 74
0
  0
ENDTAB
  0
TABLE
  2
LAYER
  5
2
100
AcDbSymbolTable
 70
36
  0
LAYER
  5
10
100
AcDbSymbolTableRecord
100
AcDbLayerTableRecord
  2
0
 70
0
 62
7
  6
CONTINUOUS
370
-3
390
F
  0
LAYER
  5
1FA
100
AcDbSymbolTableRecord
100
AcDbLayerTableRecord
  2
DEFAULT_1
 70
0
 62
7
  6
CENTER
370
-3
390
F
  0
LAYER
  5
1FB
100
AcDbSymbolTableRecord
100
AcDbLayerTableRecord
  2
DEFAULT_2
 70
0
 62
8
  6
HIDDEN
370
-3
390
F
  0
LAYER
  5
1FC
100
AcDbSymbolTableRecord
100
AcDbLayerTableRecord
  2
DEFAULT_3
 70
0
 62
7
  6
PHANTOM
370
-3
390
F
  0
LAYER
  5
1FD
100
AcDbSymbolTableRecord
100
AcDbLayerTableRecord
  2
01_ALL_DTM_PLN
 70
0
 62
7
  6
CONTINUOUS
370
-3
390
F
  0
LAYER
  5
1FE
100
AcDbSymbolTableRecord
100
AcDbLayerTableRecord
  2
01__ASM_ALL_DTM_PLN
 70
0
 62
7
  6
CONTINUOUS
370
-3
390
F
  0
LAYER
  5
1FF
100
AcDbSymbolTableRecord
100
AcDbLayerTableRecord
  2
01__ASM_DEF_DTM_PLN
 70
0
 62
7
  6
CONTINUOUS
370
-3
390
F
  0
LAYER
  5
200
100
AcDbSymbolTableRecord
100
AcDbLayerTableRecord
  2
01___PRT_ALL_DTM_PLN
 70
0
 62
7
  6
CONTINUOUS
370
-3
390
F
  0
LAYER
  5
201
100
AcDbSymbolTableRecord
100
AcDbLayerTableRecord
  2
01___PRT_DEF_DTM_PLN
 70
0
 62
7
  6
CONTINUOUS
370
-3
390
F
  0
LAYER
  5
202
100
AcDbSymbolTableRecord
100
AcDbLayerTableRecord
  2
02_ALL_AXES
 70
0
 62
7
  6
CONTINUOUS
370
-3
390
F
  0
LAYER
  5
203
100
AcDbSymbolTableRecord
100
AcDbLayerTableRecord
  2
02__ASM_ALL_AXES
 70
0
 62
7
  6
CONTINUOUS
370
-3
390
F
  0
LAYER
  5
204
100
AcDbSymbolTableRecord
100
AcDbLayerTableRecord
  2
02___PRT_ALL_AXES
 70
0
 62
7
  6
CONTINUOUS
370
-3
390
F
  0
LAYER
  5
205
100
AcDbSymbolTableRecord
100
AcDbLayerTableRecord
  2
03_ALL_CURVES
 70
0
 62
7
  6
CONTINUOUS
370
-3
390
F
  0
LAYER
  5
206
100
AcDbSymbolTableRecord
100
AcDbLayerTableRecord
  2
03__ASM_ALL_CURVES
 70
0
 62
7
  6
CONTINUOUS
370
-3
390
F
  0
LAYER
  5
207
100
AcDbSymbolTableRecord
100
AcDbLayerTableRecord
  2
03___PRT_ALL_CURVES
 70
0
 62
7
  6
CONTINUOUS
370
-3
390
F
  0
LAYER
  5
208
100
AcDbSymbolTableRecord
100
AcDbLayerTableRecord
  2
04_ALL_DTM_PNT
 70
0
 62
7
  6
CONTINUOUS
370
-3
390
F
  0
LAYER
  5
209
100
AcDbSymbolTableRecord
100
AcDbLayerTableRecord
  2
04__ASM_ALL_DTM_PNT
 70
0
 62
7
  6
CONTINUOUS
370
-3
390
F
  0
LAYER
  5
20A
100
AcDbSymbolTableRecord
100
AcDbLayerTableRecord
  2
04___PRT_ALL_DTM_PNT
 70
0
 62
7
  6
CONTINUOUS
370
-3
390
F
  0
LAYER
  5
20B
100
AcDbSymbolTableRecord
100
AcDbLayerTableRecord
  2
05_ALL_DTM_CSYS
 70
0
 62
7
  6
CONTINUOUS
370
-3
390
F
  0
LAYER
  5
20C
100
AcDbSymbolTableRecord
100
AcDbLayerTableRecord
  2
05__ASM_ALL_DTM_CSYS
 70
0
 62
7
  6
CONTINUOUS
370
-3
390
F
  0
LAYER
  5
20D
100
AcDbSymbolTableRecord
100
AcDbLayerTableRecord
  2
05__ASM_DEF_DTM_CSYS
 70
0
 62
7
  6
CONTINUOUS
370
-3
390
F
  0
LAYER
  5
20E
100
AcDbSymbolTableRecord
100
AcDbLayerTableRecord
  2
05___PRT_ALL_DTM_CSYS
 70
0
 62
7
  6
CONTINUOUS
370
-3
390
F
  0
LAYER
  5
20F
100
AcDbSymbolTableRecord
100
AcDbLayerTableRecord
  2
05___PRT_DEF_DTM_CSYS
 70
0
 62
7
  6
CONTINUOUS
370
-3
390
F
  0
LAYER
  5
210
100
AcDbSymbolTableRecord
100
AcDbLayerTableRecord
  2
06_ALL_SURFS
 70
0
 62
7
  6
CONTINUOUS
370
-3
390
F
  0
LAYER
  5
211
100
AcDbSymbolTableRecord
100
AcDbLayerTableRecord
  2
06__ASM_ALL_SURFS
 70
0
 62
7
  6
CONTINUOUS
370
-3
390
F
  0
LAYER
  5
212
100
AcDbSymbolTableRecord
100
AcDbLayerTableRecord
  2
06___PRT_ALL_SURFS
 70
0
 62
7
  6
CONTINUOUS
370
-3
390
F
  0
LAYER
  5
213
100
AcDbSymbolTableRecord
100
AcDbLayerTableRecord
  2
07__ASM_ALL_SKELETONS
 70
0
 62
7
  6
CONTINUOUS
370
-3
390
F
  0
ENDTAB
  0
TABLE
  2
STYLE
  5
3
100
AcDbSymbolTable
 70
1
  0
STYLE
  5
11
100
AcDbSymbolTableRecord
100
AcDbTextStyleTableRecord
  2
STANDARD
 70
0
 40
0.0
 41
0.8
 50
0.0
 71
0
 42
0.2
  3
txt
  4

  0
STYLE
  5
214
100
AcDbSymbolTableRecord
100
AcDbTextStyleTableRecord
  2
TEXTSTYLE_1
 70
0
 40
0.0
 41
0.8
 50
0.0
 71
0
 42
0.2
  3
gdt
  4

  0
ENDTAB
  0
TABLE
  2
VIEW
  5
6
100
AcDbSymbolTable
 70
0
  0
ENDTAB
  0
TABLE
  2
UCS
  5
7
100
AcDbSymbolTable
 70
0
  0
ENDTAB
  0
TABLE
  2
APPID
  5
9
100
AcDbSymbolTable
 70
1
  0
APPID
  5
215
100
AcDbSymbolTableRecord
100
AcDbRegAppTableRecord
  2
ACAD
 70
0
  0
ENDTAB
  0
TABLE
  2
BLOCK_RECORD
  5
1
100
AcDbSymbolTable
 70
0
  0
BLOCK_RECORD
  5
216
100
AcDbSymbolTableRecord
100
AcDbBlockTableRecord
  2
*Model_Space
  0
BLOCK_RECORD
  5
217
100
AcDbSymbolTableRecord
100
AcDbBlockTableRecord
  2
*Paper_Space
  0
ENDTAB
  0
TABLE
  2
DIMSTYLE
  5
A
100
AcDbSymbolTable
 70
1
100
AcDbDimStyleTable
 71
0
  0
DIMSTYLE
105
218
100
AcDbSymbolTableRecord
100
AcDbDimStyleTableRecord
  2
STANDARD
 70
0
  3

  4

 40
1.0
 41
0.1875
 42
0.0625
 43
0.38
 44
0.125
 45
0.0
 46
0.0
 47
0.0001
 48
0.0001
140
0.15625
141
0.09
142
0.0
143
25.4
144
1.0
145
0.0
146
1.0
147
0.09
 71
0.0
 72
0.0
 73
1
 74
1
 75
0
 76
0
 77
0
 78
4
170
0
171
2
172
0
173
0
174
0
175
0
176
0
177
0
178
0
270
2
271
4
272
4
273
2
274
2
275
0
280
0
281
0
282
0
283
1
284
4
285
0
286
0
287
3
288
0
340
11
278
46
  0
ENDTAB
  0
ENDSEC
  0
SECTION
  2
BLOCKS
  0
BLOCK
  5
20
100
AcDbEntity
  8
0
100
AcDbBlockBegin
  2
*Model_Space
 70
0
 10
0.0
 20
0.0
 30
0.0
  3
*Model_Space
  1

  0
ENDBLK
  5
21
100
AcDbEntity
  8
0
100
AcDbBlockEnd
  0
BLOCK
  5
1C
100
AcDbEntity
  8
0
100
AcDbBlockBegin
  2
*Paper_Space
 70
0
 10
0.0
 20
0.0
 30
0.0
  3
*Paper_Space
  1

  0
ENDBLK
  5
1D
100
AcDbEntity
  8
0
100
AcDbBlockEnd
  0
ENDSEC
  0
SECTION
  2
ENTITIES
  0
MTEXT
  5
219
100
AcDbEntity
  8
0
100
AcDbMText
 62
7
  6
CONTINUOUS
  7
STANDARD
 71
1
 72
1
 10
15.9560215477
 20
0.9479130325
 30
0.0
 11
1.0
 21
0.0
 31
0.0
 44
0.9
  1
SCALE: 1:1.000
 40
0.3
 41
3.36
  0
LINE
  5
21A
100
AcDbEntity
  8
0
100
AcDbLine
 62
7
  6
CONTINUOUS
 10
0.0
 20
0.0
 11
0.0
 21
17.0
  0
LINE
  5
21B
100
AcDbEntity
  8
0
100
AcDbLine
 62
7
  6
CONTINUOUS
 10
0.0
 20
0.0
 11
22.0
 21
0.0
  0
LINE
  5
21C
100
AcDbEntity
  8
0
100
AcDbLine
 62
7
  6
CONTINUOUS
 10
0.0
 20
17.0
 11
22.0
 21
17.0
  0
LINE
  5
21D
100
AcDbEntity
  8
0
100
AcDbLine
 62
7
  6
CONTINUOUS
 10
22.0
 20
0.0
 11
22.0
 21
17.0
  0
LINE
  5
21E
100
AcDbEntity
  8
0
100
AcDbLine
 62
7
  6
CONTINUOUS
 10
4.4768239691
 20
5.7169702905
 11
4.4768239691
 21
5.5594899755
  0
LINE
  5
21F
100
AcDbEntity
  8
0
100
AcDbLine
 62
7
  6
CONTINUOUS
 10
4.5801704258
 20
5.513558217
 11
4.5801704258
 21
5.4955135975
  0
LINE
  5
220
100
AcDbEntity
  8
0
100
AcDbLine
 62
7
  6
CONTINUOUS
 10
4.9246586147
 20
5.4955135975
 11
4.9246586147
 21
5.513558217
  0
LINE
  5
221
100
AcDbEntity
  8
0
100
AcDbLine
 62
7
  6
CONTINUOUS
 10
5.1313515281
 20
5.513558217
 11
5.1313515281
 21
5.4955135975
  0
LINE
  5
222
100
AcDbEntity
  8
0
100
AcDbLine
 62
7
  6
CONTINUOUS
 10
5.4758397171
 20
5.4955135975
 11
5.4758397171
 21
5.513558217
  0
LINE
  5
223
100
AcDbEntity
  8
0
100
AcDbLine
 62
7
  6
CONTINUOUS
 10
5.6825326305
 20
5.513558217
 11
5.6825326305
 21
5.4955135975
  0
LINE
  5
224
100
AcDbEntity
  8
0
100
AcDbLine
 62
7
  6
CONTINUOUS
 10
6.0270208195
 20
5.4955135975
 11
6.0270208195
 21
5.513558217
  0
LINE
  5
225
100
AcDbEntity
  8
0
100
AcDbLine
 62
7
  6
CONTINUOUS
 10
6.2337137329
 20
5.513558217
 11
6.2337137329
 21
5.4955135975
  0
LINE
  5
226
100
AcDbEntity
  8
0
100
AcDbLine
 62
7
  6
CONTINUOUS
 10
4.4768239691
 20
5.5594899755
 11
4.5342386672
 21
5.5594899755
  0
LINE
  5
227
100
AcDbEntity
  8
0
100
AcDbLine
 62
7
  6
CONTINUOUS
 10
4.9705903733
 20
5.5594899755
 11
5.0854197696
 21
5.5594899755
  0
LINE
  5
228
100
AcDbEntity
  8
0
100
AcDbLine
 62
7
  6
CONTINUOUS
 10
5.5217714756
 20
5.5594899755
 11
5.636600872
 21
5.5594899755
  0
LINE
  5
229
100
AcDbEntity
  8
0
100
AcDbLine
 62
7
  6
CONTINUOUS
 10
6.072952578
 20
5.5594899755
 11
6.1877819743
 21
5.5594899755
  0
LINE
  5
22A
100
AcDbEntity
  8
0
100
AcDbLine
 62
7
  6
CONTINUOUS
 10
6.6241336804
 20
5.5594899755
 11
6.7389630767
 21
5.5594899755
  0
LINE
  5
22B
100
AcDbEntity
  8
0
100
AcDbLine
 62
7
  6
CONTINUOUS
 10
7.1753147827
 20
5.5594899755
 11
7.2901441791
 21
5.5594899755
  0
LINE
  5
22C
100
AcDbEntity
  8
0
100
AcDbLine
 62
7
  6
CONTINUOUS
 10
7.7264958851
 20
5.5594899755
 11
7.7839105833
 21
5.5594899755
  0
LINE
  5
22D
100
AcDbEntity
  8
0
100
AcDbLine
 62
7
  6
CONTINUOUS
 10
7.7839105833
 20
5.7169702905
 11
4.4768239691
 21
5.7169702905
  0
LINE
  5
22E
100
AcDbEntity
  8
0
100
AcDbLine
 62
7
  6
CONTINUOUS
 10
6.5782019218
 20
5.4955135975
 11
6.5782019218
 21
5.513558217
  0
LINE
  5
22F
100
AcDbEntity
  8
0
100
AcDbLine
 62
7
  6
CONTINUOUS
 10
6.7848948352
 20
5.513558217
 11
6.7848948352
 21
5.4955135975
  0
LINE
  5
230
100
AcDbEntity
  8
0
100
AcDbLine
 62
7
  6
CONTINUOUS
 10
7.1293830242
 20
5.4955135975
 11
7.1293830242
 21
5.513558217
  0
LINE
  5
231
100
AcDbEntity
  8
0
100
AcDbLine
 62
7
  6
CONTINUOUS
 10
7.3360759376
 20
5.513558217
 11
7.3360759376
 21
5.4955135975
  0
LINE
  5
232
100
AcDbEntity
  8
0
100
AcDbLine
 62
7
  6
CONTINUOUS
 10
7.6805641266
 20
5.4955135975
 11
7.6805641266
 21
5.513558217
  0
LINE
  5
233
100
AcDbEntity
  8
0
100
AcDbLine
 62
7
  6
CONTINUOUS
 10
7.7839105833
 20
5.5594899755
 11
7.7839105833
 21
5.7169702905
  0
LINE
  5
234
100
AcDbEntity
  8
0
100
AcDbLine
 62
7
  6
CONTINUOUS
 10
4.4173287768
 20
12.9937485688
 11
4.4173287768
 21
12.206346994
  0
LINE
  5
235
100
AcDbEntity
  8
0
100
AcDbLine
 62
7
  6
CONTINUOUS
 10
7.7244153909
 20
12.206346994
 11
4.4173287768
 21
12.206346994
  0
LINE
  5
236
100
AcDbEntity
  8
0
100
AcDbLine
 62
7
  6
CONTINUOUS
 10
4.4173287768
 20
12.9937485688
 11
7.7244153909
 21
12.9937485688
  0
LINE
  5
237
100
AcDbEntity
  8
0
100
AcDbLine
 62
7
  6
CONTINUOUS
 10
7.7244153909
 20
12.9937485688
 11
7.7244153909
 21
12.206346994
  0
LINE
  5
238
100
AcDbEntity
  8
0
100
AcDbLine
 62
7
  6
CONTINUOUS
 10
15.1666544695
 20
5.2637743107
 11
15.1666544695
 21
5.6574750981
  0
LINE
  5
239
100
AcDbEntity
  8
0
100
AcDbLine
 62
7
  6
CONTINUOUS
 10
15.9540560443
 20
5.2637743107
 11
15.1666544695
 21
5.2637743107
  0
LINE
  5
23A
100
AcDbEntity
  8
0
100
AcDbLine
 62
7
  6
CONTINUOUS
 10
15.9540560443
 20
5.4999947832
 11
15.1666544695
 21
5.4999947832
  0
LINE
  5
23B
100
AcDbEntity
  8
0
100
AcDbLine
 62
7
  6
CONTINUOUS
 10
15.9540560443
 20
5.6574750981
 11
15.1666544695
 21
5.6574750981
  0
LINE
  5
23C
100
AcDbEntity
  8
0
100
AcDbLine
 62
7
  6
CONTINUOUS
 10
15.9540560443
 20
5.2637743107
 11
15.9540560443
 21
5.6574750981
  0
LINE
  5
23D
100
AcDbEntity
  8
0
100
AcDbLine
 62
7
  6
CONTINUOUS
 10
14.0193808839
 20
12.941565581
 11
13.8287774797
 21
12.3247727388
  0
LINE
  5
23E
100
AcDbEntity
  8
0
100
AcDbLine
 62
7
  6
CONTINUOUS
 10
13.8287774797
 20
12.3247727388
 11
13.8768155689
 21
12.2268814052
  0
LINE
  5
23F
100
AcDbEntity
  8
0
100
AcDbLine
 62
7
  6
CONTINUOUS
 10
13.9860150684
 20
12.1983297662
 11
13.9915194328
 21
12.1871130509
  0
LINE
  5
240
100
AcDbEntity
  8
0
100
AcDbLine
 62
7
  6
CONTINUOUS
 10
14.3088140666
 20
12.1871130509
 11
14.3033097022
 21
12.1983297662
  0
LINE
  5
241
100
AcDbEntity
  8
0
100
AcDbLine
 62
7
  6
CONTINUOUS
 10
14.4936864824
 20
12.1983297662
 11
14.4991908468
 21
12.1871130509
  0
LINE
  5
242
100
AcDbEntity
  8
0
100
AcDbLine
 62
7
  6
CONTINUOUS
 10
14.3427369638
 20
12.2268814052
 11
14.3147323478
 21
12.1362584348
  0
LINE
  5
243
100
AcDbEntity
  8
0
100
AcDbLine
 62
7
  6
CONTINUOUS
 10
14.8164854806
 20
12.1871130509
 11
14.8109811162
 21
12.1983297662
  0
LINE
  5
244
100
AcDbEntity
  8
0
100
AcDbLine
 62
7
  6
CONTINUOUS
 10
15.0013578964
 20
12.1983297662
 11
15.0068622608
 21
12.1871130509
  0
LINE
  5
245
100
AcDbEntity
  8
0
100
AcDbLine
 62
7
  6
CONTINUOUS
 10
14.8504083778
 20
12.2268814052
 11
14.8224037619
 21
12.1362584348
  0
LINE
  5
246
100
AcDbEntity
  8
0
100
AcDbLine
 62
7
  6
CONTINUOUS
 10
13.8768155689
 20
12.2268814052
 11
13.9296980079
 21
12.2268814052
  0
LINE
  5
247
100
AcDbEntity
  8
0
100
AcDbLine
 62
7
  6
CONTINUOUS
 10
14.331604544
 20
12.2268814052
 11
14.4373694219
 21
12.2268814052
  0
LINE
  5
248
100
AcDbEntity
  8
0
100
AcDbLine
 62
7
  6
CONTINUOUS
 10
14.839275958
 20
12.2268814052
 11
14.9450408359
 21
12.2268814052
  0
LINE
  5
249
100
AcDbEntity
  8
0
100
AcDbLine
 62
7
  6
CONTINUOUS
 10
15.346947372
 20
12.2268814052
 11
15.4527122499
 21
12.2268814052
  0
LINE
  5
24A
100
AcDbEntity
  8
0
100
AcDbLine
 62
7
  6
CONTINUOUS
 10
15.854618786
 20
12.2268814052
 11
15.9603836639
 21
12.2268814052
  0
LINE
  5
24B
100
AcDbEntity
  8
0
100
AcDbLine
 62
7
  6
CONTINUOUS
 10
16.3622902
 20
12.2268814052
 11
16.468055078
 21
12.2268814052
  0
LINE
  5
24C
100
AcDbEntity
  8
0
100
AcDbLine
 62
7
  6
CONTINUOUS
 10
16.8699616141
 20
12.2268814052
 11
16.922844053
 21
12.2268814052
  0
LINE
  5
24D
100
AcDbEntity
  8
0
100
AcDbLine
 62
7
  6
CONTINUOUS
 10
15.3241568946
 20
12.1871130509
 11
15.3186525302
 21
12.1983297662
  0
LINE
  5
24E
100
AcDbEntity
  8
0
100
AcDbLine
 62
7
  6
CONTINUOUS
 10
16.8748059638
 20
12.3247727388
 11
13.8287774797
 21
12.3247727388
  0
LINE
  5
24F
100
AcDbEntity
  8
0
100
AcDbLine
 62
7
  6
CONTINUOUS
 10
15.5090293105
 20
12.1983297662
 11
15.5145336748
 21
12.1871130509
  0
LINE
  5
250
100
AcDbEntity
  8
0
100
AcDbLine
 62
7
  6
CONTINUOUS
 10
15.3580797918
 20
12.2268814052
 11
15.3300751759
 21
12.1362584348
  0
LINE
  5
251
100
AcDbEntity
  8
0
100
AcDbLine
 62
7
  6
CONTINUOUS
 10
15.8318283086
 20
12.1871130509
 11
15.8263239442
 21
12.1983297662
  0
LINE
  5
252
100
AcDbEntity
  8
0
100
AcDbLine
 62
7
  6
CONTINUOUS
 10
16.0167007245
 20
12.1983297662
 11
16.0222050889
 21
12.1871130509
  0
LINE
  5
253
100
AcDbEntity
  8
0
100
AcDbLine
 62
7
  6
CONTINUOUS
 10
15.8657512058
 20
12.2268814052
 11
15.8377465899
 21
12.1362584348
  0
LINE
  5
254
100
AcDbEntity
  8
0
100
AcDbLine
 62
7
  6
CONTINUOUS
 10
14.0193808839
 20
12.941565581
 11
17.065409368
 21
12.941565581
  0
LINE
  5
255
100
AcDbEntity
  8
0
100
AcDbLine
 62
7
  6
CONTINUOUS
 10
16.3394997226
 20
12.1871130509
 11
16.3339953582
 21
12.1983297662
  0
LINE
  5
256
100
AcDbEntity
  8
0
100
AcDbLine
 62
7
  6
CONTINUOUS
 10
16.5243721385
 20
12.1983297662
 11
16.5298765029
 21
12.1871130509
  0
LINE
  5
257
100
AcDbEntity
  8
0
100
AcDbLine
 62
7
  6
CONTINUOUS
 10
16.3734226199
 20
12.2268814052
 11
16.3454180039
 21
12.1362584348
  0
LINE
  5
258
100
AcDbEntity
  8
0
100
AcDbLine
 62
7
  6
CONTINUOUS
 10
16.8471711366
 20
12.1871130509
 11
16.8416667722
 21
12.1983297662
  0
LINE
  5
259
100
AcDbEntity
  8
0
100
AcDbLine
 62
7
  6
CONTINUOUS
 10
16.922844053
 20
12.2268814052
 11
16.8748059638
 21
12.3247727388
  0
LINE
  5
25A
100
AcDbEntity
  8
0
100
AcDbLine
 62
7
  6
CONTINUOUS
 10
17.065409368
 20
12.941565581
 11
16.8748059638
 21
12.3247727388
  0
LINE
  5
25B
100
AcDbEntity
  8
0
100
AcDbLine
 62
7
  6
CONTINUOUS
 10
16.8810940339
 20
12.2268814052
 11
16.8530894179
 21
12.1362584348
  0
LINE
  5
25C
100
AcDbEntity
  8
0
100
AcDbLine
 62
7
  6
CONTINUOUS
 10
17.1134474573
 20
12.8436742474
 11
16.922844053
 21
12.2268814052
  0
LINE
  5
25D
100
AcDbEntity
  8
0
100
AcDbLine
 62
7
  6
CONTINUOUS
 10
17.1134474573
 20
12.8436742474
 11
17.065409368
 21
12.941565581
  0
ARC
  5
25E
100
AcDbEntity
  8
0
100
AcDbCircle
 62
7
  6
CONTINUOUS
 10
4.7524145203
 20
5.4955135975
 40
0.1722440945
100
AcDbArc
 50
180.0
 51
360.0
  0
ARC
  5
25F
100
AcDbEntity
  8
0
100
AcDbCircle
 62
7
  6
CONTINUOUS
 10
5.3035956226
 20
5.4955135975
 40
0.1722440945
100
AcDbArc
 50
180.0
 51
360.0
  0
ARC
  5
260
100
AcDbEntity
  8
0
100
AcDbCircle
 62
7
  6
CONTINUOUS
 10
7.5083200321
 20
5.4955135975
 40
0.1722440945
100
AcDbArc
 50
180.0
 51
360.0
  0
ARC
  5
261
100
AcDbEntity
  8
0
100
AcDbCircle
 62
7
  6
CONTINUOUS
 10
6.9571389297
 20
5.4955135975
 40
0.1722440945
100
AcDbArc
 50
180.0
 51
360.0
  0
ARC
  5
262
100
AcDbEntity
  8
0
100
AcDbCircle
 62
7
  6
CONTINUOUS
 10
6.4059578273
 20
5.4955135975
 40
0.1722440945
100
AcDbArc
 50
180.0
 51
360.0
  0
ARC
  5
263
100
AcDbEntity
  8
0
100
AcDbCircle
 62
7
  6
CONTINUOUS
 10
5.854776725
 20
5.4955135975
 40
0.1722440945
100
AcDbArc
 50
180.0
 51
360.0
  0
ARC
  5
264
100
AcDbEntity
  8
0
100
AcDbCircle
 62
7
  6
CONTINUOUS
 10
4.5342386672
 20
5.513558217
 40
0.0459317585
100
AcDbArc
 50
0.0
 51
90.0
  0
ARC
  5
265
100
AcDbEntity
  8
0
100
AcDbCircle
 62
7
  6
CONTINUOUS
 10
4.9705903733
 20
5.513558217
 40
0.0459317585
100
AcDbArc
 50
90.0
 51
180.0
  0
ARC
  5
266
100
AcDbEntity
  8
0
100
AcDbCircle
 62
7
  6
CONTINUOUS
 10
5.0854197696
 20
5.513558217
 40
0.0459317585
100
AcDbArc
 50
0.0
 51
90.0
  0
ARC
  5
267
100
AcDbEntity
  8
0
100
AcDbCircle
 62
7
  6
CONTINUOUS
 10
5.5217714756
 20
5.513558217
 40
0.0459317585
100
AcDbArc
 50
90.0
 51
180.0
  0
ARC
  5
268
100
AcDbEntity
  8
0
100
AcDbCircle
 62
7
  6
CONTINUOUS
 10
5.636600872
 20
5.513558217
 40
0.0459317585
100
AcDbArc
 50
0.0
 51
90.0
  0
ARC
  5
269
100
AcDbEntity
  8
0
100
AcDbCircle
 62
7
  6
CONTINUOUS
 10
6.072952578
 20
5.513558217
 40
0.0459317585
100
AcDbArc
 50
90.0
 51
180.0
  0
ARC
  5
26A
100
AcDbEntity
  8
0
100
AcDbCircle
 62
7
  6
CONTINUOUS
 10
6.1877819743
 20
5.513558217
 40
0.0459317585
100
AcDbArc
 50
0.0
 51
90.0
  0
ARC
  5
26B
100
AcDbEntity
  8
0
100
AcDbCircle
 62
7
  6
CONTINUOUS
 10
6.6241336804
 20
5.513558217
 40
0.0459317585
100
AcDbArc
 50
90.0
 51
180.0
  0
ARC
  5
26C
100
AcDbEntity
  8
0
100
AcDbCircle
 62
7
  6
CONTINUOUS
 10
6.7389630767
 20
5.513558217
 40
0.0459317585
100
AcDbArc
 50
0.0
 51
90.0
  0
ARC
  5
26D
100
AcDbEntity
  8
0
100
AcDbCircle
 62
7
  6
CONTINUOUS
 10
7.1753147827
 20
5.513558217
 40
0.0459317585
100
AcDbArc
 50
90.0
 51
180.0
  0
ARC
  5
26E
100
AcDbEntity
  8
0
100
AcDbCircle
 62
7
  6
CONTINUOUS
 10
7.2901441791
 20
5.513558217
 40
0.0459317585
100
AcDbArc
 50
0.0
 51
90.0
  0
ARC
  5
26F
100
AcDbEntity
  8
0
100
AcDbCircle
 62
7
  6
CONTINUOUS
 10
7.7264958851
 20
5.513558217
 40
0.0459317585
100
AcDbArc
 50
90.0
 51
180.0
  0
SPLINE
  5
270
100
AcDbEntity
  8
0
100
AcDbSpline
 62
7
  6
CONTINUOUS
 70
0
 71
3
 72
11
 73
7
 74
0
 42
0.0000001
 43
0.0000001
 44
0.0000000001
 40
0.0
 40
0.0
 40
0.0
 40
0.0
 40
0.202227818
 40
0.4300660366
 40
0.6962045069
 40
1.0
 40
1.0
 40
1.0
 40
1.0
 10
14.301731484
 20
12.2118910088
 30
0.0
 10
14.3024380338
 20
12.2141778842
 30
0.0
 10
14.3052002091
 20
12.218700634
 30
0.0
 10
14.3121376046
 20
12.2234503427
 30
0.0
 10
14.3212367374
 20
12.2263114509
 30
0.0
 10
14.3280088702
 20
12.2268814052
 30
0.0
 10
14.331604544
 20
12.2268814052
 30
0.0
  0
SPLINE
  5
271
100
AcDbEntity
  8
0
100
AcDbSpline
 62
7
  6
CONTINUOUS
 70
0
 71
3
 72
11
 73
7
 74
0
 42
0.0000001
 43
0.0000001
 44
0.0000000001
 40
0.0
 40
0.0
 40
0.0
 40
0.0
 40
0.202227818
 40
0.4300660366
 40
0.6962045069
 40
1.0
 40
1.0
 40
1.0
 40
1.0
 10
14.8094028981
 20
12.2118910088
 30
0.0
 10
14.8101094478
 20
12.2141778842
 30
0.0
 10
14.8128716231
 20
12.218700634
 30
0.0
 10
14.8198090186
 20
12.2234503427
 30
0.0
 10
14.8289081514
 20
12.2263114509
 30
0.0
 10
14.8356802842
 20
12.2268814052
 30
0.0
 10
14.839275958
 20
12.2268814052
 30
0.0
  0
SPLINE
  5
272
100
AcDbEntity
  8
0
100
AcDbSpline
 62
7
  6
CONTINUOUS
 70
0
 71
3
 72
11
 73
7
 74
0
 42
0.0000001
 43
0.0000001
 44
0.0000000001
 40
0.0
 40
0.0
 40
0.0
 40
0.0
 40
0.202227818
 40
0.4300660366
 40
0.6962045069
 40
1.0
 40
1.0
 40
1.0
 40
1.0
 10
15.3170743121
 20
12.2118910088
 30
0.0
 10
15.3177808618
 20
12.2141778842
 30
0.0
 10
15.3205430371
 20
12.218700634
 30
0.0
 10
15.3274804326
 20
12.2234503427
 30
0.0
 10
15.3365795654
 20
12.2263114509
 30
0.0
 10
15.3433516982
 20
12.2268814052
 30
0.0
 10
15.346947372
 20
12.2268814052
 30
0.0
  0
SPLINE
  5
273
100
AcDbEntity
  8
0
100
AcDbSpline
 62
7
  6
CONTINUOUS
 70
0
 71
3
 72
11
 73
7
 74
0
 42
0.0000001
 43
0.0000001
 44
0.0000000001
 40
0.0
 40
0.0
 40
0.0
 40
0.0
 40
0.202227818
 40
0.4300660366
 40
0.6962045069
 40
1.0
 40
1.0
 40
1.0
 40
1.0
 10
15.8247457261
 20
12.2118910088
 30
0.0
 10
15.8254522758
 20
12.2141778842
 30
0.0
 10
15.8282144512
 20
12.218700634
 30
0.0
 10
15.8351518466
 20
12.2234503427
 30
0.0
 10
15.8442509794
 20
12.2263114509
 30
0.0
 10
15.8510231122
 20
12.2268814052
 30
0.0
 10
15.854618786
 20
12.2268814052
 30
0.0
  0
SPLINE
  5
274
100
AcDbEntity
  8
0
100
AcDbSpline
 62
7
  6
CONTINUOUS
 70
0
 71
3
 72
11
 73
7
 74
0
 42
0.0000001
 43
0.0000001
 44
0.0000000001
 40
0.0
 40
0.0
 40
0.0
 40
0.0
 40
0.202227818
 40
0.4300660366
 40
0.6962045069
 40
1.0
 40
1.0
 40
1.0
 40
1.0
 10
16.3324171401
 20
12.2118910088
 30
0.0
 10
16.3331236898
 20
12.2141778842
 30
0.0
 10
16.3358858652
 20
12.218700634
 30
0.0
 10
16.3428232606
 20
12.2234503427
 30
0.0
 10
16.3519223934
 20
12.2263114509
 30
0.0
 10
16.3586945262
 20
12.2268814052
 30
0.0
 10
16.3622902
 20
12.2268814052
 30
0.0
  0
SPLINE
  5
275
100
AcDbEntity
  8
0
100
AcDbSpline
 62
7
  6
CONTINUOUS
 70
0
 71
3
 72
11
 73
7
 74
0
 42
0.0000001
 43
0.0000001
 44
0.0000000001
 40
0.0
 40
0.0
 40
0.0
 40
0.0
 40
0.202227818
 40
0.4300660366
 40
0.6962045069
 40
1.0
 40
1.0
 40
1.0
 40
1.0
 10
16.8400885541
 20
12.2118910088
 30
0.0
 10
16.8407951038
 20
12.2141778842
 30
0.0
 10
16.8435572792
 20
12.218700634
 30
0.0
 10
16.8504946746
 20
12.2234503427
 30
0.0
 10
16.8595938074
 20
12.2263114509
 30
0.0
 10
16.8663659403
 20
12.2268814052
 30
0.0
 10
16.8699616141
 20
12.2268814052
 30
0.0
  0
SPLINE
  5
276
100
AcDbEntity
  8
0
100
AcDbSpline
 62
7
  6
CONTINUOUS
 70
0
 71
3
 72
18
 73
14
 74
0
 42
0.0000001
 43
0.0000001
 44
0.0000000001
 40
0.0
 40
0.0
 40
0.0
 40
0.0
 40
0.1137294936
 40
0.1783935225
 40
0.2473145931
 40
0.3934841755
 40
0.5423889862
 40
0.6833239898
 40
0.8074633451
 40
0.8619253574
 40
0.911386971
 40
0.9568309593
 40
1.0
 40
1.0
 40
1.0
 40
1.0
 10
16.5298765029
 20
12.1871130509
 30
0.0
 10
16.5362242281
 20
12.1741777469
 30
0.0
 10
16.5504829173
 20
12.1559650524
 30
0.0
 10
16.5741459497
 20
12.1354169996
 30
0.0
 10
16.6035178356
 20
12.1154244319
 30
0.0
 10
16.6455535304
 20
12.0957045634
 30
0.0
 10
16.699323841
 20
12.0817286336
 30
0.0
 10
16.7519888173
 20
12.0783787776
 30
0.0
 10
16.7925025133
 20
12.0850618666
 30
0.0
 10
16.8191300386
 20
12.0966490268
 30
0.0
 10
16.8347980001
 20
12.1075276184
 30
0.0
 10
16.846538807
 20
12.1207457754
 30
0.0
 10
16.8514743717
 20
12.1310330598
 30
0.0
 10
16.8530893767
 20
12.1362584476
 30
0.0
  0
SPLINE
  5
277
100
AcDbEntity
  8
0
100
AcDbSpline
 62
7
  6
CONTINUOUS
 70
0
 71
3
 72
18
 73
14
 74
0
 42
0.0000001
 43
0.0000001
 44
0.0000000001
 40
0.0
 40
0.0
 40
0.0
 40
0.0
 40
0.1137304603
 40
0.178393336
 40
0.2473148487
 40
0.3934842848
 40
0.5423889467
 40
0.6833237972
 40
0.8074630681
 40
0.8619250737
 40
0.9113867055
 40
0.9568306391
 40
1.0
 40
1.0
 40
1.0
 40
1.0
 10
16.0222050889
 20
12.1871130509
 30
0.0
 10
16.0285528657
 20
12.1741776417
 30
0.0
 10
16.0428113766
 20
12.1559648083
 30
0.0
 10
16.0664747264
 20
12.1354170884
 30
0.0
 10
16.0958463383
 20
12.1154243592
 30
0.0
 10
16.1378821516
 20
12.0957046652
 30
0.0
 10
16.1916523559
 20
12.0817287202
 30
0.0
 10
16.2443172665
 20
12.0783788689
 30
0.0
 10
16.284830928
 20
12.0850619354
 30
0.0
 10
16.3114584292
 20
12.0966490286
 30
0.0
 10
16.327126472
 20
12.1075276016
 30
0.0
 10
16.3388670337
 20
12.1207457749
 30
0.0
 10
16.3438035288
 20
12.1310328427
 30
0.0
 10
16.3454178172
 20
12.1362584922
 30
0.0
  0
SPLINE
  5
278
100
AcDbEntity
  8
0
100
AcDbSpline
 62
7
  6
CONTINUOUS
 70
0
 71
3
 72
18
 73
14
 74
0
 42
0.0000001
 43
0.0000001
 44
0.0000000001
 40
0.0
 40
0.0
 40
0.0
 40
0.0
 40
0.1137315584
 40
0.1783932168
 40
0.2473150517
 40
0.3934840411
 40
0.5423888244
 40
0.6833242055
 40
0.8074633974
 40
0.8619251957
 40
0.9113866477
 40
0.9568303993
 40
1.0
 40
1.0
 40
1.0
 40
1.0
 10
15.5145336748
 20
12.1871130509
 30
0.0
 10
15.52088151
 20
12.174177523
 30
0.0
 10
15.535139932
 20
12.1559645989
 30
0.0
 10
15.5588036389
 20
12.1354172829
 30
0.0
 10
15.5881749221
 20
12.1154244312
 30
0.0
 10
15.6302107729
 20
12.0957048214
 30
0.0
 10
15.6839808644
 20
12.0817285671
 30
0.0
 10
15.7366458506
 20
12.0783785281
 30
0.0
 10
15.7771594941
 20
12.085061833
 30
0.0
 10
15.8037868728
 20
12.096649053
 30
0.0
 10
15.819454725
 20
12.1075277207
 30
0.0
 10
15.8311953878
 20
12.120745784
 30
0.0
 10
15.8361317468
 20
12.1310329269
 30
0.0
 10
15.8377460443
 20
12.1362586027
 30
0.0
  0
SPLINE
  5
279
100
AcDbEntity
  8
0
100
AcDbSpline
 62
7
  6
CONTINUOUS
 70
0
 71
3
 72
18
 73
14
 74
0
 42
0.0000001
 43
0.0000001
 44
0.0000000001
 40
0.0
 40
0.0
 40
0.0
 40
0.0
 40
0.1137330086
 40
0.1783928603
 40
0.2473148511
 40
0.3934837294
 40
0.5423885993
 40
0.6833231008
 40
0.807462968
 40
0.8619252214
 40
0.9113866617
 40
0.9568301983
 40
1.0
 40
1.0
 40
1.0
 40
1.0
 10
15.0068622608
 20
12.1871130509
 30
0.0
 10
15.0132101764
 20
12.1741773591
 30
0.0
 10
15.0274685267
 20
12.1559643751
 30
0.0
 10
15.051132578
 20
12.1354175179
 30
0.0
 10
15.0805033445
 20
12.115424357
 30
0.0
 10
15.1225391608
 20
12.0957044912
 30
0.0
 10
15.1763092964
 20
12.0817287379
 30
0.0
 10
15.2289742238
 20
12.0783791552
 30
0.0
 10
15.2694879441
 20
12.0850617287
 30
0.0
 10
15.2961156714
 20
12.0966486608
 30
0.0
 10
15.3117833537
 20
12.1075275455
 30
0.0
 10
15.3235241681
 20
12.1207456533
 30
0.0
 10
15.3284595841
 20
12.1310331325
 30
0.0
 10
15.3300742631
 20
12.1362587167
 30
0.0
  0
SPLINE
  5
27A
100
AcDbEntity
  8
0
100
AcDbSpline
 62
7
  6
CONTINUOUS
 70
0
 71
3
 72
18
 73
14
 74
0
 42
0.0000001
 43
0.0000001
 44
0.0000000001
 40
0.0
 40
0.0
 40
0.0
 40
0.0
 40
0.1137348313
 40
0.1783923942
 40
0.247314414
 40
0.3934837635
 40
0.54238793
 40
0.6833234325
 40
0.8074618061
 40
0.8619239891
 40
0.9113861521
 40
0.9568300391
 40
1.0
 40
1.0
 40
1.0
 40
1.0
 10
14.4991908468
 20
12.1871130509
 30
0.0
 10
14.5055388625
 20
12.174177155
 30
0.0
 10
14.5197971863
 20
12.1559641754
 30
0.0
 10
14.5434614204
 20
12.1354176689
 30
0.0
 10
14.5728315259
 20
12.115423951
 30
0.0
 10
14.6148678673
 20
12.0957050518
 30
0.0
 10
14.6686378218
 20
12.0817290858
 30
0.0
 10
14.7213026895
 20
12.0783782947
 30
0.0
 10
14.7618160933
 20
12.085062325
 30
0.0
 10
14.7884437019
 20
12.0966490621
 30
0.0
 10
14.8041119784
 20
12.107527143
 30
0.0
 10
14.8158534903
 20
12.1207452639
 30
0.0
 10
14.8207873636
 20
12.1310333638
 30
0.0
 10
14.8224026866
 20
12.1362587686
 30
0.0
  0
SPLINE
  5
27B
100
AcDbEntity
  8
0
100
AcDbSpline
 62
7
  6
CONTINUOUS
 70
0
 71
3
 72
18
 73
14
 74
0
 42
0.0000001
 43
0.0000001
 44
0.0000000001
 40
0.0
 40
0.0
 40
0.0
 40
0.0
 40
0.1137369342
 40
0.1783921642
 40
0.2473142754
 40
0.3934837242
 40
0.5423886499
 40
0.6833226466
 40
0.807462852
 40
0.8619238545
 40
0.9113852699
 40
0.9568300351
 40
1.0
 40
1.0
 40
1.0
 40
1.0
 10
13.9915194328
 20
12.1871130509
 30
0.0
 10
13.9978675619
 20
12.1741769238
 30
0.0
 10
14.0121259856
 20
12.1559640793
 30
0.0
 10
14.0357900119
 20
12.1354174089
 30
0.0
 10
14.0651600167
 20
12.1154239825
 30
0.0
 10
14.1071966504
 20
12.0957058704
 30
0.0
 10
14.1609662153
 20
12.0817280179
 30
0.0
 10
14.2136310993
 20
12.0783799142
 30
0.0
 10
14.2541449924
 20
12.0850610567
 30
0.0
 10
14.2807719377
 20
12.0966496005
 30
0.0
 10
14.2964397384
 20
12.1075277085
 30
0.0
 10
14.3081824775
 20
12.1207449814
 30
0.0
 10
14.3131155752
 20
12.1310334829
 30
0.0
 10
14.3147315155
 20
12.1362586939
 30
0.0
  0
SPLINE
  5
27C
100
AcDbEntity
  8
0
100
AcDbSpline
 62
7
  6
CONTINUOUS
 70
0
 71
3
 72
11
 73
7
 74
0
 42
0.0000001
 43
0.0000001
 44
0.0000000001
 40
0.0
 40
0.0
 40
0.0
 40
0.0
 40
0.2647185005
 40
0.5366515532
 40
0.7885344464
 40
1.0
 40
1.0
 40
1.0
 40
1.0
 10
13.9296980079
 20
12.2268814052
 30
0.0
 10
13.9354958531
 20
12.2268814052
 30
0.0
 10
13.9472733817
 20
12.2252926572
 30
0.0
 10
13.9636134514
 20
12.2192970174
 30
0.0
 10
13.977223585
 20
12.2104469485
 30
0.0
 10
13.9839746935
 20
12.2024876132
 30
0.0
 10
13.9860150684
 20
12.1983297662
 30
0.0
  0
SPLINE
  5
27D
100
AcDbEntity
  8
0
100
AcDbSpline
 62
7
  6
CONTINUOUS
 70
0
 71
3
 72
11
 73
7
 74
0
 42
0.0000001
 43
0.0000001
 44
0.0000000001
 40
0.0
 40
0.0
 40
0.0
 40
0.0
 40
0.2647185005
 40
0.5366515532
 40
0.7885344464
 40
1.0
 40
1.0
 40
1.0
 40
1.0
 10
14.4373694219
 20
12.2268814052
 30
0.0
 10
14.4431672672
 20
12.2268814052
 30
0.0
 10
14.4549447957
 20
12.2252926572
 30
0.0
 10
14.4712848654
 20
12.2192970174
 30
0.0
 10
14.4848949991
 20
12.2104469485
 30
0.0
 10
14.4916461075
 20
12.2024876132
 30
0.0
 10
14.4936864824
 20
12.1983297662
 30
0.0
  0
SPLINE
  5
27E
100
AcDbEntity
  8
0
100
AcDbSpline
 62
7
  6
CONTINUOUS
 70
0
 71
3
 72
11
 73
7
 74
0
 42
0.0000001
 43
0.0000001
 44
0.0000000001
 40
0.0
 40
0.0
 40
0.0
 40
0.0
 40
0.2647185005
 40
0.5366515532
 40
0.7885344464
 40
1.0
 40
1.0
 40
1.0
 40
1.0
 10
14.9450408359
 20
12.2268814052
 30
0.0
 10
14.9508386812
 20
12.2268814052
 30
0.0
 10
14.9626162097
 20
12.2252926572
 30
0.0
 10
14.9789562795
 20
12.2192970174
 30
0.0
 10
14.9925664131
 20
12.2104469485
 30
0.0
 10
14.9993175215
 20
12.2024876132
 30
0.0
 10
15.0013578964
 20
12.1983297662
 30
0.0
  0
SPLINE
  5
27F
100
AcDbEntity
  8
0
100
AcDbSpline
 62
7
  6
CONTINUOUS
 70
0
 71
3
 72
11
 73
7
 74
0
 42
0.0000001
 43
0.0000001
 44
0.0000000001
 40
0.0
 40
0.0
 40
0.0
 40
0.0
 40
0.2647185005
 40
0.5366515532
 40
0.7885344464
 40
1.0
 40
1.0
 40
1.0
 40
1.0
 10
15.4527122499
 20
12.2268814052
 30
0.0
 10
15.4585100952
 20
12.2268814052
 30
0.0
 10
15.4702876237
 20
12.2252926572
 30
0.0
 10
15.4866276935
 20
12.2192970174
 30
0.0
 10
15.5002378271
 20
12.2104469485
 30
0.0
 10
15.5069889355
 20
12.2024876132
 30
0.0
 10
15.5090293105
 20
12.1983297662
 30
0.0
  0
SPLINE
  5
280
100
AcDbEntity
  8
0
100
AcDbSpline
 62
7
  6
CONTINUOUS
 70
0
 71
3
 72
11
 73
7
 74
0
 42
0.0000001
 43
0.0000001
 44
0.0000000001
 40
0.0
 40
0.0
 40
0.0
 40
0.0
 40
0.2647185005
 40
0.5366515532
 40
0.7885344464
 40
1.0
 40
1.0
 40
1.0
 40
1.0
 10
15.9603836639
 20
12.2268814052
 30
0.0
 10
15.9661815092
 20
12.2268814052
 30
0.0
 10
15.9779590377
 20
12.2252926572
 30
0.0
 10
15.9942991075
 20
12.2192970174
 30
0.0
 10
16.0079092411
 20
12.2104469485
 30
0.0
 10
16.0146603495
 20
12.2024876132
 30
0.0
 10
16.0167007245
 20
12.1983297662
 30
0.0
  0
SPLINE
  5
281
100
AcDbEntity
  8
0
100
AcDbSpline
 62
7
  6
CONTINUOUS
 70
0
 71
3
 72
11
 73
7
 74
0
 42
0.0000001
 43
0.0000001
 44
0.0000000001
 40
0.0
 40
0.0
 40
0.0
 40
0.0
 40
0.2647185005
 40
0.5366515532
 40
0.7885344464
 40
1.0
 40
1.0
 40
1.0
 40
1.0
 10
16.468055078
 20
12.2268814052
 30
0.0
 10
16.4738529232
 20
12.2268814052
 30
0.0
 10
16.4856304518
 20
12.2252926572
 30
0.0
 10
16.5019705215
 20
12.2192970174
 30
0.0
 10
16.5155806551
 20
12.2104469485
 30
0.0
 10
16.5223317636
 20
12.2024876132
 30
0.0
 10
16.5243721385
 20
12.1983297662
 30
0.0
  0
SPLINE
  5
282
100
AcDbEntity
  8
0
100
AcDbSpline
 62
7
  6
CONTINUOUS
 70
0
 71
3
 72
10
 73
6
 74
0
 42
0.0000001
 43
0.0000001
 44
0.0000000001
 40
0.0
 40
0.0
 40
0.0
 40
0.0
 40
0.2341427944
 40
0.475354492
 40
1.0
 40
1.0
 40
1.0
 40
1.0
 10
16.3454178172
 20
12.1362584922
 30
0.0
 10
16.3466222589
 20
12.1401574176
 30
0.0
 10
16.3482035717
 20
12.1483692634
 30
0.0
 10
16.347828775
 20
12.1658933154
 30
0.0
 10
16.3435279157
 20
12.1789044566
 30
0.0
 10
16.3394997226
 20
12.1871130509
 30
0.0
  0
SPLINE
  5
283
100
AcDbEntity
  8
0
100
AcDbSpline
 62
7
  6
CONTINUOUS
 70
0
 71
3
 72
10
 73
6
 74
0
 42
0.0000001
 43
0.0000001
 44
0.0000000001
 40
0.0
 40
0.0
 40
0.0
 40
0.0
 40
0.2341451507
 40
0.4753625673
 40
1.0
 40
1.0
 40
1.0
 40
1.0
 10
16.8530893767
 20
12.1362584476
 30
0.0
 10
16.8542943731
 20
12.1401572427
 30
0.0
 10
16.8558743908
 20
12.1483695638
 30
0.0
 10
16.8555005012
 20
12.1658934369
 30
0.0
 10
16.8511992659
 20
12.1789045865
 30
0.0
 10
16.8471711366
 20
12.1871130509
 30
0.0
  0
SPLINE
  5
284
100
AcDbEntity
  8
0
100
AcDbSpline
 62
7
  6
CONTINUOUS
 70
0
 71
3
 72
10
 73
6
 74
0
 42
0.0000001
 43
0.0000001
 44
0.0000000001
 40
0.0
 40
0.0
 40
0.0
 40
0.0
 40
0.2341292337
 40
0.4753454604
 40
1.0
 40
1.0
 40
1.0
 40
1.0
 10
15.3300742631
 20
12.1362587167
 30
0.0
 10
15.3312789147
 20
12.1401573298
 30
0.0
 10
15.3328613256
 20
12.1483688457
 30
0.0
 10
15.3324858677
 20
12.1658929943
 30
0.0
 10
15.328185157
 20
12.1789043152
 30
0.0
 10
15.3241568946
 20
12.1871130509
 30
0.0
  0
SPLINE
  5
285
100
AcDbEntity
  8
0
100
AcDbSpline
 62
7
  6
CONTINUOUS
 70
0
 71
3
 72
9
 73
5
 74
0
 42
0.0000001
 43
0.0000001
 44
0.0000000001
 40
0.0
 40
0.0
 40
0.0
 40
0.0
 40
0.5259279626
 40
1.0
 40
1.0
 40
1.0
 40
1.0
 10
14.3033097022
 20
12.1983297662
 30
0.0
 10
14.3022356874
 20
12.2005183782
 30
0.0
 10
14.3007314599
 20
12.205009013
 30
0.0
 10
14.3010827851
 20
12.2097913778
 30
0.0
 10
14.301731484
 20
12.2118910088
 30
0.0
  0
SPLINE
  5
286
100
AcDbEntity
  8
0
100
AcDbSpline
 62
7
  6
CONTINUOUS
 70
0
 71
3
 72
10
 73
6
 74
0
 42
0.0000001
 43
0.0000001
 44
0.0000000001
 40
0.0
 40
0.0
 40
0.0
 40
0.0
 40
0.2341056307
 40
0.4753478194
 40
1.0
 40
1.0
 40
1.0
 40
1.0
 10
14.3147315155
 20
12.1362586939
 30
0.0
 10
14.3159369836
 20
12.1401566262
 30
0.0
 10
14.3175177771
 20
12.1483686242
 30
0.0
 10
14.3171438664
 20
12.1658925834
 30
0.0
 10
14.3128423129
 20
12.178904348
 30
0.0
 10
14.3088140666
 20
12.1871130509
 30
0.0
  0
SPLINE
  5
287
100
AcDbEntity
  8
0
100
AcDbSpline
 62
7
  6
CONTINUOUS
 70
0
 71
3
 72
9
 73
5
 74
0
 42
0.0000001
 43
0.0000001
 44
0.0000000001
 40
0.0
 40
0.0
 40
0.0
 40
0.0
 40
0.5259279626
 40
1.0
 40
1.0
 40
1.0
 40
1.0
 10
14.8109811162
 20
12.1983297662
 30
0.0
 10
14.8099071014
 20
12.2005183782
 30
0.0
 10
14.8084028739
 20
12.205009013
 30
0.0
 10
14.8087541991
 20
12.2097913778
 30
0.0
 10
14.8094028981
 20
12.2118910088
 30
0.0
  0
SPLINE
  5
288
100
AcDbEntity
  8
0
100
AcDbSpline
 62
7
  6
CONTINUOUS
 70
0
 71
3
 72
9
 73
5
 74
0
 42
0.0000001
 43
0.0000001
 44
0.0000000001
 40
0.0
 40
0.0
 40
0.0
 40
0.0
 40
0.5259279626
 40
1.0
 40
1.0
 40
1.0
 40
1.0
 10
15.3186525302
 20
12.1983297662
 30
0.0
 10
15.3175785154
 20
12.2005183782
 30
0.0
 10
15.3160742879
 20
12.205009013
 30
0.0
 10
15.3164256131
 20
12.2097913778
 30
0.0
 10
15.3170743121
 20
12.2118910088
 30
0.0
  0
SPLINE
  5
289
100
AcDbEntity
  8
0
100
AcDbSpline
 62
7
  6
CONTINUOUS
 70
0
 71
3
 72
9
 73
5
 74
0
 42
0.0000001
 43
0.0000001
 44
0.0000000001
 40
0.0
 40
0.0
 40
0.0
 40
0.0
 40
0.5259279626
 40
1.0
 40
1.0
 40
1.0
 40
1.0
 10
15.8263239442
 20
12.1983297662
 30
0.0
 10
15.8252499294
 20
12.2005183782
 30
0.0
 10
15.8237457019
 20
12.205009013
 30
0.0
 10
15.8240970272
 20
12.2097913778
 30
0.0
 10
15.8247457261
 20
12.2118910088
 30
0.0
  0
SPLINE
  5
28A
100
AcDbEntity
  8
0
100
AcDbSpline
 62
7
  6
CONTINUOUS
 70
0
 71
3
 72
10
 73
6
 74
0
 42
0.0000001
 43
0.0000001
 44
0.0000000001
 40
0.0
 40
0.0
 40
0.0
 40
0.0
 40
0.2341376902
 40
0.4753497772
 40
1.0
 40
1.0
 40
1.0
 40
1.0
 10
15.8377460443
 20
12.1362586027
 30
0.0
 10
15.8389504606
 20
12.1401574432
 30
0.0
 10
15.8405325926
 20
12.148369051
 30
0.0
 10
15.8401571946
 20
12.1658931865
 30
0.0
 10
15.8358565383
 20
12.1789043819
 30
0.0
 10
15.8318283086
 20
12.1871130509
 30
0.0
  0
SPLINE
  5
28B
100
AcDbEntity
  8
0
100
AcDbSpline
 62
7
  6
CONTINUOUS
 70
0
 71
3
 72
9
 73
5
 74
0
 42
0.0000001
 43
0.0000001
 44
0.0000000001
 40
0.0
 40
0.0
 40
0.0
 40
0.0
 40
0.5259279626
 40
1.0
 40
1.0
 40
1.0
 40
1.0
 10
16.3339953582
 20
12.1983297662
 30
0.0
 10
16.3329213435
 20
12.2005183782
 30
0.0
 10
16.3314171159
 20
12.205009013
 30
0.0
 10
16.3317684412
 20
12.2097913778
 30
0.0
 10
16.3324171401
 20
12.2118910088
 30
0.0
  0
SPLINE
  5
28C
100
AcDbEntity
  8
0
100
AcDbSpline
 62
7
  6
CONTINUOUS
 70
0
 71
3
 72
10
 73
6
 74
0
 42
0.0000001
 43
0.0000001
 44
0.0000000001
 40
0.0
 40
0.0
 40
0.0
 40
0.0
 40
0.2341179692
 40
0.4753435184
 40
1.0
 40
1.0
 40
1.0
 40
1.0
 10
14.8224026866
 20
12.1362587686
 30
0.0
 10
14.8236077567
 20
12.1401570469
 30
0.0
 10
14.8251896772
 20
12.1483686858
 30
0.0
 10
14.8248148249
 20
12.1658927661
 30
0.0
 10
14.8205137578
 20
12.1789042849
 30
0.0
 10
14.8164854806
 20
12.1871130509
 30
0.0
  0
SPLINE
  5
28D
100
AcDbEntity
  8
0
100
AcDbSpline
 62
7
  6
CONTINUOUS
 70
0
 71
3
 72
9
 73
5
 74
0
 42
0.0000001
 43
0.0000001
 44
0.0000000001
 40
0.0
 40
0.0
 40
0.0
 40
0.0
 40
0.5259279626
 40
1.0
 40
1.0
 40
1.0
 40
1.0
 10
16.8416667722
 20
12.1983297662
 30
0.0
 10
16.8405927575
 20
12.2005183782
 30
0.0
 10
16.8390885299
 20
12.205009013
 30
0.0
 10
16.8394398552
 20
12.2097913778
 30
0.0
 10
16.8400885541
 20
12.2118910088
 30
0.0
  0
ENDSEC
  0
SECTION
  2
OBJECTS
  0
DICTIONARY
  5
C
100
AcDbDictionary
280
0
281
1
  3
ACAD_GROUP
350
D
  3
ACAD_MLINESTYLE
350
17
  3
ACAD_LAYOUT
350
1A
  3
ACAD_PLOTSETTINGS
350
19
  3
ACAD_PLOTSTYLENAME
350
E
  0
DICTIONARY
  5
D
102
{ACAD_REACTORS
330
C
102
}
100
AcDbDictionary
280
0
281
1
  0
ACDBDICTIONARYWDFLT
  5
E
102
{ACAD_REACTORS
330
C
102
}
100
AcDbDictionary
281
1
  3
Normal
350
F
100
AcDbDictionaryWithDefault
340
F
  0
DICTIONARY
  5
17
102
{ACAD_REACTORS
330
C
102
}
100
AcDbDictionary
280
0
281
1
  3
Standard
350
18
  0
DICTIONARY
  5
19
102
{ACAD_REACTORS
330
C
102
}
100
AcDbDictionary
281
1
  0
DICTIONARY
  5
1A
102
{ACAD_REACTORS
330
C
102
}
100
AcDbDictionary
281
1
  3
Model
350
28E
  3
Layout1
350
28F
  0
ACDBPLACEHOLDER
  5
F
102
{ACAD_REACTORS
330
E
102
}
  0
MLINESTYLE
  5
18
102
{ACAD_REACTORS
330
17
102
}
100
AcDbMlineStyle
  2
STANDARD
 70
0
  3

 62
256
 51
90.0
 52
90.0
 71
2
 49
0.5
 62
256
  6
BYLAYER
 49
-0.5
 62
256
  6
BYLAYER
  0
LAYOUT
  5
28E
102
{ACAD_REACTORS
330
1A
102
}
100
AcDbPlotSettings
  1

  2
none_device
  4
ANSI_C_(22.00_x_17.00_Inches)
  6

 40
0.0
 41
0.0
 42
0.0
 43
0.0
 44
558.8
 45
431.8
 46
0.0
 47
0.0
 48
0.0
 49
0.0
140
0.0
141
0.0
142
1.0
143
1.0
 70
1024
 72
0
 73
0
 74
0
  7

 75
0
147
1.0
148
0.0
149
0.0
100
AcDbLayout
  1
Model
 70
0
 71
0
 10
0.0
 20
0.0
 11
22.0
 21
17.0
 12
0.0
 22
0.0
 32
0.0
 14
0.0
 24
0.0
 34
0.0
 15
0.0
 25
0.0
 35
0.0
146
0.0
 13
0.0
 23
0.0
 33
0.0
 16
1.0
 26
0.0
 36
0.0
 17
0.0
 27
1.0
 37
0.0
 76
0
330
216
345
0
346
0
  0
LAYOUT
  5
28F
102
{ACAD_REACTORS
330
1A
102
}
100
AcDbPlotSettings
  1

  2
none_device
  4
ANSI_C_(22.00_x_17.00_Inches)
  6

 40
0.0
 41
0.0
 42
0.0
 43
0.0
 44
558.8
 45
431.8
 46
0.0
 47
0.0
 48
0.0
 49
0.0
140
0.0
141
0.0
142
1.0
143
1.0
 70
0
 72
0
 73
0
 74
0
  7

 75
0
147
1.0
148
0.0
149
0.0
100
AcDbLayout
  1
Layout1
 70
0
 71
1
 10
0.0
 20
0.0
 11
22.0
 21
17.0
 12
0.0
 22
0.0
 32
0.0
 14
0.0
 24
0.0
 34
0.0
 15
0.0
 25
0.0
 35
0.0
146
0.0
 13
0.0
 23
0.0
 33
0.0
 16
1.0
 26
0.0
 36
0.0
 17
0.0
 27
1.0
 37
0.0
 76
0
330
217
345
0
346
0
  0
ENDSEC
  0
EOF