999
DXF file: _cgs_temp_output.dxf
999
Pro/ENGINEER 2016360 by Parametric Technology Corporation
  0
SECTION
  2
HEADER
  9
$ACADVER
  1
AC1021
  9
$DWGCODEPAGE
  3
ANSI_1252
  9
$EXTMAX
 10
22.0
 20
17.0
 30
0.0
  9
$EXTMIN
 10
0.0
 20
0.0
 30
0.0
  9
$LIMMIN
 10
0.0
 20
0.0
  9
$LIMMAX
 10
22.0
 20
17.0
  9
$VIEWCTR
 10
11.0
 20
8.5
  9
$VIEWSIZE
 40
17.0
  9
$CLAYER
  8
0
  9
$LTSCALE
 40
1.21
  9
$CELTYPE
  6
BYLAYER
  9
$DIMSCALE
 40
1.0
  9
$DIMASZ
 40
0.1875
  9
$DIMEXO
 40
0.0625
  9
$DIMDLI
 40
0.836
  9
$DIMEXE
 40
0.125
  9
$DIMCEN
 40
0.198
  9
$DIMLFAC
 40
1.0
  9
$DIMBLK
  1
_CLOSED
  9
$DIMALT
 70
0
  9
$DIMALTF
 40
25.4
  9
$DIMTXT
 40
0.15625
  9
$DIMTOL
 70
0
  9
$DIMLIM
 70
0
  9
$DIMTFAC
 40
1.0
  9
$DIMGAP
 40
0.09
  9
$DIMDSEP
 70
46
  9
$AUNITS
 70
0
  9
$PDMODE
 70
3
  9
$PDSIZE
 40
0.3125
  9
$HANDSEED
  5
49F
  9
$TILEMODE
 70
1
  9
$MEASUREMENT
 70
0
  9
$INSUNITS
 70
1
  0
ENDSEC
  0
SECTION
  2
CLASSES
  0
CLASS
  1
ACDBDICTIONARYWDFLT
  2
AcDbDictionaryWithDefault
  3
AutoCAD 2000
 90
0
 91
1
280
0
281
0
  0
CLASS
  1
ACDBPLACEHOLDER
  2
AcDbPlaceHolder
  3
AutoCAD 2000
 90
0
 91
1
280
0
281
0
  0
CLASS
  1
LAYOUT
  2
AcDbLayout
  3
AutoCAD 2000
 90
0
 91
0
280
0
281
0
  0
ENDSEC
  0
SECTION
  2
TABLES
  0
TABLE
  2
VPORT
  5
8
100
AcDbSymbolTable
 70
2
  0
VPORT
  5
1F4
100
AcDbSymbolTableRecord
100
AcDbViewportTableRecord
  2
*ACTIVE
 70
0
 10
0.0
 20
0.0
 11
1.0
 21
1.0
 12
11.0
 22
8.5
 13
0.0
 23
0.0
 14
1.0
 24
1.0
 15
0.0
 25
0.0
 16
0.0
 26
0.0
 36
1.0
 17
0.0
 27
0.0
 37
0.0
 40
17.0
 41
1.2941176471
 42
50.0
 43
0.0
 44
0.0
 50
0.0
 51
0.0
 71
0
 72
100
 73
1
 74
1
 75
0
 76
0
 77
0
 78
0
  0
ENDTAB
  0
TABLE
  2
LTYPE
  5
5
100
AcDbSymbolTable
 70
6
  0
LTYPE
  5
14
100
AcDbSymbolTableRecord
100
AcDbLinetypeTableRecord
  2
BYBLOCK
 70
0
  3

 72
65
 73
0
 40
0.0
  0
LTYPE
  5
15
100
AcDbSymbolTableRecord
100
AcDbLinetypeTableRecord
  2
BYLAYER
 70
0
  3

 72
65
 73
0
 40
0.0
  0
LTYPE
  5
16
100
AcDbSymbolTableRecord
100
AcDbLinetypeTableRecord
  2
CONTINUOUS
 70
64
  3
Solid line
 72
65
 73
0
 40
0.0
  0
LTYPE
  5
1F5
100
AcDbSymbolTableRecord
100
AcDbLinetypeTableRecord
  2
CENTER
 70
64
  3
____ _ ____ _ ____ _ ____ _ ____ _ ____ _ ____
 72
65
 73
4
 40
0.6
 49
0.375
 74
0
 49
-0.075
 74
0
 49
0.075
 74
0
 49
-0.075
 74
0
  0
LTYPE
  5
1F6
100
AcDbSymbolTableRecord
100
AcDbLinetypeTableRecord
  2
HIDDEN
 70
64
  3
- - - - - - - - - - - - - - - - - - - -
 72
65
 73
2
 40
0.2
 49
0.1
 74
0
 49
-0.1
 74
0
  0
LTYPE
  5
1F7
100
AcDbSymbolTableRecord
100
AcDbLinetypeTableRecord
  2
PHANTOM
 70
64
  3
_____ _ _ _____ _ _ _____ _ _ _____
 72
65
 73
6
 40
0.8
 49
0.45
 74
0
 49
-0.05
 74
0
 49
0.1
 74
0
 49
-0.05
 74
0
 49
0.1
 74
0
 49
-0.05
 74
0
  0
LTYPE
  5
1F8
100
AcDbSymbolTableRecord
100
AcDbLinetypeTableRecord
  2
DOT
 70
64
  3
. . . . . . . . . . . . . . . . . . . .
 72
65
 73
2
 40
0.2
 49
0.1
 74
0
 49
-0.1
 74
0
  0
LTYPE
  5
1F9
100
AcDbSymbolTableRecord
100
AcDbLinetypeTableRecord
  2
DASHED
 70
64
  3
- - - - - - - - - - - - - - - - - - - -
 72
65
 73
2
 40
0.2
 49
0.1
 74
0
 49
-0.1
 74
0
  0
ENDTAB
  0
TABLE
  2
LAYER
  5
2
100
AcDbSymbolTable
 70
36
  0
LAYER
  5
10
100
AcDbSymbolTableRecord
100
AcDbLayerTableRecord
  2
0
 70
0
 62
7
  6
CONTINUOUS
370
-3
390
F
  0
LAYER
  5
1FA
100
AcDbSymbolTableRecord
100
AcDbLayerTableRecord
  2
DEFAULT_1
 70
0
 62
7
  6
CENTER
370
-3
390
F
  0
LAYER
  5
1FB
100
AcDbSymbolTableRecord
100
AcDbLayerTableRecord
  2
DEFAULT_2
 70
0
 62
8
  6
HIDDEN
370
-3
390
F
  0
LAYER
  5
1FC
100
AcDbSymbolTableRecord
100
AcDbLayerTableRecord
  2
DEFAULT_3
 70
0
 62
7
  6
PHANTOM
370
-3
390
F
  0
LAYER
  5
1FD
100
AcDbSymbolTableRecord
100
AcDbLayerTableRecord
  2
01_ALL_DTM_PLN
 70
0
 62
7
  6
CONTINUOUS
370
-3
390
F
  0
LAYER
  5
1FE
100
AcDbSymbolTableRecord
100
AcDbLayerTableRecord
  2
01__ASM_ALL_DTM_PLN
 70
0
 62
7
  6
CONTINUOUS
370
-3
390
F
  0
LAYER
  5
1FF
100
AcDbSymbolTableRecord
100
AcDbLayerTableRecord
  2
01__ASM_DEF_DTM_PLN
 70
0
 62
7
  6
CONTINUOUS
370
-3
390
F
  0
LAYER
  5
200
100
AcDbSymbolTableRecord
100
AcDbLayerTableRecord
  2
01___PRT_ALL_DTM_PLN
 70
0
 62
7
  6
CONTINUOUS
370
-3
390
F
  0
LAYER
  5
201
100
AcDbSymbolTableRecord
100
AcDbLayerTableRecord
  2
01___PRT_DEF_DTM_PLN
 70
0
 62
7
  6
CONTINUOUS
370
-3
390
F
  0
LAYER
  5
202
100
AcDbSymbolTableRecord
100
AcDbLayerTableRecord
  2
02_ALL_AXES
 70
0
 62
7
  6
CONTINUOUS
370
-3
390
F
  0
LAYER
  5
203
100
AcDbSymbolTableRecord
100
AcDbLayerTableRecord
  2
02__ASM_ALL_AXES
 70
0
 62
7
  6
CONTINUOUS
370
-3
390
F
  0
LAYER
  5
204
100
AcDbSymbolTableRecord
100
AcDbLayerTableRecord
  2
02___PRT_ALL_AXES
 70
0
 62
7
  6
CONTINUOUS
370
-3
390
F
  0
LAYER
  5
205
100
AcDbSymbolTableRecord
100
AcDbLayerTableRecord
  2
03_ALL_CURVES
 70
0
 62
7
  6
CONTINUOUS
370
-3
390
F
  0
LAYER
  5
206
100
AcDbSymbolTableRecord
100
AcDbLayerTableRecord
  2
03__ASM_ALL_CURVES
 70
0
 62
7
  6
CONTINUOUS
370
-3
390
F
  0
LAYER
  5
207
100
AcDbSymbolTableRecord
100
AcDbLayerTableRecord
  2
03___PRT_ALL_CURVES
 70
0
 62
7
  6
CONTINUOUS
370
-3
390
F
  0
LAYER
  5
208
100
AcDbSymbolTableRecord
100
AcDbLayerTableRecord
  2
04_ALL_DTM_PNT
 70
0
 62
7
  6
CONTINUOUS
370
-3
390
F
  0
LAYER
  5
209
100
AcDbSymbolTableRecord
100
AcDbLayerTableRecord
  2
04__ASM_ALL_DTM_PNT
 70
0
 62
7
  6
CONTINUOUS
370
-3
390
F
  0
LAYER
  5
20A
100
AcDbSymbolTableRecord
100
AcDbLayerTableRecord
  2
04___PRT_ALL_DTM_PNT
 70
0
 62
7
  6
CONTINUOUS
370
-3
390
F
  0
LAYER
  5
20B
100
AcDbSymbolTableRecord
100
AcDbLayerTableRecord
  2
05_ALL_DTM_CSYS
 70
0
 62
7
  6
CONTINUOUS
370
-3
390
F
  0
LAYER
  5
20C
100
AcDbSymbolTableRecord
100
AcDbLayerTableRecord
  2
05__ASM_ALL_DTM_CSYS
 70
0
 62
7
  6
CONTINUOUS
370
-3
390
F
  0
LAYER
  5
20D
100
AcDbSymbolTableRecord
100
AcDbLayerTableRecord
  2
05__ASM_DEF_DTM_CSYS
 70
0
 62
7
  6
CONTINUOUS
370
-3
390
F
  0
LAYER
  5
20E
100
AcDbSymbolTableRecord
100
AcDbLayerTableRecord
  2
05___PRT_ALL_DTM_CSYS
 70
0
 62
7
  6
CONTINUOUS
370
-3
390
F
  0
LAYER
  5
20F
100
AcDbSymbolTableRecord
100
AcDbLayerTableRecord
  2
05___PRT_DEF_DTM_CSYS
 70
0
 62
7
  6
CONTINUOUS
370
-3
390
F
  0
LAYER
  5
210
100
AcDbSymbolTableRecord
100
AcDbLayerTableRecord
  2
06_ALL_SURFS
 70
0
 62
7
  6
CONTINUOUS
370
-3
390
F
  0
LAYER
  5
211
100
AcDbSymbolTableRecord
100
AcDbLayerTableRecord
  2
06__ASM_ALL_SURFS
 70
0
 62
7
  6
CONTINUOUS
370
-3
390
F
  0
LAYER
  5
212
100
AcDbSymbolTableRecord
100
AcDbLayerTableRecord
  2
06___PRT_ALL_SURFS
 70
0
 62
7
  6
CONTINUOUS
370
-3
390
F
  0
LAYER
  5
213
100
AcDbSymbolTableRecord
100
AcDbLayerTableRecord
  2
07__ASM_ALL_SKELETONS
 70
0
 62
7
  6
CONTINUOUS
370
-3
390
F
  0
LAYER
  5
214
100
AcDbSymbolTableRecord
100
AcDbLayerTableRecord
  2
ASM0001
 70
0
 62
7
  6
CONTINUOUS
370
-3
390
F
  0
LAYER
  5
215
100
AcDbSymbolTableRecord
100
AcDbLayerTableRecord
  2
COLOR2
 70
0
 62
7
  6
CONTINUOUS
370
-3
390
F
  0
LAYER
  5
216
100
AcDbSymbolTableRecord
100
AcDbLayerTableRecord
  2
NONE
 70
0
 62
7
  6
CONTINUOUS
370
-3
390
F
  0
LAYER
  5
217
100
AcDbSymbolTableRecord
100
AcDbLayerTableRecord
  2
NONE_1
 70
0
 62
7
  6
CONTINUOUS
370
-3
390
F
  0
LAYER
  5
218
100
AcDbSymbolTableRecord
100
AcDbLayerTableRecord
  2
NONE_10
 70
0
 62
7
  6
CONTINUOUS
370
-3
390
F
  0
LAYER
  5
219
100
AcDbSymbolTableRecord
100
AcDbLayerTableRecord
  2
NONE_11
 70
0
 62
7
  6
CONTINUOUS
370
-3
390
F
  0
LAYER
  5
21A
100
AcDbSymbolTableRecord
100
AcDbLayerTableRecord
  2
NONE_2
 70
0
 62
7
  6
CONTINUOUS
370
-3
390
F
  0
LAYER
  5
21B
100
AcDbSymbolTableRecord
100
AcDbLayerTableRecord
  2
NONE_3
 70
0
 62
7
  6
CONTINUOUS
370
-3
390
F
  0
LAYER
  5
21C
100
AcDbSymbolTableRecord
100
AcDbLayerTableRecord
  2
NONE_4
 70
0
 62
7
  6
CONTINUOUS
370
-3
390
F
  0
LAYER
  5
21D
100
AcDbSymbolTableRecord
100
AcDbLayerTableRecord
  2
NONE_5
 70
0
 62
7
  6
CONTINUOUS
370
-3
390
F
  0
LAYER
  5
21E
100
AcDbSymbolTableRecord
100
AcDbLayerTableRecord
  2
NONE_6
 70
0
 62
7
  6
CONTINUOUS
370
-3
390
F
  0
LAYER
  5
21F
100
AcDbSymbolTableRecord
100
AcDbLayerTableRecord
  2
NONE_7
 70
0
 62
7
  6
CONTINUOUS
370
-3
390
F
  0
LAYER
  5
220
100
AcDbSymbolTableRecord
100
AcDbLayerTableRecord
  2
NONE_8
 70
0
 62
7
  6
CONTINUOUS
370
-3
390
F
  0
LAYER
  5
221
100
AcDbSymbolTableRecord
100
AcDbLayerTableRecord
  2
NONE_9
 70
0
 62
7
  6
CONTINUOUS
370
-3
390
F
  0
LAYER
  5
222
100
AcDbSymbolTableRecord
100
AcDbLayerTableRecord
  2
_10204
 70
0
 62
7
  6
CONTINUOUS
370
-3
390
F
  0
LAYER
  5
223
100
AcDbSymbolTableRecord
100
AcDbLayerTableRecord
  2
_10204_1
 70
0
 62
7
  6
CONTINUOUS
370
-3
390
F
  0
LAYER
  5
224
100
AcDbSymbolTableRecord
100
AcDbLayerTableRecord
  2
_10615
 70
0
 62
7
  6
CONTINUOUS
370
-3
390
F
  0
LAYER
  5
225
100
AcDbSymbolTableRecord
100
AcDbLayerTableRecord
  2
_10615_1
 70
0
 62
7
  6
CONTINUOUS
370
-3
390
F
  0
LAYER
  5
226
100
AcDbSymbolTableRecord
100
AcDbLayerTableRecord
  2
_10638
 70
0
 62
7
  6
CONTINUOUS
370
-3
390
F
  0
LAYER
  5
227
100
AcDbSymbolTableRecord
100
AcDbLayerTableRecord
  2
_10638_1
 70
0
 62
7
  6
CONTINUOUS
370
-3
390
F
  0
LAYER
  5
228
100
AcDbSymbolTableRecord
100
AcDbLayerTableRecord
  2
_10693
 70
0
 62
7
  6
CONTINUOUS
370
-3
390
F
  0
LAYER
  5
229
100
AcDbSymbolTableRecord
100
AcDbLayerTableRecord
  2
_10693_1
 70
0
 62
7
  6
CONTINUOUS
370
-3
390
F
  0
LAYER
  5
22A
100
AcDbSymbolTableRecord
100
AcDbLayerTableRecord
  2
_10846
 70
0
 62
7
  6
CONTINUOUS
370
-3
390
F
  0
LAYER
  5
22B
100
AcDbSymbolTableRecord
100
AcDbLayerTableRecord
  2
_10846_1
 70
0
 62
7
  6
CONTINUOUS
370
-3
390
F
  0
LAYER
  5
22C
100
AcDbSymbolTableRecord
100
AcDbLayerTableRecord
  2
_10988
 70
0
 62
7
  6
CONTINUOUS
370
-3
390
F
  0
LAYER
  5
22D
100
AcDbSymbolTableRecord
100
AcDbLayerTableRecord
  2
_10988_1
 70
0
 62
7
  6
CONTINUOUS
370
-3
390
F
  0
LAYER
  5
22E
100
AcDbSymbolTableRecord
100
AcDbLayerTableRecord
  2
_11855
 70
0
 62
7
  6
CONTINUOUS
370
-3
390
F
  0
LAYER
  5
22F
100
AcDbSymbolTableRecord
100
AcDbLayerTableRecord
  2
_11855_1
 70
0
 62
7
  6
CONTINUOUS
370
-3
390
F
  0
LAYER
  5
230
100
AcDbSymbolTableRecord
100
AcDbLayerTableRecord
  2
_11983
 70
0
 62
7
  6
CONTINUOUS
370
-3
390
F
  0
LAYER
  5
231
100
AcDbSymbolTableRecord
100
AcDbLayerTableRecord
  2
_11983_1
 70
0
 62
7
  6
CONTINUOUS
370
-3
390
F
  0
LAYER
  5
232
100
AcDbSymbolTableRecord
100
AcDbLayerTableRecord
  2
_12612
 70
0
 62
7
  6
CONTINUOUS
370
-3
390
F
  0
LAYER
  5
233
100
AcDbSymbolTableRecord
100
AcDbLayerTableRecord
  2
_12612_1
 70
0
 62
7
  6
CONTINUOUS
370
-3
390
F
  0
LAYER
  5
234
100
AcDbSymbolTableRecord
100
AcDbLayerTableRecord
  2
_14314
 70
0
 62
7
  6
CONTINUOUS
370
-3
390
F
  0
LAYER
  5
235
100
AcDbSymbolTableRecord
100
AcDbLayerTableRecord
  2
_14314_1
 70
0
 62
7
  6
CONTINUOUS
370
-3
390
F
  0
LAYER
  5
236
100
AcDbSymbolTableRecord
100
AcDbLayerTableRecord
  2
_1442
 70
0
 62
7
  6
CONTINUOUS
370
-3
390
F
  0
LAYER
  5
237
100
AcDbSymbolTableRecord
100
AcDbLayerTableRecord
  2
_14429
 70
0
 62
7
  6
CONTINUOUS
370
-3
390
F
  0
LAYER
  5
238
100
AcDbSymbolTableRecord
100
AcDbLayerTableRecord
  2
_14429_1
 70
0
 62
7
  6
CONTINUOUS
370
-3
390
F
  0
LAYER
  5
239
100
AcDbSymbolTableRecord
100
AcDbLayerTableRecord
  2
_1442_1
 70
0
 62
7
  6
CONTINUOUS
370
-3
390
F
  0
LAYER
  5
23A
100
AcDbSymbolTableRecord
100
AcDbLayerTableRecord
  2
_1451
 70
0
 62
7
  6
CONTINUOUS
370
-3
390
F
  0
LAYER
  5
23B
100
AcDbSymbolTableRecord
100
AcDbLayerTableRecord
  2
_1451_1
 70
0
 62
7
  6
CONTINUOUS
370
-3
390
F
  0
LAYER
  5
23C
100
AcDbSymbolTableRecord
100
AcDbLayerTableRecord
  2
_1868
 70
0
 62
7
  6
CONTINUOUS
370
-3
390
F
  0
LAYER
  5
23D
100
AcDbSymbolTableRecord
100
AcDbLayerTableRecord
  2
_1868_1
 70
0
 62
7
  6
CONTINUOUS
370
-3
390
F
  0
LAYER
  5
23E
100
AcDbSymbolTableRecord
100
AcDbLayerTableRecord
  2
_1975
 70
0
 62
7
  6
CONTINUOUS
370
-3
390
F
  0
LAYER
  5
23F
100
AcDbSymbolTableRecord
100
AcDbLayerTableRecord
  2
_1975_1
 70
0
 62
7
  6
CONTINUOUS
370
-3
390
F
  0
LAYER
  5
240
100
AcDbSymbolTableRecord
100
AcDbLayerTableRecord
  2
_2050
 70
0
 62
7
  6
CONTINUOUS
370
-3
390
F
  0
LAYER
  5
241
100
AcDbSymbolTableRecord
100
AcDbLayerTableRecord
  2
_2050_1
 70
0
 62
7
  6
CONTINUOUS
370
-3
390
F
  0
LAYER
  5
242
100
AcDbSymbolTableRecord
100
AcDbLayerTableRecord
  2
_3305
 70
0
 62
7
  6
CONTINUOUS
370
-3
390
F
  0
LAYER
  5
243
100
AcDbSymbolTableRecord
100
AcDbLayerTableRecord
  2
_3305_1
 70
0
 62
7
  6
CONTINUOUS
370
-3
390
F
  0
LAYER
  5
244
100
AcDbSymbolTableRecord
100
AcDbLayerTableRecord
  2
_5357
 70
0
 62
7
  6
CONTINUOUS
370
-3
390
F
  0
LAYER
  5
245
100
AcDbSymbolTableRecord
100
AcDbLayerTableRecord
  2
_5357_1
 70
0
 62
7
  6
CONTINUOUS
370
-3
390
F
  0
LAYER
  5
246
100
AcDbSymbolTableRecord
100
AcDbLayerTableRecord
  2
_5833
 70
0
 62
7
  6
CONTINUOUS
370
-3
390
F
  0
LAYER
  5
247
100
AcDbSymbolTableRecord
100
AcDbLayerTableRecord
  2
_5833_1
 70
0
 62
7
  6
CONTINUOUS
370
-3
390
F
  0
LAYER
  5
248
100
AcDbSymbolTableRecord
100
AcDbLayerTableRecord
  2
_9908
 70
0
 62
7
  6
CONTINUOUS
370
-3
390
F
  0
LAYER
  5
249
100
AcDbSymbolTableRecord
100
AcDbLayerTableRecord
  2
_9908_1
 70
0
 62
7
  6
CONTINUOUS
370
-3
390
F
  0
LAYER
  5
24A
100
AcDbSymbolTableRecord
100
AcDbLayerTableRecord
  2
___SHELL
 70
0
 62
7
  6
CONTINUOUS
370
-3
390
F
  0
ENDTAB
  0
TABLE
  2
STYLE
  5
3
100
AcDbSymbolTable
 70
1
  0
STYLE
  5
11
100
AcDbSymbolTableRecord
100
AcDbTextStyleTableRecord
  2
STANDARD
 70
0
 40
0.0
 41
0.8
 50
0.0
 71
0
 42
0.2
  3
txt
  4

  0
STYLE
  5
24B
100
AcDbSymbolTableRecord
100
AcDbTextStyleTableRecord
  2
TEXTSTYLE_1
 70
0
 40
0.0
 41
0.8
 50
0.0
 71
0
 42
0.2
  3
gdt
  4

  0
ENDTAB
  0
TABLE
  2
VIEW
  5
6
100
AcDbSymbolTable
 70
0
  0
ENDTAB
  0
TABLE
  2
UCS
  5
7
100
AcDbSymbolTable
 70
0
  0
ENDTAB
  0
TABLE
  2
APPID
  5
9
100
AcDbSymbolTable
 70
1
  0
APPID
  5
24C
100
AcDbSymbolTableRecord
100
AcDbRegAppTableRecord
  2
ACAD
 70
0
  0
ENDTAB
  0
TABLE
  2
BLOCK_RECORD
  5
1
100
AcDbSymbolTable
 70
0
  0
BLOCK_RECORD
  5
24D
100
AcDbSymbolTableRecord
100
AcDbBlockTableRecord
  2
*Model_Space
  0
BLOCK_RECORD
  5
24E
100
AcDbSymbolTableRecord
100
AcDbBlockTableRecord
  2
*Paper_Space
  0
ENDTAB
  0
TABLE
  2
DIMSTYLE
  5
A
100
AcDbSymbolTable
 70
1
100
AcDbDimStyleTable
 71
0
  0
DIMSTYLE
105
24F
100
AcDbSymbolTableRecord
100
AcDbDimStyleTableRecord
  2
STANDARD
 70
0
  3

  4

 40
1.0
 41
0.1875
 42
0.0625
 43
0.38
 44
0.125
 45
0.0
 46
0.0
 47
0.0001
 48
0.0001
140
0.15625
141
0.09
142
0.0
143
25.4
144
1.0
145
0.0
146
1.0
147
0.09
 71
0.0
 72
0.0
 73
1
 74
1
 75
0
 76
0
 77
0
 78
4
 79
1
170
0
171
3
172
0
173
0
174
0
175
0
176
0
177
0
178
0
270
2
179
4
271
4
272
4
273
2
274
2
275
0
280
0
281
0
282
0
283
1
284
4
285
0
286
0
287
3
288
0
340
11
278
46
  0
ENDTAB
  0
ENDSEC
  0
SECTION
  2
BLOCKS
  0
BLOCK
  5
20
100
AcDbEntity
  8
0
100
AcDbBlockBegin
  2
*Model_Space
 70
0
 10
0.0
 20
0.0
 30
0.0
  3
*Model_Space
  1

  0
ENDBLK
  5
21
100
AcDbEntity
  8
0
100
AcDbBlockEnd
  0
BLOCK
  5
1C
100
AcDbEntity
  8
0
100
AcDbBlockBegin
  2
*Paper_Space
 70
0
 10
0.0
 20
0.0
 30
0.0
  3
*Paper_Space
  1

  0
ENDBLK
  5
1D
100
AcDbEntity
  8
0
100
AcDbBlockEnd
  0
ENDSEC
  0
SECTION
  2
ENTITIES
  0
MTEXT
  5
250
100
AcDbEntity
  8
0
100
AcDbMText
 62
7
  6
CONTINUOUS
  7
STANDARD
 71
1
 72
1
 10
15.9560215477
 20
0.9479130325
 30
0.0
 11
1.0
 21
0.0
 31
0.0
 44
0.9
  1
SCALE: 1:0.500
 40
0.3
 41
3.36
  0
LINE
  5
251
100
AcDbEntity
  8
0
100
AcDbLine
 62
7
  6
CONTINUOUS
 10
0.0
 20
0.0
 11
0.0
 21
17.0
  0
LINE
  5
252
100
AcDbEntity
  8
0
100
AcDbLine
 62
7
  6
CONTINUOUS
 10
0.0
 20
0.0
 11
22.0
 21
0.0
  0
LINE
  5
253
100
AcDbEntity
  8
0
100
AcDbLine
 62
7
  6
CONTINUOUS
 10
0.0
 20
17.0
 11
22.0
 21
17.0
  0
LINE
  5
254
100
AcDbEntity
  8
0
100
AcDbLine
 62
7
  6
CONTINUOUS
 10
22.0
 20
0.0
 11
22.0
 21
17.0
  0
LINE
  5
255
100
AcDbEntity
  8
0
100
AcDbLine
 62
7
  6
CONTINUOUS
 10
3.5209922762
 20
3.9107448968
 11
3.5209922762
 21
4.9482448968
  0
LINE
  5
256
100
AcDbEntity
  8
0
100
AcDbLine
 62
7
  6
CONTINUOUS
 10
3.5959922762
 20
5.0232448968
 11
3.5959922762
 21
4.9732448968
  0
LINE
  5
257
100
AcDbEntity
  8
0
100
AcDbLine
 62
7
  6
CONTINUOUS
 10
8.7397422762
 20
3.9107448968
 11
3.5209922762
 21
3.9107448968
  0
LINE
  5
258
100
AcDbEntity
  8
0
100
AcDbLine
 62
7
  6
CONTINUOUS
 10
4.3296744429
 20
4.9732448968
 11
4.3488576176
 21
4.9482448968
  0
LINE
  5
259
100
AcDbEntity
  8
0
100
AcDbLine
 62
7
  6
CONTINUOUS
 10
4.3296744429
 20
4.9732448968
 11
4.5909229905
 21
5.9482377499
  0
LINE
  5
25A
100
AcDbEntity
  8
0
100
AcDbLine
 62
7
  6
CONTINUOUS
 10
6.0248100612
 20
6.5513698968
 11
6.0153751143
 21
6.5427075934
  0
LINE
  5
25B
100
AcDbEntity
  8
0
100
AcDbLine
 62
7
  6
CONTINUOUS
 10
8.7147422762
 20
4.9732448968
 11
7.9310601094
 21
4.9732448968
  0
LINE
  5
25C
100
AcDbEntity
  8
0
100
AcDbLine
 62
7
  6
CONTINUOUS
 10
4.3296744429
 20
4.9732448968
 11
3.5459922762
 21
4.9732448968
  0
LINE
  5
25D
100
AcDbEntity
  8
0
100
AcDbLine
 62
7
  6
CONTINUOUS
 10
4.3464212674
 20
5.0357448968
 11
3.6084922762
 21
5.0357448968
  0
LINE
  5
25E
100
AcDbEntity
  8
0
100
AcDbLine
 62
7
  6
CONTINUOUS
 10
7.9143132849
 20
5.0357448968
 11
8.6522422762
 21
5.0357448968
  0
LINE
  5
25F
100
AcDbEntity
  8
0
100
AcDbLine
 62
7
  6
CONTINUOUS
 10
7.1042300906
 20
6.8157849474
 11
7.1946788284
 21
6.9062336852
  0
LINE
  5
260
100
AcDbEntity
  8
0
100
AcDbLine
 62
7
  6
CONTINUOUS
 10
6.0803672762
 20
6.764906176
 11
6.0803672762
 21
6.5901850992
  0
LINE
  5
261
100
AcDbEntity
  8
0
100
AcDbLine
 62
7
  6
CONTINUOUS
 10
6.0803672762
 20
4.3065836175
 11
6.0803672762
 21
4.4813046943
  0
LINE
  5
262
100
AcDbEntity
  8
0
100
AcDbLine
 62
7
  6
CONTINUOUS
 10
6.7016466456
 20
6.6252297899
 11
6.6142861072
 21
6.4739168989
  0
LINE
  5
263
100
AcDbEntity
  8
0
100
AcDbLine
 62
7
  6
CONTINUOUS
 10
5.5598459047
 20
4.6475728946
 11
5.4724853664
 21
4.4962600036
  0
LINE
  5
264
100
AcDbEntity
  8
0
100
AcDbLine
 62
7
  6
CONTINUOUS
 10
7.2822690881
 20
6.8423263171
 11
7.3046064747
 21
6.8646637036
  0
LINE
  5
265
100
AcDbEntity
  8
0
100
AcDbLine
 62
7
  6
CONTINUOUS
 10
7.1807743996
 20
6.7392406383
 11
7.2712231374
 21
6.8296893761
  0
LINE
  5
266
100
AcDbEntity
  8
0
100
AcDbLine
 62
7
  6
CONTINUOUS
 10
7.1843874686
 20
6.7311864455
 11
7.1866433859
 21
6.7334423627
  0
LINE
  5
267
100
AcDbEntity
  8
0
100
AcDbLine
 62
7
  6
CONTINUOUS
 10
7.3819462789
 20
6.7873238995
 11
7.3596088923
 21
6.7649865129
  0
LINE
  5
268
100
AcDbEntity
  8
0
100
AcDbLine
 62
7
  6
CONTINUOUS
 10
7.1698521693
 20
6.1936268066
 11
7.0185392783
 21
6.1062662682
  0
LINE
  5
269
100
AcDbEntity
  8
0
100
AcDbLine
 62
7
  6
CONTINUOUS
 10
5.192195274
 20
5.0518260657
 11
5.040882383
 21
4.9644655273
  0
LINE
  5
26A
100
AcDbEntity
  8
0
100
AcDbLine
 62
7
  6
CONTINUOUS
 10
7.3595285554
 20
5.4857448968
 11
7.1848074787
 21
5.4857448968
  0
LINE
  5
26B
100
AcDbEntity
  8
0
100
AcDbLine
 62
7
  6
CONTINUOUS
 10
4.9012059969
 20
5.4857448968
 11
5.0759270737
 21
5.4857448968
  0
LINE
  5
26C
100
AcDbEntity
  8
0
100
AcDbLine
 62
7
  6
CONTINUOUS
 10
5.040882383
 20
6.1070242662
 11
5.192195274
 21
6.0196637278
  0
LINE
  5
26D
100
AcDbEntity
  8
0
100
AcDbLine
 62
7
  6
CONTINUOUS
 10
7.0185392783
 20
4.9652235253
 11
7.1698521693
 21
4.8778629869
  0
LINE
  5
26E
100
AcDbEntity
  8
0
100
AcDbLine
 62
7
  6
CONTINUOUS
 10
5.4724853664
 20
6.5752297899
 11
5.5598459047
 21
6.4239168989
  0
LINE
  5
26F
100
AcDbEntity
  8
0
100
AcDbLine
 62
7
  6
CONTINUOUS
 10
6.6142861072
 20
4.5975728946
 11
6.7016466456
 21
4.4462600036
  0
LINE
  5
270
100
AcDbEntity
  8
0
100
AcDbLine
 62
7
  6
CONTINUOUS
 10
6.1803672762
 20
6.764906176
 11
6.1803672762
 21
6.5901850992
  0
LINE
  5
271
100
AcDbEntity
  8
0
100
AcDbLine
 62
7
  6
CONTINUOUS
 10
6.1803672762
 20
4.3065836175
 11
6.1803672762
 21
4.4813046943
  0
LINE
  5
272
100
AcDbEntity
  8
0
100
AcDbLine
 62
7
  6
CONTINUOUS
 10
5.5590879067
 20
4.4462600036
 11
5.6464484451
 21
4.5975728946
  0
LINE
  5
273
100
AcDbEntity
  8
0
100
AcDbLine
 62
7
  6
CONTINUOUS
 10
6.7008886476
 20
6.4239168989
 11
6.788249186
 21
6.5752297899
  0
LINE
  5
274
100
AcDbEntity
  8
0
100
AcDbLine
 62
7
  6
CONTINUOUS
 10
7.3258088249
 20
6.5897650892
 11
7.3280647421
 21
6.5920210065
  0
LINE
  5
275
100
AcDbEntity
  8
0
100
AcDbLine
 62
7
  6
CONTINUOUS
 10
7.4243117556
 20
6.676600758
 11
7.3338630177
 21
6.5861520202
  0
LINE
  5
276
100
AcDbEntity
  8
0
100
AcDbLine
 62
7
  6
CONTINUOUS
 10
7.4592860831
 20
6.7099840953
 11
7.4369486965
 21
6.6876467087
  0
LINE
  5
277
100
AcDbEntity
  8
0
100
AcDbLine
 62
7
  6
CONTINUOUS
 10
7.4104073268
 20
6.5096077111
 11
7.5008560646
 21
6.600056449
  0
LINE
  5
278
100
AcDbEntity
  8
0
100
AcDbLine
 62
7
  6
CONTINUOUS
 10
5.090882383
 20
4.8778629869
 11
5.242195274
 21
4.9652235253
  0
LINE
  5
279
100
AcDbEntity
  8
0
100
AcDbLine
 62
7
  6
CONTINUOUS
 10
7.0685392783
 20
6.0196637278
 11
7.2198521693
 21
6.1070242662
  0
LINE
  5
27A
100
AcDbEntity
  8
0
100
AcDbLine
 62
7
  6
CONTINUOUS
 10
4.9012059969
 20
5.5857448968
 11
5.0759270737
 21
5.5857448968
  0
LINE
  5
27B
100
AcDbEntity
  8
0
100
AcDbLine
 62
7
  6
CONTINUOUS
 10
7.1848074787
 20
5.5857448968
 11
7.3595285554
 21
5.5857448968
  0
LINE
  5
27C
100
AcDbEntity
  8
0
100
AcDbLine
 62
7
  6
CONTINUOUS
 10
7.2198521693
 20
4.9644655273
 11
7.0685392783
 21
5.0518260657
  0
LINE
  5
27D
100
AcDbEntity
  8
0
100
AcDbLine
 62
7
  6
CONTINUOUS
 10
5.242195274
 20
6.1062662682
 11
5.090882383
 21
6.1936268066
  0
LINE
  5
27E
100
AcDbEntity
  8
0
100
AcDbLine
 62
7
  6
CONTINUOUS
 10
6.788249186
 20
4.4962600036
 11
6.7008886476
 21
4.6475728946
  0
LINE
  5
27F
100
AcDbEntity
  8
0
100
AcDbLine
 62
7
  6
CONTINUOUS
 10
5.6464484451
 20
6.4739168989
 11
5.5590879067
 21
6.6252297899
  0
LINE
  5
280
100
AcDbEntity
  8
0
100
AcDbLine
 62
7
  6
CONTINUOUS
 10
7.1459922762
 20
5.4301876818
 11
7.1363778189
 21
5.4197156525
  0
LINE
  5
281
100
AcDbEntity
  8
0
100
AcDbLine
 62
7
  6
CONTINUOUS
 10
6.2359244912
 20
6.5513698968
 11
6.2453594381
 21
6.5427075934
  0
LINE
  5
282
100
AcDbEntity
  8
0
100
AcDbLine
 62
7
  6
CONTINUOUS
 10
7.1459922762
 20
5.6413021118
 11
7.1363778189
 21
5.651774141
  0
LINE
  5
283
100
AcDbEntity
  8
0
100
AcDbLine
 62
7
  6
CONTINUOUS
 10
7.1459922762
 20
5.430201787
 11
7.1459922762
 21
5.6412880065
  0
LINE
  5
284
100
AcDbEntity
  8
0
100
AcDbLine
 62
7
  6
CONTINUOUS
 10
6.2359103859
 20
6.5513698968
 11
6.0248241664
 21
6.5513698968
  0
LINE
  5
285
100
AcDbEntity
  8
0
100
AcDbLine
 62
7
  6
CONTINUOUS
 10
7.22703026
 20
6.8975651452
 11
7.1946788284
 21
6.9062336852
  0
LINE
  5
286
100
AcDbEntity
  8
0
100
AcDbLine
 62
7
  6
CONTINUOUS
 10
7.4104073268
 20
6.5096077111
 11
7.1042300906
 21
6.8157849474
  0
LINE
  5
287
100
AcDbEntity
  8
0
100
AcDbLine
 62
7
  6
CONTINUOUS
 10
7.9310601094
 20
4.9732448968
 11
7.6698115618
 21
5.9482377499
  0
LINE
  5
288
100
AcDbEntity
  8
0
100
AcDbLine
 62
7
  6
CONTINUOUS
 10
7.4921875246
 20
6.6324078806
 11
7.5008560646
 21
6.600056449
  0
LINE
  5
289
100
AcDbEntity
  8
0
100
AcDbLine
 62
7
  6
CONTINUOUS
 10
7.9310601094
 20
4.9732448968
 11
7.9118769347
 21
4.9482448968
  0
LINE
  5
28A
100
AcDbEntity
  8
0
100
AcDbLine
 62
7
  6
CONTINUOUS
 10
7.4921875246
 20
6.6324078806
 11
7.2270362736
 21
6.8975591316
  0
LINE
  5
28B
100
AcDbEntity
  8
0
100
AcDbLine
 62
7
  6
CONTINUOUS
 10
7.4592860831
 20
6.7099840953
 11
7.3046064747
 21
6.8646637036
  0
LINE
  5
28C
100
AcDbEntity
  8
0
100
AcDbLine
 62
7
  6
CONTINUOUS
 10
7.5067952512
 20
6.8768175327
 11
7.4714399121
 21
6.9121728718
  0
LINE
  5
28D
100
AcDbEntity
  8
0
100
AcDbLine
 62
7
  6
CONTINUOUS
 10
8.6647422762
 20
5.0232448968
 11
8.6647422762
 21
4.9732448968
  0
LINE
  5
28E
100
AcDbEntity
  8
0
100
AcDbLine
 62
7
  6
CONTINUOUS
 10
8.7397422762
 20
3.9107448968
 11
8.7397422762
 21
4.9482448968
  0
LINE
  5
28F
100
AcDbEntity
  8
0
100
AcDbLine
 62
7
  6
CONTINUOUS
 10
3.4614970839
 20
12.0141102814
 11
3.4614970839
 21
13.6078602814
  0
LINE
  5
290
100
AcDbEntity
  8
0
100
AcDbLine
 62
7
  6
CONTINUOUS
 10
4.2701792506
 20
13.5828602814
 11
4.2701792506
 21
13.1484852814
  0
LINE
  5
291
100
AcDbEntity
  8
0
100
AcDbLine
 62
7
  6
CONTINUOUS
 10
4.2701792506
 20
12.4734852814
 11
4.2701792506
 21
12.0391102814
  0
LINE
  5
292
100
AcDbEntity
  8
0
100
AcDbLine
 62
7
  6
CONTINUOUS
 10
4.2869260751
 20
12.4734852814
 11
4.2869260751
 21
12.4859852814
  0
LINE
  5
293
100
AcDbEntity
  8
0
100
AcDbLine
 62
7
  6
CONTINUOUS
 10
4.2869260751
 20
13.1359852814
 11
4.2869260751
 21
13.1484852814
  0
LINE
  5
294
100
AcDbEntity
  8
0
100
AcDbLine
 62
7
  6
CONTINUOUS
 10
3.4864970839
 20
12.0391102814
 11
3.4614970839
 21
12.0141102814
  0
LINE
  5
295
100
AcDbEntity
  8
0
100
AcDbLine
 62
7
  6
CONTINUOUS
 10
5.0802470839
 20
11.5922352814
 11
5.0552470839
 21
11.6172352814
  0
LINE
  5
296
100
AcDbEntity
  8
0
100
AcDbLine
 62
7
  6
CONTINUOUS
 10
3.4864970839
 20
13.5828602814
 11
3.4614970839
 21
13.6078602814
  0
LINE
  5
297
100
AcDbEntity
  8
0
100
AcDbLine
 62
7
  6
CONTINUOUS
 10
5.0552470839
 20
12.0041102814
 11
5.0552470839
 21
11.6172352814
  0
LINE
  5
298
100
AcDbEntity
  8
0
100
AcDbLine
 62
7
  6
CONTINUOUS
 10
5.0802470839
 20
11.5922352814
 11
7.0614970839
 21
11.5922352814
  0
LINE
  5
299
100
AcDbEntity
  8
0
100
AcDbLine
 62
7
  6
CONTINUOUS
 10
5.0552470839
 20
11.6172352814
 11
7.0864970839
 21
11.6172352814
  0
LINE
  5
29A
100
AcDbEntity
  8
0
100
AcDbLine
 62
7
  6
CONTINUOUS
 10
5.2739970839
 20
12.0141102814
 11
5.2739970839
 21
12.0041102814
  0
LINE
  5
29B
100
AcDbEntity
  8
0
100
AcDbLine
 62
7
  6
CONTINUOUS
 10
5.9903148689
 20
11.7516630516
 11
6.0708720839
 21
11.7051533218
  0
LINE
  5
29C
100
AcDbEntity
  8
0
100
AcDbLine
 62
7
  6
CONTINUOUS
 10
7.0864970839
 20
12.0041102814
 11
5.0552470839
 21
12.0041102814
  0
LINE
  5
29D
100
AcDbEntity
  8
0
100
AcDbLine
 62
7
  6
CONTINUOUS
 10
3.4614970839
 20
12.0141102814
 11
8.6802470839
 21
12.0141102814
  0
LINE
  5
29E
100
AcDbEntity
  8
0
100
AcDbLine
 62
7
  6
CONTINUOUS
 10
6.1514292989
 20
11.8446825111
 11
6.0708720839
 21
11.8911922409
  0
LINE
  5
29F
100
AcDbEntity
  8
0
100
AcDbLine
 62
7
  6
CONTINUOUS
 10
5.9903148689
 20
11.7516630516
 11
5.9903148689
 21
11.8446825111
  0
LINE
  5
2A0
100
AcDbEntity
  8
0
100
AcDbLine
 62
7
  6
CONTINUOUS
 10
7.8548180926
 20
12.4734852814
 11
7.8271220839
 21
12.4734852814
  0
LINE
  5
2A1
100
AcDbEntity
  8
0
100
AcDbLine
 62
7
  6
CONTINUOUS
 10
4.3146220839
 20
12.4734852814
 11
4.2869260751
 21
12.4734852814
  0
LINE
  5
2A2
100
AcDbEntity
  8
0
100
AcDbLine
 62
7
  6
CONTINUOUS
 10
4.2835767102
 20
12.4734852814
 11
3.8739970839
 21
12.4734852814
  0
LINE
  5
2A3
100
AcDbEntity
  8
0
100
AcDbLine
 62
7
  6
CONTINUOUS
 10
7.8581674575
 20
12.4734852814
 11
8.2677470839
 21
12.4734852814
  0
LINE
  5
2A4
100
AcDbEntity
  8
0
100
AcDbLine
 62
7
  6
CONTINUOUS
 10
8.1802470839
 20
12.6234852814
 11
8.0239970839
 21
12.6234852814
  0
LINE
  5
2A5
100
AcDbEntity
  8
0
100
AcDbLine
 62
7
  6
CONTINUOUS
 10
4.1177470839
 20
12.6234852814
 11
3.9614970839
 21
12.6234852814
  0
LINE
  5
2A6
100
AcDbEntity
  8
0
100
AcDbLine
 62
7
  6
CONTINUOUS
 10
7.1212792073
 20
12.6234907814
 11
7.3648165633
 21
12.6234907814
  0
LINE
  5
2A7
100
AcDbEntity
  8
0
100
AcDbLine
 62
7
  6
CONTINUOUS
 10
6.1514292989
 20
11.8446825111
 11
6.1514292989
 21
11.7516630516
  0
LINE
  5
2A8
100
AcDbEntity
  8
0
100
AcDbLine
 62
7
  6
CONTINUOUS
 10
7.3224510866
 20
12.68468991
 11
7.3001137
 21
12.68468991
  0
LINE
  5
2A9
100
AcDbEntity
  8
0
100
AcDbLine
 62
7
  6
CONTINUOUS
 10
7.2227738958
 20
12.7478375957
 11
7.2451112824
 21
12.7478375957
  0
LINE
  5
2AA
100
AcDbEntity
  8
0
100
AcDbLine
 62
7
  6
CONTINUOUS
 10
7.0447348982
 20
12.8109852814
 11
7.1351836361
 21
12.8109852814
  0
LINE
  5
2AB
100
AcDbEntity
  8
0
100
AcDbLine
 62
7
  6
CONTINUOUS
 10
7.2451112824
 20
12.8741329671
 11
7.2227738958
 21
12.8741329671
  0
LINE
  5
2AC
100
AcDbEntity
  8
0
100
AcDbLine
 62
7
  6
CONTINUOUS
 10
7.3224510866
 20
12.9372806528
 11
7.3001137
 21
12.9372806528
  0
LINE
  5
2AD
100
AcDbEntity
  8
0
100
AcDbLine
 62
7
  6
CONTINUOUS
 10
7.0864970839
 20
11.9037299964
 11
7.0845203635
 21
11.9058830325
  0
LINE
  5
2AE
100
AcDbEntity
  8
0
100
AcDbLine
 62
7
  6
CONTINUOUS
 10
7.2227738958
 20
12.8741329671
 11
7.3001137
 21
12.9372806528
  0
LINE
  5
2AF
100
AcDbEntity
  8
0
100
AcDbLine
 62
7
  6
CONTINUOUS
 10
7.2451112824
 20
12.8741329671
 11
7.3224510866
 21
12.9372806528
  0
LINE
  5
2B0
100
AcDbEntity
  8
0
100
AcDbLine
 62
7
  6
CONTINUOUS
 10
7.1212792073
 20
12.9984797813
 11
7.3648165633
 21
12.9984797813
  0
LINE
  5
2B1
100
AcDbEntity
  8
0
100
AcDbLine
 62
7
  6
CONTINUOUS
 10
3.9614970839
 20
12.9984852814
 11
4.1177470839
 21
12.9984852814
  0
LINE
  5
2B2
100
AcDbEntity
  8
0
100
AcDbLine
 62
7
  6
CONTINUOUS
 10
8.0239970839
 20
12.9984852814
 11
8.1802470839
 21
12.9984852814
  0
LINE
  5
2B3
100
AcDbEntity
  8
0
100
AcDbLine
 62
7
  6
CONTINUOUS
 10
8.2677470839
 20
13.1484852814
 11
7.8581674575
 21
13.1484852814
  0
LINE
  5
2B4
100
AcDbEntity
  8
0
100
AcDbLine
 62
7
  6
CONTINUOUS
 10
3.8739970839
 20
13.1484852814
 11
4.2835767102
 21
13.1484852814
  0
LINE
  5
2B5
100
AcDbEntity
  8
0
100
AcDbLine
 62
7
  6
CONTINUOUS
 10
4.2869260751
 20
13.1484852814
 11
4.3146220839
 21
13.1484852814
  0
LINE
  5
2B6
100
AcDbEntity
  8
0
100
AcDbLine
 62
7
  6
CONTINUOUS
 10
7.8271220839
 20
13.1484852814
 11
7.8548180926
 21
13.1484852814
  0
LINE
  5
2B7
100
AcDbEntity
  8
0
100
AcDbLine
 62
7
  6
CONTINUOUS
 10
7.3926301713
 20
12.7419908927
 11
7.3224510866
 21
12.68468991
  0
LINE
  5
2B8
100
AcDbEntity
  8
0
100
AcDbLine
 62
7
  6
CONTINUOUS
 10
6.0708720839
 20
11.8911922409
 11
5.9903148689
 21
11.8446825111
  0
LINE
  5
2B9
100
AcDbEntity
  8
0
100
AcDbLine
 62
7
  6
CONTINUOUS
 10
6.8677470839
 20
12.0041102814
 11
6.8677470839
 21
12.0141102814
  0
LINE
  5
2BA
100
AcDbEntity
  8
0
100
AcDbLine
 62
7
  6
CONTINUOUS
 10
7.1212792073
 20
12.9984797813
 11
7.0447348982
 21
12.8109852814
  0
LINE
  5
2BB
100
AcDbEntity
  8
0
100
AcDbLine
 62
7
  6
CONTINUOUS
 10
6.0708720839
 20
11.7051533218
 11
6.1514292989
 21
11.7516630516
  0
LINE
  5
2BC
100
AcDbEntity
  8
0
100
AcDbLine
 62
7
  6
CONTINUOUS
 10
7.2227738958
 20
12.7478375957
 11
7.3001137
 21
12.68468991
  0
LINE
  5
2BD
100
AcDbEntity
  8
0
100
AcDbLine
 62
7
  6
CONTINUOUS
 10
7.3224510866
 20
12.68468991
 11
7.2451112824
 21
12.7478375957
  0
LINE
  5
2BE
100
AcDbEntity
  8
0
100
AcDbLine
 62
7
  6
CONTINUOUS
 10
7.0859844847
 20
11.6774117983
 11
7.0864970839
 21
11.6731727814
  0
LINE
  5
2BF
100
AcDbEntity
  8
0
100
AcDbLine
 62
7
  6
CONTINUOUS
 10
7.0864970839
 20
11.6172352814
 11
7.0864970839
 21
11.6731727814
  0
LINE
  5
2C0
100
AcDbEntity
  8
0
100
AcDbLine
 62
7
  6
CONTINUOUS
 10
7.0864970839
 20
11.6926155664
 11
7.0864970839
 21
11.9037299964
  0
LINE
  5
2C1
100
AcDbEntity
  8
0
100
AcDbLine
 62
7
  6
CONTINUOUS
 10
7.0864970839
 20
11.9231727814
 11
7.0864970839
 21
12.0041102814
  0
LINE
  5
2C2
100
AcDbEntity
  8
0
100
AcDbLine
 62
7
  6
CONTINUOUS
 10
7.0864970839
 20
11.9231727814
 11
7.0859832127
 21
11.9189268722
  0
LINE
  5
2C3
100
AcDbEntity
  8
0
100
AcDbLine
 62
7
  6
CONTINUOUS
 10
8.6802470839
 20
13.6078602814
 11
8.6552470839
 21
13.5828602814
  0
LINE
  5
2C4
100
AcDbEntity
  8
0
100
AcDbLine
 62
7
  6
CONTINUOUS
 10
3.4614970839
 20
13.6078602814
 11
8.6802470839
 21
13.6078602814
  0
LINE
  5
2C5
100
AcDbEntity
  8
0
100
AcDbLine
 62
7
  6
CONTINUOUS
 10
7.3224510866
 20
12.9372806528
 11
7.3924222927
 21
12.8801494022
  0
LINE
  5
2C6
100
AcDbEntity
  8
0
100
AcDbLine
 62
7
  6
CONTINUOUS
 10
7.0447348982
 20
12.8109852814
 11
7.1212792073
 21
12.6234907814
  0
LINE
  5
2C7
100
AcDbEntity
  8
0
100
AcDbLine
 62
7
  6
CONTINUOUS
 10
7.2227738958
 20
12.8741329671
 11
7.2227738958
 21
12.7478375957
  0
LINE
  5
2C8
100
AcDbEntity
  8
0
100
AcDbLine
 62
7
  6
CONTINUOUS
 10
7.2451112824
 20
12.7478375957
 11
7.2451112824
 21
12.8741329671
  0
LINE
  5
2C9
100
AcDbEntity
  8
0
100
AcDbLine
 62
7
  6
CONTINUOUS
 10
7.0845186742
 20
11.6904606904
 11
7.0864970839
 21
11.6926155664
  0
LINE
  5
2CA
100
AcDbEntity
  8
0
100
AcDbLine
 62
7
  6
CONTINUOUS
 10
7.0864970839
 20
11.6172352814
 11
7.0614970839
 21
11.5922352814
  0
LINE
  5
2CB
100
AcDbEntity
  8
0
100
AcDbLine
 62
7
  6
CONTINUOUS
 10
8.6802470839
 20
12.0141102814
 11
8.6552470839
 21
12.0391102814
  0
LINE
  5
2CC
100
AcDbEntity
  8
0
100
AcDbLine
 62
7
  6
CONTINUOUS
 10
7.8548180926
 20
13.1484852814
 11
7.8548180926
 21
13.1359852814
  0
LINE
  5
2CD
100
AcDbEntity
  8
0
100
AcDbLine
 62
7
  6
CONTINUOUS
 10
7.8548180926
 20
12.4859852814
 11
7.8548180926
 21
12.4734852814
  0
LINE
  5
2CE
100
AcDbEntity
  8
0
100
AcDbLine
 62
7
  6
CONTINUOUS
 10
7.8715649171
 20
12.4734852814
 11
7.8715649171
 21
12.0391102814
  0
LINE
  5
2CF
100
AcDbEntity
  8
0
100
AcDbLine
 62
7
  6
CONTINUOUS
 10
7.8715649171
 20
13.1484852814
 11
7.8715649171
 21
13.5828602814
  0
LINE
  5
2D0
100
AcDbEntity
  8
0
100
AcDbLine
 62
7
  6
CONTINUOUS
 10
8.6802470839
 20
12.0141102814
 11
8.6802470839
 21
13.6078602814
  0
LINE
  5
2D1
100
AcDbEntity
  8
0
100
AcDbLine
 62
7
  6
CONTINUOUS
 10
16.5681677569
 20
3.8512497044
 11
14.9744177569
 21
3.8512497044
  0
LINE
  5
2D2
100
AcDbEntity
  8
0
100
AcDbLine
 62
7
  6
CONTINUOUS
 10
14.5525427569
 20
6.4668747044
 11
14.5775427569
 21
6.4918747044
  0
LINE
  5
2D3
100
AcDbEntity
  8
0
100
AcDbLine
 62
7
  6
CONTINUOUS
 10
14.5525427569
 20
4.4856247044
 11
14.5775427569
 21
4.4606247044
  0
LINE
  5
2D4
100
AcDbEntity
  8
0
100
AcDbLine
 62
7
  6
CONTINUOUS
 10
14.6507673679
 20
6.4898955622
 11
14.6529230419
 21
6.4918747044
  0
LINE
  5
2D5
100
AcDbEntity
  8
0
100
AcDbLine
 62
7
  6
CONTINUOUS
 10
14.5525427569
 20
6.466858572
 11
14.5525427569
 21
4.4856408369
  0
LINE
  5
2D6
100
AcDbEntity
  8
0
100
AcDbLine
 62
7
  6
CONTINUOUS
 10
14.9644177569
 20
4.4606247044
 11
14.5775427569
 21
4.4606247044
  0
LINE
  5
2D7
100
AcDbEntity
  8
0
100
AcDbLine
 62
7
  6
CONTINUOUS
 10
14.5775427569
 20
6.4918747044
 11
14.5775427569
 21
4.4606247044
  0
LINE
  5
2D8
100
AcDbEntity
  8
0
100
AcDbLine
 62
7
  6
CONTINUOUS
 10
14.7119705272
 20
5.5568069194
 11
14.6654607974
 21
5.4762497044
  0
LINE
  5
2D9
100
AcDbEntity
  8
0
100
AcDbLine
 62
7
  6
CONTINUOUS
 10
15.9587872569
 20
6.5266568279
 11
15.7712927569
 21
6.4501125188
  0
LINE
  5
2DA
100
AcDbEntity
  8
0
100
AcDbLine
 62
7
  6
CONTINUOUS
 10
14.9744177569
 20
4.6793747044
 11
14.9644177569
 21
4.6793747044
  0
LINE
  5
2DB
100
AcDbEntity
  8
0
100
AcDbLine
 62
7
  6
CONTINUOUS
 10
14.6654607974
 20
5.4762497044
 11
14.7119705272
 21
5.3956924894
  0
LINE
  5
2DC
100
AcDbEntity
  8
0
100
AcDbLine
 62
7
  6
CONTINUOUS
 10
14.8049899867
 20
5.3956924894
 11
14.8514997165
 21
5.4762497044
  0
LINE
  5
2DD
100
AcDbEntity
  8
0
100
AcDbLine
 62
7
  6
CONTINUOUS
 10
15.6449973856
 20
6.7278287071
 11
15.7021286361
 21
6.7977999133
  0
LINE
  5
2DE
100
AcDbEntity
  8
0
100
AcDbLine
 62
7
  6
CONTINUOUS
 10
14.9644177569
 20
4.4606413715
 11
14.9644177569
 21
6.4918580374
  0
LINE
  5
2DF
100
AcDbEntity
  8
0
100
AcDbLine
 62
7
  6
CONTINUOUS
 10
14.9744177569
 20
3.8512497044
 11
14.9744177569
 21
7.0449961099
  0
LINE
  5
2E0
100
AcDbEntity
  8
0
100
AcDbLine
 62
7
  6
CONTINUOUS
 10
15.8975881283
 20
6.7278287071
 11
15.8344404426
 21
6.650488903
  0
LINE
  5
2E1
100
AcDbEntity
  8
0
100
AcDbLine
 62
7
  6
CONTINUOUS
 10
15.8975881283
 20
6.7054913206
 11
15.8344404426
 21
6.6281515164
  0
LINE
  5
2E2
100
AcDbEntity
  8
0
100
AcDbLine
 62
7
  6
CONTINUOUS
 10
16.5431677569
 20
4.9137497044
 11
14.9994177569
 21
4.9137497044
  0
LINE
  5
2E3
100
AcDbEntity
  8
0
100
AcDbLine
 62
7
  6
CONTINUOUS
 10
14.8514997165
 20
5.4762497044
 11
14.8049899867
 21
5.5568069194
  0
LINE
  5
2E4
100
AcDbEntity
  8
0
100
AcDbLine
 62
7
  6
CONTINUOUS
 10
16.1087927569
 20
4.9762497044
 11
15.4337927569
 21
4.9762497044
  0
LINE
  5
2E5
100
AcDbEntity
  8
0
100
AcDbLine
 62
7
  6
CONTINUOUS
 10
15.4337927569
 20
4.9137497044
 11
15.4337927569
 21
4.9637497044
  0
LINE
  5
2E6
100
AcDbEntity
  8
0
100
AcDbLine
 62
7
  6
CONTINUOUS
 10
15.4337927569
 20
4.9762497044
 11
15.4337927569
 21
5.0796126162
  0
LINE
  5
2E7
100
AcDbEntity
  8
0
100
AcDbLine
 62
7
  6
CONTINUOUS
 10
14.8049899867
 20
5.3956924894
 11
14.7119705272
 21
5.3956924894
  0
LINE
  5
2E8
100
AcDbEntity
  8
0
100
AcDbLine
 62
7
  6
CONTINUOUS
 10
15.583798257
 20
6.5266568279
 11
15.583798257
 21
6.7701941838
  0
LINE
  5
2E9
100
AcDbEntity
  8
0
100
AcDbLine
 62
7
  6
CONTINUOUS
 10
15.6449973856
 20
6.7278287071
 11
15.6449973856
 21
6.7054913206
  0
LINE
  5
2EA
100
AcDbEntity
  8
0
100
AcDbLine
 62
7
  6
CONTINUOUS
 10
14.7119705272
 20
5.5568069194
 11
14.8049899867
 21
5.5568069194
  0
LINE
  5
2EB
100
AcDbEntity
  8
0
100
AcDbLine
 62
7
  6
CONTINUOUS
 10
15.7081450712
 20
6.650488903
 11
15.7081450712
 21
6.6281515164
  0
LINE
  5
2EC
100
AcDbEntity
  8
0
100
AcDbLine
 62
7
  6
CONTINUOUS
 10
15.7712927569
 20
6.4501125188
 11
15.7712927569
 21
6.5405612567
  0
LINE
  5
2ED
100
AcDbEntity
  8
0
100
AcDbLine
 62
7
  6
CONTINUOUS
 10
15.8344404426
 20
6.6281515164
 11
15.8344404426
 21
6.650488903
  0
LINE
  5
2EE
100
AcDbEntity
  8
0
100
AcDbLine
 62
7
  6
CONTINUOUS
 10
15.8975881283
 20
6.7278287071
 11
15.8975881283
 21
6.7054913206
  0
LINE
  5
2EF
100
AcDbEntity
  8
0
100
AcDbLine
 62
7
  6
CONTINUOUS
 10
14.8640374719
 20
6.4918747044
 11
14.8661910862
 21
6.4898974532
  0
LINE
  5
2F0
100
AcDbEntity
  8
0
100
AcDbLine
 62
7
  6
CONTINUOUS
 10
15.9587872569
 20
6.5266568279
 11
15.9587872569
 21
6.7701941838
  0
LINE
  5
2F1
100
AcDbEntity
  8
0
100
AcDbLine
 62
7
  6
CONTINUOUS
 10
16.1087927569
 20
5.0796126162
 11
16.1087927569
 21
4.9762497044
  0
LINE
  5
2F2
100
AcDbEntity
  8
0
100
AcDbLine
 62
7
  6
CONTINUOUS
 10
16.1087927569
 20
4.9637497044
 11
16.1087927569
 21
4.9137497044
  0
LINE
  5
2F3
100
AcDbEntity
  8
0
100
AcDbLine
 62
7
  6
CONTINUOUS
 10
14.9744177569
 20
6.2731247044
 11
14.9644177569
 21
6.2731247044
  0
LINE
  5
2F4
100
AcDbEntity
  8
0
100
AcDbLine
 62
7
  6
CONTINUOUS
 10
15.6449973856
 20
6.7054913206
 11
15.7081450712
 21
6.6281515164
  0
LINE
  5
2F5
100
AcDbEntity
  8
0
100
AcDbLine
 62
7
  6
CONTINUOUS
 10
15.7081450712
 20
6.650488903
 11
15.6449973856
 21
6.7278287071
  0
LINE
  5
2F6
100
AcDbEntity
  8
0
100
AcDbLine
 62
7
  6
CONTINUOUS
 10
16.5681677569
 20
3.8512497044
 11
16.5681677569
 21
7.0449987173
  0
LINE
  5
2F7
100
AcDbEntity
  8
0
100
AcDbLine
 62
7
  6
CONTINUOUS
 10
14.6377080987
 20
6.4913628706
 11
14.6334802569
 21
6.4918747044
  0
LINE
  5
2F8
100
AcDbEntity
  8
0
100
AcDbLine
 62
7
  6
CONTINUOUS
 10
15.7712927569
 20
6.4501125188
 11
15.583798257
 21
6.5266568279
  0
LINE
  5
2F9
100
AcDbEntity
  8
0
100
AcDbLine
 62
7
  6
CONTINUOUS
 10
14.8834802569
 20
6.4918747044
 11
14.8792734218
 21
6.491365387
  0
LINE
  5
2FA
100
AcDbEntity
  8
0
100
AcDbLine
 62
7
  6
CONTINUOUS
 10
14.9644177569
 20
6.4918747044
 11
14.8834802569
 21
6.4918747044
  0
LINE
  5
2FB
100
AcDbEntity
  8
0
100
AcDbLine
 62
7
  6
CONTINUOUS
 10
14.8640374719
 20
6.4918747044
 11
14.6529230419
 21
6.4918747044
  0
LINE
  5
2FC
100
AcDbEntity
  8
0
100
AcDbLine
 62
7
  6
CONTINUOUS
 10
14.6334802569
 20
6.4918747044
 11
14.5775427569
 21
6.4918747044
  0
LINE
  5
2FD
100
AcDbEntity
  8
0
100
AcDbLine
 62
7
  6
CONTINUOUS
 10
15.8402871456
 20
6.7980077919
 11
15.8975881283
 21
6.7278287071
  0
LINE
  5
2FE
100
AcDbEntity
  8
0
100
AcDbLine
 62
7
  6
CONTINUOUS
 10
15.7081450712
 20
6.6281515164
 11
15.8344404426
 21
6.6281515164
  0
LINE
  5
2FF
100
AcDbEntity
  8
0
100
AcDbLine
 62
7
  6
CONTINUOUS
 10
15.8344404426
 20
6.650488903
 11
15.7081450712
 21
6.650488903
  0
LINE
  5
300
100
AcDbEntity
  8
0
100
AcDbLine
 62
7
  6
CONTINUOUS
 10
14.9994177569
 20
7.0699997044
 11
16.5431677569
 21
7.0699997044
  0
LINE
  5
301
100
AcDbEntity
  8
0
100
AcDbLine
 62
7
  6
CONTINUOUS
 10
13.033515037
 20
10.8912495301
 11
12.7170341004
 21
11.5361698722
  0
LINE
  5
302
100
AcDbEntity
  8
0
100
AcDbLine
 62
7
  6
CONTINUOUS
 10
12.7169012978
 20
11.5459010201
 11
13.1012421134
 21
12.789628355
  0
LINE
  5
303
100
AcDbEntity
  8
0
100
AcDbLine
 62
7
  6
CONTINUOUS
 10
12.9640057888
 20
12.0583210866
 11
12.9792578822
 21
12.0272405882
  0
LINE
  5
304
100
AcDbEntity
  8
0
100
AcDbLine
 62
7
  6
CONTINUOUS
 10
13.459684636
 20
11.5643560321
 11
13.4028422271
 21
12.1710041955
  0
LINE
  5
305
100
AcDbEntity
  8
0
100
AcDbLine
 62
7
  6
CONTINUOUS
 10
13.4245652225
 20
12.3914993996
 11
13.7982551093
 21
13.6007603163
  0
LINE
  5
306
100
AcDbEntity
  8
0
100
AcDbLine
 62
7
  6
CONTINUOUS
 10
13.7658780299
 20
12.2645724882
 11
13.7634693711
 21
12.2564786792
  0
LINE
  5
307
100
AcDbEntity
  8
0
100
AcDbLine
 62
7
  6
CONTINUOUS
 10
13.1017644903
 20
12.7900139616
 11
13.1012417615
 21
12.7896283816
  0
LINE
  5
308
100
AcDbEntity
  8
0
100
AcDbLine
 62
7
  6
CONTINUOUS
 10
17.8403020995
 20
10.8912495301
 11
13.033515037
 21
10.8912495301
  0
LINE
  5
309
100
AcDbEntity
  8
0
100
AcDbLine
 62
7
  6
CONTINUOUS
 10
13.9294863946
 20
12.2021744977
 11
13.932649253
 21
12.2130362824
  0
LINE
  5
30A
100
AcDbEntity
  8
0
100
AcDbLine
 62
7
  6
CONTINUOUS
 10
13.8340177716
 20
11.9016183065
 11
13.8243351186
 21
11.8702852301
  0
LINE
  5
30B
100
AcDbEntity
  8
0
100
AcDbLine
 62
7
  6
CONTINUOUS
 10
13.9423320592
 20
12.2443693114
 11
13.9389923977
 21
12.233562163
  0
LINE
  5
30C
100
AcDbEntity
  8
0
100
AcDbLine
 62
7
  6
CONTINUOUS
 10
13.9684455768
 20
12.1933930711
 11
13.8747961679
 21
11.8903434729
  0
LINE
  5
30D
100
AcDbEntity
  8
0
100
AcDbLine
 62
7
  6
CONTINUOUS
 10
14.154483561
 20
12.484795375
 11
14.1448009081
 21
12.4534622986
  0
LINE
  5
30E
100
AcDbEntity
  8
0
100
AcDbLine
 62
7
  6
CONTINUOUS
 10
14.4936796446
 20
12.3271063751
 11
14.5161965232
 21
12.3999710209
  0
LINE
  5
30F
100
AcDbEntity
  8
0
100
AcDbLine
 62
7
  6
CONTINUOUS
 10
14.5000051647
 20
12.3234448784
 11
14.5207721512
 21
12.3906468714
  0
LINE
  5
310
100
AcDbEntity
  8
0
100
AcDbLine
 62
7
  6
CONTINUOUS
 10
14.5831967306
 20
12.5881493457
 11
14.5735140776
 21
12.5568162693
  0
LINE
  5
311
100
AcDbEntity
  8
0
100
AcDbLine
 62
7
  6
CONTINUOUS
 10
14.018179757
 20
12.5475199
 11
14.1448009081
 21
12.4534622986
  0
LINE
  5
312
100
AcDbEntity
  8
0
100
AcDbLine
 62
7
  6
CONTINUOUS
 10
15.7879892907
 20
11.2328577104
 11
15.7997371843
 21
11.2241310587
  0
LINE
  5
313
100
AcDbEntity
  8
0
100
AcDbLine
 62
7
  6
CONTINUOUS
 10
14.5161965232
 20
12.3999710209
 11
14.5207721512
 21
12.3906468714
  0
LINE
  5
314
100
AcDbEntity
  8
0
100
AcDbLine
 62
7
  6
CONTINUOUS
 10
14.6645927403
 20
12.3999710209
 11
14.6420758617
 21
12.3271063751
  0
LINE
  5
315
100
AcDbEntity
  8
0
100
AcDbLine
 62
7
  6
CONTINUOUS
 10
15.8464127579
 20
11.718573229
 11
15.8602286728
 21
11.718573229
  0
LINE
  5
316
100
AcDbEntity
  8
0
100
AcDbLine
 62
7
  6
CONTINUOUS
 10
15.8330978739
 20
11.8050807197
 11
15.8469137889
 21
11.8050807197
  0
LINE
  5
317
100
AcDbEntity
  8
0
100
AcDbLine
 62
7
  6
CONTINUOUS
 10
16.0886001379
 20
11.8702852301
 11
15.9276713693
 21
11.8702852301
  0
LINE
  5
318
100
AcDbEntity
  8
0
100
AcDbLine
 62
7
  6
CONTINUOUS
 10
13.8243351186
 20
11.8702852301
 11
13.8716221282
 21
11.8702852301
  0
LINE
  5
319
100
AcDbEntity
  8
0
100
AcDbLine
 62
7
  6
CONTINUOUS
 10
13.7634693711
 20
12.2564786792
 11
13.9294863946
 21
12.2021744977
  0
LINE
  5
31A
100
AcDbEntity
  8
0
100
AcDbLine
 62
7
  6
CONTINUOUS
 10
15.9333090262
 20
11.5467239569
 11
16.0993260497
 21
11.4924197754
  0
LINE
  5
31B
100
AcDbEntity
  8
0
100
AcDbLine
 62
7
  6
CONTINUOUS
 10
16.1090087026
 20
11.5237528518
 11
15.9455788362
 21
11.577210774
  0
LINE
  5
31C
100
AcDbEntity
  8
0
100
AcDbLine
 62
7
  6
CONTINUOUS
 10
13.9391690475
 20
12.2335075741
 11
13.773152024
 21
12.2878117556
  0
LINE
  5
31D
100
AcDbEntity
  8
0
100
AcDbLine
 62
7
  6
CONTINUOUS
 10
16.1189616988
 20
11.5462527778
 11
15.9529446753
 21
11.6005569593
  0
LINE
  5
31E
100
AcDbEntity
  8
0
100
AcDbLine
 62
7
  6
CONTINUOUS
 10
13.9491220437
 20
12.2560075001
 11
13.7831050202
 21
12.3103116816
  0
LINE
  5
31F
100
AcDbEntity
  8
0
100
AcDbLine
 62
7
  6
CONTINUOUS
 10
15.8018800317
 20
11.6593514282
 11
15.8377117942
 21
11.6457085832
  0
LINE
  5
320
100
AcDbEntity
  8
0
100
AcDbLine
 62
7
  6
CONTINUOUS
 10
14.4936796446
 20
12.3271063751
 11
14.5566193139
 21
12.2906740522
  0
LINE
  5
321
100
AcDbEntity
  8
0
100
AcDbLine
 62
7
  6
CONTINUOUS
 10
15.8094198372
 20
11.255464135
 11
15.8015406275
 21
11.2613170243
  0
LINE
  5
322
100
AcDbEntity
  8
0
100
AcDbLine
 62
7
  6
CONTINUOUS
 10
14.154483561
 20
12.484795375
 11
14.0489221426
 21
12.5632092398
  0
LINE
  5
323
100
AcDbEntity
  8
0
100
AcDbLine
 62
7
  6
CONTINUOUS
 10
15.8642513129
 20
11.2552115571
 11
15.8158810556
 21
11.291142287
  0
LINE
  5
324
100
AcDbEntity
  8
0
100
AcDbLine
 62
7
  6
CONTINUOUS
 10
14.2093150367
 20
12.484542797
 11
14.0826938856
 21
12.5786003984
  0
LINE
  5
325
100
AcDbEntity
  8
0
100
AcDbLine
 62
7
  6
CONTINUOUS
 10
14.606228699
 20
12.4270791942
 11
14.601653071
 21
12.4364033438
  0
LINE
  5
326
100
AcDbEntity
  8
0
100
AcDbLine
 62
7
  6
CONTINUOUS
 10
14.5202168342
 20
12.6654246323
 11
14.5735140776
 21
12.5568162693
  0
LINE
  5
327
100
AcDbEntity
  8
0
100
AcDbLine
 62
7
  6
CONTINUOUS
 10
14.5831967306
 20
12.5881493457
 11
14.5451067295
 21
12.6657686071
  0
LINE
  5
328
100
AcDbEntity
  8
0
100
AcDbLine
 62
7
  6
CONTINUOUS
 10
14.6123229336
 20
12.6654246323
 11
14.665620177
 21
12.5568162693
  0
LINE
  5
329
100
AcDbEntity
  8
0
100
AcDbLine
 62
7
  6
CONTINUOUS
 10
15.6406333819
 20
13.3212650149
 11
15.6963515344
 21
13.3774888519
  0
LINE
  5
32A
100
AcDbEntity
  8
0
100
AcDbLine
 62
7
  6
CONTINUOUS
 10
16.0740563412
 20
11.9016183065
 11
15.9373540222
 21
11.9016183065
  0
LINE
  5
32B
100
AcDbEntity
  8
0
100
AcDbLine
 62
7
  6
CONTINUOUS
 10
13.878280355
 20
11.9016183065
 11
13.8340177716
 21
11.9016183065
  0
LINE
  5
32C
100
AcDbEntity
  8
0
100
AcDbLine
 62
7
  6
CONTINUOUS
 10
17.2474566735
 20
11.9115509205
 11
16.8825487332
 21
11.9115509205
  0
LINE
  5
32D
100
AcDbEntity
  8
0
100
AcDbLine
 62
7
  6
CONTINUOUS
 10
13.4271527748
 20
11.9115509205
 11
13.2005449311
 21
11.9115509205
  0
LINE
  5
32E
100
AcDbEntity
  8
0
100
AcDbLine
 62
7
  6
CONTINUOUS
 10
13.793830932
 20
11.9324462269
 11
13.8878069029
 21
11.9324462269
  0
LINE
  5
32F
100
AcDbEntity
  8
0
100
AcDbLine
 62
7
  6
CONTINUOUS
 10
15.8971671826
 20
11.9324462269
 11
16.0580959513
 21
11.9324462269
  0
LINE
  5
330
100
AcDbEntity
  8
0
100
AcDbLine
 62
7
  6
CONTINUOUS
 10
17.1841086683
 20
12.0679005799
 11
17.040192888
 21
12.0679005799
  0
LINE
  5
331
100
AcDbEntity
  8
0
100
AcDbLine
 62
7
  6
CONTINUOUS
 10
13.4125029468
 20
12.0679005799
 11
13.2983825999
 21
12.0679005799
  0
LINE
  5
332
100
AcDbEntity
  8
0
100
AcDbLine
 62
7
  6
CONTINUOUS
 10
15.809332745
 20
11.8141292272
 11
15.8330978739
 21
11.8050807197
  0
LINE
  5
333
100
AcDbEntity
  8
0
100
AcDbLine
 62
7
  6
CONTINUOUS
 10
15.8469137889
 20
11.8050807197
 11
15.8110820263
 21
11.8187235647
  0
LINE
  5
334
100
AcDbEntity
  8
0
100
AcDbLine
 62
7
  6
CONTINUOUS
 10
14.606228699
 20
12.4270791942
 11
14.6628428482
 21
12.394308368
  0
LINE
  5
335
100
AcDbEntity
  8
0
100
AcDbLine
 62
7
  6
CONTINUOUS
 10
14.6645927403
 20
12.3999710209
 11
14.601653071
 21
12.4364033438
  0
LINE
  5
336
100
AcDbEntity
  8
0
100
AcDbLine
 62
7
  6
CONTINUOUS
 10
15.2054535239
 20
12.484795375
 11
15.195770871
 21
12.4534622986
  0
LINE
  5
337
100
AcDbEntity
  8
0
100
AcDbLine
 62
7
  6
CONTINUOUS
 10
15.1350601733
 20
12.5786003984
 11
15.1007525558
 21
12.484542797
  0
LINE
  5
338
100
AcDbEntity
  8
0
100
AcDbLine
 62
7
  6
CONTINUOUS
 10
15.228537398
 20
12.5480820145
 11
15.2054535239
 21
12.484795375
  0
LINE
  5
339
100
AcDbEntity
  8
0
100
AcDbLine
 62
7
  6
CONTINUOUS
 10
15.195770871
 20
12.4534622986
 11
15.2300784886
 21
12.5475199
  0
LINE
  5
33A
100
AcDbEntity
  8
0
100
AcDbLine
 62
7
  6
CONTINUOUS
 10
15.8255681144
 20
13.4011138185
 11
15.8118078571
 21
13.3872286764
  0
LINE
  5
33B
100
AcDbEntity
  8
0
100
AcDbLine
 62
7
  6
CONTINUOUS
 10
15.7812360009
 20
13.2882981134
 11
15.7949962582
 21
13.3021832555
  0
LINE
  5
33C
100
AcDbEntity
  8
0
100
AcDbLine
 62
7
  6
CONTINUOUS
 10
15.6890984739
 20
13.1268148222
 11
15.7448166264
 21
13.1830386592
  0
LINE
  5
33D
100
AcDbEntity
  8
0
100
AcDbLine
 62
7
  6
CONTINUOUS
 10
15.8745368853
 20
13.2046427808
 11
15.8607766279
 21
13.1907576387
  0
LINE
  5
33E
100
AcDbEntity
  8
0
100
AcDbLine
 62
7
  6
CONTINUOUS
 10
16.0160381671
 20
13.1309421928
 11
15.8768008665
 21
13.0316534111
  0
LINE
  5
33F
100
AcDbEntity
  8
0
100
AcDbLine
 62
7
  6
CONTINUOUS
 10
14.601653071
 20
12.4364033438
 11
14.5161965232
 21
12.3999710209
  0
LINE
  5
340
100
AcDbEntity
  8
0
100
AcDbLine
 62
7
  6
CONTINUOUS
 10
14.5207721512
 20
12.3906468714
 11
14.606228699
 21
12.4270791942
  0
LINE
  5
341
100
AcDbEntity
  8
0
100
AcDbLine
 62
7
  6
CONTINUOUS
 10
17.3344575443
 20
12.2527936315
 11
17.190541764
 21
12.2527936315
  0
LINE
  5
342
100
AcDbEntity
  8
0
100
AcDbLine
 62
7
  6
CONTINUOUS
 10
15.9846493686
 20
13.2060328691
 11
15.9708891112
 21
13.1921477269
  0
LINE
  5
343
100
AcDbEntity
  8
0
100
AcDbLine
 62
7
  6
CONTINUOUS
 10
15.9325190191
 20
13.0878772482
 11
15.8768008665
 21
13.0316534111
  0
LINE
  5
344
100
AcDbEntity
  8
0
100
AcDbLine
 62
7
  6
CONTINUOUS
 10
16.0160381671
 20
13.1309421928
 11
16.0717563196
 21
13.1871660298
  0
LINE
  5
345
100
AcDbEntity
  8
0
100
AcDbLine
 62
7
  6
CONTINUOUS
 10
14.5566193139
 20
12.2906740522
 11
14.6420758617
 21
12.3271063751
  0
LINE
  5
346
100
AcDbEntity
  8
0
100
AcDbLine
 62
7
  6
CONTINUOUS
 10
13.3891574712
 20
12.3616481711
 11
13.417507464
 21
12.3616481711
  0
LINE
  5
347
100
AcDbEntity
  8
0
100
AcDbLine
 62
7
  6
CONTINUOUS
 10
17.1309677593
 20
12.3616481711
 11
17.2748835396
 21
12.3616481711
  0
LINE
  5
348
100
AcDbEntity
  8
0
100
AcDbLine
 62
7
  6
CONTINUOUS
 10
13.345661777
 20
12.4740854965
 11
13.4500862567
 21
12.4740854965
  0
LINE
  5
349
100
AcDbEntity
  8
0
100
AcDbLine
 62
7
  6
CONTINUOUS
 10
17.0134080539
 20
12.4740854965
 11
17.3925735194
 21
12.4740854965
  0
LINE
  5
34A
100
AcDbEntity
  8
0
100
AcDbLine
 62
7
  6
CONTINUOUS
 10
17.011453538
 20
12.4791472075
 11
16.9859438246
 21
12.4791472075
  0
LINE
  5
34B
100
AcDbEntity
  8
0
100
AcDbLine
 62
7
  6
CONTINUOUS
 10
15.8433263784
 20
11.8259147018
 11
15.8303715577
 21
11.843173231
  0
LINE
  5
34C
100
AcDbEntity
  8
0
100
AcDbLine
 62
7
  6
CONTINUOUS
 10
15.8118078571
 20
13.3872286764
 11
15.7812360009
 21
13.2882981134
  0
LINE
  5
34D
100
AcDbEntity
  8
0
100
AcDbLine
 62
7
  6
CONTINUOUS
 10
15.7949962582
 20
13.3021832555
 11
15.8255681144
 21
13.4011138185
  0
LINE
  5
34E
100
AcDbEntity
  8
0
100
AcDbLine
 62
7
  6
CONTINUOUS
 10
15.7885651478
 20
11.745858919
 11
15.8018800317
 21
11.6593514282
  0
LINE
  5
34F
100
AcDbEntity
  8
0
100
AcDbLine
 62
7
  6
CONTINUOUS
 10
15.6673963212
 20
12.2335075741
 11
15.6577136683
 21
12.2021744977
  0
LINE
  5
350
100
AcDbEntity
  8
0
100
AcDbLine
 62
7
  6
CONTINUOUS
 10
16.0152212248
 20
13.304963432
 11
15.9846493686
 21
13.2060328691
  0
LINE
  5
351
100
AcDbEntity
  8
0
100
AcDbLine
 62
7
  6
CONTINUOUS
 10
15.6979629981
 20
12.3103116816
 11
15.585243218
 21
12.2560075001
  0
LINE
  5
352
100
AcDbEntity
  8
0
100
AcDbLine
 62
7
  6
CONTINUOUS
 10
15.7490504154
 20
12.272845468
 11
15.6673963212
 21
12.2335075741
  0
LINE
  5
353
100
AcDbEntity
  8
0
100
AcDbLine
 62
7
  6
CONTINUOUS
 10
15.6577136683
 20
12.2021744977
 11
15.7704334484
 21
12.2564786792
  0
LINE
  5
354
100
AcDbEntity
  8
0
100
AcDbLine
 62
7
  6
CONTINUOUS
 10
17.8985734794
 20
12.7900139616
 11
17.1520313816
 21
12.7900139616
  0
LINE
  5
355
100
AcDbEntity
  8
0
100
AcDbLine
 62
7
  6
CONTINUOUS
 10
13.5477155365
 20
12.7900139616
 11
13.1017648735
 21
12.7900139616
  0
LINE
  5
356
100
AcDbEntity
  8
0
100
AcDbLine
 62
7
  6
CONTINUOUS
 10
15.6406333819
 20
13.3212650149
 11
15.6890984739
 21
13.1268148222
  0
LINE
  5
357
100
AcDbEntity
  8
0
100
AcDbLine
 62
7
  6
CONTINUOUS
 10
15.8330978739
 20
11.8050807197
 11
15.8464127579
 21
11.718573229
  0
LINE
  5
358
100
AcDbEntity
  8
0
100
AcDbLine
 62
7
  6
CONTINUOUS
 10
15.8602286728
 20
11.718573229
 11
15.8469137889
 21
11.8050807197
  0
LINE
  5
359
100
AcDbEntity
  8
0
100
AcDbLine
 62
7
  6
CONTINUOUS
 10
15.7885651478
 20
11.745858919
 11
15.8110820263
 21
11.8187235647
  0
LINE
  5
35A
100
AcDbEntity
  8
0
100
AcDbLine
 62
7
  6
CONTINUOUS
 10
15.8464127579
 20
11.718573229
 11
15.8253503271
 21
11.6504151778
  0
LINE
  5
35B
100
AcDbEntity
  8
0
100
AcDbLine
 62
7
  6
CONTINUOUS
 10
15.8602286728
 20
11.718573229
 11
15.8377117942
 21
11.6457085832
  0
LINE
  5
35C
100
AcDbEntity
  8
0
100
AcDbLine
 62
7
  6
CONTINUOUS
 10
15.9373540222
 20
11.9016183065
 11
15.9276713693
 21
11.8702852301
  0
LINE
  5
35D
100
AcDbEntity
  8
0
100
AcDbLine
 62
7
  6
CONTINUOUS
 10
15.8768008665
 20
13.0316534111
 11
15.6890984739
 21
13.1268148222
  0
LINE
  5
35E
100
AcDbEntity
  8
0
100
AcDbLine
 62
7
  6
CONTINUOUS
 10
16.8825487332
 20
11.9115509205
 11
16.8549567624
 21
11.9426314189
  0
LINE
  5
35F
100
AcDbEntity
  8
0
100
AcDbLine
 62
7
  6
CONTINUOUS
 10
16.8480587697
 20
11.9504015435
 11
16.7910190408
 21
12.0146529598
  0
LINE
  5
360
100
AcDbEntity
  8
0
100
AcDbLine
 62
7
  6
CONTINUOUS
 10
15.9529446753
 20
11.6005569593
 11
15.949781817
 21
11.5896951746
  0
LINE
  5
361
100
AcDbEntity
  8
0
100
AcDbLine
 62
7
  6
CONTINUOUS
 10
15.9091441667
 20
11.5936718478
 11
15.8154947578
 21
11.2906222496
  0
LINE
  5
362
100
AcDbEntity
  8
0
100
AcDbLine
 62
7
  6
CONTINUOUS
 10
15.8094198372
 20
11.255464135
 11
15.7997371843
 21
11.2241310587
  0
LINE
  5
363
100
AcDbEntity
  8
0
100
AcDbLine
 62
7
  6
CONTINUOUS
 10
15.8433263784
 20
11.6385174462
 11
15.8303715577
 21
11.621258917
  0
LINE
  5
364
100
AcDbEntity
  8
0
100
AcDbLine
 62
7
  6
CONTINUOUS
 10
15.8607766279
 20
13.1907576387
 11
15.9708891112
 21
13.1921477269
  0
LINE
  5
365
100
AcDbEntity
  8
0
100
AcDbLine
 62
7
  6
CONTINUOUS
 10
15.9846493686
 20
13.2060328691
 11
15.8745368853
 21
13.2046427808
  0
LINE
  5
366
100
AcDbEntity
  8
0
100
AcDbLine
 62
7
  6
CONTINUOUS
 10
15.7812360009
 20
13.2882981134
 11
15.8607766279
 21
13.1907576387
  0
LINE
  5
367
100
AcDbEntity
  8
0
100
AcDbLine
 62
7
  6
CONTINUOUS
 10
15.8745368853
 20
13.2046427808
 11
15.7949962582
 21
13.3021832555
  0
LINE
  5
368
100
AcDbEntity
  8
0
100
AcDbLine
 62
7
  6
CONTINUOUS
 10
16.11655304
 20
11.5381589688
 11
16.1189616988
 21
11.5462527778
  0
LINE
  5
369
100
AcDbEntity
  8
0
100
AcDbLine
 62
7
  6
CONTINUOUS
 10
16.1090087026
 20
11.5237528518
 11
16.0993260497
 21
11.4924197754
  0
LINE
  5
36A
100
AcDbEntity
  8
0
100
AcDbLine
 62
7
  6
CONTINUOUS
 10
15.8255681144
 20
13.4011138185
 11
15.9054560902
 21
13.4021223448
  0
LINE
  5
36B
100
AcDbEntity
  8
0
100
AcDbLine
 62
7
  6
CONTINUOUS
 10
16.0093890305
 20
13.3121154375
 11
16.0152212248
 21
13.304963432
  0
LINE
  5
36C
100
AcDbEntity
  8
0
100
AcDbLine
 62
7
  6
CONTINUOUS
 10
16.9544138091
 20
12.5433986238
 11
17.011453538
 21
12.4791472075
  0
LINE
  5
36D
100
AcDbEntity
  8
0
100
AcDbLine
 62
7
  6
CONTINUOUS
 10
17.011453538
 20
12.4791472075
 11
17.0084277089
 21
12.4693556211
  0
LINE
  5
36E
100
AcDbEntity
  8
0
100
AcDbLine
 62
7
  6
CONTINUOUS
 10
16.8510845987
 20
11.9601931299
 11
16.8480587697
 21
11.9504015435
  0
LINE
  5
36F
100
AcDbEntity
  8
0
100
AcDbLine
 62
7
  6
CONTINUOUS
 10
17.1524523406
 20
12.7898247634
 11
16.6114791498
 21
13.39919466
  0
LINE
  5
370
100
AcDbEntity
  8
0
100
AcDbLine
 62
7
  6
CONTINUOUS
 10
17.8403020995
 20
10.8912495301
 11
17.5238211628
 21
11.5361698722
  0
LINE
  5
371
100
AcDbEntity
  8
0
100
AcDbLine
 62
7
  6
CONTINUOUS
 10
16.8825487332
 20
11.9115509205
 11
16.7774011739
 21
11.5712932941
  0
LINE
  5
372
100
AcDbEntity
  8
0
100
AcDbLine
 62
7
  6
CONTINUOUS
 10
17.056385065
 20
12.4740854965
 11
17.1510910607
 21
12.7805542109
  0
LINE
  5
373
100
AcDbEntity
  8
0
100
AcDbLine
 62
7
  6
CONTINUOUS
 10
17.6168863973
 20
12.3556874152
 11
17.6321384906
 21
12.3246069167
  0
LINE
  5
374
100
AcDbEntity
  8
0
100
AcDbLine
 62
7
  6
CONTINUOUS
 10
17.9096143658
 20
12.7845971344
 11
18.2260953024
 21
12.1396767923
  0
LINE
  5
375
100
AcDbEntity
  8
0
100
AcDbLine
 62
7
  6
CONTINUOUS
 10
18.2260953024
 20
12.1396767923
 11
17.8403020995
 21
10.8912495301
  0
ARC
  5
376
100
AcDbEntity
  8
0
100
AcDbCircle
 62
7
  6
CONTINUOUS
 10
3.5459922762
 20
4.9482448968
 40
0.025
100
AcDbArc
 50
90.0
 51
180.0
  0
ARC
  5
377
100
AcDbEntity
  8
0
100
AcDbCircle
 62
7
  6
CONTINUOUS
 10
3.6084922762
 20
5.0232448968
 40
0.0125
100
AcDbArc
 50
90.0000000003
 51
180.0
  0
ARC
  5
378
100
AcDbEntity
  8
0
100
AcDbCircle
 62
7
  6
CONTINUOUS
 10
6.1303672762
 20
5.5357448968
 40
1.59375
100
AcDbArc
 50
15.0
 51
165.0
  0
ARC
  5
379
100
AcDbEntity
  8
0
100
AcDbCircle
 62
7
  6
CONTINUOUS
 10
6.1303672762
 20
5.5357448968
 40
1.2301778125
100
AcDbArc
 50
27.6705982706
 51
32.3294017294
  0
ARC
  5
37A
100
AcDbEntity
  8
0
100
AcDbCircle
 62
7
  6
CONTINUOUS
 10
6.1303672762
 20
5.5357448968
 40
1.2301778125
100
AcDbArc
 50
57.6705982706
 51
62.3294017294
  0
ARC
  5
37B
100
AcDbEntity
  8
0
100
AcDbCircle
 62
7
  6
CONTINUOUS
 10
6.1303672762
 20
5.5357448968
 40
1.2301778125
100
AcDbArc
 50
87.6705982706
 51
92.3294017294
  0
ARC
  5
37C
100
AcDbEntity
  8
0
100
AcDbCircle
 62
7
  6
CONTINUOUS
 10
6.1303672762
 20
5.5357448968
 40
1.2301778125
100
AcDbArc
 50
117.6705982706
 51
122.3294017294
  0
ARC
  5
37D
100
AcDbEntity
  8
0
100
AcDbCircle
 62
7
  6
CONTINUOUS
 10
6.1303672762
 20
5.5357448968
 40
1.2301778125
100
AcDbArc
 50
147.6705982706
 51
152.3294017294
  0
ARC
  5
37E
100
AcDbEntity
  8
0
100
AcDbCircle
 62
7
  6
CONTINUOUS
 10
6.1303672762
 20
5.5357448968
 40
1.2301778125
100
AcDbArc
 50
207.6705982706
 51
212.3294017294
  0
ARC
  5
37F
100
AcDbEntity
  8
0
100
AcDbCircle
 62
7
  6
CONTINUOUS
 10
6.1303672762
 20
5.5357448968
 40
1.2301778125
100
AcDbArc
 50
237.6705982706
 51
242.3294017294
  0
ARC
  5
380
100
AcDbEntity
  8
0
100
AcDbCircle
 62
7
  6
CONTINUOUS
 10
6.1303672762
 20
5.5357448968
 40
1.2301778125
100
AcDbArc
 50
267.6705982706
 51
272.3294017294
  0
ARC
  5
381
100
AcDbEntity
  8
0
100
AcDbCircle
 62
7
  6
CONTINUOUS
 10
6.1303672762
 20
5.5357448968
 40
1.2301778125
100
AcDbArc
 50
297.6705982706
 51
302.3294017294
  0
ARC
  5
382
100
AcDbEntity
  8
0
100
AcDbCircle
 62
7
  6
CONTINUOUS
 10
6.1303672762
 20
5.5357448968
 40
1.2301778125
100
AcDbArc
 50
327.6705982706
 51
332.3294017294
  0
ARC
  5
383
100
AcDbEntity
  8
0
100
AcDbCircle
 62
7
  6
CONTINUOUS
 10
6.1303672762
 20
5.5357448968
 40
1.2301778125
100
AcDbArc
 50
177.6705982706
 51
182.3294017294
  0
ARC
  5
384
100
AcDbEntity
  8
0
100
AcDbCircle
 62
7
  6
CONTINUOUS
 10
6.1303672762
 20
5.5357448968
 40
1.2301778125
100
AcDbArc
 50
357.6705982706
 51
2.3294017294
  0
ARC
  5
385
100
AcDbEntity
  8
0
100
AcDbCircle
 62
7
  6
CONTINUOUS
 10
6.1303672762
 20
5.5357448968
 40
1.055625
100
AcDbArc
 50
27.2851521728
 51
32.7148478272
  0
ARC
  5
386
100
AcDbEntity
  8
0
100
AcDbCircle
 62
7
  6
CONTINUOUS
 10
6.1303672762
 20
5.5357448968
 40
1.055625
100
AcDbArc
 50
57.2851521728
 51
62.7148478272
  0
ARC
  5
387
100
AcDbEntity
  8
0
100
AcDbCircle
 62
7
  6
CONTINUOUS
 10
6.1303672762
 20
5.5357448968
 40
1.055625
100
AcDbArc
 50
87.2851521728
 51
92.7148478272
  0
ARC
  5
388
100
AcDbEntity
  8
0
100
AcDbCircle
 62
7
  6
CONTINUOUS
 10
6.1303672762
 20
5.5357448968
 40
1.055625
100
AcDbArc
 50
117.2851521728
 51
122.7148478272
  0
ARC
  5
389
100
AcDbEntity
  8
0
100
AcDbCircle
 62
7
  6
CONTINUOUS
 10
6.1303672762
 20
5.5357448968
 40
1.055625
100
AcDbArc
 50
147.2851521728
 51
152.7148478272
  0
ARC
  5
38A
100
AcDbEntity
  8
0
100
AcDbCircle
 62
7
  6
CONTINUOUS
 10
6.1303672762
 20
5.5357448968
 40
1.055625
100
AcDbArc
 50
207.2851521728
 51
212.7148478272
  0
ARC
  5
38B
100
AcDbEntity
  8
0
100
AcDbCircle
 62
7
  6
CONTINUOUS
 10
6.1303672762
 20
5.5357448968
 40
1.055625
100
AcDbArc
 50
237.2851521728
 51
242.7148478272
  0
ARC
  5
38C
100
AcDbEntity
  8
0
100
AcDbCircle
 62
7
  6
CONTINUOUS
 10
6.1303672762
 20
5.5357448968
 40
1.055625
100
AcDbArc
 50
267.2851521728
 51
272.7148478272
  0
ARC
  5
38D
100
AcDbEntity
  8
0
100
AcDbCircle
 62
7
  6
CONTINUOUS
 10
6.1303672762
 20
5.5357448968
 40
1.055625
100
AcDbArc
 50
297.2851521728
 51
302.7148478272
  0
ARC
  5
38E
100
AcDbEntity
  8
0
100
AcDbCircle
 62
7
  6
CONTINUOUS
 10
6.1303672762
 20
5.5357448968
 40
1.055625
100
AcDbArc
 50
327.2851521728
 51
332.7148478272
  0
ARC
  5
38F
100
AcDbEntity
  8
0
100
AcDbCircle
 62
7
  6
CONTINUOUS
 10
6.1303672762
 20
5.5357448968
 40
1.055625
100
AcDbArc
 50
177.2851521728
 51
182.7148478272
  0
ARC
  5
390
100
AcDbEntity
  8
0
100
AcDbCircle
 62
7
  6
CONTINUOUS
 10
6.1303672762
 20
5.5357448968
 40
1.055625
100
AcDbArc
 50
357.2851521728
 51
2.7148478272
  0
CIRCLE
  5
391
100
AcDbEntity
  8
0
100
AcDbCircle
 62
7
  6
CONTINUOUS
 10
6.1303672762
 20
5.5357448968
 40
1.015625
  0
CIRCLE
  5
392
100
AcDbEntity
  8
0
100
AcDbCircle
 62
7
  6
CONTINUOUS
 10
6.1303672762
 20
5.5357448968
 40
0.990625
  0
CIRCLE
  5
393
100
AcDbEntity
  8
0
100
AcDbCircle
 62
7
  6
CONTINUOUS
 10
6.1303672762
 20
5.5357448968
 40
0.75
  0
CIRCLE
  5
394
100
AcDbEntity
  8
02__ASM_ALL_AXES
100
AcDbCircle
 62
8
  6
HIDDEN
 10
6.1303672762
 20
5.5357448968
 40
0.25
  0
ARC
  5
395
100
AcDbEntity
  8
0
100
AcDbCircle
 62
7
  6
CONTINUOUS
 10
8.7147422762
 20
4.9482448968
 40
0.025
100
AcDbArc
 50
0.0
 51
90.0
  0
ARC
  5
396
100
AcDbEntity
  8
0
100
AcDbCircle
 62
7
  6
CONTINUOUS
 10
8.6522422762
 20
5.0232448968
 40
0.0125
100
AcDbArc
 50
0.0
 51
89.9999999997
  0
ARC
  5
397
100
AcDbEntity
  8
0
100
AcDbCircle
 62
7
  6
CONTINUOUS
 10
7.5117332682
 20
6.7439773706
 40
0.0625
100
AcDbArc
 50
109.9947007092
 51
212.9490069928
  0
ARC
  5
398
100
AcDbEntity
  8
0
100
AcDbCircle
 62
7
  6
CONTINUOUS
 10
7.3385997501
 20
6.9171108888
 40
0.0625
100
AcDbArc
 50
237.050993008
 51
340.0052992907
  0
ARC
  5
399
100
AcDbEntity
  8
0
100
AcDbCircle
 62
7
  6
CONTINUOUS
 10
7.474975446
 20
6.8449977275
 40
0.045
100
AcDbArc
 50
289.9947007091
 51
45.0
  0
ARC
  5
39A
100
AcDbEntity
  8
0
100
AcDbCircle
 62
7
  6
CONTINUOUS
 10
7.439620107
 20
6.8803530666
 40
0.045
100
AcDbArc
 50
44.9999999998
 51
160.0052992908
  0
ARC
  5
39B
100
AcDbEntity
  8
0
100
AcDbCircle
 62
7
  6
CONTINUOUS
 10
4.3146220839
 20
12.8109852814
 40
0.3375
100
AcDbArc
 50
270.0
 51
90.0
  0
ARC
  5
39C
100
AcDbEntity
  8
0
100
AcDbCircle
 62
7
  6
CONTINUOUS
 10
3.8739970839
 20
12.8109852814
 40
0.3375
100
AcDbArc
 50
90.0
 51
270.0
  0
ARC
  5
39D
100
AcDbEntity
  8
0
100
AcDbCircle
 62
7
  6
CONTINUOUS
 10
3.9614970839
 20
12.8109852814
 40
0.1875
100
AcDbArc
 50
90.0
 51
270.0
  0
ARC
  5
39E
100
AcDbEntity
  8
0
100
AcDbCircle
 62
7
  6
CONTINUOUS
 10
4.1177470839
 20
12.8109852814
 40
0.1875
100
AcDbArc
 50
270.0
 51
90.0
  0
ARC
  5
39F
100
AcDbEntity
  8
0
100
AcDbCircle
 62
7
  6
CONTINUOUS
 10
8.1235089339
 20
11.7955252437
 40
1.0448385446
100
AcDbArc
 50
173.2171969717
 51
174.0220934719
  0
ARC
  5
3A0
100
AcDbEntity
  8
0
100
AcDbCircle
 62
7
  6
CONTINUOUS
 10
8.120452537
 20
11.8005398133
 40
1.0417699647
100
AcDbArc
 50
185.9788512402
 51
186.7877215585
  0
ARC
  5
3A1
100
AcDbEntity
  8
0
100
AcDbCircle
 62
7
  6
CONTINUOUS
 10
8.1093460228
 20
11.7968305004
 40
1.0306167288
100
AcDbArc
 50
174.0122624532
 51
175.0004158722
  0
ARC
  5
3A2
100
AcDbEntity
  8
0
100
AcDbCircle
 62
7
  6
CONTINUOUS
 10
8.1052223478
 20
11.7990776103
 40
1.0264703249
100
AcDbArc
 50
184.9788887743
 51
185.9862275158
  0
ARC
  5
3A3
100
AcDbEntity
  8
0
100
AcDbCircle
 62
7
  6
CONTINUOUS
 10
8.1045798703
 20
11.797344502
 40
1.02582392
100
AcDbArc
 50
175.0058159452
 51
177.3151538775
  0
ARC
  5
3A4
100
AcDbEntity
  8
0
100
AcDbCircle
 62
7
  6
CONTINUOUS
 10
8.1004206528
 20
11.7987302794
 40
1.021656606
100
AcDbArc
 50
182.6804279724
 51
184.9828544124
  0
ARC
  5
3A5
100
AcDbEntity
  8
0
100
AcDbCircle
 62
7
  6
CONTINUOUS
 10
8.0874497569
 20
11.7981725788
 40
1.0086738217
100
AcDbArc
 50
177.3165600138
 51
182.6832395261
  0
CIRCLE
  5
3A6
100
AcDbEntity
  8
0
100
AcDbCircle
 62
7
  6
CONTINUOUS
 10
6.0708720839
 20
11.7981727814
 40
0.125
  0
CIRCLE
  5
3A7
100
AcDbEntity
  8
0
100
AcDbCircle
 62
7
  6
CONTINUOUS
 10
6.0708720839
 20
11.7981727814
 40
0.105557215
  0
ARC
  5
3A8
100
AcDbEntity
  8
0
100
AcDbCircle
 62
7
  6
CONTINUOUS
 10
7.0223895359
 20
12.7444430776
 40
0.4240057233
100
AcDbArc
 50
17.5678050378
 51
22.2120847382
  0
ARC
  5
3A9
100
AcDbEntity
  8
0
100
AcDbCircle
 62
7
  6
CONTINUOUS
 10
7.0242280808
 20
12.8768608618
 40
0.4220516147
100
AcDbArc
 50
337.7773422978
 51
342.4344907843
  0
ARC
  5
3AA
100
AcDbEntity
  8
0
100
AcDbCircle
 62
7
  6
CONTINUOUS
 10
7.8271220839
 20
12.8109852814
 40
0.3375
100
AcDbArc
 50
90.0
 51
270.0
  0
ARC
  5
3AB
100
AcDbEntity
  8
0
100
AcDbCircle
 62
7
  6
CONTINUOUS
 10
8.2677470839
 20
12.8109852814
 40
0.3375
100
AcDbArc
 50
270.0
 51
90.0
  0
ARC
  5
3AC
100
AcDbEntity
  8
0
100
AcDbCircle
 62
7
  6
CONTINUOUS
 10
8.1802470839
 20
12.8109852814
 40
0.1875
100
AcDbArc
 50
270.0
 51
90.0
  0
ARC
  5
3AD
100
AcDbEntity
  8
0
100
AcDbCircle
 62
7
  6
CONTINUOUS
 10
8.0239970839
 20
12.8109852814
 40
0.1875
100
AcDbArc
 50
90.0
 51
270.0
  0
ARC
  5
3AE
100
AcDbEntity
  8
0
100
AcDbCircle
 62
7
  6
CONTINUOUS
 10
7.3991845584
 20
12.8201900646
 40
0.0611038165
100
AcDbArc
 50
123.633739739
 51
126.7124165802
  0
ARC
  5
3AF
100
AcDbEntity
  8
0
100
AcDbCircle
 62
7
  6
CONTINUOUS
 10
14.7605395891
 20
7.5238160318
 40
1.0397353156
100
AcDbArc
 50
264.026330727
 51
265.0361440683
  0
ARC
  5
3B0
100
AcDbEntity
  8
0
100
AcDbCircle
 62
7
  6
CONTINUOUS
 10
14.7565688128
 20
7.5224433669
 40
1.0383548315
100
AcDbArc
 50
274.996222057
 51
275.9752309538
  0
ARC
  5
3B1
100
AcDbEntity
  8
0
100
AcDbCircle
 62
7
  6
CONTINUOUS
 10
14.7576997591
 20
7.5083537023
 40
1.0242202121
100
AcDbArc
 50
272.6862512945
 51
275.0018396673
  0
ARC
  5
3B2
100
AcDbEntity
  8
0
100
AcDbCircle
 62
7
  6
CONTINUOUS
 10
14.7592849931
 20
7.5077992117
 40
1.0236700191
100
AcDbArc
 50
265.0285319362
 51
266.4880502638
  0
ARC
  5
3B3
100
AcDbEntity
  8
0
100
AcDbCircle
 62
7
  6
CONTINUOUS
 10
14.7583413294
 20
7.5034276338
 40
1.0192288562
100
AcDbArc
 50
263.2026897057
 51
264.0299550887
  0
ARC
  5
3B4
100
AcDbEntity
  8
0
100
AcDbCircle
 62
7
  6
CONTINUOUS
 10
14.7588212056
 20
7.5015426252
 40
1.017333175
100
AcDbArc
 50
275.9716028901
 51
276.7997692232
  0
ARC
  5
3B5
100
AcDbEntity
  8
0
100
AcDbCircle
 62
7
  6
CONTINUOUS
 10
14.7584687241
 20
7.4946016393
 40
1.0104472292
100
AcDbArc
 50
266.4884072774
 51
272.6792424437
  0
ARC
  5
3B6
100
AcDbEntity
  8
0
100
AcDbCircle
 62
7
  6
CONTINUOUS
 10
15.7054171765
 20
6.4296057014
 40
0.4220516147
100
AcDbArc
 50
67.7773422983
 51
72.4344907847
  0
ARC
  5
3B7
100
AcDbEntity
  8
0
100
AcDbCircle
 62
7
  6
CONTINUOUS
 10
15.8370719984
 20
6.4298542592
 40
0.4217850835
100
AcDbArc
 50
107.5573717506
 51
112.2233129059
  0
CIRCLE
  5
3B8
100
AcDbEntity
  8
0
100
AcDbCircle
 62
7
  6
CONTINUOUS
 10
14.7584802569
 20
5.4762497044
 40
0.125
  0
CIRCLE
  5
3B9
100
AcDbEntity
  8
0
100
AcDbCircle
 62
7
  6
CONTINUOUS
 10
14.7584802569
 20
5.4762497044
 40
0.105557215
  0
ARC
  5
3BA
100
AcDbEntity
  8
0
100
AcDbCircle
 62
7
  6
CONTINUOUS
 10
15.7620879737
 20
6.804562179
 40
0.0611038165
100
AcDbArc
 50
213.6337397386
 51
216.7124165806
  0
ARC
  5
3BB
100
AcDbEntity
  8
0
100
AcDbCircle
 62
7
  6
CONTINUOUS
 10
14.9994177569
 20
4.8887497044
 40
0.025
100
AcDbArc
 50
90.0
 51
180.0
  0
ARC
  5
3BC
100
AcDbEntity
  8
0
100
AcDbCircle
 62
7
  6
CONTINUOUS
 10
16.5431677569
 20
4.8887497044
 40
0.025
100
AcDbArc
 50
0.0
 51
90.0
  0
ARC
  5
3BD
100
AcDbEntity
  8
0
100
AcDbCircle
 62
7
  6
CONTINUOUS
 10
16.5431677569
 20
7.0449997044
 40
0.025
100
AcDbArc
 50
0.0000000005
 51
90.0
  0
ARC
  5
3BE
100
AcDbEntity
  8
0
100
AcDbCircle
 62
7
  6
CONTINUOUS
 10
14.9994177569
 20
7.0449997044
 40
0.025
100
AcDbArc
 50
90.0
 51
179.9999999996
  0
ARC
  5
3BF
100
AcDbEntity
  8
0
100
AcDbCircle
 62
7
  6
CONTINUOUS
 10
16.0962927569
 20
4.9637497044
 40
0.0125
100
AcDbArc
 50
0.0
 51
89.9999999997
  0
ARC
  5
3C0
100
AcDbEntity
  8
0
100
AcDbCircle
 62
7
  6
CONTINUOUS
 10
15.4462927569
 20
4.9637497044
 40
0.0125
100
AcDbArc
 50
90.0
 51
180.0
  0
ARC
  5
3C1
100
AcDbEntity
  8
0
100
AcDbCircle
 62
7
  6
CONTINUOUS
 10
14.5157958156
 20
10.5246212786
 40
2.1453015101
100
AcDbArc
 50
70.5519449246
 51
73.2222055282
  0
ARC
  5
3C2
100
AcDbEntity
  8
0
100
AcDbCircle
 62
7
  6
CONTINUOUS
 10
14.5757357748
 20
10.7186943836
 40
1.842244077
100
AcDbArc
 50
70.3322598705
 51
73.4418905822
  0
ARC
  5
3C3
100
AcDbEntity
  8
0
100
AcDbCircle
 62
7
  6
CONTINUOUS
 10
14.5859620201
 20
10.751686419
 40
1.8404989477
100
AcDbArc
 50
70.3308132812
 51
73.3922871289
  0
ARC
  5
3C4
100
AcDbEntity
  8
0
100
AcDbCircle
 62
7
  6
CONTINUOUS
 10
14.5662698839
 20
10.9763470613
 40
1.6897052773
100
AcDbArc
 50
88.4382056399
 51
91.5617943601
  0
ARC
  5
3C5
100
AcDbEntity
  8
0
100
AcDbCircle
 62
7
  6
CONTINUOUS
 10
14.7992287627
 20
11.0247312604
 40
1.5685790529
100
AcDbArc
 50
51.7450283228
 51
55.0430527875
  0
ARC
  5
3C6
100
AcDbEntity
  8
0
100
AcDbCircle
 62
7
  6
CONTINUOUS
 10
14.629072108
 20
11.1588018722
 40
1.4300834767
100
AcDbArc
 50
89.1629567564
 51
91.8382958512
  0
ARC
  5
3C7
100
AcDbEntity
  8
0
100
AcDbCircle
 62
7
  6
CONTINUOUS
 10
14.6195671273
 20
11.128756029
 40
1.4288026222
100
AcDbArc
 50
88.1529271895
 51
91.8470728105
  0
ARC
  5
3C8
100
AcDbEntity
  8
0
100
AcDbCircle
 62
7
  6
CONTINUOUS
 10
14.806258728
 20
11.1316352149
 40
1.3678559396
100
AcDbArc
 50
51.5029652507
 51
55.2851158596
  0
ARC
  5
3C9
100
AcDbEntity
  8
0
100
AcDbCircle
 62
7
  6
CONTINUOUS
 10
14.8409024523
 20
11.1959140653
 40
1.3265339818
100
AcDbArc
 50
51.4609674206
 51
54.1747908345
  0
ARC
  5
3CA
100
AcDbEntity
  8
0
100
AcDbCircle
 62
7
  6
CONTINUOUS
 10
15.0948939031
 20
11.2332996775
 40
0.7389466637
100
AcDbArc
 50
35.024199623
 51
35.4585178522
  0
ARC
  5
3CB
100
AcDbEntity
  8
0
100
AcDbCircle
 62
7
  6
CONTINUOUS
 10
14.4373000789
 20
11.4367087515
 40
0.7386813895
100
AcDbArc
 50
110.2026736418
 51
110.6346050885
  0
ARC
  5
3CC
100
AcDbEntity
  8
0
100
AcDbCircle
 62
7
  6
CONTINUOUS
 10
14.469981147
 20
11.9110408635
 40
0.6547770355
100
AcDbArc
 50
115.6370451259
 51
118.8056263667
  0
ARC
  5
3CD
100
AcDbEntity
  8
0
100
AcDbCircle
 62
7
  6
CONTINUOUS
 10
14.4564425842
 20
11.8590147507
 40
0.6091343061
100
AcDbArc
 50
206.1576062983
 51
208.4702322781
  0
ARC
  5
3CE
100
AcDbEntity
  8
0
100
AcDbCircle
 62
7
  6
CONTINUOUS
 10
14.427267098
 20
11.8166282281
 40
0.5576577936
100
AcDbArc
 50
203.562718534
 51
206.1449756601
  0
ARC
  5
3CF
100
AcDbEntity
  8
0
100
AcDbCircle
 62
7
  6
CONTINUOUS
 10
14.7114362803
 20
12.0111462586
 40
0.9032184714
100
AcDbArc
 50
221.0785092895
 51
222.4230478525
  0
ARC
  5
3D0
100
AcDbEntity
  8
0
100
AcDbCircle
 62
7
  6
CONTINUOUS
 10
14.4777399331
 20
12.256660309
 40
0.7351415134
100
AcDbArc
 50
206.1691525129
 51
208.8787304737
  0
ARC
  5
3D1
100
AcDbEntity
  8
0
100
AcDbCircle
 62
7
  6
CONTINUOUS
 10
14.154721233
 20
12.1441674423
 40
0.4070657415
100
AcDbArc
 50
155.9112714062
 51
159.3742487403
  0
ARC
  5
3D2
100
AcDbEntity
  8
0
100
AcDbCircle
 62
7
  6
CONTINUOUS
 10
14.1522822972
 20
12.1451194367
 40
0.4044477877
100
AcDbArc
 50
159.3787575793
 51
159.9609158934
  0
ARC
  5
3D3
100
AcDbEntity
  8
0
100
AcDbCircle
 62
7
  6
CONTINUOUS
 10
14.151549588
 20
12.1453847883
 40
0.4036685118
100
AcDbArc
 50
159.9606626823
 51
162.8267912621
  0
ARC
  5
3D4
100
AcDbEntity
  8
0
100
AcDbCircle
 62
7
  6
CONTINUOUS
 10
13.3456661064
 20
12.110229144
 40
0.3638563525
100
AcDbArc
 50
90.0006817456
 51
90.6487743857
  0
ARC
  5
3D5
100
AcDbEntity
  8
0
100
AcDbCircle
 62
7
  6
CONTINUOUS
 10
14.2645366415
 20
12.1104534318
 40
0.3473792672
100
AcDbArc
 50
155.2281390817
 51
162.8241789657
  0
ARC
  5
3D6
100
AcDbEntity
  8
0
100
AcDbCircle
 62
7
  6
CONTINUOUS
 10
14.2731612802
 20
12.1421328427
 40
0.3462661632
100
AcDbArc
 50
160.6475402996
 51
162.8272322186
  0
ARC
  5
3D7
100
AcDbEntity
  8
0
100
AcDbCircle
 62
7
  6
CONTINUOUS
 10
13.2068420765
 20
12.1330624845
 40
0.262864605
100
AcDbArc
 50
161.3445720492
 51
162.8225467635
  0
ARC
  5
3D8
100
AcDbEntity
  8
0
100
AcDbCircle
 62
7
  6
CONTINUOUS
 10
13.3579729469
 20
12.055281959
 40
0.1452496794
100
AcDbArc
 50
162.8045223507
 51
166.573494422
  0
ARC
  5
3D9
100
AcDbEntity
  8
0
100
AcDbCircle
 62
7
  6
CONTINUOUS
 10
14.6282367192
 20
12.3835500713
 40
0.0721042706
100
AcDbArc
 50
19.3573673817
 51
26.1504672073
  0
ARC
  5
3DA
100
AcDbEntity
  8
0
100
AcDbCircle
 62
7
  6
CONTINUOUS
 10
14.6375337321
 20
12.3783613986
 40
0.0660449753
100
AcDbArc
 50
28.2182757206
 51
40.9870902917
  0
ARC
  5
3DB
100
AcDbEntity
  8
0
100
AcDbCircle
 62
7
  6
CONTINUOUS
 10
14.5211736643
 20
12.3310809788
 40
0.0586654023
100
AcDbArc
 50
206.1850210075
 51
222.0108490715
  0
ARC
  5
3DC
100
AcDbEntity
  8
0
100
AcDbCircle
 62
7
  6
CONTINUOUS
 10
15.1942066966
 20
11.8569241288
 40
0.8976073612
100
AcDbArc
 50
283.2286623202
 51
284.5804664285
  0
ARC
  5
3DD
100
AcDbEntity
  8
0
100
AcDbCircle
 62
7
  6
CONTINUOUS
 10
15.3926609387
 20
11.6722117036
 40
0.5910312553
100
AcDbArc
 50
22.839206688
 51
26.1233942415
  0
ARC
  5
3DE
100
AcDbEntity
  8
0
100
AcDbCircle
 62
7
  6
CONTINUOUS
 10
15.7373924506
 20
11.6898971058
 40
0.4070657833
100
AcDbArc
 50
335.9112717702
 51
339.3742521931
  0
ARC
  5
3DF
100
AcDbEntity
  8
0
100
AcDbCircle
 62
7
  6
CONTINUOUS
 10
15.729097337
 20
11.6579747805
 40
0.405558577
100
AcDbArc
 50
335.9072607256
 51
342.8164329768
  0
ARC
  5
3E0
100
AcDbEntity
  8
0
100
AcDbCircle
 62
7
  6
CONTINUOUS
 10
15.6178944284
 20
11.6922780252
 40
0.3473792672
100
AcDbArc
 50
335.2281390817
 51
342.8241789657
  0
ARC
  5
3E1
100
AcDbEntity
  8
0
100
AcDbCircle
 62
7
  6
CONTINUOUS
 10
15.9960382515
 20
11.7262009592
 40
0.222026525
100
AcDbArc
 50
197.9768641826
 51
199.2857207689
  0
ARC
  5
3E2
100
AcDbEntity
  8
0
100
AcDbCircle
 62
7
  6
CONTINUOUS
 10
15.9739719989
 20
11.7184709093
 40
0.1986454836
100
AcDbArc
 50
199.283343664
 51
201.6754549731
  0
ARC
  5
3E3
100
AcDbEntity
  8
0
100
AcDbCircle
 62
7
  6
CONTINUOUS
 10
15.7337727156
 20
11.6856973382
 40
0.1251770542
100
AcDbArc
 50
334.5040756993
 51
336.5995724093
  0
ARC
  5
3E4
100
AcDbEntity
  8
0
100
AcDbCircle
 62
7
  6
CONTINUOUS
 10
15.7772696401
 20
11.7921679192
 40
0.0861962394
100
AcDbArc
 50
26.1317707457
 51
28.2115012103
  0
ARC
  5
3E5
100
AcDbEntity
  8
0
100
AcDbCircle
 62
7
  6
CONTINUOUS
 10
15.7998017316
 20
11.7932722907
 40
0.0544025997
100
AcDbArc
 50
34.7066164085
 51
36.8665912243
  0
ARC
  5
3E6
100
AcDbEntity
  8
0
100
AcDbCircle
 62
7
  6
CONTINUOUS
 10
15.4859568549
 20
12.0110598058
 40
0.8219203846
100
AcDbArc
 50
293.1752849025
 51
295.7634621631
  0
ARC
  5
3E7
100
AcDbEntity
  8
0
100
AcDbCircle
 62
7
  6
CONTINUOUS
 10
17.0997832351
 20
12.055281959
 40
0.1452496794
100
AcDbArc
 50
162.8045223507
 51
166.573494422
  0
ARC
  5
3E8
100
AcDbEntity
  8
0
100
AcDbCircle
 62
7
  6
CONTINUOUS
 10
15.875537768
 20
13.3328767136
 40
0.0677429181
100
AcDbArc
 50
125.4734312518
 51
140.6489260487
  0
ARC
  5
3E9
100
AcDbEntity
  8
0
100
AcDbCircle
 62
7
  6
CONTINUOUS
 10
15.9480138572
 20
13.3558612041
 40
0.0639878628
100
AcDbArc
 50
162.8895848822
 51
178.4103140879
  0
SPLINE
  5
3EA
100
AcDbEntity
  8
0
100
AcDbSpline
 62
7
  6
CONTINUOUS
 70
0
 71
3
 72
11
 73
7
 74
0
 42
0.0000001
 43
0.0000001
 44
0.0000000001
 40
0.0
 40
0.0
 40
0.0
 40
0.0
 40
0.261622114
 40
0.5144716143
 40
0.7595866583
 40
1.0
 40
1.0
 40
1.0
 40
1.0
 10
7.2712231374
 20
6.8296893761
 30
0.0
 10
7.2699301825
 20
6.8345147495
 30
0.0
 10
7.2670204
 20
6.8439133908
 30
0.0
 10
7.2612960714
 20
6.8572770235
 30
0.0
 10
7.254038504
 20
6.8694217006
 30
0.0
 10
7.2480384866
 20
6.8765569186
 30
0.0
 10
7.2447924287
 20
6.8798029765
 30
0.0
  0
SPLINE
  5
3EB
100
AcDbEntity
  8
0
100
AcDbSpline
 62
7
  6
CONTINUOUS
 70
0
 71
3
 72
10
 73
6
 74
0
 42
0.0000001
 43
0.0000001
 44
0.0000000001
 40
0.0
 40
0.0
 40
0.0
 40
0.0
 40
0.2500544563
 40
0.5001241815
 40
1.0
 40
1.0
 40
1.0
 40
1.0
 10
7.3596088923
 20
6.7649865129
 30
0.0
 10
7.3531339251
 20
6.7714614801
 30
0.0
 10
7.3396225411
 20
6.7838643141
 30
0.0
 10
7.3106976402
 20
6.8063716517
 30
0.0
 10
7.2872492245
 20
6.8208432722
 30
0.0
 10
7.2712231374
 20
6.8296893761
 30
0.0
  0
SPLINE
  5
3EC
100
AcDbEntity
  8
0
100
AcDbSpline
 62
7
  6
CONTINUOUS
 70
0
 71
3
 72
10
 73
6
 74
0
 42
0.0000001
 43
0.0000001
 44
0.0000000001
 40
0.0
 40
0.0
 40
0.0
 40
0.0
 40
0.2500495144
 40
0.5001147839
 40
1.0
 40
1.0
 40
1.0
 40
1.0
 10
7.3596088923
 20
6.7649865129
 30
0.0
 10
7.3660837269
 20
6.7585116783
 30
0.0
 10
7.3784860981
 20
6.7450003412
 30
0.0
 10
7.4009931405
 20
6.7160752842
 30
0.0
 10
7.4154654916
 20
6.692627135
 30
0.0
 10
7.4243117556
 20
6.676600758
 30
0.0
  0
SPLINE
  5
3ED
100
AcDbEntity
  8
0
100
AcDbSpline
 62
7
  6
CONTINUOUS
 70
0
 71
3
 72
9
 73
5
 74
0
 42
0.0000001
 43
0.0000001
 44
0.0000000001
 40
0.0
 40
0.0
 40
0.0
 40
0.0
 40
0.2545545729
 40
1.0
 40
1.0
 40
1.0
 40
1.0
 10
7.1946788284
 20
6.9062336852
 30
0.0
 10
7.1964169039
 20
6.9057679693
 30
0.0
 10
7.2032181647
 20
6.9038434526
 30
0.0
 10
7.2099071934
 20
6.9014989015
 30
0.0
 10
7.214759317
 20
6.8994438341
 30
0.0
  0
SPLINE
  5
3EE
100
AcDbEntity
  8
0
100
AcDbSpline
 62
7
  6
CONTINUOUS
 70
0
 71
3
 72
9
 73
5
 74
0
 42
0.0000001
 43
0.0000001
 44
0.0000000001
 40
0.0
 40
0.0
 40
0.0
 40
0.0
 40
0.5075171196
 40
1.0
 40
1.0
 40
1.0
 40
1.0
 10
7.214759317
 20
6.8994438341
 30
0.0
 10
7.2203759684
 20
6.8970649588
 30
0.0
 10
7.2311293861
 20
6.891550755
 30
0.0
 10
7.2406070873
 20
6.8839883179
 30
0.0
 10
7.2447924287
 20
6.8798029765
 30
0.0
  0
SPLINE
  5
3EF
100
AcDbEntity
  8
0
100
AcDbSpline
 62
7
  6
CONTINUOUS
 70
0
 71
3
 72
11
 73
7
 74
0
 42
0.0000001
 43
0.0000001
 44
0.0000000001
 40
0.0
 40
0.0
 40
0.0
 40
0.0
 40
0.2616288969
 40
0.5144797213
 40
0.7595909956
 40
1.0
 40
1.0
 40
1.0
 40
1.0
 10
7.4243117556
 20
6.676600758
 30
0.0
 10
7.4291372468
 20
6.6753077715
 30
0.0
 10
7.4385362101
 20
6.6723984484
 30
0.0
 10
7.4518993818
 20
6.6666728689
 30
0.0
 10
7.4640440728
 20
6.6594157599
 30
0.0
 10
7.4711793615
 20
6.6534160438
 30
0.0
 10
7.4744253559
 20
6.6501700493
 30
0.0
  0
SPLINE
  5
3F0
100
AcDbEntity
  8
0
100
AcDbSpline
 62
7
  6
CONTINUOUS
 70
0
 71
3
 72
11
 73
7
 74
0
 42
0.0000001
 43
0.0000001
 44
0.0000000001
 40
0.0
 40
0.0
 40
0.0
 40
0.0
 40
0.261622114
 40
0.5144716143
 40
0.7595866583
 40
1.0
 40
1.0
 40
1.0
 40
1.0
 10
7.5008560646
 20
6.600056449
 30
0.0
 10
7.4995631097
 20
6.6048818223
 30
0.0
 10
7.4966533272
 20
6.6142804636
 30
0.0
 10
7.4909289986
 20
6.6276440963
 30
0.0
 10
7.4836714312
 20
6.6397887734
 30
0.0
 10
7.4776714138
 20
6.6469239914
 30
0.0
 10
7.4744253559
 20
6.6501700493
 30
0.0
  0
SPLINE
  5
3F1
100
AcDbEntity
  8
0
100
AcDbSpline
 62
7
  6
CONTINUOUS
 70
0
 71
3
 72
19
 73
15
 74
0
 42
0.0000001
 43
0.0000001
 44
0.0000000001
 40
0.0
 40
0.0
 40
0.0
 40
0.0
 40
0.1269850942
 40
0.2530785015
 40
0.3157384598
 40
0.3781992458
 40
0.4404951029
 40
0.5027324438
 40
0.5649433506
 40
0.6271605609
 40
0.6894054363
 40
0.7516570165
 40
0.8758038045
 40
1.0
 40
1.0
 40
1.0
 40
1.0
 10
7.4604802537
 20
12.8109852814
 30
0.0
 10
7.4604802537
 20
12.80497897
 30
0.0
 10
7.4591334928
 20
12.7929675592
 30
0.0
 10
7.4540761038
 20
12.7787560935
 30
0.0
 10
7.4480686255
 20
12.7684711548
 30
0.0
 10
7.4426283795
 20
12.7614388023
 30
0.0
 10
7.4363076116
 20
12.7552118361
 30
0.0
 10
7.4291771585
 20
12.749947541
 30
0.0
 10
7.4213647338
 20
12.7457657077
 30
0.0
 10
7.4130129496
 20
12.7427994826
 30
0.0
 10
7.4043050674
 20
12.741126675
 30
0.0
 10
7.3925122679
 20
12.7407007516
 30
0.0
 10
7.377859076
 20
12.7435797942
 30
0.0
 10
7.367365988
 20
12.7492851986
 30
0.0
 10
7.362656765
 20
12.7527968611
 30
0.0
  0
SPLINE
  5
3F2
100
AcDbEntity
  8
0
100
AcDbSpline
 62
7
  6
CONTINUOUS
 70
0
 71
3
 72
17
 73
13
 74
0
 42
0.0000001
 43
0.0000001
 44
0.0000000001
 40
0.0
 40
0.0
 40
0.0
 40
0.0
 40
0.124156429
 40
0.2483306512
 40
0.3725409049
 40
0.4967562236
 40
0.5590506614
 40
0.6214300341
 40
0.6839749217
 40
0.7467148487
 40
0.872949093
 40
1.0
 40
1.0
 40
1.0
 40
1.0
 10
7.3653402582
 20
12.8710648101
 30
0.0
 10
7.370114041
 20
12.8742404231
 30
0.0
 10
7.380630633
 20
12.8792713455
 30
0.0
 10
7.3978937898
 20
12.8818562556
 30
0.0
 10
7.4151585612
 20
12.8792148293
 30
0.0
 10
7.4282797354
 20
12.8728857691
 30
0.0
 10
7.4373746303
 20
12.8658094942
 30
0.0
 10
7.4434275576
 20
12.8595980538
 30
0.0
 10
7.4486301921
 20
12.8526370433
 30
0.0
 10
7.4543682806
 20
12.8425076515
 30
0.0
 10
7.4591948344
 20
12.8285873759
 30
0.0
 10
7.4604802537
 20
12.8168524918
 30
0.0
 10
7.4604802537
 20
12.8109852814
 30
0.0
  0
SPLINE
  5
3F3
100
AcDbEntity
  8
0
100
AcDbSpline
 62
7
  6
CONTINUOUS
 70
0
 71
3
 72
10
 73
6
 74
0
 42
0.0000001
 43
0.0000001
 44
0.0000000001
 40
0.0
 40
0.0
 40
0.0
 40
0.0
 40
0.5068446432
 40
0.7557766083
 40
1.0
 40
1.0
 40
1.0
 40
1.0
 10
7.3648165633
 20
12.9984797813
 30
0.0
 10
7.3745520943
 20
12.9833613361
 30
0.0
 10
7.3884099229
 20
12.9603639471
 30
0.0
 10
7.404551758
 20
12.9287565245
 30
0.0
 10
7.4116552607
 20
12.9127543725
 30
0.0
 10
7.4149301636
 20
12.9047325313
 30
0.0
  0
SPLINE
  5
3F4
100
AcDbEntity
  8
0
100
AcDbSpline
 62
7
  6
CONTINUOUS
 70
0
 71
3
 72
10
 73
6
 74
0
 42
0.0000001
 43
0.0000001
 44
0.0000000001
 40
0.0
 40
0.0
 40
0.0
 40
0.0
 40
0.5068533123
 40
0.7557809909
 40
1.0
 40
1.0
 40
1.0
 40
1.0
 10
7.3648165633
 20
12.6234907814
 30
0.0
 10
7.3745522581
 20
12.6386094809
 30
0.0
 10
7.3884098012
 20
12.6616072142
 30
0.0
 10
7.4045517512
 20
12.6932145523
 30
0.0
 10
7.4116553204
 20
12.7092163365
 30
0.0
 10
7.4149301636
 20
12.7172380314
 30
0.0
  0
SPLINE
  5
3F5
100
AcDbEntity
  8
0
100
AcDbSpline
 62
7
  6
CONTINUOUS
 70
0
 71
3
 72
12
 73
8
 74
0
 42
0.0000001
 43
0.0000001
 44
0.0000000001
 40
0.0
 40
0.0
 40
0.0
 40
0.0
 40
0.2698222795
 40
0.5306916798
 40
0.6555209273
 40
0.7756758714
 40
1.0
 40
1.0
 40
1.0
 40
1.0
 10
7.2451112824
 20
12.8109852814
 30
0.0
 10
7.2451112824
 20
12.8015084025
 30
0.0
 10
7.2468183442
 20
12.7828255067
 30
0.0
 10
7.253225505
 20
12.7605447401
 30
0.0
 10
7.2608015704
 20
12.7444325067
 30
0.0
 10
7.2694581591
 20
12.7303848408
 30
0.0
 10
7.2776782439
 20
12.7212467829
 30
0.0
 10
7.2837811845
 20
12.7162637528
 30
0.0
  0
SPLINE
  5
3F6
100
AcDbEntity
  8
0
100
AcDbSpline
 62
7
  6
CONTINUOUS
 70
0
 71
3
 72
15
 73
11
 74
0
 42
0.0000001
 43
0.0000001
 44
0.0000000001
 40
0.0
 40
0.0
 40
0.0
 40
0.0
 40
0.1311474841
 40
0.2573719437
 40
0.3797213992
 40
0.5
 40
0.6202786008
 40
0.7426280563
 40
0.8688525159
 40
1.0
 40
1.0
 40
1.0
 40
1.0
 10
7.2837811845
 20
12.7162637528
 30
0.0
 10
7.2866346014
 20
12.7139339477
 30
0.0
 10
7.2925800222
 20
12.709762749
 30
0.0
 10
7.302221597
 20
12.7050897912
 30
0.0
 10
7.3122438209
 20
12.7022499795
 30
0.0
 10
7.3224510866
 20
12.7012938642
 30
0.0
 10
7.3326583522
 20
12.7022499795
 30
0.0
 10
7.3426805761
 20
12.7050897912
 30
0.0
 10
7.3523221509
 20
12.709762749
 30
0.0
 10
7.3582675717
 20
12.7139339477
 30
0.0
 10
7.3611209887
 20
12.7162637528
 30
0.0
  0
SPLINE
  5
3F7
100
AcDbEntity
  8
0
100
AcDbSpline
 62
7
  6
CONTINUOUS
 70
0
 71
3
 72
14
 73
10
 74
0
 42
0.0000001
 43
0.0000001
 44
0.0000000001
 40
0.0
 40
0.0
 40
0.0
 40
0.0
 40
0.3092384889
 40
0.4495396106
 40
0.5773734465
 40
0.6938429591
 40
0.8011792142
 40
0.9022164407
 40
1.0
 40
1.0
 40
1.0
 40
1.0
 10
4.2701792506
 20
12.0391102814
 30
0.0
 10
4.2701792506
 20
12.0355274741
 30
0.0
 10
4.2710432867
 20
12.0302515118
 30
0.0
 10
4.2738341486
 20
12.0241435675
 30
0.0
 10
4.2764010575
 20
12.0204678173
 30
0.0
 10
4.2793478644
 20
12.0176166675
 30
0.0
 10
4.2825531493
 20
12.0155901181
 30
0.0
 10
4.2859176351
 20
12.0143802511
 30
0.0
 10
4.2882295144
 20
12.0141102814
 30
0.0
 10
4.2893624253
 20
12.0141102814
 30
0.0
  0
SPLINE
  5
3F8
100
AcDbEntity
  8
0
100
AcDbSpline
 62
7
  6
CONTINUOUS
 70
0
 71
3
 72
9
 73
5
 74
0
 42
0.0000001
 43
0.0000001
 44
0.0000000001
 40
0.0
 40
0.0
 40
0.0
 40
0.0
 40
0.4836698172
 40
1.0
 40
1.0
 40
1.0
 40
1.0
 10
7.3611209887
 20
12.7162637528
 30
0.0
 10
7.3654227328
 20
12.7197761122
 30
0.0
 10
7.3735356106
 20
12.7280237651
 30
0.0
 10
7.3799863982
 20
12.737597075
 30
0.0
 10
7.3828996992
 20
12.7427604285
 30
0.0
  0
SPLINE
  5
3F9
100
AcDbEntity
  8
0
100
AcDbSpline
 62
7
  6
CONTINUOUS
 70
0
 71
3
 72
14
 73
10
 74
0
 42
0.0000001
 43
0.0000001
 44
0.0000000001
 40
0.0
 40
0.0
 40
0.0
 40
0.0
 40
0.3092384847
 40
0.4495396139
 40
0.5773734558
 40
0.6938429729
 40
0.8011792254
 40
0.9022164448
 40
1.0
 40
1.0
 40
1.0
 40
1.0
 10
4.2701792506
 20
13.5828602814
 30
0.0
 10
4.2701792506
 20
13.5864430886
 30
0.0
 10
4.2710432868
 20
13.5917190509
 30
0.0
 10
4.2738341486
 20
13.5978269953
 30
0.0
 10
4.2764010577
 20
13.6015027457
 30
0.0
 10
4.2793478647
 20
13.6043538956
 30
0.0
 10
4.2825531496
 20
13.6063804448
 30
0.0
 10
4.2859176353
 20
13.6075903117
 30
0.0
 10
4.2882295145
 20
13.6078602814
 30
0.0
 10
4.2893624253
 20
13.6078602814
 30
0.0
  0
SPLINE
  5
3FA
100
AcDbEntity
  8
0
100
AcDbSpline
 62
7
  6
CONTINUOUS
 70
0
 71
3
 72
14
 73
10
 74
0
 42
0.0000001
 43
0.0000001
 44
0.0000000001
 40
0.0
 40
0.0
 40
0.0
 40
0.0
 40
0.3092384889
 40
0.4495396106
 40
0.5773734465
 40
0.6938429591
 40
0.8011792141
 40
0.9022164407
 40
1.0
 40
1.0
 40
1.0
 40
1.0
 10
7.8715649171
 20
12.0391102814
 30
0.0
 10
7.8715649171
 20
12.0355274741
 30
0.0
 10
7.870700881
 20
12.0302515118
 30
0.0
 10
7.8679100191
 20
12.0241435675
 30
0.0
 10
7.8653431103
 20
12.0204678173
 30
0.0
 10
7.8623963033
 20
12.0176166675
 30
0.0
 10
7.8591910184
 20
12.0155901181
 30
0.0
 10
7.8558265326
 20
12.0143802511
 30
0.0
 10
7.8535146533
 20
12.0141102814
 30
0.0
 10
7.8523817424
 20
12.0141102814
 30
0.0
  0
SPLINE
  5
3FB
100
AcDbEntity
  8
0
100
AcDbSpline
 62
7
  6
CONTINUOUS
 70
0
 71
3
 72
9
 73
5
 74
0
 42
0.0000001
 43
0.0000001
 44
0.0000000001
 40
0.0
 40
0.0
 40
0.0
 40
0.0
 40
0.2536405184
 40
1.0
 40
1.0
 40
1.0
 40
1.0
 10
7.4251283376
 20
12.7485603121
 30
0.0
 10
7.4244532621
 20
12.7458569823
 30
0.0
 10
7.4216083387
 20
12.7352458394
 30
0.0
 10
7.4180291188
 20
12.7248288904
 30
0.0
 10
7.4149301636
 20
12.7172380314
 30
0.0
  0
SPLINE
  5
3FC
100
AcDbEntity
  8
0
100
AcDbSpline
 62
7
  6
CONTINUOUS
 70
0
 71
3
 72
9
 73
5
 74
0
 42
0.0000001
 43
0.0000001
 44
0.0000000001
 40
0.0
 40
0.0
 40
0.0
 40
0.0
 40
0.2461911588
 40
1.0
 40
1.0
 40
1.0
 40
1.0
 10
7.4149301636
 20
12.9047325313
 30
0.0
 10
7.4159564427
 20
12.9022186713
 30
0.0
 10
7.4199320849
 20
12.8919296301
 30
0.0
 10
7.4231501239
 20
12.8813503423
 30
0.0
 10
7.4251600566
 20
12.8732830866
 30
0.0
  0
SPLINE
  5
3FD
100
AcDbEntity
  8
0
100
AcDbSpline
 62
7
  6
CONTINUOUS
 70
0
 71
3
 72
15
 73
11
 74
0
 42
0.0000001
 43
0.0000001
 44
0.0000000001
 40
0.0
 40
0.0
 40
0.0
 40
0.0
 40
0.1105930552
 40
0.2231221478
 40
0.3390738466
 40
0.4597870272
 40
0.5860705773
 40
0.7182935726
 40
0.8564816434
 40
1.0
 40
1.0
 40
1.0
 40
1.0
 10
7.3001137
 20
12.9984797813
 30
0.0
 10
7.3059046388
 20
12.9984797813
 30
0.0
 10
7.3176152943
 20
12.9973823815
 30
0.0
 10
7.3347841258
 20
12.9925160916
 30
0.0
 10
7.3513223187
 20
12.9845133792
 30
0.0
 10
7.3669332393
 20
12.9735425249
 30
0.0
 10
7.3813710121
 20
12.959814269
 30
0.0
 10
7.3943982327
 20
12.9435606453
 30
0.0
 10
7.4057975634
 20
12.9250694908
 30
0.0
 10
7.4120897633
 20
12.9116900628
 30
0.0
 10
7.4149301636
 20
12.9047325313
 30
0.0
  0
SPLINE
  5
3FE
100
AcDbEntity
  8
0
100
AcDbSpline
 62
7
  6
CONTINUOUS
 70
0
 71
3
 72
15
 73
11
 74
0
 42
0.0000001
 43
0.0000001
 44
0.0000000001
 40
0.0
 40
0.0
 40
0.0
 40
0.0
 40
0.1435183566
 40
0.2817064274
 40
0.4139294227
 40
0.5402129728
 40
0.6609261534
 40
0.7768778522
 40
0.8894069448
 40
1.0
 40
1.0
 40
1.0
 40
1.0
 10
7.1852972364
 20
12.9047325313
 30
0.0
 10
7.1881376367
 20
12.9116900628
 30
0.0
 10
7.1944298366
 20
12.9250694908
 30
0.0
 10
7.2058291673
 20
12.9435606453
 30
0.0
 10
7.218856388
 20
12.959814269
 30
0.0
 10
7.2332941607
 20
12.9735425249
 30
0.0
 10
7.2489050814
 20
12.9845133792
 30
0.0
 10
7.2654432743
 20
12.9925160916
 30
0.0
 10
7.2826121058
 20
12.9973823815
 30
0.0
 10
7.2943227612
 20
12.9984797813
 30
0.0
 10
7.3001137
 20
12.9984797813
 30
0.0
  0
SPLINE
  5
3FF
100
AcDbEntity
  8
0
100
AcDbSpline
 62
7
  6
CONTINUOUS
 70
0
 71
3
 72
15
 73
11
 74
0
 42
0.0000001
 43
0.0000001
 44
0.0000000001
 40
0.0
 40
0.0
 40
0.0
 40
0.0
 40
0.1105930552
 40
0.2231221478
 40
0.3390738466
 40
0.4597870272
 40
0.5860705773
 40
0.7182935726
 40
0.8564816434
 40
1.0
 40
1.0
 40
1.0
 40
1.0
 10
7.3001137
 20
12.6234907814
 30
0.0
 10
7.2943227612
 20
12.6234907814
 30
0.0
 10
7.2826121058
 20
12.6245881812
 30
0.0
 10
7.2654432743
 20
12.6294544711
 30
0.0
 10
7.2489050814
 20
12.6374571835
 30
0.0
 10
7.2332941607
 20
12.6484280378
 30
0.0
 10
7.218856388
 20
12.6621562938
 30
0.0
 10
7.2058291673
 20
12.6784099174
 30
0.0
 10
7.1944298366
 20
12.6969010719
 30
0.0
 10
7.1881376367
 20
12.7102805
 30
0.0
 10
7.1852972364
 20
12.7172380314
 30
0.0
  0
SPLINE
  5
400
100
AcDbEntity
  8
0
100
AcDbSpline
 62
7
  6
CONTINUOUS
 70
0
 71
3
 72
15
 73
11
 74
0
 42
0.0000001
 43
0.0000001
 44
0.0000000001
 40
0.0
 40
0.0
 40
0.0
 40
0.0
 40
0.1435183566
 40
0.2817064274
 40
0.4139294227
 40
0.5402129728
 40
0.6609261534
 40
0.7768778522
 40
0.8894069448
 40
1.0
 40
1.0
 40
1.0
 40
1.0
 10
7.4149301636
 20
12.7172380314
 30
0.0
 10
7.4120897633
 20
12.7102805
 30
0.0
 10
7.4057975634
 20
12.6969010719
 30
0.0
 10
7.3943982327
 20
12.6784099174
 30
0.0
 10
7.3813710121
 20
12.6621562938
 30
0.0
 10
7.3669332393
 20
12.6484280378
 30
0.0
 10
7.3513223187
 20
12.6374571835
 30
0.0
 10
7.3347841258
 20
12.6294544711
 30
0.0
 10
7.3176152943
 20
12.6245881812
 30
0.0
 10
7.3059046388
 20
12.6234907814
 30
0.0
 10
7.3001137
 20
12.6234907814
 30
0.0
  0
SPLINE
  5
401
100
AcDbEntity
  8
0
100
AcDbSpline
 62
7
  6
CONTINUOUS
 70
0
 71
3
 72
11
 73
7
 74
0
 42
0.0000001
 43
0.0000001
 44
0.0000000001
 40
0.0
 40
0.0
 40
0.0
 40
0.0
 40
0.2457961612
 40
0.5
 40
0.7542038388
 40
1.0
 40
1.0
 40
1.0
 40
1.0
 10
7.1852972364
 20
12.9047325313
 30
0.0
 10
7.1793603682
 20
12.8901902336
 30
0.0
 10
7.1704557471
 20
12.8592415169
 30
0.0
 10
7.1660520495
 20
12.8109852814
 30
0.0
 10
7.1704557471
 20
12.7627290458
 30
0.0
 10
7.1793603682
 20
12.7317803292
 30
0.0
 10
7.1852972364
 20
12.7172380314
 30
0.0
  0
SPLINE
  5
402
100
AcDbEntity
  8
0
100
AcDbSpline
 62
7
  6
CONTINUOUS
 70
0
 71
3
 72
10
 73
6
 74
0
 42
0.0000001
 43
0.0000001
 44
0.0000000001
 40
0.0
 40
0.0
 40
0.0
 40
0.0
 40
0.5068446432
 40
0.7557766083
 40
1.0
 40
1.0
 40
1.0
 40
1.0
 10
7.1351836361
 20
12.8109852814
 30
0.0
 10
7.1449191672
 20
12.8261037265
 30
0.0
 10
7.1587769957
 20
12.8491011156
 30
0.0
 10
7.1749188308
 20
12.8807085382
 30
0.0
 10
7.1820223335
 20
12.8967106902
 30
0.0
 10
7.1852972364
 20
12.9047325313
 30
0.0
  0
SPLINE
  5
403
100
AcDbEntity
  8
0
100
AcDbSpline
 62
7
  6
CONTINUOUS
 70
0
 71
3
 72
12
 73
8
 74
0
 42
0.0000001
 43
0.0000001
 44
0.0000000001
 40
0.0
 40
0.0
 40
0.0
 40
0.0
 40
0.2243241286
 40
0.3444790727
 40
0.4693083202
 40
0.7301777205
 40
1.0
 40
1.0
 40
1.0
 40
1.0
 10
7.2837811845
 20
12.9057068099
 30
0.0
 10
7.2776782439
 20
12.9007237798
 30
0.0
 10
7.2694581591
 20
12.8915857219
 30
0.0
 10
7.2608015704
 20
12.877538056
 30
0.0
 10
7.253225505
 20
12.8614258226
 30
0.0
 10
7.2468183442
 20
12.839145056
 30
0.0
 10
7.2451112824
 20
12.8204621603
 30
0.0
 10
7.2451112824
 20
12.8109852814
 30
0.0
  0
SPLINE
  5
404
100
AcDbEntity
  8
0
100
AcDbSpline
 62
7
  6
CONTINUOUS
 70
0
 71
3
 72
14
 73
10
 74
0
 42
0.0000001
 43
0.0000001
 44
0.0000000001
 40
0.0
 40
0.0
 40
0.0
 40
0.0
 40
0.3092384889
 40
0.4495396106
 40
0.5773734465
 40
0.6938429591
 40
0.8011792141
 40
0.9022164407
 40
1.0
 40
1.0
 40
1.0
 40
1.0
 10
7.8715649171
 20
13.5828602814
 30
0.0
 10
7.8715649171
 20
13.5864430886
 30
0.0
 10
7.870700881
 20
13.5917190509
 30
0.0
 10
7.8679100191
 20
13.5978269952
 30
0.0
 10
7.8653431103
 20
13.6015027454
 30
0.0
 10
7.8623963033
 20
13.6043538953
 30
0.0
 10
7.8591910184
 20
13.6063804447
 30
0.0
 10
7.8558265326
 20
13.6075903116
 30
0.0
 10
7.8535146533
 20
13.6078602814
 30
0.0
 10
7.8523817424
 20
13.6078602814
 30
0.0
  0
SPLINE
  5
405
100
AcDbEntity
  8
0
100
AcDbSpline
 62
7
  6
CONTINUOUS
 70
0
 71
3
 72
10
 73
6
 74
0
 42
0.0000001
 43
0.0000001
 44
0.0000000001
 40
0.0
 40
0.0
 40
0.0
 40
0.0
 40
0.2600796429
 40
0.5132799158
 40
1.0
 40
1.0
 40
1.0
 40
1.0
 10
7.1852972364
 20
12.9047325313
 30
0.0
 10
7.1884943811
 20
12.9125639043
 30
0.0
 10
7.1943494776
 20
12.9282107316
 30
0.0
 10
7.2039079364
 20
12.9593138365
 30
0.0
 10
7.209036295
 20
12.9828801748
 30
0.0
 10
7.2117279451
 20
12.9984797813
 30
0.0
  0
SPLINE
  5
406
100
AcDbEntity
  8
0
100
AcDbSpline
 62
7
  6
CONTINUOUS
 70
0
 71
3
 72
11
 73
7
 74
0
 42
0.0000001
 43
0.0000001
 44
0.0000000001
 40
0.0
 40
0.0
 40
0.0
 40
0.0
 40
0.2403772026
 40
0.4867964111
 40
0.7399596699
 40
1.0
 40
1.0
 40
1.0
 40
1.0
 10
7.2117279451
 20
12.6234907814
 30
0.0
 10
7.2103984178
 20
12.6311961304
 30
0.0
 10
7.2073756756
 20
12.6467463565
 30
0.0
 10
7.2016104693
 20
12.6701273875
 30
0.0
 10
7.1943495627
 20
12.6937604678
 30
0.0
 10
7.1884943738
 20
12.7094066763
 30
0.0
 10
7.1852972364
 20
12.7172380314
 30
0.0
  0
SPLINE
  5
407
100
AcDbEntity
  8
0
100
AcDbSpline
 62
7
  6
CONTINUOUS
 70
0
 71
3
 72
9
 73
5
 74
0
 42
0.0000001
 43
0.0000001
 44
0.0000000001
 40
0.0
 40
0.0
 40
0.0
 40
0.0
 40
0.5163868658
 40
1.0
 40
1.0
 40
1.0
 40
1.0
 10
7.3829720904
 20
12.8790816351
 30
0.0
 10
7.3800528696
 20
12.8842714274
 30
0.0
 10
7.3735848665
 20
12.8938929753
 30
0.0
 10
7.3654405747
 20
12.9021798827
 30
0.0
 10
7.3611209887
 20
12.9057068099
 30
0.0
  0
SPLINE
  5
408
100
AcDbEntity
  8
0
100
AcDbSpline
 62
7
  6
CONTINUOUS
 70
0
 71
3
 72
15
 73
11
 74
0
 42
0.0000001
 43
0.0000001
 44
0.0000000001
 40
0.0
 40
0.0
 40
0.0
 40
0.0
 40
0.1311474841
 40
0.2573719437
 40
0.3797213992
 40
0.5
 40
0.6202786008
 40
0.7426280563
 40
0.8688525159
 40
1.0
 40
1.0
 40
1.0
 40
1.0
 10
7.3611209887
 20
12.9057068099
 30
0.0
 10
7.3582675717
 20
12.9080366151
 30
0.0
 10
7.3523221509
 20
12.9122078137
 30
0.0
 10
7.3426805761
 20
12.9168807715
 30
0.0
 10
7.3326583522
 20
12.9197205832
 30
0.0
 10
7.3224510866
 20
12.9206766985
 30
0.0
 10
7.3122438209
 20
12.9197205832
 30
0.0
 10
7.302221597
 20
12.9168807715
 30
0.0
 10
7.2925800222
 20
12.9122078137
 30
0.0
 10
7.2866346014
 20
12.9080366151
 30
0.0
 10
7.2837811845
 20
12.9057068099
 30
0.0
  0
SPLINE
  5
409
100
AcDbEntity
  8
0
100
AcDbSpline
 62
7
  6
CONTINUOUS
 70
0
 71
3
 72
10
 73
6
 74
0
 42
0.0000001
 43
0.0000001
 44
0.0000000001
 40
0.0
 40
0.0
 40
0.0
 40
0.0
 40
0.5068533123
 40
0.7557809909
 40
1.0
 40
1.0
 40
1.0
 40
1.0
 10
7.1351836361
 20
12.8109852814
 30
0.0
 10
7.1449193309
 20
12.7958665819
 30
0.0
 10
7.158776874
 20
12.7728688486
 30
0.0
 10
7.174918824
 20
12.7412615105
 30
0.0
 10
7.1820223932
 20
12.7252597263
 30
0.0
 10
7.1852972364
 20
12.7172380314
 30
0.0
  0
SPLINE
  5
40A
100
AcDbEntity
  8
0
100
AcDbSpline
 62
7
  6
CONTINUOUS
 70
0
 71
3
 72
17
 73
13
 74
0
 42
0.0000001
 43
0.0000001
 44
0.0000000001
 40
0.0
 40
0.0
 40
0.0
 40
0.0
 40
0.124156429
 40
0.2483306512
 40
0.3725409049
 40
0.4967562236
 40
0.5590506614
 40
0.6214300341
 40
0.6839749217
 40
0.7467148487
 40
0.872949093
 40
1.0
 40
1.0
 40
1.0
 40
1.0
 10
15.7112132282
 20
6.7707178788
 30
0.0
 10
15.7080376152
 20
6.7754916616
 30
0.0
 10
15.7030066928
 20
6.7860082536
 30
0.0
 10
15.7004217827
 20
6.8032714104
 30
0.0
 10
15.703063209
 20
6.8205361818
 30
0.0
 10
15.7093922692
 20
6.833657356
 30
0.0
 10
15.7164685441
 20
6.8427522509
 30
0.0
 10
15.7226799845
 20
6.8488051782
 30
0.0
 10
15.729640995
 20
6.8540078126
 30
0.0
 10
15.7397703868
 20
6.8597459012
 30
0.0
 10
15.7536906624
 20
6.8645724549
 30
0.0
 10
15.7654255465
 20
6.8658578743
 30
0.0
 10
15.7712927569
 20
6.8658578743
 30
0.0
  0
SPLINE
  5
40B
100
AcDbEntity
  8
0
100
AcDbSpline
 62
7
  6
CONTINUOUS
 70
0
 71
3
 72
19
 73
15
 74
0
 42
0.0000001
 43
0.0000001
 44
0.0000000001
 40
0.0
 40
0.0
 40
0.0
 40
0.0
 40
0.1269850942
 40
0.2530785015
 40
0.3157384598
 40
0.3781992458
 40
0.4404951029
 40
0.5027324438
 40
0.5649433506
 40
0.6271605609
 40
0.6894054363
 40
0.7516570165
 40
0.8758038045
 40
1.0
 40
1.0
 40
1.0
 40
1.0
 10
15.7712927569
 20
6.8658578743
 30
0.0
 10
15.7772990683
 20
6.8658578743
 30
0.0
 10
15.7893104791
 20
6.8645111134
 30
0.0
 10
15.8035219448
 20
6.8594537244
 30
0.0
 10
15.8138068835
 20
6.8534462461
 30
0.0
 10
15.820839236
 20
6.8480060001
 30
0.0
 10
15.8270662022
 20
6.8416852322
 30
0.0
 10
15.8323304973
 20
6.8345547791
 30
0.0
 10
15.8365123306
 20
6.8267423544
 30
0.0
 10
15.8394785557
 20
6.8183905702
 30
0.0
 10
15.8411513633
 20
6.809682688
 30
0.0
 10
15.8415772867
 20
6.7978898885
 30
0.0
 10
15.8386982441
 20
6.7832366966
 30
0.0
 10
15.8329928397
 20
6.7727436086
 30
0.0
 10
15.8294811772
 20
6.7680343855
 30
0.0
  0
SPLINE
  5
40C
100
AcDbEntity
  8
0
100
AcDbSpline
 62
7
  6
CONTINUOUS
 70
0
 71
3
 72
10
 73
6
 74
0
 42
0.0000001
 43
0.0000001
 44
0.0000000001
 40
0.0
 40
0.0
 40
0.0
 40
0.0
 40
0.2442230928
 40
0.493155315
 40
1.0
 40
1.0
 40
1.0
 40
1.0
 10
15.8650400069
 20
6.8203077842
 30
0.0
 10
15.8730618386
 20
6.8170328851
 30
0.0
 10
15.8890640725
 20
6.8099295636
 30
0.0
 10
15.9206713475
 20
6.7937874253
 30
0.0
 10
15.9436688097
 20
6.7799297162
 30
0.0
 10
15.9587872569
 20
6.7701941838
 30
0.0
  0
SPLINE
  5
40D
100
AcDbEntity
  8
0
100
AcDbSpline
 62
7
  6
CONTINUOUS
 70
0
 71
3
 72
10
 73
6
 74
0
 42
0.0000001
 43
0.0000001
 44
0.0000000001
 40
0.0
 40
0.0
 40
0.0
 40
0.0
 40
0.5068446432
 40
0.7557766083
 40
1.0
 40
1.0
 40
1.0
 40
1.0
 10
15.583798257
 20
6.7701941838
 30
0.0
 10
15.5989167022
 20
6.7799297149
 30
0.0
 10
15.6219140912
 20
6.7937875435
 30
0.0
 10
15.6535215138
 20
6.8099293786
 30
0.0
 10
15.6695236658
 20
6.8170328813
 30
0.0
 10
15.677545507
 20
6.8203077842
 30
0.0
  0
SPLINE
  5
40E
100
AcDbEntity
  8
0
100
AcDbSpline
 62
7
  6
CONTINUOUS
 70
0
 71
3
 72
11
 73
7
 74
0
 42
0.0000001
 43
0.0000001
 44
0.0000000001
 40
0.0
 40
0.0
 40
0.0
 40
0.0
 40
0.2403814381
 40
0.4868075604
 40
0.7399657974
 40
1.0
 40
1.0
 40
1.0
 40
1.0
 10
15.583798257
 20
6.6171055657
 30
0.0
 10
15.59150374
 20
6.6157760152
 30
0.0
 10
15.607054403
 20
6.6127535871
 30
0.0
 10
15.6304353887
 20
6.6069873702
 30
0.0
 10
15.6540684086
 20
6.5997268334
 30
0.0
 10
15.6697143382
 20
6.5938719183
 30
0.0
 10
15.677545507
 20
6.590674857
 30
0.0
  0
SPLINE
  5
40F
100
AcDbEntity
  8
0
100
AcDbSpline
 62
7
  6
CONTINUOUS
 70
0
 71
3
 72
15
 73
11
 74
0
 42
0.0000001
 43
0.0000001
 44
0.0000000001
 40
0.0
 40
0.0
 40
0.0
 40
0.0
 40
0.1311474841
 40
0.2573719437
 40
0.3797213992
 40
0.5
 40
0.6202786008
 40
0.7426280563
 40
0.8688525159
 40
1.0
 40
1.0
 40
1.0
 40
1.0
 10
15.6765712284
 20
6.7664986092
 30
0.0
 10
15.6742414232
 20
6.7636451923
 30
0.0
 10
15.6700702246
 20
6.7576997715
 30
0.0
 10
15.6653972668
 20
6.7480581967
 30
0.0
 10
15.6625574551
 20
6.7380359728
 30
0.0
 10
15.6616013398
 20
6.7278287071
 30
0.0
 10
15.6625574551
 20
6.7176214415
 30
0.0
 10
15.6653972668
 20
6.7075992176
 30
0.0
 10
15.6700702246
 20
6.6979576428
 30
0.0
 10
15.6742414232
 20
6.692012222
 30
0.0
 10
15.6765712284
 20
6.689158805
 30
0.0
  0
SPLINE
  5
410
100
AcDbEntity
  8
0
100
AcDbSpline
 62
7
  6
CONTINUOUS
 70
0
 71
3
 72
9
 73
5
 74
0
 42
0.0000001
 43
0.0000001
 44
0.0000000001
 40
0.0
 40
0.0
 40
0.0
 40
0.0
 40
0.2558574442
 40
1.0
 40
1.0
 40
1.0
 40
1.0
 10
15.7712927569
 20
6.5729126883
 30
0.0
 10
15.7631274055
 20
6.5729126883
 30
0.0
 10
15.7312428651
 20
6.5743818304
 30
0.0
 10
15.6995321827
 20
6.5816988342
 30
0.0
 10
15.677545507
 20
6.590674857
 30
0.0
  0
SPLINE
  5
411
100
AcDbEntity
  8
0
100
AcDbSpline
 62
7
  6
CONTINUOUS
 70
0
 71
3
 72
9
 73
5
 74
0
 42
0.0000001
 43
0.0000001
 44
0.0000000001
 40
0.0
 40
0.0
 40
0.0
 40
0.0
 40
0.2432563317
 40
1.0
 40
1.0
 40
1.0
 40
1.0
 10
15.8650400069
 20
6.590674857
 30
0.0
 10
15.8578518295
 20
6.5877402959
 30
0.0
 10
15.8276676548
 20
6.5772645405
 30
0.0
 10
15.7954460762
 20
6.5729126883
 30
0.0
 10
15.7712927569
 20
6.5729126883
 30
0.0
  0
SPLINE
  5
412
100
AcDbEntity
  8
0
100
AcDbSpline
 62
7
  6
CONTINUOUS
 70
0
 71
3
 72
15
 73
11
 74
0
 42
0.0000001
 43
0.0000001
 44
0.0000000001
 40
0.0
 40
0.0
 40
0.0
 40
0.0
 40
0.1105930552
 40
0.2231221478
 40
0.3390738466
 40
0.4597870272
 40
0.5860705773
 40
0.7182935726
 40
0.8564816434
 40
1.0
 40
1.0
 40
1.0
 40
1.0
 10
15.9587872569
 20
6.7054913206
 30
0.0
 10
15.9587872569
 20
6.6997003818
 30
0.0
 10
15.9576898571
 20
6.6879897264
 30
0.0
 10
15.9528235672
 20
6.6708208949
 30
0.0
 10
15.9448208548
 20
6.654282702
 30
0.0
 10
15.9338500005
 20
6.6386717813
 30
0.0
 10
15.9201217445
 20
6.6242340086
 30
0.0
 10
15.9038681209
 20
6.6112067879
 30
0.0
 10
15.8853769664
 20
6.5998074572
 30
0.0
 10
15.8719975383
 20
6.5935152573
 30
0.0
 10
15.8650400069
 20
6.590674857
 30
0.0
  0
SPLINE
  5
413
100
AcDbEntity
  8
0
100
AcDbSpline
 62
7
  6
CONTINUOUS
 70
0
 71
3
 72
15
 73
11
 74
0
 42
0.0000001
 43
0.0000001
 44
0.0000000001
 40
0.0
 40
0.0
 40
0.0
 40
0.0
 40
0.1435183566
 40
0.2817064274
 40
0.4139294227
 40
0.5402129728
 40
0.6609261534
 40
0.7768778522
 40
0.8894069448
 40
1.0
 40
1.0
 40
1.0
 40
1.0
 10
15.8650400069
 20
6.8203077842
 30
0.0
 10
15.8719975383
 20
6.8174673839
 30
0.0
 10
15.8853769664
 20
6.811175184
 30
0.0
 10
15.9038681209
 20
6.7997758533
 30
0.0
 10
15.9201217445
 20
6.7867486327
 30
0.0
 10
15.9338500005
 20
6.7723108599
 30
0.0
 10
15.9448208548
 20
6.7566999392
 30
0.0
 10
15.9528235672
 20
6.7401617463
 30
0.0
 10
15.9576898571
 20
6.7229929149
 30
0.0
 10
15.9587872569
 20
6.7112822594
 30
0.0
 10
15.9587872569
 20
6.7054913206
 30
0.0
  0
SPLINE
  5
414
100
AcDbEntity
  8
0
100
AcDbSpline
 62
7
  6
CONTINUOUS
 70
0
 71
3
 72
15
 73
11
 74
0
 42
0.0000001
 43
0.0000001
 44
0.0000000001
 40
0.0
 40
0.0
 40
0.0
 40
0.0
 40
0.1105930552
 40
0.2231221478
 40
0.3390738466
 40
0.4597870272
 40
0.5860705773
 40
0.7182935726
 40
0.8564816434
 40
1.0
 40
1.0
 40
1.0
 40
1.0
 10
15.583798257
 20
6.7054913206
 30
0.0
 10
15.583798257
 20
6.7112822594
 30
0.0
 10
15.5848956568
 20
6.7229929149
 30
0.0
 10
15.5897619467
 20
6.7401617463
 30
0.0
 10
15.5977646591
 20
6.7566999392
 30
0.0
 10
15.6087355134
 20
6.7723108599
 30
0.0
 10
15.6224637693
 20
6.7867486327
 30
0.0
 10
15.638717393
 20
6.7997758533
 30
0.0
 10
15.6572085475
 20
6.811175184
 30
0.0
 10
15.6705879755
 20
6.8174673839
 30
0.0
 10
15.677545507
 20
6.8203077842
 30
0.0
  0
SPLINE
  5
415
100
AcDbEntity
  8
0
100
AcDbSpline
 62
7
  6
CONTINUOUS
 70
0
 71
3
 72
15
 73
11
 74
0
 42
0.0000001
 43
0.0000001
 44
0.0000000001
 40
0.0
 40
0.0
 40
0.0
 40
0.0
 40
0.1435183566
 40
0.2817064274
 40
0.4139294227
 40
0.5402129728
 40
0.6609261534
 40
0.7768778522
 40
0.8894069448
 40
1.0
 40
1.0
 40
1.0
 40
1.0
 10
15.677545507
 20
6.590674857
 30
0.0
 10
15.6705879755
 20
6.5935152573
 30
0.0
 10
15.6572085475
 20
6.5998074572
 30
0.0
 10
15.638717393
 20
6.6112067879
 30
0.0
 10
15.6224637693
 20
6.6242340086
 30
0.0
 10
15.6087355134
 20
6.6386717813
 30
0.0
 10
15.5977646591
 20
6.654282702
 30
0.0
 10
15.5897619467
 20
6.6708208949
 30
0.0
 10
15.5848956568
 20
6.6879897264
 30
0.0
 10
15.583798257
 20
6.6997003818
 30
0.0
 10
15.583798257
 20
6.7054913206
 30
0.0
  0
SPLINE
  5
416
100
AcDbEntity
  8
0
100
AcDbSpline
 62
7
  6
CONTINUOUS
 70
0
 71
3
 72
9
 73
5
 74
0
 42
0.0000001
 43
0.0000001
 44
0.0000000001
 40
0.0
 40
0.0
 40
0.0
 40
0.0
 40
0.24613564
 40
1.0
 40
1.0
 40
1.0
 40
1.0
 10
15.8650400069
 20
6.8203077842
 30
0.0
 10
15.8625569513
 20
6.8213214874
 30
0.0
 10
15.8523924902
 20
6.8252513023
 30
0.0
 10
15.841944345
 20
6.8284409201
 30
0.0
 10
15.833976984
 20
6.8304405109
 30
0.0
  0
SPLINE
  5
417
100
AcDbEntity
  8
0
100
AcDbSpline
 62
7
  6
CONTINUOUS
 70
0
 71
3
 72
9
 73
5
 74
0
 42
0.0000001
 43
0.0000001
 44
0.0000000001
 40
0.0
 40
0.0
 40
0.0
 40
0.0
 40
0.2537285992
 40
1.0
 40
1.0
 40
1.0
 40
1.0
 10
15.7087686462
 20
6.8304806379
 30
0.0
 10
15.7060731069
 20
6.8298060758
 30
0.0
 10
15.6954960794
 20
6.8269656397
 30
0.0
 10
15.6851119158
 20
6.8233967577
 30
0.0
 10
15.677545507
 20
6.8203077842
 30
0.0
  0
SPLINE
  5
418
100
AcDbEntity
  8
0
100
AcDbSpline
 62
7
  6
CONTINUOUS
 70
0
 71
3
 72
35
 73
31
 74
0
 42
0.0000001
 43
0.0000001
 44
0.0000000001
 40
0.0
 40
0.0
 40
0.0
 40
0.0
 40
0.0626283763
 40
0.0937595691
 40
0.1247692959
 40
0.1864486255
 40
0.2478660974
 40
0.3093658363
 40
0.3403606344
 40
0.3715993307
 40
0.403184987
 40
0.4351360399
 40
0.4512656309
 40
0.4674644957
 40
0.4837153024
 40
0.4999995072
 40
0.5162840801
 40
0.5325354404
 40
0.5487343688
 40
0.5648636361
 40
0.5968145389
 40
0.6283999193
 40
0.6596385723
 40
0.6906341462
 40
0.7521342268
 40
0.8135512973
 40
0.8752299827
 40
0.9062396128
 40
0.93737102
 40
1.0
 40
1.0
 40
1.0
 40
1.0
 10
15.5126394519
 20
5.8887425576
 30
0.0
 10
15.5166502686
 20
5.906600346
 30
0.0
 10
15.5233668502
 20
5.9331878917
 30
0.0
 10
15.5340981365
 20
5.9680434988
 30
0.0
 10
15.5460531068
 20
6.0022041048
 30
0.0
 10
15.5636832253
 20
6.043729446
 30
0.0
 10
15.5901766735
 20
6.0908713434
 30
0.0
 10
15.6178102482
 20
6.1266631795
 30
0.0
 10
15.6437963744
 20
6.1518910903
 30
0.0
 10
15.6654850703
 20
6.1687689211
 30
0.0
 10
15.6893556698
 20
6.1829681141
 30
0.0
 10
15.7109045603
 20
6.1920224212
 30
0.0
 10
15.7289569724
 20
6.1972758693
 30
0.0
 10
15.7428712797
 20
6.2001717524
 30
0.0
 10
15.7570209273
 20
6.2019289139
 30
0.0
 10
15.771292495
 20
6.2025072235
 30
0.0
 10
15.7855637668
 20
6.2019196232
 30
0.0
 10
15.7997129907
 20
6.200158073
 30
0.0
 10
15.8136275277
 20
6.1972634606
 30
0.0
 10
15.831681385
 20
6.1920156963
 30
0.0
 10
15.8532341649
 20
6.1829713766
 30
0.0
 10
15.8771091441
 20
6.1687788595
 30
0.0
 10
15.8987954966
 20
6.1518972503
 30
0.0
 10
15.9247756842
 20
6.1266629408
 30
0.0
 10
15.9524071662
 20
6.0908698867
 30
0.0
 10
15.9789024298
 20
6.0437293135
 30
0.0
 10
15.9965348285
 20
6.0022052646
 30
0.0
 10
16.0084900531
 20
5.9680448856
 30
0.0
 10
16.0192200622
 20
5.9331886433
 30
0.0
 10
16.0259352066
 20
5.9066005181
 30
0.0
 10
16.029946062
 20
5.8887425576
 30
0.0
  0
SPLINE
  5
419
100
AcDbEntity
  8
0
100
AcDbSpline
 62
7
  6
CONTINUOUS
 70
0
 71
3
 72
12
 73
8
 74
0
 42
0.0000001
 43
0.0000001
 44
0.0000000001
 40
0.0
 40
0.0
 40
0.0
 40
0.0
 40
0.2243241286
 40
0.3444790727
 40
0.4693083202
 40
0.7301777205
 40
1.0
 40
1.0
 40
1.0
 40
1.0
 10
15.6765712284
 20
6.689158805
 30
0.0
 10
15.6815542585
 20
6.6830558645
 30
0.0
 10
15.6906923164
 20
6.6748357797
 30
0.0
 10
15.7047399823
 20
6.666179191
 30
0.0
 10
15.7208522157
 20
6.6586031256
 30
0.0
 10
15.7431329823
 20
6.6521959648
 30
0.0
 10
15.761815878
 20
6.650488903
 30
0.0
 10
15.7712927569
 20
6.650488903
 30
0.0
  0
SPLINE
  5
41A
100
AcDbEntity
  8
0
100
AcDbSpline
 62
7
  6
CONTINUOUS
 70
0
 71
3
 72
9
 73
5
 74
0
 42
0.0000001
 43
0.0000001
 44
0.0000000001
 40
0.0
 40
0.0
 40
0.0
 40
0.0
 40
0.4836698172
 40
1.0
 40
1.0
 40
1.0
 40
1.0
 10
15.8660142855
 20
6.7664986092
 30
0.0
 10
15.8625019261
 20
6.7708003534
 30
0.0
 10
15.8542542732
 20
6.7789132312
 30
0.0
 10
15.8446809633
 20
6.7853640188
 30
0.0
 10
15.8395176098
 20
6.7882773198
 30
0.0
  0
SPLINE
  5
41B
100
AcDbEntity
  8
0
100
AcDbSpline
 62
7
  6
CONTINUOUS
 70
0
 71
3
 72
12
 73
8
 74
0
 42
0.0000001
 43
0.0000001
 44
0.0000000001
 40
0.0
 40
0.0
 40
0.0
 40
0.0
 40
0.2698222795
 40
0.5306916798
 40
0.6555209273
 40
0.7756758714
 40
1.0
 40
1.0
 40
1.0
 40
1.0
 10
15.7712927569
 20
6.650488903
 30
0.0
 10
15.7807696358
 20
6.650488903
 30
0.0
 10
15.7994525316
 20
6.6521959648
 30
0.0
 10
15.8217332982
 20
6.6586031256
 30
0.0
 10
15.8378455316
 20
6.666179191
 30
0.0
 10
15.8518931975
 20
6.6748357797
 30
0.0
 10
15.8610312554
 20
6.6830558645
 30
0.0
 10
15.8660142855
 20
6.689158805
 30
0.0
  0
SPLINE
  5
41C
100
AcDbEntity
  8
0
100
AcDbSpline
 62
7
  6
CONTINUOUS
 70
0
 71
3
 72
15
 73
11
 74
0
 42
0.0000001
 43
0.0000001
 44
0.0000000001
 40
0.0
 40
0.0
 40
0.0
 40
0.0
 40
0.1311474841
 40
0.2573719437
 40
0.3797213992
 40
0.5
 40
0.6202786008
 40
0.7426280563
 40
0.8688525159
 40
1.0
 40
1.0
 40
1.0
 40
1.0
 10
15.8660142855
 20
6.689158805
 30
0.0
 10
15.8683440906
 20
6.692012222
 30
0.0
 10
15.8725152893
 20
6.6979576428
 30
0.0
 10
15.8771882471
 20
6.7075992176
 30
0.0
 10
15.8800280588
 20
6.7176214415
 30
0.0
 10
15.8809841741
 20
6.7278287071
 30
0.0
 10
15.8800280588
 20
6.7380359728
 30
0.0
 10
15.8771882471
 20
6.7480581967
 30
0.0
 10
15.8725152893
 20
6.7576997715
 30
0.0
 10
15.8683440906
 20
6.7636451923
 30
0.0
 10
15.8660142855
 20
6.7664986092
 30
0.0
  0
SPLINE
  5
41D
100
AcDbEntity
  8
0
100
AcDbSpline
 62
7
  6
CONTINUOUS
 70
0
 71
3
 72
10
 73
6
 74
0
 42
0.0000001
 43
0.0000001
 44
0.0000000001
 40
0.0
 40
0.0
 40
0.0
 40
0.0
 40
0.5068446432
 40
0.7557766083
 40
1.0
 40
1.0
 40
1.0
 40
1.0
 10
15.7712927569
 20
6.5405612567
 30
0.0
 10
15.7561743118
 20
6.5502967877
 30
0.0
 10
15.7331769227
 20
6.5641546163
 30
0.0
 10
15.7015695001
 20
6.5802964514
 30
0.0
 10
15.6855673481
 20
6.5873999541
 30
0.0
 10
15.677545507
 20
6.590674857
 30
0.0
  0
SPLINE
  5
41E
100
AcDbEntity
  8
0
100
AcDbSpline
 62
7
  6
CONTINUOUS
 70
0
 71
3
 72
10
 73
6
 74
0
 42
0.0000001
 43
0.0000001
 44
0.0000000001
 40
0.0
 40
0.0
 40
0.0
 40
0.0
 40
0.2442230928
 40
0.493155315
 40
1.0
 40
1.0
 40
1.0
 40
1.0
 10
15.8650400069
 20
6.590674857
 30
0.0
 10
15.8570181752
 20
6.5873999579
 30
0.0
 10
15.8410159412
 20
6.5802966364
 30
0.0
 10
15.8094086663
 20
6.5641544981
 30
0.0
 10
15.7864112041
 20
6.550296789
 30
0.0
 10
15.7712927569
 20
6.5405612567
 30
0.0
  0
SPLINE
  5
41F
100
AcDbEntity
  8
0
100
AcDbSpline
 62
7
  6
CONTINUOUS
 70
0
 71
3
 72
11
 73
7
 74
0
 42
0.0000001
 43
0.0000001
 44
0.0000000001
 40
0.0
 40
0.0
 40
0.0
 40
0.0
 40
0.2403772026
 40
0.4867964111
 40
0.7399596699
 40
1.0
 40
1.0
 40
1.0
 40
1.0
 10
15.9587872569
 20
6.6171055657
 30
0.0
 10
15.9510819079
 20
6.6157760383
 30
0.0
 10
15.9355316818
 20
6.6127532962
 30
0.0
 10
15.9121506508
 20
6.6069880899
 30
0.0
 10
15.8885175705
 20
6.5997271833
 30
0.0
 10
15.872871362
 20
6.5938719943
 30
0.0
 10
15.8650400069
 20
6.590674857
 30
0.0
  0
SPLINE
  5
420
100
AcDbEntity
  8
0
100
AcDbSpline
 62
7
  6
CONTINUOUS
 70
0
 71
3
 72
9
 73
5
 74
0
 42
0.0000001
 43
0.0000001
 44
0.0000000001
 40
0.0
 40
0.0
 40
0.0
 40
0.0
 40
0.5163868658
 40
1.0
 40
1.0
 40
1.0
 40
1.0
 10
15.7031964032
 20
6.788349711
 30
0.0
 10
15.6980066109
 20
6.7854304902
 30
0.0
 10
15.688385063
 20
6.7789624871
 30
0.0
 10
15.6800981557
 20
6.7708181953
 30
0.0
 10
15.6765712284
 20
6.7664986092
 30
0.0
  0
SPLINE
  5
421
100
AcDbEntity
  8
0
100
AcDbSpline
 62
7
  6
CONTINUOUS
 70
0
 71
3
 72
14
 73
10
 74
0
 42
0.0000001
 43
0.0000001
 44
0.0000000001
 40
0.0
 40
0.0
 40
0.0
 40
0.0
 40
0.1164609212
 40
0.2338218829
 40
0.3529503685
 40
0.4746651596
 40
0.5997059788
 40
0.7287107078
 40
1.0
 40
1.0
 40
1.0
 40
1.0
 10
15.5556586251
 20
11.3494644102
 30
0.0
 10
15.5582745169
 20
11.3579323722
 30
0.0
 10
15.5626077086
 20
11.3752329155
 30
0.0
 10
15.5663109033
 20
11.4018849433
 30
0.0
 10
15.5672097874
 20
11.4291792826
 30
0.0
 10
15.5653055439
 20
11.4570029481
 30
0.0
 10
15.5606124151
 20
11.485255566
 30
0.0
 10
15.5504900833
 20
11.5239735502
 30
0.0
 10
15.5389847351
 20
11.5523656505
 30
0.0
 10
15.5298895503
 20
11.5708996885
 30
0.0
  0
SPLINE
  5
422
100
AcDbEntity
  8
0
100
AcDbSpline
 62
7
  6
CONTINUOUS
 70
0
 71
3
 72
11
 73
7
 74
0
 42
0.0000001
 43
0.0000001
 44
0.0000000001
 40
0.0
 40
0.0
 40
0.0
 40
0.0
 40
0.2344824911
 40
0.4733284842
 40
0.727477877
 40
1.0
 40
1.0
 40
1.0
 40
1.0
 10
17.9096143658
 20
12.7845971344
 30
0.0
 10
17.909168737
 20
12.7855052303
 30
0.0
 10
17.9079199477
 20
12.7871903552
 30
0.0
 10
17.9052297715
 20
12.788910043
 30
0.0
 10
17.9020284362
 20
12.789843184
 30
0.0
 10
17.8997491205
 20
12.7900139491
 30
0.0
 10
17.8985734746
 20
12.7900139495
 30
0.0
  0
SPLINE
  5
423
100
AcDbEntity
  8
0
100
AcDbSpline
 62
7
  6
CONTINUOUS
 70
0
 71
3
 72
10
 73
6
 74
0
 42
0.0000001
 43
0.0000001
 44
0.0000000001
 40
0.0
 40
0.0
 40
0.0
 40
0.0
 40
0.4868597867
 40
0.7403639382
 40
1.0
 40
1.0
 40
1.0
 40
1.0
 10
16.3635953759
 20
12.5793789349
 30
0.0
 10
16.3468052967
 20
12.6062966677
 30
0.0
 10
16.3214903947
 20
12.6473768958
 30
0.0
 10
16.2892090134
 20
12.7039892794
 30
0.0
 10
16.2736823955
 20
12.7336185333
 30
0.0
 10
16.2662306352
 20
12.7488075684
 30
0.0
  0
SPLINE
  5
424
100
AcDbEntity
  8
0
100
AcDbSpline
 62
7
  6
CONTINUOUS
 70
0
 71
3
 72
15
 73
11
 74
0
 42
0.0000001
 43
0.0000001
 44
0.0000000001
 40
0.0
 40
0.0
 40
0.0
 40
0.0
 40
0.1242574412
 40
0.2531490526
 40
0.3844921408
 40
0.5159466171
 40
0.645113174
 40
0.7698281353
 40
0.8884507985
 40
1.0
 40
1.0
 40
1.0
 40
1.0
 10
17.1841086683
 20
12.0679005799
 30
0.0
 10
17.1956675096
 20
12.0679005799
 30
0.0
 10
17.2192492237
 20
12.0699095858
 30
0.0
 10
17.2541367426
 20
12.0783214532
 30
0.0
 10
17.2880879114
 20
12.0918844506
 30
0.0
 10
17.3198254666
 20
12.1100787379
 30
0.0
 10
17.3481643817
 20
12.1322354169
 30
0.0
 10
17.3720511664
 20
12.1575383403
 30
0.0
 10
17.3905688581
 20
12.1850538613
 30
0.0
 10
17.3991313533
 20
12.2048602806
 30
0.0
 10
17.4021950403
 20
12.2147743755
 30
0.0
  0
SPLINE
  5
425
100
AcDbEntity
  8
0
100
AcDbSpline
 62
7
  6
CONTINUOUS
 70
0
 71
3
 72
11
 73
7
 74
0
 42
0.0000001
 43
0.0000001
 44
0.0000000001
 40
0.0
 40
0.0
 40
0.0
 40
0.0
 40
0.2648332867
 40
0.5171941196
 40
0.7604841373
 40
1.0
 40
1.0
 40
1.0
 40
1.0
 10
17.4021950403
 20
12.2147743755
 30
0.0
 10
17.4045924093
 20
12.2225322644
 30
0.0
 10
17.407992266
 20
12.2381276356
 30
0.0
 10
17.4084708883
 20
12.2615982038
 30
0.0
 10
17.4041170693
 20
12.2838936307
 30
0.0
 10
17.3980378242
 20
12.2975546196
 30
0.0
 10
17.3943144844
 20
12.3038843577
 30
0.0
  0
SPLINE
  5
426
100
AcDbEntity
  8
0
100
AcDbSpline
 62
7
  6
CONTINUOUS
 70
0
 71
3
 72
11
 73
7
 74
0
 42
0.0000001
 43
0.0000001
 44
0.0000000001
 40
0.0
 40
0.0
 40
0.0
 40
0.0
 40
0.2499069535
 40
0.4996913669
 40
0.7496053209
 40
1.0
 40
1.0
 40
1.0
 40
1.0
 10
16.0161952845
 20
13.3261378385
 30
0.0
 10
16.0143297024
 20
13.3201008128
 30
0.0
 10
16.0087100887
 20
13.3085182039
 30
0.0
 10
15.995344057
 20
13.2946494371
 30
0.0
 10
15.9783438502
 20
13.285583458
 30
0.0
 10
15.9656862603
 20
13.2832447157
 30
0.0
 10
15.9593597782
 20
13.2830045197
 30
0.0
  0
SPLINE
  5
427
100
AcDbEntity
  8
0
100
AcDbSpline
 62
7
  6
CONTINUOUS
 70
0
 71
3
 72
10
 73
6
 74
0
 42
0.0000001
 43
0.0000001
 44
0.0000000001
 40
0.0
 40
0.0
 40
0.0
 40
0.0
 40
0.2627639015
 40
0.5175774647
 40
1.0
 40
1.0
 40
1.0
 40
1.0
 10
17.3344575443
 20
12.2527936315
 30
0.0
 10
17.3409323549
 20
12.2527936315
 30
0.0
 10
17.35369881
 20
12.2522086931
 30
0.0
 10
17.378107168
 20
12.2486967079
 30
0.0
 10
17.3956687833
 20
12.2433107883
 30
0.0
 10
17.4065116689
 20
12.2384380622
 30
0.0
  0
SPLINE
  5
428
100
AcDbEntity
  8
0
100
AcDbSpline
 62
7
  6
CONTINUOUS
 70
0
 71
3
 72
15
 73
11
 74
0
 42
0.0000001
 43
0.0000001
 44
0.0000000001
 40
0.0
 40
0.0
 40
0.0
 40
0.0
 40
0.1115492015
 40
0.2301718647
 40
0.354886826
 40
0.4840533829
 40
0.6155078592
 40
0.7468509474
 40
0.8757425588
 40
1.0
 40
1.0
 40
1.0
 40
1.0
 10
16.9610259695
 20
12.0982225064
 30
0.0
 10
16.9642502176
 20
12.108656177
 30
0.0
 10
16.9732614541
 20
12.1295006068
 30
0.0
 10
16.9927496169
 20
12.1584581552
 30
0.0
 10
17.017888255
 20
12.1850871486
 30
0.0
 10
17.0477123497
 20
12.20840501
 30
0.0
 10
17.0811131997
 20
12.2275528194
 30
0.0
 10
17.1168436738
 20
12.2418266234
 30
0.0
 10
17.1535595702
 20
12.250679338
 30
0.0
 10
17.1783771495
 20
12.2527936315
 30
0.0
 10
17.190541764
 20
12.2527936315
 30
0.0
  0
SPLINE
  5
429
100
AcDbEntity
  8
0
100
AcDbSpline
 62
7
  6
CONTINUOUS
 70
0
 71
3
 72
25
 73
21
 74
0
 42
0.0000001
 43
0.0000001
 44
0.0000000001
 40
0.0
 40
0.0
 40
0.0
 40
0.0
 40
0.0620442403
 40
0.1240669254
 40
0.1860852704
 40
0.2481109857
 40
0.2791899125
 40
0.310283686
 40
0.3414134735
 40
0.3725903047
 40
0.4350123348
 40
0.4977249376
 40
0.5607295853
 40
0.6239454145
 40
0.6872029972
 40
0.7503063333
 40
0.8131224897
 40
0.8756306441
 40
0.9379086238
 40
1.0
 40
1.0
 40
1.0
 40
1.0
 10
15.8868581261
 20
13.3746873331
 30
0.0
 10
15.8881491638
 20
13.3788651327
 30
0.0
 10
15.891625568
 20
13.3869735128
 30
0.0
 10
15.8993081784
 20
13.3977241226
 30
0.0
 10
15.9091277445
 20
13.4065710946
 30
0.0
 10
15.9187203102
 20
13.4120039344
 30
0.0
 10
15.9269349479
 20
13.4150650165
 30
0.0
 10
15.9333171187
 20
13.4167004418
 30
0.0
 10
15.9398399532
 20
13.4176684591
 30
0.0
 10
15.948633477
 20
13.4180800988
 30
0.0
 10
15.9596675352
 20
13.4169359319
 30
0.0
 10
15.9724319327
 20
13.4130797292
 30
0.0
 10
15.9843304179
 20
13.4069434049
 30
0.0
 10
15.9949945251
 20
13.3987933717
 30
0.0
 10
16.0040902645
 20
13.3889142501
 30
0.0
 10
16.0113120525
 20
13.3776241497
 30
0.0
 10
16.0163891415
 20
13.3652736362
 30
0.0
 10
16.0190791592
 20
13.3522450533
 30
0.0
 10
16.0191925263
 20
13.3389923407
 30
0.0
 10
16.017487303
 20
13.330318812
 30
0.0
 10
16.0161952845
 20
13.3261378385
 30
0.0
  0
SPLINE
  5
42A
100
AcDbEntity
  8
0
100
AcDbSpline
 62
7
  6
CONTINUOUS
 70
0
 71
3
 72
21
 73
17
 74
0
 42
0.0000001
 43
0.0000001
 44
0.0000000001
 40
0.0
 40
0.0
 40
0.0
 40
0.0
 40
0.0525890522
 40
0.1058084171
 40
0.1601650591
 40
0.2160928459
 40
0.2739257345
 40
0.3338637147
 40
0.3959671926
 40
0.4601436779
 40
0.5935338606
 40
0.6621203674
 40
0.7312024922
 40
0.8682959723
 40
0.9351989191
 40
1.0
 40
1.0
 40
1.0
 40
1.0
 10
14.6962649031
 20
12.4074496957
 30
0.0
 10
14.6976292836
 20
12.4035640555
 30
0.0
 10
14.6997043799
 20
12.3954931836
 30
0.0
 10
14.7007368653
 20
12.3829367584
 30
0.0
 10
14.6996609584
 20
12.3701213782
 30
0.0
 10
14.6965109466
 20
12.3572859107
 30
0.0
 10
14.6913290215
 20
12.3446591374
 30
0.0
 10
14.6842334862
 20
12.3324439837
 30
0.0
 10
14.6753420627
 20
12.3208385119
 30
0.0
 10
14.661159495
 20
12.3062157943
 30
0.0
 10
14.6442704571
 20
12.2937146094
 30
0.0
 10
14.6255997181
 20
12.2835748446
 30
0.0
 10
14.6058244913
 20
12.2750362702
 30
0.0
 10
14.5851269596
 20
12.2691538596
 30
0.0
 10
14.5642726055
 20
12.2661484995
 30
0.0
 10
14.5539524391
 20
12.2656228343
 30
0.0
 10
14.548877902
 20
12.2656228343
 30
0.0
  0
SPLINE
  5
42B
100
AcDbEntity
  8
0
100
AcDbSpline
 62
7
  6
CONTINUOUS
 70
0
 71
3
 72
23
 73
19
 74
0
 42
0.0000001
 43
0.0000001
 44
0.0000000001
 40
0.0
 40
0.0
 40
0.0
 40
0.0
 40
0.0555744192
 40
0.1137455545
 40
0.1742689249
 40
0.2368381726
 40
0.301100645
 40
0.366663818
 40
0.4331096145
 40
0.5000010355
 40
0.5668925524
 40
0.6333386287
 40
0.6989024925
 40
0.7631653941
 40
0.8257338001
 40
0.8862569029
 40
0.9444287319
 40
1.0
 40
1.0
 40
1.0
 40
1.0
 10
15.3996132588
 20
10.9831351846
 30
0.0
 10
15.3730164893
 20
10.9768795608
 30
0.0
 10
15.3179893937
 20
10.9664960694
 30
0.0
 10
15.2327344581
 20
10.957269018
 30
0.0
 10
15.1436009128
 20
10.9541042761
 30
0.0
 10
15.0514714628
 20
10.9570233212
 30
0.0
 10
14.9572495256
 20
10.9660056604
 30
0.0
 10
14.8618627461
 20
10.9809554709
 30
0.0
 10
14.7662512847
 20
11.001726671
 30
0.0
 10
14.6713595466
 20
11.0281187452
 30
0.0
 10
14.5781216776
 20
11.059863218
 30
0.0
 10
14.487460446
 20
11.0966550308
 30
0.0
 10
14.40026877
 20
11.1381264733
 30
0.0
 10
14.3174062779
 20
11.1838680055
 30
0.0
 10
14.2396920895
 20
11.233434097
 30
0.0
 10
14.1678842297
 20
11.2863340961
 30
0.0
 10
14.1027006765
 20
11.3420512901
 30
0.0
 10
14.0631247399
 20
11.3816669812
 30
0.0
 10
14.0446948243
 20
11.4018356335
 30
0.0
  0
SPLINE
  5
42C
100
AcDbEntity
  8
0
100
AcDbSpline
 62
7
  6
CONTINUOUS
 70
0
 71
3
 72
9
 73
5
 74
0
 42
0.0000001
 43
0.0000001
 44
0.0000000001
 40
0.0
 40
0.0
 40
0.0
 40
0.0
 40
0.5170891044
 40
1.0
 40
1.0
 40
1.0
 40
1.0
 10
14.0306984511
 20
11.4171521868
 30
0.0
 10
14.0089098909
 20
11.4409963999
 30
0.0
 10
13.9690912073
 20
11.4893088005
 30
0.0
 10
13.9353508393
 20
11.5421205599
 30
0.0
 10
13.9209739967
 20
11.5686391411
 30
0.0
  0
SPLINE
  5
42D
100
AcDbEntity
  8
0
100
AcDbSpline
 62
7
  6
CONTINUOUS
 70
0
 71
3
 72
15
 73
11
 74
0
 42
0.0000001
 43
0.0000001
 44
0.0000000001
 40
0.0
 40
0.0
 40
0.0
 40
0.0
 40
0.1080517152
 40
0.2181258338
 40
0.3320700142
 40
0.4514123717
 40
0.5773001755
 40
0.710491052
 40
0.8513677111
 40
1.0
 40
1.0
 40
1.0
 40
1.0
 10
15.8154947452
 20
11.2906222535
 30
0.0
 10
15.8099540668
 20
11.2726911609
 30
0.0
 10
15.7956524671
 20
11.2373781999
 30
0.0
 10
15.7652995617
 20
11.1880487871
 30
0.0
 10
15.7263071953
 20
11.1426168224
 30
0.0
 10
15.6791202203
 20
11.1015094492
 30
0.0
 10
15.6242219186
 20
11.0650625796
 30
0.0
 10
15.5621360345
 20
11.0335842652
 30
0.0
 10
15.4934532717
 20
11.0073199716
 30
0.0
 10
15.4449414319
 20
10.9937953331
 30
0.0
 10
15.4198111021
 20
10.9878845741
 30
0.0
  0
SPLINE
  5
42E
100
AcDbEntity
  8
0
100
AcDbSpline
 62
7
  6
CONTINUOUS
 70
0
 71
3
 72
15
 73
11
 74
0
 42
0.0000001
 43
0.0000001
 44
0.0000000001
 40
0.0
 40
0.0
 40
0.0
 40
0.0
 40
0.1164342288
 40
0.2337722944
 40
0.3528781722
 40
0.4745660851
 40
0.5995737661
 40
0.7285416034
 40
0.8619204928
 40
1.0
 40
1.0
 40
1.0
 40
1.0
 10
15.9091438103
 20
11.5936719572
 30
0.0
 10
15.9126868754
 20
11.6051385733
 30
0.0
 10
15.9185541669
 20
11.6285667146
 30
0.0
 10
15.9235663
 20
11.6646586203
 30
0.0
 10
15.924785711
 20
11.7016198372
 30
0.0
 10
15.9222059919
 20
11.7392979964
 30
0.0
 10
15.9158520619
 20
11.7775522131
 30
0.0
 10
15.9057412024
 20
11.8162314288
 30
0.0
 10
15.8919357564
 20
11.8551753456
 30
0.0
 10
15.8805175225
 20
11.8807553822
 30
0.0
 10
15.8742474438
 20
11.8935324594
 30
0.0
  0
SPLINE
  5
42F
100
AcDbEntity
  8
0
100
AcDbSpline
 62
7
  6
CONTINUOUS
 70
0
 71
3
 72
9
 73
5
 74
0
 42
0.0000001
 43
0.0000001
 44
0.0000000001
 40
0.0
 40
0.0
 40
0.0
 40
0.0
 40
0.2544987486
 40
1.0
 40
1.0
 40
1.0
 40
1.0
 10
14.0826938856
 20
12.5786003984
 30
0.0
 10
14.0771084277
 20
12.5762084235
 30
0.0
 10
14.0552635794
 20
12.5665739668
 30
0.0
 10
14.0338382672
 20
12.5559817511
 30
0.0
 10
14.018179757
 20
12.5475199
 30
0.0
  0
SPLINE
  5
430
100
AcDbEntity
  8
0
100
AcDbSpline
 62
7
  6
CONTINUOUS
 70
0
 71
3
 72
9
 73
5
 74
0
 42
0.0000001
 43
0.0000001
 44
0.0000000001
 40
0.0
 40
0.0
 40
0.0
 40
0.0
 40
0.4889614348
 40
1.0
 40
1.0
 40
1.0
 40
1.0
 10
15.8216548511
 20
11.8572158117
 30
0.0
 10
15.8196826686
 20
11.8572181104
 30
0.0
 10
15.815635084
 20
11.8567328279
 30
0.0
 10
15.8118147711
 20
11.8553330191
 30
0.0
 10
15.8099575328
 20
11.8544389638
 30
0.0
  0
SPLINE
  5
431
100
AcDbEntity
  8
0
100
AcDbSpline
 62
7
  6
CONTINUOUS
 70
0
 71
3
 72
21
 73
17
 74
0
 42
0.0000001
 43
0.0000001
 44
0.0000000001
 40
0.0
 40
0.0
 40
0.0
 40
0.0
 40
0.0376671353
 40
0.0794485318
 40
0.1259424298
 40
0.1773980091
 40
0.2337558518
 40
0.2947026186
 40
0.3597595078
 40
0.4283018407
 40
0.4995997658
 40
0.5728137652
 40
0.7213200932
 40
0.8662799771
 40
0.9350058413
 40
1.0
 40
1.0
 40
1.0
 40
1.0
 10
15.8099575328
 20
11.8544389638
 30
0.0
 10
15.8075827521
 20
11.8532957689
 30
0.0
 10
15.8028662974
 20
11.8502536626
 30
0.0
 10
15.7965183169
 20
11.8440802485
 30
0.0
 10
15.7906688593
 20
11.8362012801
 30
0.0
 10
15.7854380104
 20
11.8267256051
 30
0.0
 10
15.7809099832
 20
11.8157974987
 30
0.0
 10
15.7771623127
 20
11.8035828578
 30
0.0
 10
15.7742527044
 20
11.7902709706
 30
0.0
 10
15.7722150459
 20
11.7760682313
 30
0.0
 10
15.7710647059
 20
11.7611952438
 30
0.0
 10
15.7706857032
 20
11.7406862671
 30
0.0
 10
15.7722985668
 20
11.7150318041
 30
0.0
 10
15.7763203623
 20
11.6899680153
 30
0.0
 10
15.7808203377
 20
11.6709880947
 30
0.0
 10
15.7834469001
 20
11.6620018684
 30
0.0
 10
15.7848507909
 20
11.6576762609
 30
0.0
  0
SPLINE
  5
432
100
AcDbEntity
  8
0
100
AcDbSpline
 62
7
  6
CONTINUOUS
 70
0
 71
3
 72
9
 73
5
 74
0
 42
0.0000001
 43
0.0000001
 44
0.0000000001
 40
0.0
 40
0.0
 40
0.0
 40
0.0
 40
0.260400896
 40
1.0
 40
1.0
 40
1.0
 40
1.0
 10
15.7893725622
 20
11.64510146
 30
0.0
 10
15.7897519498
 20
11.6441493603
 30
0.0
 10
15.7912401673
 20
11.6405057256
 30
0.0
 10
15.7928562148
 20
11.6369134771
 30
0.0
 10
15.7941386199
 20
11.6343002103
 30
0.0
  0
SPLINE
  5
433
100
AcDbEntity
  8
0
100
AcDbSpline
 62
7
  6
CONTINUOUS
 70
0
 71
3
 72
9
 73
5
 74
0
 42
0.0000001
 43
0.0000001
 44
0.0000000001
 40
0.0
 40
0.0
 40
0.0
 40
0.0
 40
0.2363705535
 40
1.0
 40
1.0
 40
1.0
 40
1.0
 10
15.8445249281
 20
11.8242477415
 30
0.0
 10
15.8450102817
 20
11.8235476923
 30
0.0
 10
15.8469979696
 20
11.8205405978
 30
0.0
 10
15.8487363821
 20
11.8173724417
 30
0.0
 10
15.8499487572
 20
11.814901881
 30
0.0
  0
SPLINE
  5
434
100
AcDbEntity
  8
0
100
AcDbSpline
 62
7
  6
CONTINUOUS
 70
0
 71
3
 72
11
 73
7
 74
0
 42
0.0000001
 43
0.0000001
 44
0.0000000001
 40
0.0
 40
0.0
 40
0.0
 40
0.0
 40
0.2463211388
 40
0.4941345035
 40
0.7449060239
 40
1.0
 40
1.0
 40
1.0
 40
1.0
 10
13.4245652225
 20
12.3914993996
 30
0.0
 10
13.419161247
 20
12.3740121282
 30
0.0
 10
13.410104872
 20
12.338352093
 30
0.0
 10
13.4019656102
 20
12.2835120635
 30
0.0
 10
13.3992684523
 20
12.227487137
 30
0.0
 10
13.4010738971
 20
12.1898766212
 30
0.0
 10
13.4028422271
 20
12.1710041955
 30
0.0
  0
SPLINE
  5
435
100
AcDbEntity
  8
0
100
AcDbSpline
 62
7
  6
CONTINUOUS
 70
0
 71
3
 72
15
 73
11
 74
0
 42
0.0000001
 43
0.0000001
 44
0.0000000001
 40
0.0
 40
0.0
 40
0.0
 40
0.0
 40
0.1132079275
 40
0.2273915317
 40
0.3441542682
 40
0.4648374259
 40
0.5903798779
 40
0.7213829529
 40
0.8580799072
 40
1.0
 40
1.0
 40
1.0
 40
1.0
 10
13.1724440931
 20
12.1389286226
 30
0.0
 10
13.1745956199
 20
12.133551427
 30
0.0
 10
13.1798898575
 20
12.1231105136
 30
0.0
 10
13.1905726997
 20
12.1090057637
 30
0.0
 10
13.2037933292
 20
12.096680306
 30
0.0
 10
13.2193149741
 20
12.0863475032
 30
0.0
 10
13.2368634129
 20
12.0781567158
 30
0.0
 10
13.2561520694
 20
12.0722322871
 30
0.0
 10
13.2768534396
 20
12.068669079
 30
0.0
 10
13.2911220428
 20
12.0679005799
 30
0.0
 10
13.2983825999
 20
12.0679005799
 30
0.0
  0
SPLINE
  5
436
100
AcDbEntity
  8
0
100
AcDbSpline
 62
7
  6
CONTINUOUS
 70
0
 71
3
 72
15
 73
11
 74
0
 42
0.0000001
 43
0.0000001
 44
0.0000000001
 40
0.0
 40
0.0
 40
0.0
 40
0.0
 40
0.1243141124
 40
0.2527648015
 40
0.3834264676
 40
0.5141956618
 40
0.6429142675
 40
0.7676492388
 40
0.8869443964
 40
1.0
 40
1.0
 40
1.0
 40
1.0
 10
13.3415461583
 20
12.4740621707
 30
0.0
 10
13.321295111
 20
12.4738330924
 30
0.0
 10
13.2801014983
 20
12.4699769355
 30
0.0
 10
13.2192489618
 20
12.4550101394
 30
0.0
 10
13.1601035749
 20
12.4312947339
 30
0.0
 10
13.1047304979
 20
12.3996811468
 30
0.0
 10
13.0550579233
 20
12.3612457629
 30
0.0
 10
13.0128155778
 20
12.3172870512
 30
0.0
 10
12.9795209707
 20
12.2692738962
 30
0.0
 10
12.9636795625
 20
12.2345972297
 30
0.0
 10
12.9577885342
 20
12.2171465711
 30
0.0
  0
SPLINE
  5
437
100
AcDbEntity
  8
0
100
AcDbSpline
 62
7
  6
CONTINUOUS
 70
0
 71
3
 72
11
 73
7
 74
0
 42
0.0000001
 43
0.0000001
 44
0.0000000001
 40
0.0
 40
0.0
 40
0.0
 40
0.0
 40
0.2624080618
 40
0.5146845792
 40
0.7593516193
 40
1.0
 40
1.0
 40
1.0
 40
1.0
 10
12.9557026383
 20
12.210694843
 30
0.0
 10
12.9516707983
 20
12.1976478041
 30
0.0
 10
12.9457633602
 20
12.1713718973
 30
0.0
 10
12.9440009548
 20
12.1316731674
 30
0.0
 10
12.9497061234
 20
12.0934691183
 30
0.0
 10
12.9584886866
 20
12.069563759
 30
0.0
 10
12.9640057888
 20
12.0583210866
 30
0.0
  0
SPLINE
  5
438
100
AcDbEntity
  8
0
100
AcDbSpline
 62
7
  6
CONTINUOUS
 70
0
 71
3
 72
39
 73
35
 74
0
 42
0.0000001
 43
0.0000001
 44
0.0000000001
 40
0.0
 40
0.0
 40
0.0
 40
0.0
 40
0.0302437643
 40
0.0615722106
 40
0.0939020548
 40
0.1271594645
 40
0.1612634991
 40
0.1961118514
 40
0.2315922118
 40
0.267584712
 40
0.3039644475
 40
0.3406005168
 40
0.377359328
 40
0.4141057584
 40
0.4507047777
 40
0.4870234308
 40
0.5229314963
 40
0.5583047133
 40
0.593024416
 40
0.6269819186
 40
0.6600773638
 40
0.6922252677
 40
0.7233528521
 40
0.7534066072
 40
0.7823504995
 40
0.8101730193
 40
0.8368858132
 40
0.8625298777
 40
0.8871751341
 40
0.9109230223
 40
0.9339068318
 40
0.9562867824
 40
0.9782500476
 40
1.0
 40
1.0
 40
1.0
 40
1.0
 10
16.6114791498
 20
13.39919466
 30
0.0
 10
16.5899651097
 20
13.4234287784
 30
0.0
 10
16.544491037
 20
13.4713006415
 30
0.0
 10
16.4708272997
 20
13.539916695
 30
0.0
 10
16.3908668413
 20
13.6062589136
 30
0.0
 10
16.3050712632
 20
13.6699743375
 30
0.0
 10
16.213895243
 20
13.7307263547
 30
0.0
 10
16.1178381839
 20
13.7882055141
 30
0.0
 10
16.0174180024
 20
13.8420870046
 30
0.0
 10
15.9131913265
 20
13.8920920916
 30
0.0
 10
15.8057229237
 20
13.9379375603
 30
0.0
 10
15.6956066011
 20
13.9793865746
 30
0.0
 10
15.5834416382
 20
14.0161992694
 30
0.0
 10
15.4698477506
 20
14.048187063
 30
0.0
 10
15.3554440594
 20
14.0751610477
 30
0.0
 10
15.2408608497
 20
14.0969859103
 30
0.0
 10
15.1267221533
 20
14.1135271254
 30
0.0
 10
15.0136537881
 20
14.1247058263
 30
0.0
 10
14.9022695464
 20
14.130444005
 30
0.0
 10
14.7931755243
 20
14.1307201857
 30
0.0
 10
14.6869606769
 20
14.1255125349
 30
0.0
 10
14.5841969253
 20
14.1148552938
 30
0.0
 10
14.4854352695
 20
14.0987799306
 30
0.0
 10
14.3912011671
 20
14.0773715665
 30
0.0
 10
14.3019982099
 20
14.050709362
 30
0.0
 10
14.2182984168
 20
14.0189218725
 30
0.0
 10
14.140556413
 20
13.9821292557
 30
0.0
 10
14.0691935075
 20
13.9404981231
 30
0.0
 10
14.0046261166
 20
13.8941894823
 30
0.0
 10
13.9472370594
 20
13.8434176006
 30
0.0
 10
13.8974224716
 20
13.78840749
 30
0.0
 10
13.8555237747
 20
13.7294603669
 30
0.0
 10
13.8219045243
 20
13.6669256649
 30
0.0
 10
13.8051358221
 20
13.6230263112
 30
0.0
 10
13.7982551093
 20
13.6007603163
 30
0.0
  0
SPLINE
  5
439
100
AcDbEntity
  8
0
100
AcDbSpline
 62
7
  6
CONTINUOUS
 70
0
 71
3
 72
13
 73
9
 74
0
 42
0.0000001
 43
0.0000001
 44
0.0000000001
 40
0.0
 40
0.0
 40
0.0
 40
0.0
 40
0.2275193546
 40
0.3500487276
 40
0.4770754151
 40
0.60724175
 40
0.7389842843
 40
1.0
 40
1.0
 40
1.0
 40
1.0
 10
13.2192156814
 20
12.0982225064
 30
0.0
 10
13.2247006937
 20
12.1159720126
 30
0.0
 10
13.2382450287
 20
12.1418469256
 30
0.0
 10
13.2630722426
 20
12.1719281707
 30
0.0
 10
13.2858211527
 20
12.193137265
 30
0.0
 10
13.311610834
 20
12.2118078559
 30
0.0
 10
13.3489751861
 20
12.2326028141
 30
0.0
 10
13.3796667221
 20
12.2432245585
 30
0.0
 10
13.40052053
 20
12.2476237411
 30
0.0
  0
SPLINE
  5
43A
100
AcDbEntity
  8
0
100
AcDbSpline
 62
7
  6
CONTINUOUS
 70
0
 71
3
 72
11
 73
7
 74
0
 42
0.0000001
 43
0.0000001
 44
0.0000000001
 40
0.0
 40
0.0
 40
0.0
 40
0.0
 40
0.2730134402
 40
0.5305452746
 40
0.7721470632
 40
1.0
 40
1.0
 40
1.0
 40
1.0
 10
12.7169013267
 20
11.5459010226
 30
0.0
 10
12.7166340683
 20
11.5450358049
 30
0.0
 10
12.7162114742
 20
11.5433214698
 30
0.0
 10
12.7159733138
 20
11.5407596073
 30
0.0
 10
12.7162006357
 20
11.5383426713
 30
0.0
 10
12.7167011549
 20
11.5368483438
 30
0.0
 10
12.7170341004
 20
11.5361698722
 30
0.0
  0
SPLINE
  5
43B
100
AcDbEntity
  8
0
100
AcDbSpline
 62
7
  6
CONTINUOUS
 70
0
 71
3
 72
15
 73
11
 74
0
 42
0.0000001
 43
0.0000001
 44
0.0000000001
 40
0.0
 40
0.0
 40
0.0
 40
0.0
 40
0.1132079275
 40
0.2273915317
 40
0.3441542682
 40
0.4648374259
 40
0.5903798779
 40
0.7213829529
 40
0.8580799072
 40
1.0
 40
1.0
 40
1.0
 40
1.0
 10
16.9142543812
 20
12.1389286226
 30
0.0
 10
16.9164059081
 20
12.133551427
 30
0.0
 10
16.9217001457
 20
12.1231105136
 30
0.0
 10
16.9323829878
 20
12.1090057637
 30
0.0
 10
16.9456036173
 20
12.096680306
 30
0.0
 10
16.9611252623
 20
12.0863475032
 30
0.0
 10
16.978673701
 20
12.0781567158
 30
0.0
 10
16.9979623576
 20
12.0722322871
 30
0.0
 10
17.0186637278
 20
12.068669079
 30
0.0
 10
17.032932331
 20
12.0679005799
 30
0.0
 10
17.040192888
 20
12.0679005799
 30
0.0
  0
SPLINE
  5
43C
100
AcDbEntity
  8
0
100
AcDbSpline
 62
7
  6
CONTINUOUS
 70
0
 71
3
 72
15
 73
11
 74
0
 42
0.0000001
 43
0.0000001
 44
0.0000000001
 40
0.0
 40
0.0
 40
0.0
 40
0.0
 40
0.1143285942
 40
0.2299585396
 40
0.3480121997
 40
0.4694977333
 40
0.5951356295
 40
0.7253753225
 40
0.8604393992
 40
1.0
 40
1.0
 40
1.0
 40
1.0
 10
17.6168863973
 20
12.3556874152
 30
0.0
 10
17.6124008358
 20
12.3648280285
 30
0.0
 10
17.6017994196
 20
12.3824831657
 30
0.0
 10
17.5815779181
 20
12.4061447135
 30
0.0
 10
17.55735275
 20
12.4266852881
 30
0.0
 10
17.5295640917
 20
12.4438010446
 30
0.0
 10
17.4986728845
 20
12.4572933323
 30
0.0
 10
17.4651430934
 20
12.4670046222
 30
0.0
 10
17.429482845
 20
12.4728305233
 30
0.0
 10
17.4050025359
 20
12.4740854965
 30
0.0
 10
17.3925735194
 20
12.4740854965
 30
0.0
  0
SPLINE
  5
43D
100
AcDbEntity
  8
0
100
AcDbSpline
 62
7
  6
CONTINUOUS
 70
0
 71
3
 72
9
 73
5
 74
0
 42
0.0000001
 43
0.0000001
 44
0.0000000001
 40
0.0
 40
0.0
 40
0.0
 40
0.0
 40
0.254522374
 40
1.0
 40
1.0
 40
1.0
 40
1.0
 10
16.0580959513
 20
11.9324462269
 30
0.0
 10
16.0609315973
 20
11.9272998913
 30
0.0
 10
16.0718395897
 20
11.9069531888
 30
0.0
 10
16.0817956666
 20
11.8860928734
 30
0.0
 10
16.0886001379
 20
11.8702852301
 30
0.0
  0
SPLINE
  5
43E
100
AcDbEntity
  8
0
100
AcDbSpline
 62
7
  6
CONTINUOUS
 70
0
 71
3
 72
9
 73
5
 74
0
 42
0.0000001
 43
0.0000001
 44
0.0000000001
 40
0.0
 40
0.0
 40
0.0
 40
0.0
 40
0.2432193817
 40
1.0
 40
1.0
 40
1.0
 40
1.0
 10
16.0548183307
 20
13.291751887
 30
0.0
 10
16.0568968631
 20
13.2834124614
 30
0.0
 10
16.0645957125
 20
13.2489113163
 30
0.0
 10
16.0692083147
 20
13.2137864361
 30
0.0
 10
16.0717563196
 20
13.1871660298
 30
0.0
  0
SPLINE
  5
43F
100
AcDbEntity
  8
0
100
AcDbSpline
 62
7
  6
CONTINUOUS
 70
0
 71
3
 72
10
 73
6
 74
0
 42
0.0000001
 43
0.0000001
 44
0.0000000001
 40
0.0
 40
0.0
 40
0.0
 40
0.0
 40
0.4833109766
 40
0.7373702446
 40
1.0
 40
1.0
 40
1.0
 40
1.0
 10
16.0232912276
 20
13.3816162226
 30
0.0
 10
16.0296331286
 20
13.3676251444
 30
0.0
 10
16.0385106337
 20
13.345895631
 30
0.0
 10
16.0484439069
 20
13.3156940381
 30
0.0
 10
16.0527995961
 20
13.2998513935
 30
0.0
 10
16.0548183307
 20
13.291751887
 30
0.0
  0
SPLINE
  5
440
100
AcDbEntity
  8
0
100
AcDbSpline
 62
7
  6
CONTINUOUS
 70
0
 71
3
 72
10
 73
6
 74
0
 42
0.0000001
 43
0.0000001
 44
0.0000000001
 40
0.0
 40
0.0
 40
0.0
 40
0.0
 40
0.2578571173
 40
0.5105809347
 40
1.0
 40
1.0
 40
1.0
 40
1.0
 10
15.9367345884
 20
13.4365576888
 30
0.0
 10
15.9446039777
 20
13.4325680637
 30
0.0
 10
15.9599868389
 20
13.4242666136
 30
0.0
 10
15.9892381362
 20
13.4064933974
 30
0.0
 10
16.0099853025
 20
13.3917841375
 30
0.0
 10
16.0232912276
 20
13.3816162226
 30
0.0
  0
SPLINE
  5
441
100
AcDbEntity
  8
0
100
AcDbSpline
 62
7
  6
CONTINUOUS
 70
0
 71
3
 72
10
 73
6
 74
0
 42
0.0000001
 43
0.0000001
 44
0.0000000001
 40
0.0
 40
0.0
 40
0.0
 40
0.0
 40
0.5032834057
 40
0.7530488411
 40
1.0
 40
1.0
 40
1.0
 40
1.0
 10
15.835588835
 20
13.4767776336
 30
0.0
 10
15.8530233572
 20
13.4712866537
 30
0.0
 10
15.8789019691
 20
13.4623437962
 30
0.0
 10
15.9124290707
 20
13.4483531687
 30
0.0
 10
15.9287349055
 20
13.4406133703
 30
0.0
 10
15.9367345884
 20
13.4365576888
 30
0.0
  0
SPLINE
  5
442
100
AcDbEntity
  8
0
100
AcDbSpline
 62
7
  6
CONTINUOUS
 70
0
 71
3
 72
9
 73
5
 74
0
 42
0.0000001
 43
0.0000001
 44
0.0000000001
 40
0.0
 40
0.0
 40
0.0
 40
0.0
 40
0.5372616353
 40
1.0
 40
1.0
 40
1.0
 40
1.0
 10
15.7732647418
 20
13.4344940035
 30
0.0
 10
15.7842472619
 20
13.4423255331
 30
0.0
 10
15.8048442522
 20
13.4566871418
 30
0.0
 10
15.8258086208
 20
13.4705070055
 30
0.0
 10
15.835588835
 20
13.4767776336
 30
0.0
  0
SPLINE
  5
443
100
AcDbEntity
  8
0
100
AcDbSpline
 62
7
  6
CONTINUOUS
 70
0
 71
3
 72
9
 73
5
 74
0
 42
0.0000001
 43
0.0000001
 44
0.0000000001
 40
0.0
 40
0.0
 40
0.0
 40
0.0
 40
0.5197955235
 40
1.0
 40
1.0
 40
1.0
 40
1.0
 10
15.6963515344
 20
13.3774888519
 30
0.0
 10
15.7095488079
 20
13.3875385357
 30
0.0
 10
15.735023665
 20
13.4067606853
 30
0.0
 10
15.7607875384
 20
13.4255966296
 30
0.0
 10
15.7732647418
 20
13.4344940035
 30
0.0
  0
LINE
  5
444
100
AcDbEntity
  8
0
100
AcDbLine
 62
7
  6
CONTINUOUS
 10
15.8499487572
 20
11.814901881
 11
15.8530344723
 21
11.8079365689
  0
SPLINE
  5
445
100
AcDbEntity
  8
0
100
AcDbSpline
 62
7
  6
CONTINUOUS
 70
0
 71
3
 72
13
 73
9
 74
0
 42
0.0000001
 43
0.0000001
 44
0.0000000001
 40
0.0
 40
0.0
 40
0.0
 40
0.0
 40
0.1057364977
 40
0.2195102759
 40
0.3401591007
 40
0.4664612099
 40
0.7305656689
 40
1.0
 40
1.0
 40
1.0
 40
1.0
 10
15.8530344723
 20
11.8079365689
 30
0.0
 10
15.8542287571
 20
11.8049561392
 30
0.0
 10
15.8564532879
 20
11.7986649239
 30
0.0
 10
15.8592303935
 20
11.7887093681
 30
0.0
 10
15.8615380677
 20
11.7779951476
 30
0.0
 10
15.8639888348
 20
11.7626649375
 30
0.0
 10
15.8656640983
 20
11.7426668339
 30
0.0
 10
15.8655655217
 20
11.726440847
 30
0.0
 10
15.8651417217
 20
11.7182701576
 30
0.0
  0
SPLINE
  5
446
100
AcDbEntity
  8
0
100
AcDbSpline
 62
7
  6
CONTINUOUS
 70
0
 71
3
 72
13
 73
9
 74
0
 42
0.0000001
 43
0.0000001
 44
0.0000000001
 40
0.0
 40
0.0
 40
0.0
 40
0.0
 40
0.2938526907
 40
0.5656897314
 40
0.6895829911
 40
0.803773025
 40
0.9073860648
 40
1.0
 40
1.0
 40
1.0
 40
1.0
 10
15.8651417217
 20
11.7182701576
 30
0.0
 10
15.8647171998
 20
11.7100855494
 30
0.0
 10
15.8631748585
 20
11.6943571684
 30
0.0
 10
15.8593474063
 20
11.6754616652
 30
0.0
 10
15.8551695663
 20
11.6618565354
 30
0.0
 10
15.8516983001
 20
11.6529694001
 30
0.0
 10
15.8478389875
 20
11.6452061963
 30
0.0
 10
15.8448767949
 20
11.6405840112
 30
0.0
 10
15.8433262352
 20
11.6385181547
 30
0.0
  0
SPLINE
  5
447
100
AcDbEntity
  8
0
100
AcDbSpline
 62
7
  6
CONTINUOUS
 70
0
 71
3
 72
11
 73
7
 74
0
 42
0.0000001
 43
0.0000001
 44
0.0000000001
 40
0.0
 40
0.0
 40
0.0
 40
0.0
 40
0.279745766
 40
0.5391919056
 40
0.7778375688
 40
1.0
 40
1.0
 40
1.0
 40
1.0
 10
14.548877902
 20
12.2656228343
 30
0.0
 10
14.541601137
 20
12.2656228343
 30
0.0
 10
14.5275440781
 20
12.266639386
 30
0.0
 10
14.5077947943
 20
12.2715456057
 30
0.0
 10
14.490778452
 20
12.2797339129
 30
0.0
 10
14.4814463397
 20
12.2875191101
 30
0.0
 10
14.4775842079
 20
12.2918179081
 30
0.0
  0
SPLINE
  5
448
100
AcDbEntity
  8
0
100
AcDbSpline
 62
7
  6
CONTINUOUS
 70
0
 71
3
 72
15
 73
11
 74
0
 42
0.0000001
 43
0.0000001
 44
0.0000000001
 40
0.0
 40
0.0
 40
0.0
 40
0.0
 40
0.1380799318
 40
0.2714583019
 40
0.400424799
 40
0.5254316948
 40
0.647119483
 40
0.7662256933
 40
0.8835644243
 40
1.0
 40
1.0
 40
1.0
 40
1.0
 10
13.9096928908
 20
11.5904828613
 30
0.0
 10
13.9034227902
 20
11.6032599829
 30
0.0
 10
13.892004515
 20
11.6288399993
 30
0.0
 10
13.8781990046
 20
11.6677837593
 30
0.0
 10
13.8680883336
 20
11.7064627593
 30
0.0
 10
13.8617343418
 20
11.7447167378
 30
0.0
 10
13.8591544614
 20
11.7823948466
 30
0.0
 10
13.8603738517
 20
11.8193561639
 30
0.0
 10
13.8653856606
 20
11.8554483683
 30
0.0
 10
13.8712529813
 20
11.878876744
 30
0.0
 10
13.8747961805
 20
11.890343469
 30
0.0
  0
SPLINE
  5
449
100
AcDbEntity
  8
0
100
AcDbSpline
 62
7
  6
CONTINUOUS
 70
0
 71
3
 72
9
 73
5
 74
0
 42
0.0000001
 43
0.0000001
 44
0.0000000001
 40
0.0
 40
0.0
 40
0.0
 40
0.0
 40
0.5363691951
 40
1.0
 40
1.0
 40
1.0
 40
1.0
 10
15.7941386199
 20
11.6343002103
 30
0.0
 10
15.7957016278
 20
11.631115135
 30
0.0
 10
15.798856247
 20
11.6252903362
 30
0.0
 10
15.8026453072
 20
11.6198390237
 30
0.0
 10
15.8046026313
 20
11.6174780964
 30
0.0
  0
SPLINE
  5
44A
100
AcDbEntity
  8
0
100
AcDbSpline
 62
7
  6
CONTINUOUS
 70
0
 71
3
 72
11
 73
7
 74
0
 42
0.0000001
 43
0.0000001
 44
0.0000000001
 40
0.0
 40
0.0
 40
0.0
 40
0.0
 40
0.2995691738
 40
0.5600848947
 40
0.7893505388
 40
1.0
 40
1.0
 40
1.0
 40
1.0
 10
15.8046026313
 20
11.6174780964
 30
0.0
 10
15.8059095902
 20
11.6159016405
 30
0.0
 10
15.8085277171
 20
11.6130883881
 30
0.0
 10
15.8128210143
 20
11.6097687711
 30
0.0
 10
15.8171938784
 20
11.6077059365
 30
0.0
 10
15.8202150267
 20
11.6072206979
 30
0.0
 10
15.821654964
 20
11.6072186863
 30
0.0
  0
SPLINE
  5
44B
100
AcDbEntity
  8
0
100
AcDbSpline
 62
7
  6
CONTINUOUS
 70
0
 71
3
 72
40
 73
36
 74
0
 42
0.0000001
 43
0.0000001
 44
0.0000000001
 40
0.0
 40
0.0
 40
0.0
 40
0.0
 40
0.0265226261
 40
0.0543699942
 40
0.0835317257
 40
0.1139861994
 40
0.1456886594
 40
0.1785580721
 40
0.2124928771
 40
0.2473729581
 40
0.2830651865
 40
0.3194208955
 40
0.3562830996
 40
0.3934869178
 40
0.4308636005
 40
0.4682415719
 40
0.5054491919
 40
0.5423176108
 40
0.5786818661
 40
0.6143853381
 40
0.6492795646
 40
0.6832303573
 40
0.7161167027
 40
0.7478385393
 40
0.7783152749
 40
0.8074951963
 40
0.8353542013
 40
0.8619064811
 40
0.8872037037
 40
0.8994158078
 40
0.9113552019
 40
0.934486983
 40
0.9568054028
 40
0.9785505546
 40
1.0
 40
1.0
 40
1.0
 40
1.0
 10
15.8742474438
 20
11.8935324594
 30
0.0
 10
15.8655018969
 20
11.9113540102
 30
0.0
 10
15.8457137598
 20
11.9469960746
 30
0.0
 10
15.8105788658
 20
11.9987972637
 30
0.0
 10
15.7695010096
 20
12.0498571531
 30
0.0
 10
15.7227856173
 20
12.0998300882
 30
0.0
 10
15.6707384122
 20
12.1483815216
 30
0.0
 10
15.6137202487
 20
12.1951992529
 30
0.0
 10
15.552107934
 20
12.2399527271
 30
0.0
 10
15.4863280759
 20
12.2823518593
 30
0.0
 10
15.4168196299
 20
12.3220979144
 30
0.0
 10
15.3440614834
 20
12.358933922
 30
0.0
 10
15.2685425186
 20
12.3925957275
 30
0.0
 10
15.1907822942
 20
12.4228674882
 30
0.0
 10
15.1113050314
 20
12.4495302079
 30
0.0
 10
15.0306559915
 20
12.4724156766
 30
0.0
 10
14.9493802089
 20
12.4913547876
 30
0.0
 10
14.868034105
 20
12.506232169
 30
0.0
 10
14.7871681526
 20
12.5169329963
 30
0.0
 10
14.7073343503
 20
12.52339835
 30
0.0
 10
14.6290732384
 20
12.5255699227
 30
0.0
 10
14.5529168389
 20
12.5234470935
 30
0.0
 10
14.4793808396
 20
12.5170284178
 30
0.0
 10
14.4089621063
 20
12.5063712607
 30
0.0
 10
14.3421376571
 20
12.4915290441
 30
0.0
 10
14.2793556168
 20
12.4726142871
 30
0.0
 10
14.22104226
 20
12.4497300959
 30
0.0
 10
14.1675902634
 20
12.4230410933
 30
0.0
 10
14.1269288398
 20
12.3974510294
 30
0.0
 10
14.0973138957
 20
12.3752218815
 30
0.0
 10
14.0702486734
 20
12.3523944027
 30
0.0
 10
14.0399021386
 20
12.3218282205
 30
0.0
 10
14.0092495706
 20
12.2817660211
 30
0.0
 10
13.9849985024
 20
12.2389695753
 30
0.0
 10
13.9731855279
 20
12.2087319722
 30
0.0
 10
13.9684459332
 20
12.1933929617
 30
0.0
  0
SPLINE
  5
44C
100
AcDbEntity
  8
0
100
AcDbSpline
 62
7
  6
CONTINUOUS
 70
0
 71
3
 72
32
 73
28
 74
0
 42
0.0000001
 43
0.0000001
 44
0.0000000001
 40
0.0
 40
0.0
 40
0.0
 40
0.0
 40
0.0265255794
 40
0.0543788513
 40
0.0835474468
 40
0.1140072647
 40
0.1457144046
 40
0.1785898389
 40
0.2125311521
 40
0.2474179956
 40
0.3194542608
 40
0.3935109413
 40
0.4682572471
 40
0.542324664
 40
0.6143819726
 40
0.6832128485
 40
0.7478006363
 40
0.7782839352
 40
0.8074685995
 40
0.8353335676
 40
0.8618901422
 40
0.8871925938
 40
0.9113382648
 40
0.934474465
 40
0.9567966561
 40
0.9785462287
 40
1.0
 40
1.0
 40
1.0
 40
1.0
 10
15.5298895503
 20
11.5708996885
 30
0.0
 10
15.5234317439
 20
11.5840593144
 30
0.0
 10
15.5088185043
 20
11.6103787545
 30
0.0
 10
15.4828731916
 20
11.6486326516
 30
0.0
 10
15.4525383543
 20
11.686339798
 30
0.0
 10
15.4180406636
 20
11.7232430478
 30
0.0
 10
15.3796060138
 20
11.7590958974
 30
0.0
 10
15.3375002449
 20
11.793668021
 30
0.0
 10
15.2920016878
 20
11.8267190475
 30
0.0
 10
15.2265404446
 20
11.8689080738
 30
0.0
 10
15.1382388185
 20
11.9162788279
 30
0.0
 10
15.02540576
 20
11.9632551375
 30
0.0
 10
14.907569989
 20
11.9997171992
 30
0.0
 10
14.7879022205
 20
12.0246840452
 30
0.0
 10
14.6695969884
 20
12.0374874617
 30
0.0
 10
14.5558265851
 20
12.0377834947
 30
0.0
 10
14.4655749283
 20
12.0273912487
 30
0.0
 10
14.3984878714
 20
12.0125016092
 30
0.0
 10
14.3521256633
 20
11.998527195
 30
0.0
 10
14.3090620626
 20
11.9816342396
 30
0.0
 10
14.2695896884
 20
11.9619188901
 30
0.0
 10
14.2339753111
 20
11.9395118691
 30
0.0
 10
14.2024690344
 20
11.9145464939
 30
0.0
 10
14.1752965626
 20
11.8871830139
 30
0.0
 10
14.1526617613
 20
11.8575952967
 30
0.0
 10
14.1347515445
 20
11.8259929629
 30
0.0
 10
14.1260283108
 20
11.8036627153
 30
0.0
 10
14.1225289844
 20
11.7923349669
 30
0.0
  0
SPLINE
  5
44D
100
AcDbEntity
  8
0
100
AcDbSpline
 62
7
  6
CONTINUOUS
 70
0
 71
3
 72
11
 73
7
 74
0
 42
0.0000001
 43
0.0000001
 44
0.0000000001
 40
0.0
 40
0.0
 40
0.0
 40
0.0
 40
0.2154647633
 40
0.4459034569
 40
0.7045812304
 40
1.0
 40
1.0
 40
1.0
 40
1.0
 10
15.821654964
 20
11.6072186863
 30
0.0
 10
15.8230232988
 20
11.6072167746
 30
0.0
 10
15.8258712478
 20
11.6076433023
 30
0.0
 10
15.8299765661
 20
11.6095370269
 30
0.0
 10
15.8339471053
 20
11.6125976957
 30
0.0
 10
15.8363413897
 20
11.6151959721
 30
0.0
 10
15.8375283992
 20
11.6166488099
 30
0.0
  0
SPLINE
  5
44E
100
AcDbEntity
  8
0
100
AcDbSpline
 62
7
  6
CONTINUOUS
 70
0
 71
3
 72
9
 73
5
 74
0
 42
0.0000001
 43
0.0000001
 44
0.0000000001
 40
0.0
 40
0.0
 40
0.0
 40
0.0
 40
0.4632693576
 40
1.0
 40
1.0
 40
1.0
 40
1.0
 10
15.8375283992
 20
11.6166488099
 30
0.0
 10
15.8392661115
 20
11.6187756794
 30
0.0
 10
15.8426202545
 20
11.623691416
 30
0.0
 10
15.8453890719
 20
11.6289434961
 30
0.0
 10
15.8467595158
 20
11.6318152644
 30
0.0
  0
SPLINE
  5
44F
100
AcDbEntity
  8
0
100
AcDbSpline
 62
7
  6
CONTINUOUS
 70
0
 71
3
 72
15
 73
11
 74
0
 42
0.0000001
 43
0.0000001
 44
0.0000000001
 40
0.0
 40
0.0
 40
0.0
 40
0.0
 40
0.1029870708
 40
0.2201539719
 40
0.3479059601
 40
0.4821322992
 40
0.6185236558
 40
0.7528383848
 40
0.881133545
 40
1.0
 40
1.0
 40
1.0
 40
1.0
 10
15.8486541651
 20
11.6359826778
 30
0.0
 10
15.8510245478
 20
11.6414489227
 30
0.0
 10
15.8553629776
 20
11.6534513326
 30
0.0
 10
15.8606045312
 20
11.672900259
 30
0.0
 10
15.8648340513
 20
11.6944401826
 30
0.0
 10
15.8678248394
 20
11.7173073896
 30
0.0
 10
15.8693598738
 20
11.7407008706
 30
0.0
 10
15.8692392007
 20
11.7638064895
 30
0.0
 10
15.8673401305
 20
11.7858191499
 30
0.0
 10
15.8647306517
 20
11.7999138859
 30
0.0
 10
15.8630445727
 20
11.8065807094
 30
0.0
  0
SPLINE
  5
450
100
AcDbEntity
  8
0
100
AcDbSpline
 62
7
  6
CONTINUOUS
 70
0
 71
3
 72
9
 73
5
 74
0
 42
0.0000001
 43
0.0000001
 44
0.0000000001
 40
0.0
 40
0.0
 40
0.0
 40
0.0
 40
0.2575141673
 40
1.0
 40
1.0
 40
1.0
 40
1.0
 10
15.8630445727
 20
11.8065807094
 30
0.0
 10
15.8627749409
 20
11.8076468443
 30
0.0
 10
15.8616840845
 20
11.8117756347
 30
0.0
 10
15.8604149293
 20
11.815858179
 30
0.0
 10
15.859358087
 20
11.8188476182
 30
0.0
  0
SPLINE
  5
451
100
AcDbEntity
  8
0
100
AcDbSpline
 62
7
  6
CONTINUOUS
 70
0
 71
3
 72
9
 73
5
 74
0
 42
0.0000001
 43
0.0000001
 44
0.0000000001
 40
0.0
 40
0.0
 40
0.0
 40
0.0
 40
0.2595962094
 40
1.0
 40
1.0
 40
1.0
 40
1.0
 10
15.859358087
 20
11.8188476182
 30
0.0
 10
15.8590053828
 20
11.8198452958
 30
0.0
 10
15.857597128
 20
11.8236705337
 30
0.0
 10
15.8559848005
 20
11.8274224981
 30
0.0
 10
15.8546552007
 20
11.8301319377
 30
0.0
  0
SPLINE
  5
452
100
AcDbEntity
  8
0
100
AcDbSpline
 62
7
  6
CONTINUOUS
 70
0
 71
3
 72
12
 73
8
 74
0
 42
0.0000001
 43
0.0000001
 44
0.0000000001
 40
0.0
 40
0.0
 40
0.0
 40
0.0
 40
0.2568055546
 40
0.5134774014
 40
0.7642267805
 40
0.8847948602
 40
1.0
 40
1.0
 40
1.0
 40
1.0
 10
12.7384862366
 20
11.5712932941
 30
0.0
 10
12.7360816737
 20
11.5696739023
 30
0.0
 10
12.7314630753
 20
11.5661432376
 30
0.0
 10
12.7252862309
 20
11.5600917353
 30
0.0
 10
12.7209504372
 20
11.5544343531
 30
0.0
 10
12.718283479
 20
11.5496228464
 30
0.0
 10
12.7172851545
 20
11.54714362
 30
0.0
 10
12.7169013267
 20
11.5459010226
 30
0.0
  0
SPLINE
  5
453
100
AcDbEntity
  8
0
100
AcDbSpline
 62
7
  6
CONTINUOUS
 70
0
 71
3
 72
9
 73
5
 74
0
 42
0.0000001
 43
0.0000001
 44
0.0000000001
 40
0.0
 40
0.0
 40
0.0
 40
0.0
 40
0.2301435532
 40
1.0
 40
1.0
 40
1.0
 40
1.0
 10
15.8150409135
 20
11.6085475544
 30
0.0
 10
15.8159858964
 20
11.6089048211
 30
0.0
 10
15.8199874475
 20
11.6107366364
 30
0.0
 10
15.8234762674
 20
11.6135595355
 30
0.0
 10
15.8258480402
 20
11.6159668892
 30
0.0
  0
SPLINE
  5
454
100
AcDbEntity
  8
0
100
AcDbSpline
 62
7
  6
CONTINUOUS
 70
0
 71
3
 72
9
 73
5
 74
0
 42
0.0000001
 43
0.0000001
 44
0.0000000001
 40
0.0
 40
0.0
 40
0.0
 40
0.0
 40
0.2398201544
 40
1.0
 40
1.0
 40
1.0
 40
1.0
 10
15.8258480402
 20
11.6159668892
 30
0.0
 10
15.826238843
 20
11.6163635547
 30
0.0
 10
15.8278368445
 20
11.6180485874
 30
0.0
 10
15.8293118128
 20
11.6198485096
 30
0.0
 10
15.8303712919
 20
11.6212602322
 30
0.0
  0
SPLINE
  5
455
100
AcDbEntity
  8
0
100
AcDbSpline
 62
7
  6
CONTINUOUS
 70
0
 71
3
 72
14
 73
10
 74
0
 42
0.0000001
 43
0.0000001
 44
0.0000000001
 40
0.0
 40
0.0
 40
0.0
 40
0.0
 40
0.3577772315
 40
0.5140531095
 40
0.6531552459
 40
0.7733723204
 40
0.8725353942
 40
0.9484646349
 40
1.0
 40
1.0
 40
1.0
 40
1.0
 10
13.1121761234
 20
12.7805542109
 30
0.0
 10
13.1110664571
 20
12.7818343851
 30
0.0
 10
13.1094425666
 20
12.783649178
 30
0.0
 10
13.1072924805
 20
12.7858727059
 30
0.0
 10
13.1058787025
 20
12.787242917
 30
0.0
 10
13.1046100901
 20
12.7883700206
 30
0.0
 10
13.1035029448
 20
12.7892323767
 30
0.0
 10
13.1025962477
 20
12.789795728
 30
0.0
 10
13.1020089148
 20
12.7900139503
 30
0.0
 10
13.1017648815
 20
12.7900139495
 30
0.0
  0
SPLINE
  5
456
100
AcDbEntity
  8
0
100
AcDbSpline
 62
7
  6
CONTINUOUS
 70
0
 71
3
 72
15
 73
11
 74
0
 42
0.0000001
 43
0.0000001
 44
0.0000000001
 40
0.0
 40
0.0
 40
0.0
 40
0.0
 40
0.1517148695
 40
0.2867353802
 40
0.4078217316
 40
0.519570902
 40
0.6282467805
 40
0.740729492
 40
0.8631623719
 40
1.0
 40
1.0
 40
1.0
 40
1.0
 10
15.8433262352
 20
11.6385181547
 30
0.0
 10
15.8420901963
 20
11.6368713435
 30
0.0
 10
15.8395646553
 20
11.6338913368
 30
0.0
 10
15.8353488921
 20
11.6302622618
 30
0.0
 10
15.830957899
 20
11.6277996843
 30
0.0
 10
15.826429901
 20
11.6265793368
 30
0.0
 10
15.821851935
 20
11.6266487712
 30
0.0
 10
15.8173368688
 20
11.6280152712
 30
0.0
 10
15.8129645985
 20
11.6306093584
 30
0.0
 10
15.8103273176
 20
11.6329694703
 30
0.0
 10
15.809037029
 20
11.6343052073
 30
0.0
  0
SPLINE
  5
457
100
AcDbEntity
  8
0
100
AcDbSpline
 62
7
  6
CONTINUOUS
 70
0
 71
3
 72
9
 73
5
 74
0
 42
0.0000001
 43
0.0000001
 44
0.0000000001
 40
0.0
 40
0.0
 40
0.0
 40
0.0
 40
0.4645899162
 40
1.0
 40
1.0
 40
1.0
 40
1.0
 10
15.809037029
 20
11.6343052073
 30
0.0
 10
15.8070599803
 20
11.6363518945
 30
0.0
 10
15.8032891227
 20
11.6412270888
 30
0.0
 10
15.8002897853
 20
11.6465862331
 30
0.0
 10
15.7988450633
 20
11.649530267
 30
0.0
  0
SPLINE
  5
458
100
AcDbEntity
  8
0
100
AcDbSpline
 62
7
  6
CONTINUOUS
 70
0
 71
3
 72
10
 73
6
 74
0
 42
0.0000001
 43
0.0000001
 44
0.0000000001
 40
0.0
 40
0.0
 40
0.0
 40
0.0
 40
0.2844626733
 40
0.5442447219
 40
1.0
 40
1.0
 40
1.0
 40
1.0
 10
15.8303711022
 20
11.8431709777
 30
0.0
 10
15.8292289039
 20
11.8446936212
 30
0.0
 10
15.8269045154
 20
11.8475110649
 30
0.0
 10
15.8220799375
 20
11.852149953
 30
0.0
 10
15.8179450354
 20
11.8547798495
 30
0.0
 10
15.8150947662
 20
11.8558643224
 30
0.0
  0
SPLINE
  5
459
100
AcDbEntity
  8
0
100
AcDbSpline
 62
7
  6
CONTINUOUS
 70
0
 71
3
 72
15
 73
11
 74
0
 42
0.0000001
 43
0.0000001
 44
0.0000000001
 40
0.0
 40
0.0
 40
0.0
 40
0.0
 40
0.1125796378
 40
0.2270943586
 40
0.344685284
 40
0.466226102
 40
0.5923246274
 40
0.7233579979
 40
0.8594092236
 40
1.0
 40
1.0
 40
1.0
 40
1.0
 10
17.3943144844
 20
12.3038843577
 30
0.0
 10
17.391674854
 20
12.3083717722
 30
0.0
 10
17.3856116304
 20
12.3170097056
 30
0.0
 10
17.3745031112
 20
12.3285230747
 30
0.0
 10
17.3614781935
 20
12.3385084623
 30
0.0
 10
17.3467311302
 20
12.3468462992
 30
0.0
 10
17.330453354
 20
12.3534263632
 30
0.0
 10
17.3128596512
 20
12.35817717
 30
0.0
 10
17.2941885501
 20
12.3610296356
 30
0.0
 10
17.2813851057
 20
12.3616481711
 30
0.0
 10
17.2748835396
 20
12.3616481711
 30
0.0
  0
SPLINE
  5
45A
100
AcDbEntity
  8
0
100
AcDbSpline
 62
7
  6
CONTINUOUS
 70
0
 71
3
 72
11
 73
7
 74
0
 42
0.0000001
 43
0.0000001
 44
0.0000000001
 40
0.0
 40
0.0
 40
0.0
 40
0.0
 40
0.2442756191
 40
0.4992027034
 40
0.7533602237
 40
1.0
 40
1.0
 40
1.0
 40
1.0
 10
13.4596846667
 20
11.5643560263
 30
0.0
 10
13.4599544014
 20
11.5614750484
 30
0.0
 10
13.4616392698
 20
11.5556855183
 30
0.0
 10
13.4662384939
 20
11.5479666017
 30
0.0
 10
13.4722984616
 20
11.5413052184
 30
0.0
 10
13.4770592498
 20
11.5376992198
 30
0.0
 10
13.4795485747
 20
11.5361698722
 30
0.0
  0
SPLINE
  5
45B
100
AcDbEntity
  8
0
100
AcDbSpline
 62
7
  6
CONTINUOUS
 70
0
 71
3
 72
15
 73
11
 74
0
 42
0.0000001
 43
0.0000001
 44
0.0000000001
 40
0.0
 40
0.0
 40
0.0
 40
0.0
 40
0.1242574412
 40
0.2531490526
 40
0.3844921408
 40
0.5159466171
 40
0.645113174
 40
0.7698281353
 40
0.8884507985
 40
1.0
 40
1.0
 40
1.0
 40
1.0
 10
13.3891574712
 20
12.3616481711
 30
0.0
 10
13.3775986299
 20
12.3616481711
 30
0.0
 10
13.3540169158
 20
12.3596391652
 30
0.0
 10
13.3191293969
 20
12.3512272978
 30
0.0
 10
13.285178228
 20
12.3376643004
 30
0.0
 10
13.2534406729
 20
12.3194700131
 30
0.0
 10
13.2251017578
 20
12.2973133341
 30
0.0
 10
13.201214973
 20
12.2720104107
 30
0.0
 10
13.1826972813
 20
12.2444948897
 30
0.0
 10
13.1741347862
 20
12.2246884704
 30
0.0
 10
13.1710710991
 20
12.2147743755
 30
0.0
  0
SPLINE
  5
45C
100
AcDbEntity
  8
0
100
AcDbSpline
 62
7
  6
CONTINUOUS
 70
0
 71
3
 72
11
 73
7
 74
0
 42
0.0000001
 43
0.0000001
 44
0.0000000001
 40
0.0
 40
0.0
 40
0.0
 40
0.0
 40
0.2636306391
 40
0.5167134803
 40
0.7610586731
 40
1.0
 40
1.0
 40
1.0
 40
1.0
 10
13.1710710991
 20
12.2147743755
 30
0.0
 10
13.1690664283
 20
12.2082872584
 30
0.0
 10
13.1660402674
 20
12.1952667904
 30
0.0
 10
13.1646660309
 20
12.1756259471
 30
0.0
 10
13.1666214334
 20
12.1566647385
 30
0.0
 10
13.1701579874
 20
12.1446421637
 30
0.0
 10
13.1724440931
 20
12.1389286226
 30
0.0
  0
SPLINE
  5
45D
100
AcDbEntity
  8
0
100
AcDbSpline
 62
7
  6
CONTINUOUS
 70
0
 71
3
 72
16
 73
12
 74
0
 42
0.0000001
 43
0.0000001
 44
0.0000000001
 40
0.0
 40
0.0
 40
0.0
 40
0.0
 40
0.1242525838
 40
0.2531108262
 40
0.3844488672
 40
0.5158883819
 40
0.6450407052
 40
0.7697497349
 40
0.8299356368
 40
0.8884553981
 40
1.0
 40
1.0
 40
1.0
 40
1.0
 10
17.2474566735
 20
11.9115509205
 30
0.0
 10
17.2682641893
 20
11.9115509205
 30
0.0
 10
17.3107101721
 20
11.9151645167
 30
0.0
 10
17.3735068526
 20
11.9303101503
 30
0.0
 10
17.4346195179
 20
11.9547174625
 30
0.0
 10
17.4917482105
 20
11.9874725115
 30
0.0
 10
17.5427572054
 20
12.0273485445
 30
0.0
 10
17.5790208645
 20
12.0657662145
 30
0.0
 10
17.6031155004
 20
12.0987065219
 30
0.0
 10
17.6231018382
 20
12.131713046
 30
0.0
 10
17.6344970937
 20
12.1580770462
 30
0.0
 10
17.6400121431
 20
12.1759237525
 30
0.0
  0
SPLINE
  5
45E
100
AcDbEntity
  8
0
100
AcDbSpline
 62
7
  6
CONTINUOUS
 70
0
 71
3
 72
11
 73
7
 74
0
 42
0.0000001
 43
0.0000001
 44
0.0000000001
 40
0.0
 40
0.0
 40
0.0
 40
0.0
 40
0.2643799164
 40
0.5171058136
 40
0.7609099543
 40
1.0
 40
1.0
 40
1.0
 40
1.0
 10
17.6400121431
 20
12.1759237525
 30
0.0
 10
17.6439755903
 20
12.1887494722
 30
0.0
 10
17.6497791111
 20
12.2145041496
 30
0.0
 10
17.6515308118
 20
12.2533162296
 30
0.0
 10
17.6460075495
 20
12.2904971344
 30
0.0
 10
17.6374864117
 20
12.3137082802
 30
0.0
 10
17.6321380344
 20
12.3246066928
 30
0.0
  0
SPLINE
  5
45F
100
AcDbEntity
  8
0
100
AcDbSpline
 62
7
  6
CONTINUOUS
 70
0
 71
3
 72
11
 73
7
 74
0
 42
0.0000001
 43
0.0000001
 44
0.0000000001
 40
0.0
 40
0.0
 40
0.0
 40
0.0
 40
0.2281974898
 40
0.4692471454
 40
0.7265210258
 40
1.0
 40
1.0
 40
1.0
 40
1.0
 10
14.6873882693
 20
12.421679569
 30
0.0
 10
14.6833885848
 20
12.4262933515
 30
0.0
 10
14.6738394509
 20
12.4346921513
 30
0.0
 10
14.6564481798
 20
12.4437286104
 30
0.0
 10
14.6363969585
 20
12.4492053264
 30
0.0
 10
14.6221573991
 20
12.4503584614
 30
0.0
 10
14.614839658
 20
12.4503584614
 30
0.0
  0
SPLINE
  5
460
100
AcDbEntity
  8
0
100
AcDbSpline
 62
7
  6
CONTINUOUS
 70
0
 71
3
 72
19
 73
15
 74
0
 42
0.0000001
 43
0.0000001
 44
0.0000000001
 40
0.0
 40
0.0
 40
0.0
 40
0.0
 40
0.0480185936
 40
0.0974536123
 40
0.1491919619
 40
0.2038186059
 40
0.2615927622
 40
0.3224829604
 40
0.3862226824
 40
0.4523801337
 40
0.5895636764
 40
0.7294505911
 40
0.8674697638
 40
1.0
 40
1.0
 40
1.0
 40
1.0
 10
14.4685288715
 20
12.3051936225
 30
0.0
 10
14.4668244798
 20
12.3086653175
 30
0.0
 10
14.4640715194
 20
12.3160802084
 30
0.0
 10
14.4621172059
 20
12.328002891
 30
0.0
 10
14.4623069247
 20
12.3406101802
 30
0.0
 10
14.4646080049
 20
12.3536785938
 30
0.0
 10
14.4689592831
 20
12.3669840702
 30
0.0
 10
14.4752685887
 20
12.3802905514
 30
0.0
 10
14.4834254784
 20
12.393351627
 30
0.0
 10
14.4967247242
 20
12.4103014467
 30
0.0
 10
14.5170610184
 20
12.4293192603
 30
0.0
 10
14.5456305322
 20
12.4470957179
 30
0.0
 10
14.5768660623
 20
12.4586159629
 30
0.0
 10
14.5987202484
 20
12.4614545617
 30
0.0
 10
14.6093944829
 20
12.4614545617
 30
0.0
  0
SPLINE
  5
461
100
AcDbEntity
  8
0
100
AcDbSpline
 62
7
  6
CONTINUOUS
 70
0
 71
3
 72
15
 73
11
 74
0
 42
0.0000001
 43
0.0000001
 44
0.0000000001
 40
0.0
 40
0.0
 40
0.0
 40
0.0
 40
0.1127927398
 40
0.2270870009
 40
0.3442478919
 40
0.4653815203
 40
0.5912461433
 40
0.7222869094
 40
0.8586689758
 40
1.0
 40
1.0
 40
1.0
 40
1.0
 10
12.9792583384
 20
12.0272408122
 30
0.0
 10
12.9836145412
 20
12.0183641581
 30
0.0
 10
12.9939244838
 20
12.0012039537
 30
0.0
 10
13.0136418609
 20
11.9781869978
 30
0.0
 10
13.0373426813
 20
11.9581473672
 30
0.0
 10
13.0646473328
 20
11.9413900406
 30
0.0
 10
13.0951292663
 20
11.9281309347
 30
0.0
 10
13.1283435339
 20
11.9185543543
 30
0.0
 10
13.1637870134
 20
11.9127925166
 30
0.0
 10
13.1881551828
 20
11.9115509205
 30
0.0
 10
13.2005449311
 20
11.9115509205
 30
0.0
  0
SPLINE
  5
462
100
AcDbEntity
  8
0
100
AcDbSpline
 62
7
  6
CONTINUOUS
 70
0
 71
3
 72
9
 73
5
 74
0
 42
0.0000001
 43
0.0000001
 44
0.0000000001
 40
0.0
 40
0.0
 40
0.0
 40
0.0
 40
0.5180269456
 40
1.0
 40
1.0
 40
1.0
 40
1.0
 10
14.0305812457
 20
11.4176481298
 30
0.0
 10
14.0095310032
 20
11.4418026939
 30
0.0
 10
13.9713838292
 20
11.4906887101
 30
0.0
 10
13.9398003263
 20
11.5441383273
 30
0.0
 10
13.9266677576
 20
11.5708996885
 30
0.0
  0
SPLINE
  5
463
100
AcDbEntity
  8
0
100
AcDbSpline
 62
7
  6
CONTINUOUS
 70
0
 71
3
 72
40
 73
36
 74
0
 42
0.0000001
 43
0.0000001
 44
0.0000000001
 40
0.0
 40
0.0
 40
0.0
 40
0.0
 40
0.0214497891
 40
0.0431952705
 40
0.0655137236
 40
0.0886454223
 40
0.1005848117
 40
0.1127969381
 40
0.1380942683
 40
0.1646467216
 40
0.1925059423
 40
0.2216861306
 40
0.2521631512
 40
0.2838852816
 40
0.3167719078
 40
0.3507229492
 40
0.3856173804
 40
0.4213209756
 40
0.4576852755
 40
0.4945536147
 40
0.5317610533
 40
0.5691387098
 40
0.6065149976
 40
0.6437183371
 40
0.6805799442
 40
0.7169349657
 40
0.7526267794
 40
0.7875070502
 40
0.8214422126
 40
0.8543116381
 40
0.8860138992
 40
0.9164682137
 40
0.9456299071
 40
0.9734773408
 40
1.0
 40
1.0
 40
1.0
 40
1.0
 10
13.8747961805
 20
11.890343469
 30
0.0
 10
13.879535976
 20
11.9056826942
 30
0.0
 10
13.8913492622
 20
11.9359207156
 30
0.0
 10
13.915600448
 20
11.9787177262
 30
0.0
 10
13.9462531919
 20
12.0187801014
 30
0.0
 10
13.9765998616
 20
12.0493461221
 30
0.0
 10
14.0036651431
 20
12.0721734771
 30
0.0
 10
14.0332802096
 20
12.0944026431
 30
0.0
 10
14.073941867
 20
12.1199928064
 30
0.0
 10
14.1273943043
 20
12.1466818208
 30
0.0
 10
14.1857081907
 20
12.1695660855
 30
0.0
 10
14.2484908855
 20
12.1884807651
 30
0.0
 10
14.3153160175
 20
12.2033229672
 30
0.0
 10
14.3857354662
 20
12.2139799159
 30
0.0
 10
14.4592721314
 20
12.2203984212
 30
0.0
 10
14.5354291243
 20
12.2225209223
 30
0.0
 10
14.6136906939
 20
12.2203490625
 30
0.0
 10
14.6935247821
 20
12.2138833384
 30
0.0
 10
14.7743907939
 20
12.2031821916
 30
0.0
 10
14.855736718
 20
12.1883045229
 30
0.0
 10
14.9370120421
 20
12.1693651895
 30
0.0
 10
15.0176604133
 20
12.1464796728
 30
0.0
 10
15.0971367684
 20
12.1198169325
 30
0.0
 10
15.1748959399
 20
12.0895454016
 30
0.0
 10
15.2504136363
 20
12.0558839112
 30
0.0
 10
15.323170714
 20
12.0190485326
 30
0.0
 10
15.3926785179
 20
11.9793026515
 30
0.0
 10
15.4584583999
 20
11.9369033183
 30
0.0
 10
15.5200711533
 20
11.8921496804
 30
0.0
 10
15.5770894277
 20
11.8453318235
 30
0.0
 10
15.6291363633
 20
11.7967804363
 30
0.0
 10
15.6758515672
 20
11.7468076931
 30
0.0
 10
15.7169293569
 20
11.6957478376
 30
0.0
 10
15.7520642564
 20
11.6439465669
 30
0.0
 10
15.7718524733
 20
11.6083044421
 30
0.0
 10
15.7805980349
 20
11.5904828613
 30
0.0
  0
SPLINE
  5
464
100
AcDbEntity
  8
0
100
AcDbSpline
 62
7
  6
CONTINUOUS
 70
0
 71
3
 72
14
 73
10
 74
0
 42
0.0000001
 43
0.0000001
 44
0.0000000001
 40
0.0
 40
0.0
 40
0.0
 40
0.0
 40
0.1164609212
 40
0.2338218829
 40
0.3529503685
 40
0.4746651596
 40
0.5997059788
 40
0.7287107078
 40
1.0
 40
1.0
 40
1.0
 40
1.0
 10
14.1225289844
 20
11.7923349669
 30
0.0
 10
14.1199130927
 20
11.7838670048
 30
0.0
 10
14.1155799009
 20
11.7665664616
 30
0.0
 10
14.1118767062
 20
11.7399144337
 30
0.0
 10
14.1109778221
 20
11.7126200944
 30
0.0
 10
14.1128820657
 20
11.6847964289
 30
0.0
 10
14.1175751944
 20
11.656543811
 30
0.0
 10
14.1276975262
 20
11.6178258269
 30
0.0
 10
14.1392028744
 20
11.5894337266
 30
0.0
 10
14.1482980593
 20
11.5708996885
 30
0.0
  0
SPLINE
  5
465
100
AcDbEntity
  8
0
100
AcDbSpline
 62
7
  6
CONTINUOUS
 70
0
 71
3
 72
29
 73
25
 74
0
 42
0.0000001
 43
0.0000001
 44
0.0000000001
 40
0.0
 40
0.0
 40
0.0
 40
0.0
 40
0.0785094394
 40
0.1577053202
 40
0.2366247477
 40
0.2755114572
 40
0.313630375
 40
0.3506604327
 40
0.386273124
 40
0.4201771117
 40
0.4522595974
 40
0.4825589955
 40
0.5113442165
 40
0.5389446192
 40
0.5657679859
 40
0.592126124
 40
0.6183037785
 40
0.6444881803
 40
0.6707773561
 40
0.7238977508
 40
0.7778812955
 40
0.832653148
 40
0.8880619669
 40
1.0
 40
1.0
 40
1.0
 40
1.0
 10
16.2662306352
 20
12.7488075684
 30
0.0
 10
16.2598341343
 20
12.7618456526
 30
0.0
 10
16.2475679175
 20
12.788331666
 30
0.0
 10
16.2316716678
 20
12.8291485622
 30
0.0
 10
16.2213795803
 20
12.8641849408
 30
0.0
 10
16.2158327128
 20
12.8925099518
 30
0.0
 10
16.2132901727
 20
12.9134733977
 30
0.0
 10
16.2126171952
 20
12.9339813423
 30
0.0
 10
16.2139916169
 20
12.9536840699
 30
0.0
 10
16.2175906793
 20
12.9721841929
 30
0.0
 10
16.2233927484
 20
12.9890926497
 30
0.0
 10
16.2313199712
 20
13.0040604038
 30
0.0
 10
16.2410883297
 20
13.0168713107
 30
0.0
 10
16.2524010317
 20
13.0274143923
 30
0.0
 10
16.2648937358
 20
13.0357261848
 30
0.0
 10
16.2782541742
 20
13.0419331301
 30
0.0
 10
16.2922206119
 20
13.0461963912
 30
0.0
 10
16.3065802208
 20
13.0487265828
 30
0.0
 10
16.3260995092
 20
13.050038121
 30
0.0
 10
16.3508356304
 20
13.0481625984
 30
0.0
 10
16.380109136
 20
13.0414941123
 30
0.0
 10
16.4087650804
 20
13.031257386
 30
0.0
 10
16.4459353023
 20
13.0136389652
 30
0.0
 10
16.4721350477
 20
12.99686416
 30
0.0
 10
16.4888178851
 20
12.9845991231
 30
0.0
  0
SPLINE
  5
466
100
AcDbEntity
  8
0
100
AcDbSpline
 62
7
  6
CONTINUOUS
 70
0
 71
3
 72
11
 73
7
 74
0
 42
0.0000001
 43
0.0000001
 44
0.0000000001
 40
0.0
 40
0.0
 40
0.0
 40
0.0
 40
0.2302748704
 40
0.4770253834
 40
0.7349603687
 40
1.0
 40
1.0
 40
1.0
 40
1.0
 10
17.8985734746
 20
12.7900139495
 30
0.0
 10
17.8964480612
 20
12.7900139503
 30
0.0
 10
17.8920437475
 20
12.7894248394
 30
0.0
 10
17.885550427
 20
12.7873974786
 30
0.0
 10
17.8790831467
 20
12.7844157844
 30
0.0
 10
17.8749391812
 20
12.7819207041
 30
0.0
 10
17.8729101362
 20
12.7805542109
 30
0.0
  0
SPLINE
  5
467
100
AcDbEntity
  8
0
100
AcDbSpline
 62
7
  6
CONTINUOUS
 70
0
 71
3
 72
9
 73
5
 74
0
 42
0.0000001
 43
0.0000001
 44
0.0000000001
 40
0.0
 40
0.0
 40
0.0
 40
0.0
 40
0.4851598833
 40
1.0
 40
1.0
 40
1.0
 40
1.0
 10
15.9999352967
 20
13.2554981506
 30
0.0
 10
16.0021615808
 20
13.2627024086
 30
0.0
 10
16.0045517625
 20
13.2782863878
 30
0.0
 10
16.002894537
 20
13.2939059084
 30
0.0
 10
16.0011835206
 20
13.3017225292
 30
0.0
  0
SPLINE
  5
468
100
AcDbEntity
  8
0
100
AcDbSpline
 62
7
  6
CONTINUOUS
 70
0
 71
3
 72
9
 73
5
 74
0
 42
0.0000001
 43
0.0000001
 44
0.0000000001
 40
0.0
 40
0.0
 40
0.0
 40
0.0
 40
0.2448550639
 40
1.0
 40
1.0
 40
1.0
 40
1.0
 10
14.1448009081
 20
12.4534622986
 30
0.0
 10
14.1499220877
 20
12.4562823392
 30
0.0
 10
14.1709987934
 20
12.4675047368
 30
0.0
 10
14.1926904768
 20
12.4775632765
 30
0.0
 10
14.2093150367
 20
12.484542797
 30
0.0
  0
SPLINE
  5
469
100
AcDbEntity
  8
0
100
AcDbSpline
 62
7
  6
CONTINUOUS
 70
0
 71
3
 72
9
 73
5
 74
0
 42
0.0000001
 43
0.0000001
 44
0.0000000001
 40
0.0
 40
0.0
 40
0.0
 40
0.0
 40
0.255451678
 40
1.0
 40
1.0
 40
1.0
 40
1.0
 10
15.9024871415
 20
13.3996065398
 30
0.0
 10
15.9006540646
 20
13.3999918334
 30
0.0
 10
15.8934410288
 20
13.4013135677
 30
0.0
 10
15.8860834157
 20
13.4018777792
 30
0.0
 10
15.8806243561
 20
13.4018088626
 30
0.0
  0
SPLINE
  5
46A
100
AcDbEntity
  8
0
100
AcDbSpline
 62
7
  6
CONTINUOUS
 70
0
 71
3
 72
15
 73
11
 74
0
 42
0.0000001
 43
0.0000001
 44
0.0000000001
 40
0.0
 40
0.0
 40
0.0
 40
0.0
 40
0.1140016828
 40
0.2342483378
 40
0.3596961806
 40
0.4886970807
 40
0.6192931889
 40
0.7493735329
 40
0.8768912126
 40
1.0
 40
1.0
 40
1.0
 40
1.0
 10
16.6027450332
 20
12.240332002
 30
0.0
 10
16.6097837706
 20
12.2569617038
 30
0.0
 10
16.627525873
 20
12.2898075397
 30
0.0
 10
16.6625832745
 20
12.3349938802
 30
0.0
 10
16.7056589444
 20
12.3761254053
 30
0.0
 10
16.7553259417
 20
12.4118451165
 30
0.0
 10
16.8099391533
 20
12.4409931258
 30
0.0
 10
16.8677026544
 20
12.4626102498
 30
0.0
 10
16.9266934814
 20
12.475973895
 30
0.0
 10
16.9664432653
 20
12.4791472075
 30
0.0
 10
16.9859438246
 20
12.4791472075
 30
0.0
  0
SPLINE
  5
46B
100
AcDbEntity
  8
0
100
AcDbSpline
 62
7
  6
CONTINUOUS
 70
0
 71
3
 72
12
 73
8
 74
0
 42
0.0000001
 43
0.0000001
 44
0.0000000001
 40
0.0
 40
0.0
 40
0.0
 40
0.0
 40
0.2291787599
 40
0.3496077137
 40
0.4737547629
 40
0.7319286846
 40
1.0
 40
1.0
 40
1.0
 40
1.0
 10
15.8102821863
 20
13.351648537
 30
0.0
 10
15.8079116873
 20
13.3439775992
 30
0.0
 10
15.8061422699
 20
13.3316334781
 30
0.0
 10
15.8071161799
 20
13.3150384483
 30
0.0
 10
15.8103648951
 20
13.2976809468
 30
0.0
 10
15.8186029065
 20
13.2762143622
 30
0.0
 10
15.8288314528
 20
13.2606912399
 30
0.0
 10
15.8347665718
 20
13.2534130182
 30
0.0
  0
SPLINE
  5
46C
100
AcDbEntity
  8
0
100
AcDbSpline
 62
7
  6
CONTINUOUS
 70
0
 71
3
 72
9
 73
5
 74
0
 42
0.0000001
 43
0.0000001
 44
0.0000000001
 40
0.0
 40
0.0
 40
0.0
 40
0.0
 40
0.254522374
 40
1.0
 40
1.0
 40
1.0
 40
1.0
 10
13.8243351186
 20
11.8702852301
 30
0.0
 10
13.8214994726
 20
11.8754315657
 30
0.0
 10
13.8105914802
 20
11.8957782682
 30
0.0
 10
13.8006354033
 20
11.9166385837
 30
0.0
 10
13.793830932
 20
11.9324462269
 30
0.0
  0
SPLINE
  5
46D
100
AcDbEntity
  8
0
100
AcDbSpline
 62
7
  6
CONTINUOUS
 70
0
 71
3
 72
11
 73
7
 74
0
 42
0.0000001
 43
0.0000001
 44
0.0000000001
 40
0.0
 40
0.0
 40
0.0
 40
0.0
 40
0.2604910662
 40
0.5177078348
 40
0.7655758539
 40
1.0
 40
1.0
 40
1.0
 40
1.0
 10
15.8347665718
 20
13.2534130182
 30
0.0
 10
15.8407813825
 20
13.2460370706
 30
0.0
 10
15.8542888676
 20
13.2325736509
 30
0.0
 10
15.8778717781
 20
13.21716639
 30
0.0
 10
15.9033226054
 20
13.2074725018
 30
0.0
 10
15.9210287223
 20
13.2052297057
 30
0.0
 10
15.9295931269
 20
13.205337825
 30
0.0
  0
SPLINE
  5
46E
100
AcDbEntity
  8
0
100
AcDbSpline
 62
7
  6
CONTINUOUS
 70
0
 71
3
 72
14
 73
10
 74
0
 42
0.0000001
 43
0.0000001
 44
0.0000000001
 40
0.0
 40
0.0
 40
0.0
 40
0.0
 40
0.2606505452
 40
0.3860124879
 40
0.5088744525
 40
0.6304392386
 40
0.7520353503
 40
0.8749426813
 40
1.0
 40
1.0
 40
1.0
 40
1.0
 10
15.9295931269
 20
13.205337825
 30
0.0
 10
15.9376343859
 20
13.2054393399
 30
0.0
 10
15.9496397978
 20
13.2071774362
 30
0.0
 10
15.9642875839
 20
13.2129681434
 30
0.0
 10
15.9741422955
 20
13.2188223851
 30
0.0
 10
15.9828048385
 20
13.2261476475
 30
0.0
 10
15.9901323091
 20
13.2348126586
 30
0.0
 10
15.9959738771
 20
13.2446613843
 30
0.0
 10
15.9987961093
 20
13.2518117388
 30
0.0
 10
15.9999352967
 20
13.2554981506
 30
0.0
  0
SPLINE
  5
46F
100
AcDbEntity
  8
0
100
AcDbSpline
 62
7
  6
CONTINUOUS
 70
0
 71
3
 72
10
 73
6
 74
0
 42
0.0000001
 43
0.0000001
 44
0.0000000001
 40
0.0
 40
0.0
 40
0.0
 40
0.0
 40
0.5122099251
 40
0.7585613427
 40
1.0
 40
1.0
 40
1.0
 40
1.0
 10
15.8806243561
 20
13.4018088626
 30
0.0
 10
15.8725830971
 20
13.4017073477
 30
0.0
 10
15.8605766171
 20
13.3999685276
 30
0.0
 10
15.8459315935
 20
13.3941796925
 30
0.0
 10
15.839311183
 20
13.3902463565
 30
0.0
 10
15.8362248334
 20
13.3880455103
 30
0.0
  0
SPLINE
  5
470
100
AcDbEntity
  8
0
100
AcDbSpline
 62
7
  6
CONTINUOUS
 70
0
 71
3
 72
9
 73
5
 74
0
 42
0.0000001
 43
0.0000001
 44
0.0000000001
 40
0.0
 40
0.0
 40
0.0
 40
0.0
 40
0.4951160661
 40
1.0
 40
1.0
 40
1.0
 40
1.0
 10
15.8231538426
 20
13.3758304947
 30
0.0
 10
15.8202740029
 20
13.3723177006
 30
0.0
 10
15.8151688708
 20
13.3646127011
 30
0.0
 10
15.8116497698
 20
13.3560740388
 30
0.0
 10
15.8102821863
 20
13.351648537
 30
0.0
  0
SPLINE
  5
471
100
AcDbEntity
  8
0
100
AcDbSpline
 62
7
  6
CONTINUOUS
 70
0
 71
3
 72
11
 73
7
 74
0
 42
0.0000001
 43
0.0000001
 44
0.0000000001
 40
0.0
 40
0.0
 40
0.0
 40
0.0
 40
0.2636306391
 40
0.5167134803
 40
0.7610586731
 40
1.0
 40
1.0
 40
1.0
 40
1.0
 10
16.9128813873
 20
12.2147743755
 30
0.0
 10
16.9108767165
 20
12.2082872584
 30
0.0
 10
16.9078505555
 20
12.1952667904
 30
0.0
 10
16.9064763191
 20
12.1756259471
 30
0.0
 10
16.9084317215
 20
12.1566647385
 30
0.0
 10
16.9119682755
 20
12.1446421637
 30
0.0
 10
16.9142543812
 20
12.1389286226
 30
0.0
  0
SPLINE
  5
472
100
AcDbEntity
  8
0
100
AcDbSpline
 62
7
  6
CONTINUOUS
 70
0
 71
3
 72
13
 73
9
 74
0
 42
0.0000001
 43
0.0000001
 44
0.0000000001
 40
0.0
 40
0.0
 40
0.0
 40
0.0
 40
0.1276913892
 40
0.2680306473
 40
0.5507733213
 40
0.8012949233
 40
0.9079155409
 40
1.0
 40
1.0
 40
1.0
 40
1.0
 10
16.7774011739
 20
11.5712932941
 30
0.0
 10
16.7769145691
 20
11.5697186403
 30
0.0
 10
16.7757999158
 20
11.5664420726
 30
0.0
 10
16.7732578723
 20
11.559802125
 30
0.0
 10
16.7697828719
 20
11.5518274725
 30
0.0
 10
16.7661073826
 20
11.5444262523
 30
0.0
 10
16.7632841062
 20
11.5393608229
 30
0.0
 10
16.7619517945
 20
11.5371681077
 30
0.0
 10
16.7613066886
 20
11.5361698722
 30
0.0
  0
SPLINE
  5
473
100
AcDbEntity
  8
0
100
AcDbSpline
 62
7
  6
CONTINUOUS
 70
0
 71
3
 72
9
 73
5
 74
0
 42
0.0000001
 43
0.0000001
 44
0.0000000001
 40
0.0
 40
0.0
 40
0.0
 40
0.0
 40
0.2448771697
 40
1.0
 40
1.0
 40
1.0
 40
1.0
 10
15.9276713693
 20
11.8702852301
 30
0.0
 10
15.9254800145
 20
11.8754969459
 30
0.0
 10
15.916211224
 20
11.8966445741
 30
0.0
 10
15.9056970128
 20
11.9172412782
 30
0.0
 10
15.8971671826
 20
11.9324462269
 30
0.0
  0
SPLINE
  5
474
100
AcDbEntity
  8
0
100
AcDbSpline
 62
7
  6
CONTINUOUS
 70
0
 71
3
 72
9
 73
5
 74
0
 42
0.0000001
 43
0.0000001
 44
0.0000000001
 40
0.0
 40
0.0
 40
0.0
 40
0.0
 40
0.4627381132
 40
1.0
 40
1.0
 40
1.0
 40
1.0
 10
16.0717563196
 20
13.1871660298
 30
0.0
 10
16.0619761108
 20
13.1808954051
 30
0.0
 10
16.0410117399
 20
13.1670755448
 30
0.0
 10
16.0204147517
 20
13.152713933
 30
0.0
 10
16.0094322265
 20
13.1448823998
 30
0.0
  0
SPLINE
  5
475
100
AcDbEntity
  8
0
100
AcDbSpline
 62
7
  6
CONTINUOUS
 70
0
 71
3
 72
15
 73
11
 74
0
 42
0.0000001
 43
0.0000001
 44
0.0000000001
 40
0.0
 40
0.0
 40
0.0
 40
0.0
 40
0.1242574412
 40
0.2531490526
 40
0.3844921408
 40
0.5159466171
 40
0.645113174
 40
0.7698281353
 40
0.8884507985
 40
1.0
 40
1.0
 40
1.0
 40
1.0
 10
17.1309677593
 20
12.3616481711
 30
0.0
 10
17.119408918
 20
12.3616481711
 30
0.0
 10
17.0958272039
 20
12.3596391652
 30
0.0
 10
17.060939685
 20
12.3512272978
 30
0.0
 10
17.0269885162
 20
12.3376643004
 30
0.0
 10
16.995250961
 20
12.3194700131
 30
0.0
 10
16.9669120459
 20
12.2973133341
 30
0.0
 10
16.9430252612
 20
12.2720104107
 30
0.0
 10
16.9245075695
 20
12.2444948897
 30
0.0
 10
16.9159450743
 20
12.2246884704
 30
0.0
 10
16.9128813873
 20
12.2147743755
 30
0.0
  0
SPLINE
  5
476
100
AcDbEntity
  8
0
100
AcDbSpline
 62
7
  6
CONTINUOUS
 70
0
 71
3
 72
10
 73
6
 74
0
 42
0.0000001
 43
0.0000001
 44
0.0000000001
 40
0.0
 40
0.0
 40
0.0
 40
0.0
 40
0.2553741168
 40
0.6330837029
 40
1.0
 40
1.0
 40
1.0
 40
1.0
 10
15.7448166264
 20
13.1830386592
 30
0.0
 10
15.7439566094
 20
13.1920237297
 30
0.0
 10
15.7415554852
 20
13.2142733316
 30
0.0
 10
15.7364268974
 20
13.2492597565
 30
0.0
 10
15.731014995
 20
13.2750409168
 30
0.0
 10
15.7278786375
 20
13.2876245163
 30
0.0
  0
SPLINE
  5
477
100
AcDbEntity
  8
0
100
AcDbSpline
 62
7
  6
CONTINUOUS
 70
0
 71
3
 72
10
 73
6
 74
0
 42
0.0000001
 43
0.0000001
 44
0.0000000001
 40
0.0
 40
0.0
 40
0.0
 40
0.0
 40
0.2469512254
 40
0.4967167223
 40
1.0
 40
1.0
 40
1.0
 40
1.0
 10
15.8459623799
 20
13.1428187145
 30
0.0
 10
15.8379626948
 20
13.146874397
 30
0.0
 10
15.8216568538
 20
13.1546141928
 30
0.0
 10
15.7881297557
 20
13.1686048284
 30
0.0
 10
15.7622511442
 20
13.1775476807
 30
0.0
 10
15.7448166264
 20
13.1830386592
 30
0.0
  0
SPLINE
  5
478
100
AcDbEntity
  8
0
100
AcDbSpline
 62
7
  6
CONTINUOUS
 70
0
 71
3
 72
10
 73
6
 74
0
 42
0.0000001
 43
0.0000001
 44
0.0000000001
 40
0.0
 40
0.0
 40
0.0
 40
0.0
 40
0.257851041
 40
0.5105705033
 40
1.0
 40
1.0
 40
1.0
 40
1.0
 10
15.8459623799
 20
13.1428187145
 30
0.0
 10
15.8538315812
 20
13.1388291846
 30
0.0
 10
15.8692139605
 20
13.1305276021
 30
0.0
 10
15.8984652911
 20
13.1127544912
 30
0.0
 10
15.9192128147
 20
13.0980453765
 30
0.0
 10
15.9325190191
 20
13.0878772482
 30
0.0
  0
SPLINE
  5
479
100
AcDbEntity
  8
0
100
AcDbSpline
 62
7
  6
CONTINUOUS
 70
0
 71
3
 72
11
 73
7
 74
0
 42
0.0000001
 43
0.0000001
 44
0.0000000001
 40
0.0
 40
0.0
 40
0.0
 40
0.0
 40
0.2378375703
 40
0.4833776236
 40
0.7374046385
 40
1.0
 40
1.0
 40
1.0
 40
1.0
 10
15.6963515344
 20
13.3774888519
 30
0.0
 10
15.6994727194
 20
13.3706031023
 30
0.0
 10
15.7055615223
 20
13.3564910269
 30
0.0
 10
15.7139305899
 20
13.3345878827
 30
0.0
 10
15.7215047826
 20
13.3115658069
 30
0.0
 10
15.7258599524
 20
13.2957238247
 30
0.0
 10
15.7278786375
 20
13.2876245163
 30
0.0
  0
SPLINE
  5
47A
100
AcDbEntity
  8
0
100
AcDbSpline
 62
7
  6
CONTINUOUS
 70
0
 71
3
 72
13
 73
9
 74
0
 42
0.0000001
 43
0.0000001
 44
0.0000000001
 40
0.0
 40
0.0
 40
0.0
 40
0.0
 40
0.1108566688
 40
0.2416345979
 40
0.3798420647
 40
0.517480497
 40
0.7758790998
 40
1.0
 40
1.0
 40
1.0
 40
1.0
 10
17.5238211628
 20
11.5361698722
 30
0.0
 10
17.5231217841
 20
11.5375950561
 30
0.0
 10
17.5214501125
 20
11.540628558
 30
0.0
 10
17.5186063752
 20
11.5452664061
 30
0.0
 10
17.5153974547
 20
11.5501268147
 30
0.0
 10
17.511016093
 20
11.5563994911
 30
0.0
 10
17.5056924463
 20
11.563511287
 30
0.0
 10
17.5013224823
 20
11.5688680385
 30
0.0
 10
17.4992202494
 20
11.5712932941
 30
0.0
  0
SPLINE
  5
47B
100
AcDbEntity
  8
0
100
AcDbSpline
 62
7
  6
CONTINUOUS
 70
0
 71
3
 72
13
 73
9
 74
0
 42
0.0000001
 43
0.0000001
 44
0.0000000001
 40
0.0
 40
0.0
 40
0.0
 40
0.0
 40
0.3958715017
 40
0.6943705823
 40
0.8052115547
 40
0.891348168
 40
0.9548945917
 40
1.0
 40
1.0
 40
1.0
 40
1.0
 10
17.1510910607
 20
12.7805542109
 30
0.0
 10
17.1514622581
 20
12.7817554061
 30
0.0
 10
17.1520673773
 20
12.7838764847
 30
0.0
 10
17.1526034081
 20
12.7863823371
 30
0.0
 10
17.1527733443
 20
12.7879479318
 30
0.0
 10
17.1527810316
 20
12.7887779705
 30
0.0
 10
17.1526942493
 20
12.7893921117
 30
0.0
 10
17.1525474558
 20
12.7897176701
 30
0.0
 10
17.152452355
 20
12.7898247975
 30
0.0
  0
SPLINE
  5
47C
100
AcDbEntity
  8
0
100
AcDbSpline
 62
7
  6
CONTINUOUS
 70
0
 71
3
 72
9
 73
5
 74
0
 42
0.0000001
 43
0.0000001
 44
0.0000000001
 40
0.0
 40
0.0
 40
0.0
 40
0.0
 40
0.51980265
 40
1.0
 40
1.0
 40
1.0
 40
1.0
 10
15.9325190191
 20
13.0878772482
 30
0.0
 10
15.9457164735
 20
13.0979270697
 30
0.0
 10
15.9711913853
 20
13.1171491455
 30
0.0
 10
15.9969552083
 20
13.1359851579
 30
0.0
 10
16.0094322265
 20
13.1448823998
 30
0.0
  0
SPLINE
  5
47D
100
AcDbEntity
  8
0
100
AcDbSpline
 62
7
  6
CONTINUOUS
 70
0
 71
3
 72
9
 73
5
 74
0
 42
0.0000001
 43
0.0000001
 44
0.0000000001
 40
0.0
 40
0.0
 40
0.0
 40
0.0
 40
0.2544987486
 40
1.0
 40
1.0
 40
1.0
 40
1.0
 10
15.7997371843
 20
11.2241310587
 30
0.0
 10
15.8053226422
 20
11.2265230336
 30
0.0
 10
15.8271674905
 20
11.2361574903
 30
0.0
 10
15.8485928027
 20
11.2467497059
 30
0.0
 10
15.8642513129
 20
11.2552115571
 30
0.0
  0
SPLINE
  5
47E
100
AcDbEntity
  8
0
100
AcDbSpline
 62
7
  6
CONTINUOUS
 70
0
 71
3
 72
11
 73
7
 74
0
 42
0.0000001
 43
0.0000001
 44
0.0000000001
 40
0.0
 40
0.0
 40
0.0
 40
0.0
 40
0.2548359482
 40
0.5048951045
 40
0.7524436108
 40
1.0
 40
1.0
 40
1.0
 40
1.0
 10
16.0539035245
 20
13.2072760022
 30
0.0
 10
16.051949118
 20
13.2009515406
 30
0.0
 10
16.0471171514
 20
13.1886913503
 30
0.0
 10
16.0370943246
 20
13.1718129013
 30
0.0
 10
16.0245424182
 20
13.1569641341
 30
0.0
 10
16.0146678684
 20
13.1486158857
 30
0.0
 10
16.0094322265
 20
13.1448823998
 30
0.0
  0
SPLINE
  5
47F
100
AcDbEntity
  8
0
100
AcDbSpline
 62
7
  6
CONTINUOUS
 70
0
 71
3
 72
11
 73
7
 74
0
 42
0.0000001
 43
0.0000001
 44
0.0000000001
 40
0.0
 40
0.0
 40
0.0
 40
0.0
 40
0.2617563958
 40
0.5155996147
 40
0.7614924921
 40
1.0
 40
1.0
 40
1.0
 40
1.0
 10
16.0548183307
 20
13.291751887
 30
0.0
 10
16.0566216933
 20
13.2845164895
 30
0.0
 10
16.0593337749
 20
13.2700367797
 30
0.0
 10
16.0605984241
 20
13.2483196632
 30
0.0
 10
16.0589618887
 20
13.2272870988
 30
0.0
 10
16.0559095676
 20
13.2137675602
 30
0.0
 10
16.0539035245
 20
13.2072760022
 30
0.0
  0
SPLINE
  5
480
100
AcDbEntity
  8
0
100
AcDbSpline
 62
7
  6
CONTINUOUS
 70
0
 71
3
 72
9
 73
5
 74
0
 42
0.0000001
 43
0.0000001
 44
0.0000000001
 40
0.0
 40
0.0
 40
0.0
 40
0.0
 40
0.2473765759
 40
1.0
 40
1.0
 40
1.0
 40
1.0
 10
15.9367345884
 20
13.4365576888
 30
0.0
 10
15.9402458672
 20
13.4347775398
 30
0.0
 10
15.9542427596
 20
13.4271978017
 30
0.0
 10
15.9674330053
 20
13.41813757
 30
0.0
 10
15.9767619924
 20
13.4106259445
 30
0.0
  0
SPLINE
  5
481
100
AcDbEntity
  8
0
100
AcDbSpline
 62
7
  6
CONTINUOUS
 70
0
 71
3
 72
9
 73
5
 74
0
 42
0.0000001
 43
0.0000001
 44
0.0000000001
 40
0.0
 40
0.0
 40
0.0
 40
0.0
 40
0.5093861096
 40
1.0
 40
1.0
 40
1.0
 40
1.0
 10
16.0117738359
 20
13.375865332
 30
0.0
 10
16.0219871252
 20
13.3633674503
 30
0.0
 10
16.0395906774
 20
13.3367120082
 30
0.0
 10
16.0510587698
 20
13.3068358848
 30
0.0
 10
16.0548183307
 20
13.291751887
 30
0.0
  0
SPLINE
  5
482
100
AcDbEntity
  8
0
100
AcDbSpline
 62
7
  6
CONTINUOUS
 70
0
 71
3
 72
14
 73
10
 74
0
 42
0.0000001
 43
0.0000001
 44
0.0000000001
 40
0.0
 40
0.0
 40
0.0
 40
0.0
 40
0.1136197212
 40
0.229584038
 40
0.3485831569
 40
0.4712651925
 40
0.5979067105
 40
0.7285136593
 40
1.0
 40
1.0
 40
1.0
 40
1.0
 10
15.7732647418
 20
13.4344940035
 30
0.0
 10
15.7785550023
 20
13.4382664375
 30
0.0
 10
15.7899014355
 20
13.4450077652
 30
0.0
 10
15.8085136812
 20
13.4523596074
 30
0.0
 10
15.8285341928
 20
13.4569028945
 30
0.0
 10
15.8495986293
 20
13.4585696435
 30
0.0
 10
15.8713569534
 20
13.457352145
 30
0.0
 10
15.9011475845
 20
13.4518481736
 30
0.0
 10
15.9228870993
 20
13.4435780927
 30
0.0
 10
15.9367345884
 20
13.4365576888
 30
0.0
  0
SPLINE
  5
483
100
AcDbEntity
  8
0
100
AcDbSpline
 62
7
  6
CONTINUOUS
 70
0
 71
3
 72
12
 73
8
 74
0
 42
0.0000001
 43
0.0000001
 44
0.0000000001
 40
0.0
 40
0.0
 40
0.0
 40
0.0
 40
0.2515356492
 40
0.3790668679
 40
0.5065821092
 40
0.7579176989
 40
1.0
 40
1.0
 40
1.0
 40
1.0
 10
15.8459623799
 20
13.1428187145
 30
0.0
 10
15.8315925619
 20
13.1501039288
 30
0.0
 10
15.8110698491
 20
13.1635155037
 30
0.0
 10
15.7869158315
 20
13.1852378346
 30
0.0
 10
15.7651110411
 20
13.2093199574
 30
0.0
 10
15.7430620922
 20
13.2427727926
 30
0.0
 10
15.7316285488
 20
13.2725792345
 30
0.0
 10
15.7278786375
 20
13.2876245163
 30
0.0
  0
SPLINE
  5
484
100
AcDbEntity
  8
0
100
AcDbSpline
 62
7
  6
CONTINUOUS
 70
0
 71
3
 72
14
 73
10
 74
0
 42
0.0000001
 43
0.0000001
 44
0.0000000001
 40
0.0
 40
0.0
 40
0.0
 40
0.0
 40
0.1136197212
 40
0.229584038
 40
0.3485831569
 40
0.4712651925
 40
0.5979067105
 40
0.7285136593
 40
1.0
 40
1.0
 40
1.0
 40
1.0
 10
16.0094322265
 20
13.1448823998
 30
0.0
 10
16.0041419659
 20
13.1411099658
 30
0.0
 10
15.9927955328
 20
13.1343686381
 30
0.0
 10
15.974183287
 20
13.1270167959
 30
0.0
 10
15.9541627755
 20
13.1224735088
 30
0.0
 10
15.9330983389
 20
13.1208067598
 30
0.0
 10
15.9113400148
 20
13.1220242583
 30
0.0
 10
15.8815493837
 20
13.1275282297
 30
0.0
 10
15.859809869
 20
13.1357983106
 30
0.0
 10
15.8459623799
 20
13.1428187145
 30
0.0
  0
SPLINE
  5
485
100
AcDbEntity
  8
0
100
AcDbSpline
 62
7
  6
CONTINUOUS
 70
0
 71
3
 72
15
 73
11
 74
0
 42
0.0000001
 43
0.0000001
 44
0.0000000001
 40
0.0
 40
0.0
 40
0.0
 40
0.0
 40
0.11804169
 40
0.2361484659
 40
0.355387241
 40
0.4769437581
 40
0.6017064188
 40
0.7302977384
 40
0.863119942
 40
1.0
 40
1.0
 40
1.0
 40
1.0
 10
15.7732647418
 20
13.4344940035
 30
0.0
 10
15.7680303663
 20
13.4307614207
 30
0.0
 10
15.758156327
 20
13.4224113397
 30
0.0
 10
15.7456039056
 20
13.4075654954
 30
0.0
 10
15.7355765168
 20
13.3906833028
 30
0.0
 10
15.7282516475
 20
13.3720826157
 30
0.0
 10
15.7237335495
 20
13.3520927741
 30
0.0
 10
15.7220984623
 20
13.3310541389
 30
0.0
 10
15.723364945
 20
13.3093390508
 30
0.0
 10
15.7260757212
 20
13.2948581233
 30
0.0
 10
15.7278786375
 20
13.2876245163
 30
0.0
  0
SPLINE
  5
486
100
AcDbEntity
  8
0
100
AcDbSpline
 62
7
  6
CONTINUOUS
 70
0
 71
3
 72
14
 73
10
 74
0
 42
0.0000001
 43
0.0000001
 44
0.0000000001
 40
0.0
 40
0.0
 40
0.0
 40
0.0
 40
0.1374425014
 40
0.271172445
 40
0.5260007868
 40
0.6482377744
 40
0.7675151285
 40
0.8844913645
 40
1.0
 40
1.0
 40
1.0
 40
1.0
 10
14.6093944829
 20
12.4614545617
 30
0.0
 10
14.6139978123
 20
12.4614545617
 30
0.0
 10
14.6230923275
 20
12.4609382494
 30
0.0
 10
14.6404656225
 20
12.4578636174
 30
0.0
 10
14.6566877557
 20
12.4516974564
 30
0.0
 10
14.6706584225
 20
12.4425994385
 30
0.0
 10
14.6796917989
 20
12.434618325
 30
0.0
 10
14.6872568576
 20
12.425527992
 30
0.0
 10
14.6912555337
 20
12.418801392
 30
0.0
 10
14.6929603766
 20
12.4153285864
 30
0.0
  0
SPLINE
  5
487
100
AcDbEntity
  8
0
100
AcDbSpline
 62
7
  6
CONTINUOUS
 70
0
 71
3
 72
29
 73
25
 74
0
 42
0.0000001
 43
0.0000001
 44
0.0000000001
 40
0.0
 40
0.0
 40
0.0
 40
0.0
 40
0.0633779644
 40
0.1350700571
 40
0.213247496
 40
0.295895962
 40
0.3806913474
 40
0.465199988
 40
0.5470051579
 40
0.6238344994
 40
0.6936773923
 40
0.7549653394
 40
0.7821225154
 40
0.8068898968
 40
0.8293349892
 40
0.8496525151
 40
0.8681684062
 40
0.8853886602
 40
0.9019906349
 40
0.918737568
 40
0.9363782659
 40
0.9555297155
 40
0.9766416143
 40
1.0
 40
1.0
 40
1.0
 40
1.0
 10
15.7988450633
 20
11.649530267
 30
0.0
 10
15.7967171144
 20
11.653866571
 30
0.0
 10
15.7929090242
 20
11.6634676541
 30
0.0
 10
15.7885956857
 20
11.6791603971
 30
0.0
 10
15.7854555577
 20
11.6966232577
 30
0.0
 10
15.7835940297
 20
11.7152674149
 30
0.0
 10
15.7830717235
 20
11.7344789446
 30
0.0
 10
15.7839108731
 20
11.7536151598
 30
0.0
 10
15.7860829908
 20
11.7720361292
 30
0.0
 10
15.7895081351
 20
11.7891320907
 30
0.0
 10
15.7940718726
 20
11.8043362079
 30
0.0
 10
15.7988748638
 20
11.8154502543
 30
0.0
 10
15.8032471446
 20
11.8229008341
 30
0.0
 10
15.806575439
 20
11.8275016626
 30
0.0
 10
15.8100636681
 20
11.8313047633
 30
0.0
 10
15.8136864521
 20
11.8342816596
 30
0.0
 10
15.8174264983
 20
11.8363991034
 30
0.0
 10
15.8212594903
 20
11.8376159996
 30
0.0
 10
15.8251392397
 20
11.8379078139
 30
0.0
 10
15.8290079035
 20
11.8372619116
 30
0.0
 10
15.8328076519
 20
11.835694032
 30
0.0
 10
15.8365068381
 20
11.8332460324
 30
0.0
 10
15.8400834657
 20
11.8299475688
 30
0.0
 10
15.842257401
 20
11.8273354141
 30
0.0
 10
15.843325695
 20
11.8259113389
 30
0.0
  0
SPLINE
  5
488
100
AcDbEntity
  8
0
100
AcDbSpline
 62
7
  6
CONTINUOUS
 70
0
 71
3
 72
15
 73
11
 74
0
 42
0.0000001
 43
0.0000001
 44
0.0000000001
 40
0.0
 40
0.0
 40
0.0
 40
0.0
 40
0.1380799318
 40
0.2714583019
 40
0.400424799
 40
0.5254316948
 40
0.647119483
 40
0.7662256933
 40
0.8835644243
 40
1.0
 40
1.0
 40
1.0
 40
1.0
 10
15.7805980349
 20
11.5904828613
 30
0.0
 10
15.7868681355
 20
11.5777057397
 30
0.0
 10
15.7982864107
 20
11.5521257233
 30
0.0
 10
15.8120919211
 20
11.5131819632
 30
0.0
 10
15.8222025921
 20
11.4745029633
 30
0.0
 10
15.8285565839
 20
11.4362489848
 30
0.0
 10
15.8311364643
 20
11.3985708759
 30
0.0
 10
15.829917074
 20
11.3616095586
 30
0.0
 10
15.8249052651
 20
11.3255173542
 30
0.0
 10
15.8190379445
 20
11.3020889785
 30
0.0
 10
15.8154947452
 20
11.2906222535
 30
0.0
  0
SPLINE
  5
489
100
AcDbEntity
  8
0
100
AcDbSpline
 62
7
  6
CONTINUOUS
 70
0
 71
3
 72
19
 73
15
 74
0
 42
0.0000001
 43
0.0000001
 44
0.0000000001
 40
0.0
 40
0.0
 40
0.0
 40
0.0
 40
0.0647376053
 40
0.1314050546
 40
0.2681139302
 40
0.4061603167
 40
0.5411750295
 40
0.6063926489
 40
0.6695137649
 40
0.7883086663
 40
0.8441324866
 40
0.8977281224
 40
0.9494909588
 40
1.0
 40
1.0
 40
1.0
 40
1.0
 10
14.614839658
 20
12.4503584614
 30
0.0
 10
14.6097914325
 20
12.4503584614
 30
0.0
 10
14.5995369196
 20
12.4497808614
 30
0.0
 10
14.5788646829
 20
12.4464711703
 30
0.0
 10
14.5533162041
 20
12.4383626583
 30
0.0
 10
14.5250072829
 20
12.4231794103
 30
0.0
 10
14.5043455653
 20
12.4064840459
 30
0.0
 10
14.490520874
 20
12.3912473374
 30
0.0
 10
14.4791683439
 20
12.375646162
 30
0.0
 10
14.4708577955
 20
12.358807459
 30
0.0
 10
14.4664664849
 20
12.3415065041
 30
0.0
 10
14.4652165211
 20
12.3289463251
 30
0.0
 10
14.4659915347
 20
12.3167626094
 30
0.0
 10
14.4678660028
 20
12.308960713
 30
0.0
 10
14.4691271473
 20
12.3052293924
 30
0.0
  0
SPLINE
  5
48A
100
AcDbEntity
  8
0
100
AcDbSpline
 62
7
  6
CONTINUOUS
 70
0
 71
3
 72
27
 73
23
 74
0
 42
0.0000001
 43
0.0000001
 44
0.0000000001
 40
0.0
 40
0.0
 40
0.0
 40
0.0
 40
0.0645908251
 40
0.0955318567
 40
0.1254609663
 40
0.1824020742
 40
0.2363030283
 40
0.2625769197
 40
0.288640655
 40
0.3147238463
 40
0.3410532985
 40
0.3951692304
 40
0.4524222111
 40
0.4825032148
 40
0.5135703592
 40
0.5785057572
 40
0.6467896776
 40
0.7175083912
 40
0.7894804306
 40
0.8613852055
 40
0.9319956092
 40
1.0
 40
1.0
 40
1.0
 40
1.0
 10
14.5535843455
 20
12.280852891
 30
0.0
 10
14.5474061092
 20
12.280852891
 30
0.0
 10
14.5382360539
 20
12.2816001175
 30
0.0
 10
14.5265146935
 20
12.2842464988
 30
0.0
 10
14.5158118306
 20
12.287822938
 30
0.0
 10
14.5037558481
 20
12.2940830986
 30
0.0
 10
14.4937965953
 20
12.3028527815
 30
0.0
 10
14.4876404484
 20
12.3109719139
 30
0.0
 10
14.4839491431
 20
12.317529194
 30
0.0
 10
14.4811792932
 20
12.3245311915
 30
0.0
 10
14.4787354494
 20
12.3344513977
 30
0.0
 10
14.4781761458
 20
12.3477641643
 30
0.0
 10
14.4808676831
 20
12.3611432434
 30
0.0
 10
14.484787951
 20
12.3717841992
 30
0.0
 10
14.4900622482
 20
12.3826496335
 30
0.0
 10
14.4988819587
 20
12.395761896
 30
0.0
 10
14.5123264895
 20
12.4100018845
 30
0.0
 10
14.5282815917
 20
12.4224765103
 30
0.0
 10
14.5461468362
 20
12.4327211668
 30
0.0
 10
14.5652637975
 20
12.4403589447
 30
0.0
 10
14.5849064346
 20
12.4450896343
 30
0.0
 10
14.598183289
 20
12.446224505
 30
0.0
 10
14.6046880394
 20
12.446224505
 30
0.0
  0
SPLINE
  5
48B
100
AcDbEntity
  8
0
100
AcDbSpline
 62
7
  6
CONTINUOUS
 70
0
 71
3
 72
27
 73
23
 74
0
 42
0.0000001
 43
0.0000001
 44
0.0000000001
 40
0.0
 40
0.0
 40
0.0
 40
0.0
 40
0.0645908251
 40
0.0955318567
 40
0.1254609663
 40
0.1824020742
 40
0.2363030283
 40
0.2625769197
 40
0.288640655
 40
0.3147238463
 40
0.3410532985
 40
0.3951692304
 40
0.4524222111
 40
0.4825032148
 40
0.5135703592
 40
0.5785057572
 40
0.6467896776
 40
0.7175083912
 40
0.7894804306
 40
0.8613852055
 40
0.9319956092
 40
1.0
 40
1.0
 40
1.0
 40
1.0
 10
14.6046880394
 20
12.446224505
 30
0.0
 10
14.6108662757
 20
12.446224505
 30
0.0
 10
14.620036331
 20
12.4454772785
 30
0.0
 10
14.6317576914
 20
12.4428308972
 30
0.0
 10
14.6424605543
 20
12.439254458
 30
0.0
 10
14.6545165368
 20
12.4329942974
 30
0.0
 10
14.6644757896
 20
12.4242246145
 30
0.0
 10
14.6706319365
 20
12.4161054821
 30
0.0
 10
14.6743232418
 20
12.409548202
 30
0.0
 10
14.6770930917
 20
12.4025462045
 30
0.0
 10
14.6795369355
 20
12.3926259983
 30
0.0
 10
14.6800962391
 20
12.3793132317
 30
0.0
 10
14.6774047018
 20
12.3659341526
 30
0.0
 10
14.6734844339
 20
12.3552931968
 30
0.0
 10
14.6682101367
 20
12.3444277625
 30
0.0
 10
14.6593904262
 20
12.3313155
 30
0.0
 10
14.6459458954
 20
12.3170755115
 30
0.0
 10
14.6299907932
 20
12.3046008857
 30
0.0
 10
14.6121255487
 20
12.2943562292
 30
0.0
 10
14.5930085874
 20
12.2867184513
 30
0.0
 10
14.5733659503
 20
12.2819877617
 30
0.0
 10
14.5600890959
 20
12.280852891
 30
0.0
 10
14.5535843455
 20
12.280852891
 30
0.0
  0
SPLINE
  5
48C
100
AcDbEntity
  8
0
100
AcDbSpline
 62
7
  6
CONTINUOUS
 70
0
 71
3
 72
9
 73
5
 74
0
 42
0.0000001
 43
0.0000001
 44
0.0000000001
 40
0.0
 40
0.0
 40
0.0
 40
0.0
 40
0.5240597965
 40
1.0
 40
1.0
 40
1.0
 40
1.0
 10
15.8532265056
 20
11.832915266
 30
0.0
 10
15.8518069375
 20
11.8355591696
 30
0.0
 10
15.848822022
 20
11.8404635143
 30
0.0
 10
15.8451959701
 20
11.8449285295
 30
0.0
 10
15.8433000847
 20
11.8468863796
 30
0.0
  0
SPLINE
  5
48D
100
AcDbEntity
  8
0
100
AcDbSpline
 62
7
  6
CONTINUOUS
 70
0
 71
3
 72
11
 73
7
 74
0
 42
0.0000001
 43
0.0000001
 44
0.0000000001
 40
0.0
 40
0.0
 40
0.0
 40
0.0
 40
0.2756960889
 40
0.5297813967
 40
0.7685900056
 40
1.0
 40
1.0
 40
1.0
 40
1.0
 10
15.8433000847
 20
11.8468863796
 30
0.0
 10
15.8417267181
 20
11.8485111698
 30
0.0
 10
15.8384672428
 20
11.8514203779
 30
0.0
 10
15.8330598046
 20
11.8547368388
 30
0.0
 10
15.8274243647
 20
11.8567581565
 30
0.0
 10
15.8235532703
 20
11.8572135989
 30
0.0
 10
15.8216548511
 20
11.8572158117
 30
0.0
  0
SPLINE
  5
48E
100
AcDbEntity
  8
0
100
AcDbSpline
 62
7
  6
CONTINUOUS
 70
0
 71
3
 72
32
 73
28
 74
0
 42
0.0000001
 43
0.0000001
 44
0.0000000001
 40
0.0
 40
0.0
 40
0.0
 40
0.0
 40
0.0265255794
 40
0.0543788513
 40
0.0835474468
 40
0.1140072647
 40
0.1457144046
 40
0.1785898389
 40
0.2125311521
 40
0.2474179956
 40
0.3194542608
 40
0.3935109413
 40
0.4682572471
 40
0.542324664
 40
0.6143819726
 40
0.6832128485
 40
0.7478006363
 40
0.7782839352
 40
0.8074685995
 40
0.8353335676
 40
0.8618901422
 40
0.8871925938
 40
0.9113382648
 40
0.934474465
 40
0.9567966561
 40
0.9785462287
 40
1.0
 40
1.0
 40
1.0
 40
1.0
 10
14.1482980593
 20
11.5708996885
 30
0.0
 10
14.1547558657
 20
11.5577400627
 30
0.0
 10
14.1693691053
 20
11.5314206226
 30
0.0
 10
14.1953144179
 20
11.4931667255
 30
0.0
 10
14.2256492553
 20
11.4554595791
 30
0.0
 10
14.260146946
 20
11.4185563293
 30
0.0
 10
14.2985815957
 20
11.3827034797
 30
0.0
 10
14.3406873646
 20
11.348131356
 30
0.0
 10
14.3861859218
 20
11.3150803296
 30
0.0
 10
14.451647165
 20
11.2728913032
 30
0.0
 10
14.539948791
 20
11.2255205492
 30
0.0
 10
14.6527818495
 20
11.1785442396
 30
0.0
 10
14.7706176205
 20
11.1420821779
 30
0.0
 10
14.890285389
 20
11.1171153318
 30
0.0
 10
15.0085906212
 20
11.1043119153
 30
0.0
 10
15.1223610244
 20
11.1040158823
 30
0.0
 10
15.2126126813
 20
11.1144081284
 30
0.0
 10
15.2796997381
 20
11.1292977678
 30
0.0
 10
15.3260619463
 20
11.143272182
 30
0.0
 10
15.369125547
 20
11.1601651375
 30
0.0
 10
15.4085979211
 20
11.179880487
 30
0.0
 10
15.4442122984
 20
11.202287508
 30
0.0
 10
15.4757185752
 20
11.2272528832
 30
0.0
 10
15.5028910469
 20
11.2546163631
 30
0.0
 10
15.5255258482
 20
11.2842040804
 30
0.0
 10
15.543436065
 20
11.3158064141
 30
0.0
 10
15.5521592987
 20
11.3381366618
 30
0.0
 10
15.5556586251
 20
11.3494644102
 30
0.0
  0
SPLINE
  5
48F
100
AcDbEntity
  8
0
100
AcDbSpline
 62
7
  6
CONTINUOUS
 70
0
 71
3
 72
24
 73
20
 74
0
 42
0.0000001
 43
0.0000001
 44
0.0000000001
 40
0.0
 40
0.0
 40
0.0
 40
0.0
 40
0.0659172812
 40
0.0978280306
 40
0.1290689348
 40
0.189671659
 40
0.2481822361
 40
0.3051491094
 40
0.3611914553
 40
0.4169728734
 40
0.4731781042
 40
0.5304680339
 40
0.5894418563
 40
0.6506079349
 40
0.7143760571
 40
0.7810454705
 40
0.8508187103
 40
0.9237958963
 40
1.0
 40
1.0
 40
1.0
 40
1.0
 10
15.751519852
 20
11.5708996885
 30
0.0
 10
15.7591549649
 20
11.5553409641
 30
0.0
 10
15.7694488857
 20
11.5317111468
 30
0.0
 10
15.7805850742
 20
11.4996422617
 30
0.0
 10
15.7896253693
 20
11.4683720528
 30
0.0
 10
15.7974682222
 20
11.42953141
 30
0.0
 10
15.8011761022
 20
11.3832684632
 30
0.0
 10
15.7990358143
 20
11.3380944774
 30
0.0
 10
15.7910595981
 20
11.2943016809
 30
0.0
 10
15.7772783663
 20
11.2521835268
 30
0.0
 10
15.7577909968
 20
11.2120217423
 30
0.0
 10
15.7327344042
 20
11.1740764852
 30
0.0
 10
15.7022851919
 20
11.138582778
 30
0.0
 10
15.6666520186
 20
11.1057457982
 30
0.0
 10
15.6260601283
 20
11.0757588369
 30
0.0
 10
15.5807691341
 20
11.0487781373
 30
0.0
 10
15.5310470142
 20
11.0249651688
 30
0.0
 10
15.4772012887
 20
11.0044385463
 30
0.0
 10
15.439560195
 20
10.9932687552
 30
0.0
 10
15.4201698596
 20
10.9882241669
 30
0.0
  0
SPLINE
  5
490
100
AcDbEntity
  8
0
100
AcDbSpline
 62
7
  6
CONTINUOUS
 70
0
 71
3
 72
23
 73
19
 74
0
 42
0.0000001
 43
0.0000001
 44
0.0000000001
 40
0.0
 40
0.0
 40
0.0
 40
0.0
 40
0.0662723694
 40
0.1300996577
 40
0.1917245697
 40
0.2515174482
 40
0.3099182519
 40
0.3674168826
 40
0.4245354042
 40
0.4818170886
 40
0.5397991938
 40
0.5989892371
 40
0.6598388943
 40
0.722735846
 40
0.7879963254
 40
0.8558581611
 40
0.9264938336
 40
1.0
 40
1.0
 40
1.0
 40
1.0
 10
13.9161051179
 20
11.5937030278
 30
0.0
 10
13.9101161929
 20
11.6074483828
 30
0.0
 10
13.8994783895
 20
11.634940497
 30
0.0
 10
13.8875866861
 20
11.6767203577
 30
0.0
 10
13.8801586387
 20
11.7180419943
 30
0.0
 10
13.8772265606
 20
11.7586989045
 30
0.0
 10
13.8788240311
 20
11.7985022903
 30
0.0
 10
13.8849422264
 20
11.8372565913
 30
0.0
 10
13.8955575647
 20
11.874767001
 30
0.0
 10
13.9106270872
 20
11.9108374641
 30
0.0
 10
13.9300565755
 20
11.9452940366
 30
0.0
 10
13.9537569815
 20
11.9779610294
 30
0.0
 10
13.9815919133
 20
12.0086929422
 30
0.0
 10
14.0134265068
 20
12.037345555
 30
0.0
 10
14.0491038353
 20
12.0637890203
 30
0.0
 10
14.0884485524
 20
12.0879160744
 30
0.0
 10
14.1312790246
 20
12.1096078053
 30
0.0
 10
14.1614205754
 20
12.1221407764
 30
0.0
 10
14.1769836318
 20
12.1280014121
 30
0.0
  0
SPLINE
  5
491
100
AcDbEntity
  8
0
100
AcDbSpline
 62
7
  6
CONTINUOUS
 70
0
 71
3
 72
23
 73
19
 74
0
 42
0.0000001
 43
0.0000001
 44
0.0000000001
 40
0.0
 40
0.0
 40
0.0
 40
0.0
 40
0.0533892215
 40
0.1100867938
 40
0.1698658737
 40
0.2323794983
 40
0.2971853228
 40
0.3637705889
 40
0.4315707481
 40
0.4999865767
 40
0.5684029516
 40
0.6362047925
 40
0.7027928989
 40
0.7676013492
 40
0.8301178235
 40
0.8899017754
 40
0.9466006059
 40
1.0
 40
1.0
 40
1.0
 40
1.0
 10
14.1822023761
 20
12.1299441785
 30
0.0
 10
14.210191581
 20
12.1402439284
 30
0.0
 10
14.2692131511
 20
12.1580296424
 30
0.0
 10
14.3625177641
 20
12.176031202
 30
0.0
 10
14.4621386878
 20
12.185969046
 30
0.0
 10
14.5667492748
 20
12.1877130985
 30
0.0
 10
14.6749736193
 20
12.1812506001
 30
0.0
 10
14.7853772551
 20
12.1666685558
 30
0.0
 10
14.8964943718
 20
12.1441573037
 30
0.0
 10
15.0068476362
 20
12.1140181429
 30
0.0
 10
15.1149696747
 20
12.0766543733
 30
0.0
 10
15.2194213102
 20
12.0325604996
 30
0.0
 10
15.318811917
 20
11.9823211546
 30
0.0
 10
15.411824128
 20
11.9266076024
 30
0.0
 10
15.4972240728
 20
11.8661552169
 30
0.0
 10
15.5738803225
 20
11.8017511319
 30
0.0
 10
15.6407802596
 20
11.7342535748
 30
0.0
 10
15.6794878609
 20
11.6862701304
 30
0.0
 10
15.6967923661
 20
11.6619725271
 30
0.0
  0
SPLINE
  5
492
100
AcDbEntity
  8
0
100
AcDbSpline
 62
7
  6
CONTINUOUS
 70
0
 71
3
 72
9
 73
5
 74
0
 42
0.0000001
 43
0.0000001
 44
0.0000000001
 40
0.0
 40
0.0
 40
0.0
 40
0.0
 40
0.2579373229
 40
1.0
 40
1.0
 40
1.0
 40
1.0
 10
15.7000245039
 20
11.6573976942
 30
0.0
 10
15.7049945885
 20
11.6503059394
 30
0.0
 10
15.7237740573
 20
11.6224752862
 30
0.0
 10
15.7405442138
 20
11.5932656876
 30
0.0
 10
15.751519852
 20
11.5708996885
 30
0.0
  0
ELLIPSE
  5
493
100
AcDbEntity
  8
0
100
AcDbEllipse
 62
7
  6
CONTINUOUS
 10
4.2835767102
 20
12.4859852814
 30
0.0
 11
-0.0
 21
0.0125
 31
0.0
 40
0.2679491924
 41
-3.1415926536
 42
-1.5707963268
  0
ELLIPSE
  5
494
100
AcDbEntity
  8
0
100
AcDbEllipse
 62
7
  6
CONTINUOUS
 10
4.2835767102
 20
13.1359852814
 30
0.0
 11
0.0
 21
0.0125
 31
0.0
 40
0.2679491924
 41
-1.5707963268
 42
-0.0
  0
ELLIPSE
  5
495
100
AcDbEntity
  8
0
100
AcDbEllipse
 62
7
  6
CONTINUOUS
 10
7.8581674575
 20
13.1359852814
 30
0.0
 11
-0.0
 21
0.0125
 31
0.0
 40
0.2679491924
 41
0.0
 42
1.5707963268
  0
ELLIPSE
  5
496
100
AcDbEntity
  8
0
100
AcDbEllipse
 62
7
  6
CONTINUOUS
 10
7.8581674575
 20
12.4859852814
 30
0.0
 11
-0.0
 21
0.0125
 31
0.0
 40
0.2679491924
 41
-4.7123889804
 42
-3.1415926536
  0
ELLIPSE
  5
497
100
AcDbEntity
  8
0
100
AcDbEllipse
 62
7
  6
CONTINUOUS
 10
15.7712927569
 20
5.0796126162
 30
0.0
 11
-0.0
 21
1.2595671476
 31
0.0
 40
0.2679491924
 41
0.8731870764
 42
1.5707963268
  0
ELLIPSE
  5
498
100
AcDbEntity
  8
0
100
AcDbEllipse
 62
7
  6
CONTINUOUS
 10
15.7712927569
 20
5.0796126162
 30
0.0
 11
0.0
 21
1.2595671476
 31
0.0
 40
0.2679491924
 41
-1.5707963268
 42
-0.8731870764
  0
ELLIPSE
  5
499
100
AcDbEntity
  8
0
100
AcDbEllipse
 62
7
  6
CONTINUOUS
 10
16.8727164249
 20
12.2790257918
 30
0.0
 11
-0.6762931077
 21
0.8126843598
 31
0.0
 40
0.2216133796
 41
1.0164537861
 42
1.7140630365
  0
ELLIPSE
  5
49A
100
AcDbEntity
  8
0
100
AcDbEllipse
 62
7
  6
CONTINUOUS
 10
16.8727164249
 20
12.2790257918
 30
0.0
 11
-0.6762931077
 21
0.8126843598
 31
0.0
 40
0.2216133796
 41
-1.4275296171
 42
-0.7299203666
  0
ELLIPSE
  5
49B
100
AcDbEntity
  8
0
100
AcDbEllipse
 62
7
  6
CONTINUOUS
 10
17.0153257016
 20
12.4615854965
 30
0.0
 11
-0.0028307534
 21
0.0123979794
 31
0.0
 40
0.5630202753
 41
-0.127849959
 42
0.7721502657
  0
ELLIPSE
  5
49C
100
AcDbEntity
  8
0
100
AcDbEllipse
 62
7
  6
CONTINUOUS
 10
16.8579825914
 20
11.9524230053
 30
0.0
 11
-0.0028307534
 21
0.0123979794
 31
0.0
 40
0.5630202753
 41
0.7721502657
 42
2.3429465925
  0
ENDSEC
  0
SECTION
  2
OBJECTS
  0
DICTIONARY
  5
C
100
AcDbDictionary
280
0
281
1
  3
ACAD_GROUP
350
D
  3
ACAD_MLINESTYLE
350
17
  3
ACAD_LAYOUT
350
1A
  3
ACAD_PLOTSETTINGS
350
19
  3
ACAD_PLOTSTYLENAME
350
E
  0
DICTIONARY
  5
D
102
{ACAD_REACTORS
330
C
102
}
100
AcDbDictionary
280
0
281
1
  0
ACDBDICTIONARYWDFLT
  5
E
102
{ACAD_REACTORS
330
C
102
}
100
AcDbDictionary
281
1
  3
Normal
350
F
100
AcDbDictionaryWithDefault
340
F
  0
DICTIONARY
  5
17
102
{ACAD_REACTORS
330
C
102
}
100
AcDbDictionary
280
0
281
1
  3
Standard
350
18
  0
DICTIONARY
  5
19
102
{ACAD_REACTORS
330
C
102
}
100
AcDbDictionary
281
1
  0
DICTIONARY
  5
1A
102
{ACAD_REACTORS
330
C
102
}
100
AcDbDictionary
281
1
  3
Model
350
49D
  3
Layout1
350
49E
  0
ACDBPLACEHOLDER
  5
F
102
{ACAD_REACTORS
330
E
102
}
  0
MLINESTYLE
  5
18
102
{ACAD_REACTORS
330
17
102
}
100
AcDbMlineStyle
  2
STANDARD
 70
0
  3

 62
256
 51
90.0
 52
90.0
 71
2
 49
0.5
 62
256
  6
BYLAYER
 49
-0.5
 62
256
  6
BYLAYER
  0
LAYOUT
  5
49D
102
{ACAD_REACTORS
330
1A
102
}
100
AcDbPlotSettings
  1

  2
none_device
  4
ANSI_C_(22.00_x_17.00_Inches)
  6

 40
0.0
 41
0.0
 42
0.0
 43
0.0
 44
558.8
 45
431.8
 46
0.0
 47
0.0
 48
0.0
 49
0.0
140
0.0
141
0.0
142
1.0
143
1.0
 70
1024
 72
0
 73
0
 74
0
  7

 75
0
147
1.0
148
0.0
149
0.0
100
AcDbLayout
  1
Model
 70
0
 71
0
 10
0.0
 20
0.0
 11
22.0
 21
17.0
 12
0.0
 22
0.0
 32
0.0
 14
0.0
 24
0.0
 34
0.0
 15
0.0
 25
0.0
 35
0.0
146
0.0
 13
0.0
 23
0.0
 33
0.0
 16
1.0
 26
0.0
 36
0.0
 17
0.0
 27
1.0
 37
0.0
 76
0
330
24D
345
0
346
0
  0
LAYOUT
  5
49E
102
{ACAD_REACTORS
330
1A
102
}
100
AcDbPlotSettings
  1

  2
none_device
  4
ANSI_C_(22.00_x_17.00_Inches)
  6

 40
0.0
 41
0.0
 42
0.0
 43
0.0
 44
558.8
 45
431.8
 46
0.0
 47
0.0
 48
0.0
 49
0.0
140
0.0
141
0.0
142
1.0
143
1.0
 70
0
 72
0
 73
0
 74
0
  7

 75
0
147
1.0
148
0.0
149
0.0
100
AcDbLayout
  1
Layout1
 70
0
 71
1
 10
0.0
 20
0.0
 11
22.0
 21
17.0
 12
0.0
 22
0.0
 32
0.0
 14
0.0
 24
0.0
 34
0.0
 15
0.0
 25
0.0
 35
0.0
146
0.0
 13
0.0
 23
0.0
 33
0.0
 16
1.0
 26
0.0
 36
0.0
 17
0.0
 27
1.0
 37
0.0
 76
0
330
24E
345
0
346
0
  0
ENDSEC
  0
EOF