999
DXF file: _cgs_temp_output.dxf
999
Pro/ENGINEER 2016360 by Parametric Technology Corporation
  0
SECTION
  2
HEADER
  9
$ACADVER
  1
AC1021
  9
$DWGCODEPAGE
  3
ANSI_1252
  9
$EXTMAX
 10
22.0
 20
17.0
 30
0.0
  9
$EXTMIN
 10
0.0
 20
0.0
 30
0.0
  9
$LIMMIN
 10
0.0
 20
0.0
  9
$LIMMAX
 10
22.0
 20
17.0
  9
$VIEWCTR
 10
11.0
 20
8.5
  9
$VIEWSIZE
 40
17.0
  9
$CLAYER
  8
0
  9
$LTSCALE
 40
1.21
  9
$CELTYPE
  6
BYLAYER
  9
$DIMSCALE
 40
1.0
  9
$DIMASZ
 40
0.1875
  9
$DIMEXO
 40
0.0625
  9
$DIMDLI
 40
0.836
  9
$DIMEXE
 40
0.125
  9
$DIMCEN
 40
0.198
  9
$DIMLFAC
 40
1.0
  9
$DIMBLK
  1
_CLOSED
  9
$DIMALT
 70
0
  9
$DIMALTF
 40
25.4
  9
$DIMTXT
 40
0.15625
  9
$DIMTOL
 70
0
  9
$DIMLIM
 70
0
  9
$DIMTFAC
 40
1.0
  9
$DIMGAP
 40
0.09
  9
$DIMDSEP
 70
46
  9
$AUNITS
 70
0
  9
$PDMODE
 70
3
  9
$PDSIZE
 40
0.3125
  9
$HANDSEED
  5
4B5
  9
$TILEMODE
 70
1
  9
$MEASUREMENT
 70
0
  9
$INSUNITS
 70
1
  0
ENDSEC
  0
SECTION
  2
CLASSES
  0
CLASS
  1
ACDBDICTIONARYWDFLT
  2
AcDbDictionaryWithDefault
  3
AutoCAD 2000
 90
0
 91
1
280
0
281
0
  0
CLASS
  1
ACDBPLACEHOLDER
  2
AcDbPlaceHolder
  3
AutoCAD 2000
 90
0
 91
1
280
0
281
0
  0
CLASS
  1
LAYOUT
  2
AcDbLayout
  3
AutoCAD 2000
 90
0
 91
0
280
0
281
0
  0
ENDSEC
  0
SECTION
  2
TABLES
  0
TABLE
  2
VPORT
  5
8
100
AcDbSymbolTable
 70
2
  0
VPORT
  5
1F4
100
AcDbSymbolTableRecord
100
AcDbViewportTableRecord
  2
*ACTIVE
 70
0
 10
0.0
 20
0.0
 11
1.0
 21
1.0
 12
11.0
 22
8.5
 13
0.0
 23
0.0
 14
1.0
 24
1.0
 15
0.0
 25
0.0
 16
0.0
 26
0.0
 36
1.0
 17
0.0
 27
0.0
 37
0.0
 40
17.0
 41
1.2941176471
 42
50.0
 43
0.0
 44
0.0
 50
0.0
 51
0.0
 71
0
 72
100
 73
1
 74
1
 75
0
 76
0
 77
0
 78
0
  0
ENDTAB
  0
TABLE
  2
LTYPE
  5
5
100
AcDbSymbolTable
 70
6
  0
LTYPE
  5
14
100
AcDbSymbolTableRecord
100
AcDbLinetypeTableRecord
  2
BYBLOCK
 70
0
  3

 72
65
 73
0
 40
0.0
  0
LTYPE
  5
15
100
AcDbSymbolTableRecord
100
AcDbLinetypeTableRecord
  2
BYLAYER
 70
0
  3

 72
65
 73
0
 40
0.0
  0
LTYPE
  5
16
100
AcDbSymbolTableRecord
100
AcDbLinetypeTableRecord
  2
CONTINUOUS
 70
64
  3
Solid line
 72
65
 73
0
 40
0.0
  0
LTYPE
  5
1F5
100
AcDbSymbolTableRecord
100
AcDbLinetypeTableRecord
  2
CENTER
 70
64
  3
____ _ ____ _ ____ _ ____ _ ____ _ ____ _ ____
 72
65
 73
4
 40
0.6
 49
0.375
 74
0
 49
-0.075
 74
0
 49
0.075
 74
0
 49
-0.075
 74
0
  0
LTYPE
  5
1F6
100
AcDbSymbolTableRecord
100
AcDbLinetypeTableRecord
  2
HIDDEN
 70
64
  3
- - - - - - - - - - - - - - - - - - - -
 72
65
 73
2
 40
0.2
 49
0.1
 74
0
 49
-0.1
 74
0
  0
LTYPE
  5
1F7
100
AcDbSymbolTableRecord
100
AcDbLinetypeTableRecord
  2
PHANTOM
 70
64
  3
_____ _ _ _____ _ _ _____ _ _ _____
 72
65
 73
6
 40
0.8
 49
0.45
 74
0
 49
-0.05
 74
0
 49
0.1
 74
0
 49
-0.05
 74
0
 49
0.1
 74
0
 49
-0.05
 74
0
  0
LTYPE
  5
1F8
100
AcDbSymbolTableRecord
100
AcDbLinetypeTableRecord
  2
DOT
 70
64
  3
. . . . . . . . . . . . . . . . . . . .
 72
65
 73
2
 40
0.2
 49
0.1
 74
0
 49
-0.1
 74
0
  0
LTYPE
  5
1F9
100
AcDbSymbolTableRecord
100
AcDbLinetypeTableRecord
  2
DASHED
 70
64
  3
- - - - - - - - - - - - - - - - - - - -
 72
65
 73
2
 40
0.2
 49
0.1
 74
0
 49
-0.1
 74
0
  0
ENDTAB
  0
TABLE
  2
LAYER
  5
2
100
AcDbSymbolTable
 70
36
  0
LAYER
  5
10
100
AcDbSymbolTableRecord
100
AcDbLayerTableRecord
  2
0
 70
0
 62
7
  6
CONTINUOUS
370
-3
390
F
  0
LAYER
  5
1FA
100
AcDbSymbolTableRecord
100
AcDbLayerTableRecord
  2
DEFAULT_1
 70
0
 62
7
  6
CENTER
370
-3
390
F
  0
LAYER
  5
1FB
100
AcDbSymbolTableRecord
100
AcDbLayerTableRecord
  2
DEFAULT_2
 70
0
 62
8
  6
HIDDEN
370
-3
390
F
  0
LAYER
  5
1FC
100
AcDbSymbolTableRecord
100
AcDbLayerTableRecord
  2
DEFAULT_3
 70
0
 62
7
  6
PHANTOM
370
-3
390
F
  0
LAYER
  5
1FD
100
AcDbSymbolTableRecord
100
AcDbLayerTableRecord
  2
01_ALL_DTM_PLN
 70
0
 62
7
  6
CONTINUOUS
370
-3
390
F
  0
LAYER
  5
1FE
100
AcDbSymbolTableRecord
100
AcDbLayerTableRecord
  2
01__ASM_ALL_DTM_PLN
 70
0
 62
7
  6
CONTINUOUS
370
-3
390
F
  0
LAYER
  5
1FF
100
AcDbSymbolTableRecord
100
AcDbLayerTableRecord
  2
01__ASM_DEF_DTM_PLN
 70
0
 62
7
  6
CONTINUOUS
370
-3
390
F
  0
LAYER
  5
200
100
AcDbSymbolTableRecord
100
AcDbLayerTableRecord
  2
01___PRT_ALL_DTM_PLN
 70
0
 62
7
  6
CONTINUOUS
370
-3
390
F
  0
LAYER
  5
201
100
AcDbSymbolTableRecord
100
AcDbLayerTableRecord
  2
01___PRT_DEF_DTM_PLN
 70
0
 62
7
  6
CONTINUOUS
370
-3
390
F
  0
LAYER
  5
202
100
AcDbSymbolTableRecord
100
AcDbLayerTableRecord
  2
02_ALL_AXES
 70
0
 62
7
  6
CONTINUOUS
370
-3
390
F
  0
LAYER
  5
203
100
AcDbSymbolTableRecord
100
AcDbLayerTableRecord
  2
02__ASM_ALL_AXES
 70
0
 62
7
  6
CONTINUOUS
370
-3
390
F
  0
LAYER
  5
204
100
AcDbSymbolTableRecord
100
AcDbLayerTableRecord
  2
02___PRT_ALL_AXES
 70
0
 62
7
  6
CONTINUOUS
370
-3
390
F
  0
LAYER
  5
205
100
AcDbSymbolTableRecord
100
AcDbLayerTableRecord
  2
03_ALL_CURVES
 70
0
 62
7
  6
CONTINUOUS
370
-3
390
F
  0
LAYER
  5
206
100
AcDbSymbolTableRecord
100
AcDbLayerTableRecord
  2
03__ASM_ALL_CURVES
 70
0
 62
7
  6
CONTINUOUS
370
-3
390
F
  0
LAYER
  5
207
100
AcDbSymbolTableRecord
100
AcDbLayerTableRecord
  2
03___PRT_ALL_CURVES
 70
0
 62
7
  6
CONTINUOUS
370
-3
390
F
  0
LAYER
  5
208
100
AcDbSymbolTableRecord
100
AcDbLayerTableRecord
  2
04_ALL_DTM_PNT
 70
0
 62
7
  6
CONTINUOUS
370
-3
390
F
  0
LAYER
  5
209
100
AcDbSymbolTableRecord
100
AcDbLayerTableRecord
  2
04__ASM_ALL_DTM_PNT
 70
0
 62
7
  6
CONTINUOUS
370
-3
390
F
  0
LAYER
  5
20A
100
AcDbSymbolTableRecord
100
AcDbLayerTableRecord
  2
04___PRT_ALL_DTM_PNT
 70
0
 62
7
  6
CONTINUOUS
370
-3
390
F
  0
LAYER
  5
20B
100
AcDbSymbolTableRecord
100
AcDbLayerTableRecord
  2
05_ALL_DTM_CSYS
 70
0
 62
7
  6
CONTINUOUS
370
-3
390
F
  0
LAYER
  5
20C
100
AcDbSymbolTableRecord
100
AcDbLayerTableRecord
  2
05__ASM_ALL_DTM_CSYS
 70
0
 62
7
  6
CONTINUOUS
370
-3
390
F
  0
LAYER
  5
20D
100
AcDbSymbolTableRecord
100
AcDbLayerTableRecord
  2
05__ASM_DEF_DTM_CSYS
 70
0
 62
7
  6
CONTINUOUS
370
-3
390
F
  0
LAYER
  5
20E
100
AcDbSymbolTableRecord
100
AcDbLayerTableRecord
  2
05___PRT_ALL_DTM_CSYS
 70
0
 62
7
  6
CONTINUOUS
370
-3
390
F
  0
LAYER
  5
20F
100
AcDbSymbolTableRecord
100
AcDbLayerTableRecord
  2
05___PRT_DEF_DTM_CSYS
 70
0
 62
7
  6
CONTINUOUS
370
-3
390
F
  0
LAYER
  5
210
100
AcDbSymbolTableRecord
100
AcDbLayerTableRecord
  2
06_ALL_SURFS
 70
0
 62
7
  6
CONTINUOUS
370
-3
390
F
  0
LAYER
  5
211
100
AcDbSymbolTableRecord
100
AcDbLayerTableRecord
  2
06__ASM_ALL_SURFS
 70
0
 62
7
  6
CONTINUOUS
370
-3
390
F
  0
LAYER
  5
212
100
AcDbSymbolTableRecord
100
AcDbLayerTableRecord
  2
06___PRT_ALL_SURFS
 70
0
 62
7
  6
CONTINUOUS
370
-3
390
F
  0
LAYER
  5
213
100
AcDbSymbolTableRecord
100
AcDbLayerTableRecord
  2
07__ASM_ALL_SKELETONS
 70
0
 62
7
  6
CONTINUOUS
370
-3
390
F
  0
LAYER
  5
214
100
AcDbSymbolTableRecord
100
AcDbLayerTableRecord
  2
ASM0001
 70
0
 62
7
  6
CONTINUOUS
370
-3
390
F
  0
LAYER
  5
215
100
AcDbSymbolTableRecord
100
AcDbLayerTableRecord
  2
COLOR2
 70
0
 62
7
  6
CONTINUOUS
370
-3
390
F
  0
LAYER
  5
216
100
AcDbSymbolTableRecord
100
AcDbLayerTableRecord
  2
NONE
 70
0
 62
7
  6
CONTINUOUS
370
-3
390
F
  0
LAYER
  5
217
100
AcDbSymbolTableRecord
100
AcDbLayerTableRecord
  2
NONE_1
 70
0
 62
7
  6
CONTINUOUS
370
-3
390
F
  0
LAYER
  5
218
100
AcDbSymbolTableRecord
100
AcDbLayerTableRecord
  2
NONE_10
 70
0
 62
7
  6
CONTINUOUS
370
-3
390
F
  0
LAYER
  5
219
100
AcDbSymbolTableRecord
100
AcDbLayerTableRecord
  2
NONE_11
 70
0
 62
7
  6
CONTINUOUS
370
-3
390
F
  0
LAYER
  5
21A
100
AcDbSymbolTableRecord
100
AcDbLayerTableRecord
  2
NONE_2
 70
0
 62
7
  6
CONTINUOUS
370
-3
390
F
  0
LAYER
  5
21B
100
AcDbSymbolTableRecord
100
AcDbLayerTableRecord
  2
NONE_3
 70
0
 62
7
  6
CONTINUOUS
370
-3
390
F
  0
LAYER
  5
21C
100
AcDbSymbolTableRecord
100
AcDbLayerTableRecord
  2
NONE_4
 70
0
 62
7
  6
CONTINUOUS
370
-3
390
F
  0
LAYER
  5
21D
100
AcDbSymbolTableRecord
100
AcDbLayerTableRecord
  2
NONE_5
 70
0
 62
7
  6
CONTINUOUS
370
-3
390
F
  0
LAYER
  5
21E
100
AcDbSymbolTableRecord
100
AcDbLayerTableRecord
  2
NONE_6
 70
0
 62
7
  6
CONTINUOUS
370
-3
390
F
  0
LAYER
  5
21F
100
AcDbSymbolTableRecord
100
AcDbLayerTableRecord
  2
NONE_7
 70
0
 62
7
  6
CONTINUOUS
370
-3
390
F
  0
LAYER
  5
220
100
AcDbSymbolTableRecord
100
AcDbLayerTableRecord
  2
NONE_8
 70
0
 62
7
  6
CONTINUOUS
370
-3
390
F
  0
LAYER
  5
221
100
AcDbSymbolTableRecord
100
AcDbLayerTableRecord
  2
NONE_9
 70
0
 62
7
  6
CONTINUOUS
370
-3
390
F
  0
LAYER
  5
222
100
AcDbSymbolTableRecord
100
AcDbLayerTableRecord
  2
_10139
 70
0
 62
7
  6
CONTINUOUS
370
-3
390
F
  0
LAYER
  5
223
100
AcDbSymbolTableRecord
100
AcDbLayerTableRecord
  2
_10139_1
 70
0
 62
7
  6
CONTINUOUS
370
-3
390
F
  0
LAYER
  5
224
100
AcDbSymbolTableRecord
100
AcDbLayerTableRecord
  2
_10330
 70
0
 62
7
  6
CONTINUOUS
370
-3
390
F
  0
LAYER
  5
225
100
AcDbSymbolTableRecord
100
AcDbLayerTableRecord
  2
_10330_1
 70
0
 62
7
  6
CONTINUOUS
370
-3
390
F
  0
LAYER
  5
226
100
AcDbSymbolTableRecord
100
AcDbLayerTableRecord
  2
_10417
 70
0
 62
7
  6
CONTINUOUS
370
-3
390
F
  0
LAYER
  5
227
100
AcDbSymbolTableRecord
100
AcDbLayerTableRecord
  2
_10417_1
 70
0
 62
7
  6
CONTINUOUS
370
-3
390
F
  0
LAYER
  5
228
100
AcDbSymbolTableRecord
100
AcDbLayerTableRecord
  2
_11440
 70
0
 62
7
  6
CONTINUOUS
370
-3
390
F
  0
LAYER
  5
229
100
AcDbSymbolTableRecord
100
AcDbLayerTableRecord
  2
_11440_1
 70
0
 62
7
  6
CONTINUOUS
370
-3
390
F
  0
LAYER
  5
22A
100
AcDbSymbolTableRecord
100
AcDbLayerTableRecord
  2
_1286
 70
0
 62
7
  6
CONTINUOUS
370
-3
390
F
  0
LAYER
  5
22B
100
AcDbSymbolTableRecord
100
AcDbLayerTableRecord
  2
_1286_1
 70
0
 62
7
  6
CONTINUOUS
370
-3
390
F
  0
LAYER
  5
22C
100
AcDbSymbolTableRecord
100
AcDbLayerTableRecord
  2
_12926
 70
0
 62
7
  6
CONTINUOUS
370
-3
390
F
  0
LAYER
  5
22D
100
AcDbSymbolTableRecord
100
AcDbLayerTableRecord
  2
_12926_1
 70
0
 62
7
  6
CONTINUOUS
370
-3
390
F
  0
LAYER
  5
22E
100
AcDbSymbolTableRecord
100
AcDbLayerTableRecord
  2
_2315
 70
0
 62
7
  6
CONTINUOUS
370
-3
390
F
  0
LAYER
  5
22F
100
AcDbSymbolTableRecord
100
AcDbLayerTableRecord
  2
_2315_1
 70
0
 62
7
  6
CONTINUOUS
370
-3
390
F
  0
LAYER
  5
230
100
AcDbSymbolTableRecord
100
AcDbLayerTableRecord
  2
_4263
 70
0
 62
7
  6
CONTINUOUS
370
-3
390
F
  0
LAYER
  5
231
100
AcDbSymbolTableRecord
100
AcDbLayerTableRecord
  2
_4263_1
 70
0
 62
7
  6
CONTINUOUS
370
-3
390
F
  0
LAYER
  5
232
100
AcDbSymbolTableRecord
100
AcDbLayerTableRecord
  2
_7580
 70
0
 62
7
  6
CONTINUOUS
370
-3
390
F
  0
LAYER
  5
233
100
AcDbSymbolTableRecord
100
AcDbLayerTableRecord
  2
_7580_1
 70
0
 62
7
  6
CONTINUOUS
370
-3
390
F
  0
LAYER
  5
234
100
AcDbSymbolTableRecord
100
AcDbLayerTableRecord
  2
_7587
 70
0
 62
7
  6
CONTINUOUS
370
-3
390
F
  0
LAYER
  5
235
100
AcDbSymbolTableRecord
100
AcDbLayerTableRecord
  2
_7587_1
 70
0
 62
7
  6
CONTINUOUS
370
-3
390
F
  0
LAYER
  5
236
100
AcDbSymbolTableRecord
100
AcDbLayerTableRecord
  2
_7831
 70
0
 62
7
  6
CONTINUOUS
370
-3
390
F
  0
LAYER
  5
237
100
AcDbSymbolTableRecord
100
AcDbLayerTableRecord
  2
_7831_1
 70
0
 62
7
  6
CONTINUOUS
370
-3
390
F
  0
LAYER
  5
238
100
AcDbSymbolTableRecord
100
AcDbLayerTableRecord
  2
_9792
 70
0
 62
7
  6
CONTINUOUS
370
-3
390
F
  0
LAYER
  5
239
100
AcDbSymbolTableRecord
100
AcDbLayerTableRecord
  2
_9792_1
 70
0
 62
7
  6
CONTINUOUS
370
-3
390
F
  0
LAYER
  5
23A
100
AcDbSymbolTableRecord
100
AcDbLayerTableRecord
  2
___SHELL
 70
0
 62
7
  6
CONTINUOUS
370
-3
390
F
  0
ENDTAB
  0
TABLE
  2
STYLE
  5
3
100
AcDbSymbolTable
 70
1
  0
STYLE
  5
11
100
AcDbSymbolTableRecord
100
AcDbTextStyleTableRecord
  2
STANDARD
 70
0
 40
0.0
 41
0.8
 50
0.0
 71
0
 42
0.2
  3
txt
  4

  0
STYLE
  5
23B
100
AcDbSymbolTableRecord
100
AcDbTextStyleTableRecord
  2
TEXTSTYLE_1
 70
0
 40
0.0
 41
0.8
 50
0.0
 71
0
 42
0.2
  3
gdt
  4

  0
ENDTAB
  0
TABLE
  2
VIEW
  5
6
100
AcDbSymbolTable
 70
0
  0
ENDTAB
  0
TABLE
  2
UCS
  5
7
100
AcDbSymbolTable
 70
0
  0
ENDTAB
  0
TABLE
  2
APPID
  5
9
100
AcDbSymbolTable
 70
1
  0
APPID
  5
23C
100
AcDbSymbolTableRecord
100
AcDbRegAppTableRecord
  2
ACAD
 70
0
  0
ENDTAB
  0
TABLE
  2
BLOCK_RECORD
  5
1
100
AcDbSymbolTable
 70
0
  0
BLOCK_RECORD
  5
23D
100
AcDbSymbolTableRecord
100
AcDbBlockTableRecord
  2
*Model_Space
  0
BLOCK_RECORD
  5
23E
100
AcDbSymbolTableRecord
100
AcDbBlockTableRecord
  2
*Paper_Space
  0
ENDTAB
  0
TABLE
  2
DIMSTYLE
  5
A
100
AcDbSymbolTable
 70
1
100
AcDbDimStyleTable
 71
0
  0
DIMSTYLE
105
23F
100
AcDbSymbolTableRecord
100
AcDbDimStyleTableRecord
  2
STANDARD
 70
0
  3

  4

 40
1.0
 41
0.1875
 42
0.0625
 43
0.38
 44
0.125
 45
0.0
 46
0.0
 47
0.0001
 48
0.0001
140
0.15625
141
0.09
142
0.0
143
25.4
144
1.0
145
0.0
146
1.0
147
0.09
 71
0.0
 72
0.0
 73
1
 74
1
 75
0
 76
0
 77
0
 78
4
 79
1
170
0
171
3
172
0
173
0
174
0
175
0
176
0
177
0
178
0
270
2
179
4
271
4
272
4
273
2
274
2
275
0
280
0
281
0
282
0
283
1
284
4
285
0
286
0
287
3
288
0
340
11
278
46
  0
ENDTAB
  0
ENDSEC
  0
SECTION
  2
BLOCKS
  0
BLOCK
  5
20
100
AcDbEntity
  8
0
100
AcDbBlockBegin
  2
*Model_Space
 70
0
 10
0.0
 20
0.0
 30
0.0
  3
*Model_Space
  1

  0
ENDBLK
  5
21
100
AcDbEntity
  8
0
100
AcDbBlockEnd
  0
BLOCK
  5
1C
100
AcDbEntity
  8
0
100
AcDbBlockBegin
  2
*Paper_Space
 70
0
 10
0.0
 20
0.0
 30
0.0
  3
*Paper_Space
  1

  0
ENDBLK
  5
1D
100
AcDbEntity
  8
0
100
AcDbBlockEnd
  0
ENDSEC
  0
SECTION
  2
ENTITIES
  0
MTEXT
  5
240
100
AcDbEntity
  8
0
100
AcDbMText
 62
7
  6
CONTINUOUS
  7
STANDARD
 71
1
 72
1
 10
15.9560215477
 20
0.9479130325
 30
0.0
 11
1.0
 21
0.0
 31
0.0
 44
0.9
  1
SCALE: 1:1.000
 40
0.3
 41
3.36
  0
LINE
  5
241
100
AcDbEntity
  8
0
100
AcDbLine
 62
7
  6
CONTINUOUS
 10
0.0
 20
0.0
 11
0.0
 21
17.0
  0
LINE
  5
242
100
AcDbEntity
  8
0
100
AcDbLine
 62
7
  6
CONTINUOUS
 10
0.0
 20
0.0
 11
22.0
 21
0.0
  0
LINE
  5
243
100
AcDbEntity
  8
0
100
AcDbLine
 62
7
  6
CONTINUOUS
 10
0.0
 20
17.0
 11
22.0
 21
17.0
  0
LINE
  5
244
100
AcDbEntity
  8
0
100
AcDbLine
 62
7
  6
CONTINUOUS
 10
22.0
 20
0.0
 11
22.0
 21
17.0
  0
LINE
  5
245
100
AcDbEntity
  8
0
100
AcDbLine
 62
7
  6
CONTINUOUS
 10
2.5678672762
 20
3.3326198968
 11
2.5678672762
 21
4.4701198968
  0
LINE
  5
246
100
AcDbEntity
  8
0
100
AcDbLine
 62
7
  6
CONTINUOUS
 10
2.6678672762
 20
4.6201198968
 11
2.6678672762
 21
4.5201198968
  0
LINE
  5
247
100
AcDbEntity
  8
0
100
AcDbLine
 62
7
  6
CONTINUOUS
 10
3.5881598517
 20
4.4701198968
 11
3.5497935023
 21
4.5201198968
  0
LINE
  5
248
100
AcDbEntity
  8
0
100
AcDbLine
 62
7
  6
CONTINUOUS
 10
3.957034167
 20
6.0399627482
 11
3.5497935023
 21
4.5201198968
  0
LINE
  5
249
100
AcDbEntity
  8
0
100
AcDbLine
 62
7
  6
CONTINUOUS
 10
2.5678672762
 20
3.3326198968
 11
9.6928672762
 21
3.3326198968
  0
LINE
  5
24A
100
AcDbEntity
  8
0
100
AcDbLine
 62
7
  6
CONTINUOUS
 10
4.5739229578
 20
4.4651980354
 11
4.4926825737
 21
4.6059105081
  0
LINE
  5
24B
100
AcDbEntity
  8
0
100
AcDbLine
 62
7
  6
CONTINUOUS
 10
4.8070398788
 20
4.621427684
 11
4.7445398788
 21
4.7296808595
  0
LINE
  5
24C
100
AcDbEntity
  8
0
100
AcDbLine
 62
7
  6
CONTINUOUS
 10
4.8835864333
 20
4.6656218578
 11
4.8210864333
 21
4.7738750333
  0
LINE
  5
24D
100
AcDbEntity
  8
0
100
AcDbLine
 62
7
  6
CONTINUOUS
 10
5.9817528462
 20
6.7544948968
 11
5.9666340148
 21
6.7406141717
  0
LINE
  5
24E
100
AcDbEntity
  8
0
100
AcDbLine
 62
7
  6
CONTINUOUS
 10
9.6428672762
 20
4.5201198968
 11
8.71094105
 21
4.5201198968
  0
LINE
  5
24F
100
AcDbEntity
  8
0
100
AcDbLine
 62
7
  6
CONTINUOUS
 10
3.5497935023
 20
4.5201198968
 11
2.6178672762
 21
4.5201198968
  0
LINE
  5
250
100
AcDbEntity
  8
0
100
AcDbLine
 62
7
  6
CONTINUOUS
 10
2.6928672762
 20
4.6451198968
 11
3.5832871514
 21
4.6451198968
  0
LINE
  5
251
100
AcDbEntity
  8
0
100
AcDbLine
 62
7
  6
CONTINUOUS
 10
8.6774474009
 20
4.6451198968
 11
9.5678672762
 21
4.6451198968
  0
LINE
  5
252
100
AcDbEntity
  8
0
100
AcDbLine
 62
7
  6
CONTINUOUS
 10
7.4151802976
 20
7.3547873907
 11
7.5960777732
 21
7.5356848663
  0
LINE
  5
253
100
AcDbEntity
  8
0
100
AcDbLine
 62
7
  6
CONTINUOUS
 10
6.0303672762
 20
7.0686505272
 11
6.0303672762
 21
6.8308586836
  0
LINE
  5
254
100
AcDbEntity
  8
0
100
AcDbLine
 62
7
  6
CONTINUOUS
 10
6.0303672762
 20
3.8465892663
 11
6.0303672762
 21
4.0843811099
  0
LINE
  5
255
100
AcDbEntity
  8
0
100
AcDbLine
 62
7
  6
CONTINUOUS
 10
6.849280051
 20
6.902813349
 11
6.7303841292
 21
6.6968795716
  0
LINE
  5
256
100
AcDbEntity
  8
0
100
AcDbLine
 62
7
  6
CONTINUOUS
 10
5.3571453424
 20
4.3183602219
 11
5.2382494206
 21
4.1124264445
  0
LINE
  5
257
100
AcDbEntity
  8
0
100
AcDbLine
 62
7
  6
CONTINUOUS
 10
7.7712582927
 20
7.4078701301
 11
7.8159330658
 21
7.4525449032
  0
LINE
  5
258
100
AcDbEntity
  8
0
100
AcDbLine
 62
7
  6
CONTINUOUS
 10
7.5682689157
 20
7.2016987725
 11
7.7491663913
 21
7.3825962482
  0
LINE
  5
259
100
AcDbEntity
  8
0
100
AcDbLine
 62
7
  6
CONTINUOUS
 10
7.4755607284
 20
6.3497377524
 11
7.269626951
 21
6.2308418305
  0
LINE
  5
25A
100
AcDbEntity
  8
0
100
AcDbLine
 62
7
  6
CONTINUOUS
 10
4.8911076013
 20
4.8576030437
 11
4.6851738239
 21
4.7387071219
  0
LINE
  5
25B
100
AcDbEntity
  8
0
100
AcDbLine
 62
7
  6
CONTINUOUS
 10
4.6780751791
 20
4.6913074472
 11
4.8210864333
 21
4.7738750333
  0
LINE
  5
25C
100
AcDbEntity
  8
0
100
AcDbLine
 62
7
  6
CONTINUOUS
 10
7.7413979066
 20
5.3576198968
 11
7.503606063
 21
5.3576198968
  0
LINE
  5
25D
100
AcDbEntity
  8
0
100
AcDbLine
 62
7
  6
CONTINUOUS
 10
4.5193366457
 20
5.3576198968
 11
4.7571284893
 21
5.3576198968
  0
LINE
  5
25E
100
AcDbEntity
  8
0
100
AcDbLine
 62
7
  6
CONTINUOUS
 10
4.6851738239
 20
6.1765326716
 11
4.8911076013
 21
6.0576367498
  0
LINE
  5
25F
100
AcDbEntity
  8
0
100
AcDbLine
 62
7
  6
CONTINUOUS
 10
7.269626951
 20
4.684397963
 11
7.4755607284
 21
4.5655020412
  0
LINE
  5
260
100
AcDbEntity
  8
0
100
AcDbLine
 62
7
  6
CONTINUOUS
 10
5.2382494206
 20
6.802813349
 11
5.3571453424
 21
6.5968795716
  0
LINE
  5
261
100
AcDbEntity
  8
0
100
AcDbLine
 62
7
  6
CONTINUOUS
 10
6.7303841292
 20
4.2183602219
 11
6.849280051
 21
4.0124264445
  0
LINE
  5
262
100
AcDbEntity
  8
0
100
AcDbLine
 62
7
  6
CONTINUOUS
 10
6.2303672762
 20
7.0686505272
 11
6.2303672762
 21
6.8308586836
  0
LINE
  5
263
100
AcDbEntity
  8
0
100
AcDbLine
 62
7
  6
CONTINUOUS
 10
6.2303672762
 20
3.8465892663
 11
6.2303672762
 21
4.0843811099
  0
LINE
  5
264
100
AcDbEntity
  8
0
100
AcDbLine
 62
7
  6
CONTINUOUS
 10
5.4114545013
 20
4.0124264445
 11
5.5303504231
 21
4.2183602219
  0
LINE
  5
265
100
AcDbEntity
  8
0
100
AcDbLine
 62
7
  6
CONTINUOUS
 10
6.90358921
 20
6.5968795716
 11
7.0224851318
 21
6.802813349
  0
LINE
  5
266
100
AcDbEntity
  8
0
100
AcDbLine
 62
7
  6
CONTINUOUS
 10
7.9706126742
 20
7.2978652948
 11
7.9259379011
 21
7.2531905217
  0
LINE
  5
267
100
AcDbEntity
  8
0
100
AcDbLine
 62
7
  6
CONTINUOUS
 10
8.0553436276
 20
7.0764190119
 11
7.874446152
 21
6.8955215363
  0
LINE
  5
268
100
AcDbEntity
  8
0
100
AcDbLine
 62
7
  6
CONTINUOUS
 10
8.1252922826
 20
7.1431856864
 11
8.0806175095
 21
7.0985109133
  0
LINE
  5
269
100
AcDbEntity
  8
0
100
AcDbLine
 62
7
  6
CONTINUOUS
 10
4.8835864333
 20
4.6656218578
 11
4.7405751791
 21
4.5830542718
  0
LINE
  5
26A
100
AcDbEntity
  8
0
100
AcDbLine
 62
7
  6
CONTINUOUS
 10
4.7851738239
 20
4.5655020412
 11
4.9911076013
 21
4.684397963
  0
LINE
  5
26B
100
AcDbEntity
  8
0
100
AcDbLine
 62
7
  6
CONTINUOUS
 10
7.369626951
 20
6.0576367498
 11
7.5755607284
 21
6.1765326716
  0
LINE
  5
26C
100
AcDbEntity
  8
0
100
AcDbLine
 62
7
  6
CONTINUOUS
 10
7.7413979066
 20
5.5576198968
 11
7.503606063
 21
5.5576198968
  0
LINE
  5
26D
100
AcDbEntity
  8
0
100
AcDbLine
 62
7
  6
CONTINUOUS
 10
4.5193366457
 20
5.5576198968
 11
4.7571284893
 21
5.5576198968
  0
LINE
  5
26E
100
AcDbEntity
  8
0
100
AcDbLine
 62
7
  6
CONTINUOUS
 10
7.5755607284
 20
4.7387071219
 11
7.369626951
 21
4.8576030437
  0
LINE
  5
26F
100
AcDbEntity
  8
0
100
AcDbLine
 62
7
  6
CONTINUOUS
 10
4.9911076013
 20
6.2308418305
 11
4.7851738239
 21
6.3497377524
  0
LINE
  5
270
100
AcDbEntity
  8
0
100
AcDbLine
 62
7
  6
CONTINUOUS
 10
7.0224851318
 20
4.1124264445
 11
6.90358921
 21
4.3183602219
  0
LINE
  5
271
100
AcDbEntity
  8
0
100
AcDbLine
 62
7
  6
CONTINUOUS
 10
5.5303504231
 20
6.6968795716
 11
5.4114545013
 21
6.902813349
  0
LINE
  5
272
100
AcDbEntity
  8
0
100
AcDbLine
 62
7
  6
CONTINUOUS
 10
8.0275347701
 20
6.7424329182
 11
8.2084322457
 21
6.9233303938
  0
LINE
  5
273
100
AcDbEntity
  8
0
100
AcDbLine
 62
7
  6
CONTINUOUS
 10
4.6807911338
 20
4.6200931602
 11
4.5418087209
 21
4.5695076988
  0
LINE
  5
274
100
AcDbEntity
  8
0
100
AcDbLine
 62
7
  6
CONTINUOUS
 10
4.5503592245
 20
4.5460153833
 11
4.6893416374
 21
4.5966008447
  0
LINE
  5
275
100
AcDbEntity
  8
0
100
AcDbLine
 62
7
  6
CONTINUOUS
 10
7.4272422762
 20
5.3090054668
 11
7.4137060429
 21
5.2942618544
  0
LINE
  5
276
100
AcDbEntity
  8
0
100
AcDbLine
 62
7
  6
CONTINUOUS
 10
6.2789817062
 20
6.7544948968
 11
6.2941005376
 21
6.7406141717
  0
LINE
  5
277
100
AcDbEntity
  8
0
100
AcDbLine
 62
7
  6
CONTINUOUS
 10
7.4272422762
 20
5.6062343268
 11
7.4137060429
 21
5.6209779391
  0
LINE
  5
278
100
AcDbEntity
  8
0
100
AcDbLine
 62
7
  6
CONTINUOUS
 10
7.4272422762
 20
5.3090253256
 11
7.4272422762
 21
5.6062144679
  0
LINE
  5
279
100
AcDbEntity
  8
0
100
AcDbLine
 62
7
  6
CONTINUOUS
 10
6.2789618474
 20
6.7544948968
 11
5.981772705
 21
6.7544948968
  0
LINE
  5
27A
100
AcDbEntity
  8
0
100
AcDbLine
 62
7
  6
CONTINUOUS
 10
7.9700736665
 20
6.7529887235
 11
8.0275347701
 21
6.7424329182
  0
LINE
  5
27B
100
AcDbEntity
  8
0
100
AcDbLine
 62
7
  6
CONTINUOUS
 10
7.425736103
 20
7.2973262871
 11
7.4151802976
 21
7.3547873907
  0
LINE
  5
27C
100
AcDbEntity
  8
0
100
AcDbLine
 62
7
  6
CONTINUOUS
 10
8.71094105
 20
4.5201198968
 11
8.3037003853
 21
6.0399627482
  0
LINE
  5
27D
100
AcDbEntity
  8
0
100
AcDbLine
 62
7
  6
CONTINUOUS
 10
7.6607806365
 20
7.5183477864
 11
7.5960777732
 21
7.5356848663
  0
LINE
  5
27E
100
AcDbEntity
  8
0
100
AcDbLine
 62
7
  6
CONTINUOUS
 10
8.1910951658
 20
6.988033257
 11
7.6607926637
 21
7.5183357591
  0
LINE
  5
27F
100
AcDbEntity
  8
0
100
AcDbLine
 62
7
  6
CONTINUOUS
 10
8.1910951658
 20
6.988033257
 11
8.2084322457
 21
6.9233303938
  0
LINE
  5
280
100
AcDbEntity
  8
0
100
AcDbLine
 62
7
  6
CONTINUOUS
 10
8.71094105
 20
4.5201198968
 11
8.6725747006
 21
4.4701198968
  0
LINE
  5
281
100
AcDbEntity
  8
0
100
AcDbLine
 62
7
  6
CONTINUOUS
 10
8.1252922826
 20
7.1431856864
 11
7.8159330658
 21
7.4525449032
  0
LINE
  5
282
100
AcDbEntity
  8
0
100
AcDbLine
 62
7
  6
CONTINUOUS
 10
8.22213916
 20
7.4786811025
 11
8.1514284819
 21
7.5493917806
  0
LINE
  5
283
100
AcDbEntity
  8
0
100
AcDbLine
 62
7
  6
CONTINUOUS
 10
9.5928672762
 20
4.6201198968
 11
9.5928672762
 21
4.5201198968
  0
LINE
  5
284
100
AcDbEntity
  8
0
100
AcDbLine
 62
7
  6
CONTINUOUS
 10
9.6928672762
 20
3.3326198968
 11
9.6928672762
 21
4.4701198968
  0
LINE
  5
285
100
AcDbEntity
  8
0
100
AcDbLine
 62
7
  6
CONTINUOUS
 10
2.5083720839
 20
14.1609477814
 11
2.5083720839
 21
11.7234477814
  0
LINE
  5
286
100
AcDbEntity
  8
0
100
AcDbLine
 62
7
  6
CONTINUOUS
 10
3.49029831
 20
12.4921977814
 11
3.49029831
 21
11.7734477814
  0
LINE
  5
287
100
AcDbEntity
  8
0
100
AcDbLine
 62
7
  6
CONTINUOUS
 10
3.49029831
 20
13.3921977814
 11
3.49029831
 21
14.1109477814
  0
LINE
  5
288
100
AcDbEntity
  8
0
100
AcDbLine
 62
7
  6
CONTINUOUS
 10
3.5237919591
 20
12.4921977814
 11
3.5237919591
 21
12.5171977814
  0
LINE
  5
289
100
AcDbEntity
  8
0
100
AcDbLine
 62
7
  6
CONTINUOUS
 10
3.5237919591
 20
13.3671977814
 11
3.5237919591
 21
13.3921977814
  0
LINE
  5
28A
100
AcDbEntity
  8
0
100
AcDbLine
 62
7
  6
CONTINUOUS
 10
2.5583720839
 20
11.7734477814
 11
2.5083720839
 21
11.7234477814
  0
LINE
  5
28B
100
AcDbEntity
  8
0
100
AcDbLine
 62
7
  6
CONTINUOUS
 10
4.8239970839
 20
11.0359477814
 11
4.7739970839
 21
11.0859477814
  0
LINE
  5
28C
100
AcDbEntity
  8
0
100
AcDbLine
 62
7
  6
CONTINUOUS
 10
4.4310799868
 20
11.6984477814
 11
4.4310799868
 21
11.7234477814
  0
LINE
  5
28D
100
AcDbEntity
  8
0
100
AcDbLine
 62
7
  6
CONTINUOUS
 10
4.4331873814
 20
11.6734477814
 11
4.4331873814
 21
11.6984477814
  0
LINE
  5
28E
100
AcDbEntity
  8
0
100
AcDbLine
 62
7
  6
CONTINUOUS
 10
4.4567420839
 20
14.1609477814
 11
4.4567420839
 21
14.1641477814
  0
LINE
  5
28F
100
AcDbEntity
  8
0
100
AcDbLine
 62
7
  6
CONTINUOUS
 10
4.8239970839
 20
11.0359477814
 11
7.3177470839
 21
11.0359477814
  0
LINE
  5
290
100
AcDbEntity
  8
0
100
AcDbLine
 62
7
  6
CONTINUOUS
 10
4.6185799868
 20
11.6734477814
 11
4.6185799868
 21
11.6984477814
  0
LINE
  5
291
100
AcDbEntity
  8
0
100
AcDbLine
 62
7
  6
CONTINUOUS
 10
4.6810799868
 20
11.7234477814
 11
4.6810799868
 21
11.6984477814
  0
LINE
  5
292
100
AcDbEntity
  8
0
100
AcDbLine
 62
7
  6
CONTINUOUS
 10
4.7739970839
 20
11.7034477814
 11
4.7739970839
 21
11.0859477814
  0
LINE
  5
293
100
AcDbEntity
  8
0
100
AcDbLine
 62
7
  6
CONTINUOUS
 10
4.7739970839
 20
11.0859477814
 11
7.3677470839
 21
11.0859477814
  0
LINE
  5
294
100
AcDbEntity
  8
0
100
AcDbLine
 62
7
  6
CONTINUOUS
 10
2.5583720839
 20
14.1109477814
 11
2.5083720839
 21
14.1609477814
  0
LINE
  5
295
100
AcDbEntity
  8
0
100
AcDbLine
 62
7
  6
CONTINUOUS
 10
5.0083720839
 20
11.7234477814
 11
5.0083720839
 21
11.7034477814
  0
LINE
  5
296
100
AcDbEntity
  8
0
100
AcDbLine
 62
7
  6
CONTINUOUS
 10
5.9722576539
 20
11.3127627137
 11
6.0708720839
 21
11.255827646
  0
LINE
  5
297
100
AcDbEntity
  8
0
100
AcDbLine
 62
7
  6
CONTINUOUS
 10
4.4331873814
 20
11.6734477814
 11
4.7475446865
 21
11.6734477814
  0
LINE
  5
298
100
AcDbEntity
  8
0
100
AcDbLine
 62
7
  6
CONTINUOUS
 10
4.6850446865
 20
11.6984477814
 11
4.6185799868
 21
11.6984477814
  0
LINE
  5
299
100
AcDbEntity
  8
0
100
AcDbLine
 62
7
  6
CONTINUOUS
 10
4.4310799868
 20
11.6984477814
 11
4.4331873814
 21
11.6984477814
  0
LINE
  5
29A
100
AcDbEntity
  8
0
100
AcDbLine
 62
7
  6
CONTINUOUS
 10
7.3677470839
 20
11.7034477814
 11
4.7739970839
 21
11.7034477814
  0
LINE
  5
29B
100
AcDbEntity
  8
0
100
AcDbLine
 62
7
  6
CONTINUOUS
 10
2.5083720839
 20
11.7234477814
 11
9.6333720839
 21
11.7234477814
  0
LINE
  5
29C
100
AcDbEntity
  8
0
100
AcDbLine
 62
7
  6
CONTINUOUS
 10
6.1694865139
 20
11.4266328491
 11
6.0708720839
 21
11.4835679168
  0
LINE
  5
29D
100
AcDbEntity
  8
0
100
AcDbLine
 62
7
  6
CONTINUOUS
 10
4.7066953216
 20
11.7234477814
 11
4.6850446865
 21
11.6984477814
  0
LINE
  5
29E
100
AcDbEntity
  8
0
100
AcDbLine
 62
7
  6
CONTINUOUS
 10
4.6850446865
 20
11.6734477814
 11
4.7272028174
 21
11.7221277978
  0
LINE
  5
29F
100
AcDbEntity
  8
0
100
AcDbLine
 62
7
  6
CONTINUOUS
 10
4.7908459567
 20
11.7234477814
 11
4.7475446865
 21
11.6734477814
  0
LINE
  5
2A0
100
AcDbEntity
  8
0
100
AcDbLine
 62
7
  6
CONTINUOUS
 10
5.9722576539
 20
11.3127627137
 11
5.9722576539
 21
11.4266328491
  0
LINE
  5
2A1
100
AcDbEntity
  8
0
100
AcDbLine
 62
7
  6
CONTINUOUS
 10
9.0833720839
 20
12.4921977814
 11
8.6246509384
 21
12.4921977814
  0
LINE
  5
2A2
100
AcDbEntity
  8
0
100
AcDbLine
 62
7
  6
CONTINUOUS
 10
8.6179522086
 20
12.4921977814
 11
8.4958720839
 21
12.4921977814
  0
LINE
  5
2A3
100
AcDbEntity
  8
0
100
AcDbLine
 62
7
  6
CONTINUOUS
 10
3.6458720839
 20
12.4921977814
 11
3.5237919591
 21
12.4921977814
  0
LINE
  5
2A4
100
AcDbEntity
  8
0
100
AcDbLine
 62
7
  6
CONTINUOUS
 10
3.0583720839
 20
12.4921977814
 11
3.5170932293
 21
12.4921977814
  0
LINE
  5
2A5
100
AcDbEntity
  8
0
100
AcDbLine
 62
7
  6
CONTINUOUS
 10
7.5087737234
 20
12.5672087815
 11
7.9958484353
 21
12.5672087815
  0
LINE
  5
2A6
100
AcDbEntity
  8
0
100
AcDbLine
 62
7
  6
CONTINUOUS
 10
6.1694865139
 20
11.4266328491
 11
6.1694865139
 21
11.3127627137
  0
LINE
  5
2A7
100
AcDbEntity
  8
0
100
AcDbLine
 62
7
  6
CONTINUOUS
 10
7.9111174819
 20
12.6896070386
 11
7.8664427088
 21
12.6896070386
  0
LINE
  5
2A8
100
AcDbEntity
  8
0
100
AcDbLine
 62
7
  6
CONTINUOUS
 10
9.0083720839
 20
12.6921977814
 11
8.6333720839
 21
12.6921977814
  0
LINE
  5
2A9
100
AcDbEntity
  8
0
100
AcDbLine
 62
7
  6
CONTINUOUS
 10
3.5083720839
 20
12.6921977814
 11
3.1333720839
 21
12.6921977814
  0
LINE
  5
2AA
100
AcDbEntity
  8
0
100
AcDbLine
 62
7
  6
CONTINUOUS
 10
7.7117631004
 20
12.81590241
 11
7.7564378735
 21
12.81590241
  0
LINE
  5
2AB
100
AcDbEntity
  8
0
100
AcDbLine
 62
7
  6
CONTINUOUS
 10
7.3677470839
 20
11.5183122114
 11
7.3633310234
 21
11.5231221671
  0
LINE
  5
2AC
100
AcDbEntity
  8
0
100
AcDbLine
 62
7
  6
CONTINUOUS
 10
7.3556851053
 20
12.9421977814
 11
7.5365825809
 21
12.9421977814
  0
LINE
  5
2AD
100
AcDbEntity
  8
0
100
AcDbLine
 62
7
  6
CONTINUOUS
 10
7.7564378735
 20
13.0684931528
 11
7.7117631004
 21
13.0684931528
  0
LINE
  5
2AE
100
AcDbEntity
  8
0
100
AcDbLine
 62
7
  6
CONTINUOUS
 10
7.7117631004
 20
13.0684931528
 11
7.8664427088
 21
13.1947885241
  0
LINE
  5
2AF
100
AcDbEntity
  8
0
100
AcDbLine
 62
7
  6
CONTINUOUS
 10
7.7564378735
 20
13.0684931528
 11
7.9111174819
 21
13.1947885241
  0
LINE
  5
2B0
100
AcDbEntity
  8
0
100
AcDbLine
 62
7
  6
CONTINUOUS
 10
3.1333720839
 20
13.1921977814
 11
3.5083720839
 21
13.1921977814
  0
LINE
  5
2B1
100
AcDbEntity
  8
0
100
AcDbLine
 62
7
  6
CONTINUOUS
 10
8.6333720839
 20
13.1921977814
 11
9.0083720839
 21
13.1921977814
  0
LINE
  5
2B2
100
AcDbEntity
  8
0
100
AcDbLine
 62
7
  6
CONTINUOUS
 10
7.8664427088
 20
13.1947885241
 11
7.9111174819
 21
13.1947885241
  0
LINE
  5
2B3
100
AcDbEntity
  8
0
100
AcDbLine
 62
7
  6
CONTINUOUS
 10
7.5087737234
 20
13.3171867812
 11
7.9958484353
 21
13.3171867812
  0
LINE
  5
2B4
100
AcDbEntity
  8
0
100
AcDbLine
 62
7
  6
CONTINUOUS
 10
9.0833720839
 20
13.3921977814
 11
8.6246509384
 21
13.3921977814
  0
LINE
  5
2B5
100
AcDbEntity
  8
0
100
AcDbLine
 62
7
  6
CONTINUOUS
 10
3.0583720839
 20
13.3921977814
 11
3.5170932293
 21
13.3921977814
  0
LINE
  5
2B6
100
AcDbEntity
  8
0
100
AcDbLine
 62
7
  6
CONTINUOUS
 10
3.5237919591
 20
13.3921977814
 11
3.6458720839
 21
13.3921977814
  0
LINE
  5
2B7
100
AcDbEntity
  8
0
100
AcDbLine
 62
7
  6
CONTINUOUS
 10
8.4958720839
 20
13.3921977814
 11
8.6179522086
 21
13.3921977814
  0
LINE
  5
2B8
100
AcDbEntity
  8
0
100
AcDbLine
 62
7
  6
CONTINUOUS
 10
7.1333720839
 20
11.7034477814
 11
7.1333720839
 21
11.7234477814
  0
LINE
  5
2B9
100
AcDbEntity
  8
0
100
AcDbLine
 62
7
  6
CONTINUOUS
 10
6.0708720839
 20
11.4835679168
 11
5.9722576539
 21
11.4266328491
  0
LINE
  5
2BA
100
AcDbEntity
  8
0
100
AcDbLine
 62
7
  6
CONTINUOUS
 10
7.3677470839
 20
11.0859477814
 11
7.3677470839
 21
11.1821977814
  0
LINE
  5
2BB
100
AcDbEntity
  8
0
100
AcDbLine
 62
7
  6
CONTINUOUS
 10
7.3677470839
 20
11.2210833514
 11
7.3677470839
 21
11.5183122114
  0
LINE
  5
2BC
100
AcDbEntity
  8
0
100
AcDbLine
 62
7
  6
CONTINUOUS
 10
7.3677470839
 20
11.5571977814
 11
7.3677470839
 21
11.7034477814
  0
LINE
  5
2BD
100
AcDbEntity
  8
0
100
AcDbLine
 62
7
  6
CONTINUOUS
 10
7.9111174819
 20
12.6896070386
 11
8.0508161683
 21
12.8036705384
  0
LINE
  5
2BE
100
AcDbEntity
  8
0
100
AcDbLine
 62
7
  6
CONTINUOUS
 10
6.0708720839
 20
11.255827646
 11
6.1694865139
 21
11.3127627137
  0
LINE
  5
2BF
100
AcDbEntity
  8
0
100
AcDbLine
 62
7
  6
CONTINUOUS
 10
7.7117631004
 20
12.81590241
 11
7.8664427088
 21
12.6896070386
  0
LINE
  5
2C0
100
AcDbEntity
  8
0
100
AcDbLine
 62
7
  6
CONTINUOUS
 10
7.9111174819
 20
12.6896070386
 11
7.7564378735
 21
12.81590241
  0
LINE
  5
2C1
100
AcDbEntity
  8
0
100
AcDbLine
 62
7
  6
CONTINUOUS
 10
9.5833720839
 20
14.1109477814
 11
9.6333720839
 21
14.1609477814
  0
LINE
  5
2C2
100
AcDbEntity
  8
0
100
AcDbLine
 62
7
  6
CONTINUOUS
 10
9.6333720839
 20
14.1609477814
 11
2.5083720839
 21
14.1609477814
  0
LINE
  5
2C3
100
AcDbEntity
  8
0
100
AcDbLine
 62
7
  6
CONTINUOUS
 10
4.4567420839
 20
14.1641477814
 11
7.6850020839
 21
14.1641477814
  0
LINE
  5
2C4
100
AcDbEntity
  8
0
100
AcDbLine
 62
7
  6
CONTINUOUS
 10
7.6850020839
 20
14.1609477814
 11
7.6850020839
 21
14.1641477814
  0
LINE
  5
2C5
100
AcDbEntity
  8
0
100
AcDbLine
 62
7
  6
CONTINUOUS
 10
7.7117631004
 20
13.0684931528
 11
7.7117631004
 21
12.81590241
  0
LINE
  5
2C6
100
AcDbEntity
  8
0
100
AcDbLine
 62
7
  6
CONTINUOUS
 10
7.7564378735
 20
12.81590241
 11
7.7564378735
 21
13.0684931528
  0
LINE
  5
2C7
100
AcDbEntity
  8
0
100
AcDbLine
 62
7
  6
CONTINUOUS
 10
7.9111174819
 20
13.1947885241
 11
8.0502721895
 21
13.0811691812
  0
LINE
  5
2C8
100
AcDbEntity
  8
0
100
AcDbLine
 62
7
  6
CONTINUOUS
 10
7.3633320262
 20
11.2162744878
 11
7.3677470839
 21
11.2210833514
  0
LINE
  5
2C9
100
AcDbEntity
  8
0
100
AcDbLine
 62
7
  6
CONTINUOUS
 10
7.3677470839
 20
11.0859477814
 11
7.3177470839
 21
11.0359477814
  0
LINE
  5
2CA
100
AcDbEntity
  8
0
100
AcDbLine
 62
7
  6
CONTINUOUS
 10
9.5833720839
 20
11.7734477814
 11
9.6333720839
 21
11.7234477814
  0
LINE
  5
2CB
100
AcDbEntity
  8
0
100
AcDbLine
 62
7
  6
CONTINUOUS
 10
8.6179522086
 20
12.5171977814
 11
8.6179522086
 21
12.4921977814
  0
LINE
  5
2CC
100
AcDbEntity
  8
0
100
AcDbLine
 62
7
  6
CONTINUOUS
 10
8.6179522086
 20
13.3671977814
 11
8.6179522086
 21
13.3921977814
  0
LINE
  5
2CD
100
AcDbEntity
  8
0
100
AcDbLine
 62
7
  6
CONTINUOUS
 10
8.6514458577
 20
11.7734477814
 11
8.6514458577
 21
12.4921977814
  0
LINE
  5
2CE
100
AcDbEntity
  8
0
100
AcDbLine
 62
7
  6
CONTINUOUS
 10
8.6514458577
 20
13.3921977814
 11
8.6514458577
 21
14.1109477814
  0
LINE
  5
2CF
100
AcDbEntity
  8
0
100
AcDbLine
 62
7
  6
CONTINUOUS
 10
9.6333720839
 20
14.1609477814
 11
9.6333720839
 21
11.7234477814
  0
LINE
  5
2D0
100
AcDbEntity
  8
0
100
AcDbLine
 62
7
  6
CONTINUOUS
 10
17.1212552569
 20
3.2731247044
 11
14.6837552569
 21
3.2731247044
  0
LINE
  5
2D1
100
AcDbEntity
  8
0
100
AcDbLine
 62
7
  6
CONTINUOUS
 10
13.9962552569
 20
4.1512497044
 11
14.0462552569
 21
4.1012497044
  0
LINE
  5
2D2
100
AcDbEntity
  8
0
100
AcDbLine
 62
7
  6
CONTINUOUS
 10
13.9962552569
 20
6.6449997044
 11
14.0462552569
 21
6.6949997044
  0
LINE
  5
2D3
100
AcDbEntity
  8
0
100
AcDbLine
 62
7
  6
CONTINUOUS
 10
14.1765810739
 20
6.6905838301
 11
14.1813908269
 21
6.6949997044
  0
LINE
  5
2D4
100
AcDbEntity
  8
0
100
AcDbLine
 62
7
  6
CONTINUOUS
 10
17.1212552569
 20
3.7839947044
 11
17.1244552569
 21
3.7839947044
  0
LINE
  5
2D5
100
AcDbEntity
  8
0
100
AcDbLine
 62
7
  6
CONTINUOUS
 10
13.9962552569
 20
6.644979668
 11
13.9962552569
 21
4.1512697409
  0
LINE
  5
2D6
100
AcDbEntity
  8
0
100
AcDbLine
 62
7
  6
CONTINUOUS
 10
14.0462552569
 20
6.6949997044
 11
14.0462552569
 21
4.1012497044
  0
LINE
  5
2D7
100
AcDbEntity
  8
0
100
AcDbLine
 62
7
  6
CONTINUOUS
 10
14.6637552569
 20
4.1012497044
 11
14.0462552569
 21
4.1012497044
  0
LINE
  5
2D8
100
AcDbEntity
  8
0
100
AcDbLine
 62
7
  6
CONTINUOUS
 10
14.2730701892
 20
5.4967391344
 11
14.2161351215
 21
5.3981247044
  0
LINE
  5
2D9
100
AcDbEntity
  8
0
100
AcDbLine
 62
7
  6
CONTINUOUS
 10
15.6499145142
 20
7.2383701025
 11
15.7635338571
 21
7.3775248101
  0
LINE
  5
2DA
100
AcDbEntity
  8
0
100
AcDbLine
 62
7
  6
CONTINUOUS
 10
14.6837552569
 20
4.3356247044
 11
14.6637552569
 21
4.3356247044
  0
LINE
  5
2DB
100
AcDbEntity
  8
0
100
AcDbLine
 62
7
  6
CONTINUOUS
 10
14.2161351215
 20
5.3981247044
 11
14.2730701892
 21
5.2995102744
  0
LINE
  5
2DC
100
AcDbEntity
  8
0
100
AcDbLine
 62
7
  6
CONTINUOUS
 10
14.6637552569
 20
4.1012705933
 11
14.6637552569
 21
6.6949788156
  0
LINE
  5
2DD
100
AcDbEntity
  8
0
100
AcDbLine
 62
7
  6
CONTINUOUS
 10
14.6837552569
 20
3.2731247044
 11
14.6837552569
 21
7.5981176154
  0
LINE
  5
2DE
100
AcDbEntity
  8
0
100
AcDbLine
 62
7
  6
CONTINUOUS
 10
14.3869403246
 20
5.2995102744
 11
14.4438753923
 21
5.3981247044
  0
LINE
  5
2DF
100
AcDbEntity
  8
0
100
AcDbLine
 62
7
  6
CONTINUOUS
 10
17.0712552569
 20
4.4606247044
 11
14.7337552569
 21
4.4606247044
  0
LINE
  5
2E0
100
AcDbEntity
  8
0
100
AcDbLine
 62
7
  6
CONTINUOUS
 10
15.4525052569
 20
4.5856247044
 11
16.3525052569
 21
4.5856247044
  0
LINE
  5
2E1
100
AcDbEntity
  8
0
100
AcDbLine
 62
7
  6
CONTINUOUS
 10
14.4438753923
 20
5.3981247044
 11
14.3869403246
 21
5.4967391344
  0
LINE
  5
2E2
100
AcDbEntity
  8
0
100
AcDbLine
 62
7
  6
CONTINUOUS
 10
16.1550959997
 20
7.2383701025
 11
16.0288006283
 21
7.0836904941
  0
LINE
  5
2E3
100
AcDbEntity
  8
0
100
AcDbLine
 62
7
  6
CONTINUOUS
 10
16.1550959997
 20
7.1936953294
 11
16.0288006283
 21
7.039015721
  0
LINE
  5
2E4
100
AcDbEntity
  8
0
100
AcDbLine
 62
7
  6
CONTINUOUS
 10
14.3869403246
 20
5.2995102744
 11
14.2730701892
 21
5.2995102744
  0
LINE
  5
2E5
100
AcDbEntity
  8
0
100
AcDbLine
 62
7
  6
CONTINUOUS
 10
15.4525052569
 20
4.4606247044
 11
15.4525052569
 21
4.5606247044
  0
LINE
  5
2E6
100
AcDbEntity
  8
0
100
AcDbLine
 62
7
  6
CONTINUOUS
 10
15.4525052569
 20
4.5856247044
 11
15.4525052569
 21
5.0412339327
  0
LINE
  5
2E7
100
AcDbEntity
  8
0
100
AcDbLine
 62
7
  6
CONTINUOUS
 10
15.5275162571
 20
7.3231010559
 11
15.5275162571
 21
6.836026344
  0
LINE
  5
2E8
100
AcDbEntity
  8
0
100
AcDbLine
 62
7
  6
CONTINUOUS
 10
15.6499145142
 20
7.2383701025
 11
15.6499145142
 21
7.1936953294
  0
LINE
  5
2E9
100
AcDbEntity
  8
0
100
AcDbLine
 62
7
  6
CONTINUOUS
 10
14.3869403246
 20
5.4967391344
 11
14.2730701892
 21
5.4967391344
  0
LINE
  5
2EA
100
AcDbEntity
  8
0
100
AcDbLine
 62
7
  6
CONTINUOUS
 10
14.4786196869
 20
6.6949997044
 11
14.4834287614
 21
6.6905844531
  0
LINE
  5
2EB
100
AcDbEntity
  8
0
100
AcDbLine
 62
7
  6
CONTINUOUS
 10
15.7762098856
 20
7.0836904941
 11
15.7762098856
 21
7.039015721
  0
LINE
  5
2EC
100
AcDbEntity
  8
0
100
AcDbLine
 62
7
  6
CONTINUOUS
 10
15.9025052569
 20
6.6829377259
 11
15.9025052569
 21
6.8638352015
  0
LINE
  5
2ED
100
AcDbEntity
  8
0
100
AcDbLine
 62
7
  6
CONTINUOUS
 10
16.0288006283
 20
7.039015721
 11
16.0288006283
 21
7.0836904941
  0
LINE
  5
2EE
100
AcDbEntity
  8
0
100
AcDbLine
 62
7
  6
CONTINUOUS
 10
16.1550959997
 20
7.1936953294
 11
16.1550959997
 21
7.2383701025
  0
LINE
  5
2EF
100
AcDbEntity
  8
0
100
AcDbLine
 62
7
  6
CONTINUOUS
 10
16.2774942568
 20
6.836026344
 11
16.2774942568
 21
7.3231010559
  0
LINE
  5
2F0
100
AcDbEntity
  8
0
100
AcDbLine
 62
7
  6
CONTINUOUS
 10
16.3525052569
 20
5.0412339327
 11
16.3525052569
 21
4.5856247044
  0
LINE
  5
2F1
100
AcDbEntity
  8
0
100
AcDbLine
 62
7
  6
CONTINUOUS
 10
16.3525052569
 20
4.4606247044
 11
16.3525052569
 21
4.5606247044
  0
LINE
  5
2F2
100
AcDbEntity
  8
0
100
AcDbLine
 62
7
  6
CONTINUOUS
 10
14.6837552569
 20
6.4606247044
 11
14.6637552569
 21
6.4606247044
  0
LINE
  5
2F3
100
AcDbEntity
  8
0
100
AcDbLine
 62
7
  6
CONTINUOUS
 10
14.6637552569
 20
6.6949997044
 11
14.5175052569
 21
6.6949997044
  0
LINE
  5
2F4
100
AcDbEntity
  8
0
100
AcDbLine
 62
7
  6
CONTINUOUS
 10
14.4786196869
 20
6.6949997044
 11
14.1813908269
 21
6.6949997044
  0
LINE
  5
2F5
100
AcDbEntity
  8
0
100
AcDbLine
 62
7
  6
CONTINUOUS
 10
14.1425052569
 20
6.6949997044
 11
14.0462552569
 21
6.6949997044
  0
LINE
  5
2F6
100
AcDbEntity
  8
0
100
AcDbLine
 62
7
  6
CONTINUOUS
 10
15.6499145142
 20
7.1936953294
 11
15.7762098856
 21
7.039015721
  0
LINE
  5
2F7
100
AcDbEntity
  8
0
100
AcDbLine
 62
7
  6
CONTINUOUS
 10
15.6499145142
 20
7.2383701025
 11
15.7762098856
 21
7.0836904941
  0
LINE
  5
2F8
100
AcDbEntity
  8
0
100
AcDbLine
 62
7
  6
CONTINUOUS
 10
17.1212552569
 20
3.2731247044
 11
17.1212552569
 21
7.5981233165
  0
LINE
  5
2F9
100
AcDbEntity
  8
0
100
AcDbLine
 62
7
  6
CONTINUOUS
 10
17.1244552569
 20
7.0122264917
 11
17.1244552569
 21
3.7840229172
  0
LINE
  5
2FA
100
AcDbEntity
  8
0
100
AcDbLine
 62
7
  6
CONTINUOUS
 10
17.1212552569
 20
7.0122547044
 11
17.1244552569
 21
7.0122547044
  0
LINE
  5
2FB
100
AcDbEntity
  8
0
100
AcDbLine
 62
7
  6
CONTINUOUS
 10
15.7762098856
 20
7.039015721
 11
16.0288006283
 21
7.039015721
  0
LINE
  5
2FC
100
AcDbEntity
  8
0
100
AcDbLine
 62
7
  6
CONTINUOUS
 10
15.7762098856
 20
7.0836904941
 11
16.0288006283
 21
7.0836904941
  0
LINE
  5
2FD
100
AcDbEntity
  8
0
100
AcDbLine
 62
7
  6
CONTINUOUS
 10
16.0410324999
 20
7.3780687889
 11
16.1550959997
 21
7.2383701025
  0
LINE
  5
2FE
100
AcDbEntity
  8
0
100
AcDbLine
 62
7
  6
CONTINUOUS
 10
14.7337552569
 20
7.6481247044
 11
17.0712552569
 21
7.6481247044
  0
LINE
  5
2FF
100
AcDbEntity
  8
0
100
AcDbLine
 62
7
  6
CONTINUOUS
 10
12.0692735371
 20
10.2064769382
 11
11.7222884138
 21
10.9135582771
  0
LINE
  5
300
100
AcDbEntity
  8
0
100
AcDbLine
 62
7
  6
CONTINUOUS
 10
12.0741547681
 20
11.7632352244
 11
12.1046589547
 21
11.7010742276
  0
LINE
  5
301
100
AcDbEntity
  8
0
100
AcDbLine
 62
7
  6
CONTINUOUS
 10
12.6223122303
 20
10.969930597
 11
12.5336807893
 21
11.9158458373
  0
LINE
  5
302
100
AcDbEntity
  8
0
100
AcDbLine
 62
7
  6
CONTINUOUS
 10
11.7220228086
 20
10.9330205729
 11
12.3091546972
 21
12.8329800606
  0
LINE
  5
303
100
AcDbEntity
  8
0
100
AcDbLine
 62
7
  6
CONTINUOUS
 10
12.5647457782
 20
12.230871052
 11
12.8314644994
 21
13.0939731503
  0
LINE
  5
304
100
AcDbEntity
  8
0
100
AcDbLine
 62
7
  6
CONTINUOUS
 10
12.8638570879
 20
13.1987956051
 11
13.1305758092
 21
14.0618977033
  0
LINE
  5
305
100
AcDbEntity
  8
0
100
AcDbLine
 62
7
  6
CONTINUOUS
 10
13.1601650895
 20
12.0039660153
 11
13.1519295492
 21
11.9742814679
  0
LINE
  5
306
100
AcDbEntity
  8
0
100
AcDbLine
 62
7
  6
CONTINUOUS
 10
12.0692735371
 20
10.2064769382
 11
18.6318331193
 21
10.2064769382
  0
LINE
  5
307
100
AcDbEntity
  8
0
100
AcDbLine
 62
7
  6
CONTINUOUS
 10
13.3778753528
 20
11.9003745777
 11
13.3868456204
 21
11.9339164332
  0
LINE
  5
308
100
AcDbEntity
  8
0
100
AcDbLine
 62
7
  6
CONTINUOUS
 10
13.4062095925
 20
11.9965829981
 11
13.3868442867
 21
11.9339168453
  0
LINE
  5
309
100
AcDbEntity
  8
0
100
AcDbLine
 62
7
  6
CONTINUOUS
 10
13.2683513803
 20
11.5279032767
 11
13.2489860744
 21
11.4652371239
  0
LINE
  5
30A
100
AcDbEntity
  8
0
100
AcDbLine
 62
7
  6
CONTINUOUS
 10
13.4584366277
 20
11.8946305174
 11
13.308960673
 21
11.4109261507
  0
LINE
  5
30B
100
AcDbEntity
  8
0
100
AcDbLine
 62
7
  6
CONTINUOUS
 10
13.6619982068
 20
12.2982394438
 11
13.6426329009
 21
12.2355732911
  0
LINE
  5
30C
100
AcDbEntity
  8
0
100
AcDbLine
 62
7
  6
CONTINUOUS
 10
14.2107032452
 20
12.4436831922
 11
14.1913379393
 21
12.3810170394
  0
LINE
  5
30D
100
AcDbEntity
  8
0
100
AcDbLine
 62
7
  6
CONTINUOUS
 10
14.1164952615
 20
12.0118478834
 11
14.1440593865
 21
12.1010454247
  0
LINE
  5
30E
100
AcDbEntity
  8
0
100
AcDbLine
 62
7
  6
CONTINUOUS
 10
15.8274411388
 20
11.2335952844
 11
15.8550729686
 21
11.2335952844
  0
LINE
  5
30F
100
AcDbEntity
  8
0
100
AcDbLine
 62
7
  6
CONTINUOUS
 10
15.8111416715
 20
11.3394937677
 11
15.8387735013
 21
11.3394937677
  0
LINE
  5
310
100
AcDbEntity
  8
0
100
AcDbLine
 62
7
  6
CONTINUOUS
 10
13.1519295492
 20
11.9742814679
 11
13.3778753528
 21
11.9003745777
  0
LINE
  5
311
100
AcDbEntity
  8
0
100
AcDbLine
 62
7
  6
CONTINUOUS
 10
15.9875320721
 20
11.046755659
 11
16.2134778758
 21
10.9728487688
  0
LINE
  5
312
100
AcDbEntity
  8
0
100
AcDbLine
 62
7
  6
CONTINUOUS
 10
16.2328431816
 20
11.0355149216
 11
16.0132740196
 21
11.1073360118
  0
LINE
  5
313
100
AcDbEntity
  8
0
100
AcDbLine
 62
7
  6
CONTINUOUS
 10
13.3959724413
 20
11.9634555645
 11
13.171294855
 21
12.0369476207
  0
LINE
  5
314
100
AcDbEntity
  8
0
100
AcDbLine
 62
7
  6
CONTINUOUS
 10
15.7836452513
 20
11.1610986852
 11
15.8275088436
 21
11.1443977431
  0
LINE
  5
315
100
AcDbEntity
  8
0
100
AcDbLine
 62
7
  6
CONTINUOUS
 10
13.4703040811
 20
12.3635837799
 11
13.6426329009
 21
12.2355732911
  0
LINE
  5
316
100
AcDbEntity
  8
0
100
AcDbLine
 62
7
  6
CONTINUOUS
 10
15.785881668
 20
10.6435103807
 11
15.8053463849
 21
10.6290514647
  0
LINE
  5
317
100
AcDbEntity
  8
0
100
AcDbLine
 62
7
  6
CONTINUOUS
 10
15.8247116908
 20
10.6917176175
 11
15.8058177927
 21
10.7057525139
  0
LINE
  5
318
100
AcDbEntity
  8
0
100
AcDbLine
 62
7
  6
CONTINUOUS
 10
13.6619982068
 20
12.2982394438
 11
13.5310362749
 21
12.3955214941
  0
LINE
  5
319
100
AcDbEntity
  8
0
100
AcDbLine
 62
7
  6
CONTINUOUS
 10
15.9343746421
 20
10.6912124616
 11
15.8261643459
 21
10.7715939841
  0
LINE
  5
31A
100
AcDbEntity
  8
0
100
AcDbLine
 62
7
  6
CONTINUOUS
 10
13.7716611581
 20
12.2977342879
 11
13.5993323383
 21
12.4257447767
  0
LINE
  5
31B
100
AcDbEntity
  8
0
100
AcDbLine
 62
7
  6
CONTINUOUS
 10
14.1440593865
 20
12.1010454247
 11
14.1532106425
 21
12.0823971256
  0
LINE
  5
31C
100
AcDbEntity
  8
0
100
AcDbLine
 62
7
  6
CONTINUOUS
 10
14.2578226099
 20
12.1269958963
 11
14.2486713539
 21
12.1456441953
  0
LINE
  5
31D
100
AcDbEntity
  8
0
100
AcDbLine
 62
7
  6
CONTINUOUS
 10
14.1188014715
 20
12.5288308198
 11
14.1913379393
 21
12.3810170394
  0
LINE
  5
31E
100
AcDbEntity
  8
0
100
AcDbLine
 62
7
  6
CONTINUOUS
 10
14.2107032452
 20
12.4436831922
 11
14.1684039771
 21
12.5298800378
  0
LINE
  5
31F
100
AcDbEntity
  8
0
100
AcDbLine
 62
7
  6
CONTINUOUS
 10
14.1532106425
 20
12.0823971256
 11
14.1291463016
 21
12.0045248901
  0
LINE
  5
320
100
AcDbEntity
  8
0
100
AcDbLine
 62
7
  6
CONTINUOUS
 10
14.3257191963
 20
12.1010454247
 11
14.2981550713
 21
12.0118478834
  0
LINE
  5
321
100
AcDbEntity
  8
0
100
AcDbLine
 62
7
  6
CONTINUOUS
 10
16.2167010221
 20
11.4652371239
 11
15.9976802302
 21
11.4652371239
  0
LINE
  5
322
100
AcDbEntity
  8
0
100
AcDbLine
 62
7
  6
CONTINUOUS
 10
13.2489860744
 20
11.4652371239
 11
13.3257440331
 21
11.4652371239
  0
LINE
  5
323
100
AcDbEntity
  8
0
100
AcDbLine
 62
7
  6
CONTINUOUS
 10
16.1884873896
 20
11.5279032767
 11
16.0170455361
 21
11.5279032767
  0
LINE
  5
324
100
AcDbEntity
  8
0
100
AcDbLine
 62
7
  6
CONTINUOUS
 10
13.345109339
 20
11.5279032767
 11
13.2683513803
 21
11.5279032767
  0
LINE
  5
325
100
AcDbEntity
  8
0
100
AcDbLine
 62
7
  6
CONTINUOUS
 10
17.9491008421
 20
11.5468213373
 11
17.5512704429
 21
11.5468213373
  0
LINE
  5
326
100
AcDbEntity
  8
0
100
AcDbLine
 62
7
  6
CONTINUOUS
 10
12.5682580662
 20
11.5468213373
 11
12.3997083532
 21
11.5468213373
  0
LINE
  5
327
100
AcDbEntity
  8
0
100
AcDbLine
 62
7
  6
CONTINUOUS
 10
16.1556926488
 20
11.5895591176
 11
15.9366718569
 21
11.5895591176
  0
LINE
  5
328
100
AcDbEntity
  8
0
100
AcDbLine
 62
7
  6
CONTINUOUS
 10
13.1879777011
 20
11.5895591176
 11
13.3641624349
 21
11.5895591176
  0
LINE
  5
329
100
AcDbEntity
  8
0
100
AcDbLine
 62
7
  6
CONTINUOUS
 10
16.252749174
 20
11.0805147736
 11
16.0268033704
 21
11.1544216638
  0
LINE
  5
32A
100
AcDbEntity
  8
0
100
AcDbLine
 62
7
  6
CONTINUOUS
 10
13.417146651
 20
12.0080405825
 11
13.1912008474
 21
12.0819474726
  0
LINE
  5
32B
100
AcDbEntity
  8
0
100
AcDbLine
 62
7
  6
CONTINUOUS
 10
15.7920010135
 20
11.3467815206
 11
15.8111416715
 21
11.3394937677
  0
LINE
  5
32C
100
AcDbEntity
  8
0
100
AcDbLine
 62
7
  6
CONTINUOUS
 10
15.8387735013
 20
11.3394937677
 11
15.794909909
 21
11.3561947098
  0
LINE
  5
32D
100
AcDbEntity
  8
0
100
AcDbLine
 62
7
  6
CONTINUOUS
 10
14.1164952615
 20
12.0118478834
 11
14.1935431039
 21
11.9672491128
  0
LINE
  5
32E
100
AcDbEntity
  8
0
100
AcDbLine
 62
7
  6
CONTINUOUS
 10
14.2578226099
 20
12.1269958963
 11
14.3222194122
 21
12.089720119
  0
LINE
  5
32F
100
AcDbEntity
  8
0
100
AcDbLine
 62
7
  6
CONTINUOUS
 10
14.3257191963
 20
12.1010454247
 11
14.2486713539
 21
12.1456441953
  0
LINE
  5
330
100
AcDbEntity
  8
0
100
AcDbLine
 62
7
  6
CONTINUOUS
 10
14.3030136703
 20
12.5288308198
 11
14.3755501381
 21
12.3810170394
  0
LINE
  5
331
100
AcDbEntity
  8
0
100
AcDbLine
 62
7
  6
CONTINUOUS
 10
15.6020333382
 20
13.6613760175
 11
15.7134696433
 21
13.7738236916
  0
LINE
  5
332
100
AcDbEntity
  8
0
100
AcDbLine
 62
7
  6
CONTINUOUS
 10
15.9719028034
 20
13.8210736247
 11
15.9443822886
 21
13.7933033405
  0
LINE
  5
333
100
AcDbEntity
  8
0
100
AcDbLine
 62
7
  6
CONTINUOUS
 10
17.8903042989
 20
11.7811879652
 11
17.5449064262
 21
11.7811879652
  0
LINE
  5
334
100
AcDbEntity
  8
0
100
AcDbLine
 62
7
  6
CONTINUOUS
 10
12.5462981156
 20
11.7811879652
 11
12.4790709591
 21
11.7811879652
  0
LINE
  5
335
100
AcDbEntity
  8
0
100
AcDbLine
 62
7
  6
CONTINUOUS
 10
18.1521048605
 20
11.920004553
 11
17.6398459585
 21
11.920004553
  0
LINE
  5
336
100
AcDbEntity
  8
0
100
AcDbLine
 62
7
  6
CONTINUOUS
 10
18.13048547
 20
11.9551423408
 11
17.7850875973
 21
11.9551423408
  0
LINE
  5
337
100
AcDbEntity
  8
0
100
AcDbLine
 62
7
  6
CONTINUOUS
 10
15.0863673326
 20
12.2982394438
 11
15.0670020267
 21
12.2355732911
  0
LINE
  5
338
100
AcDbEntity
  8
0
100
AcDbLine
 62
7
  6
CONTINUOUS
 10
14.9236573683
 20
12.4257447767
 11
14.8769653962
 21
12.2977342879
  0
LINE
  5
339
100
AcDbEntity
  8
0
100
AcDbLine
 62
7
  6
CONTINUOUS
 10
15.1106118177
 20
12.364708009
 11
15.0863673326
 21
12.2982394438
  0
LINE
  5
33A
100
AcDbEntity
  8
0
100
AcDbLine
 62
7
  6
CONTINUOUS
 10
15.0670020267
 20
12.2355732911
 11
15.1136939988
 21
12.3635837799
  0
LINE
  5
33B
100
AcDbEntity
  8
0
100
AcDbLine
 62
7
  6
CONTINUOUS
 10
15.8832385762
 20
13.5954422145
 11
15.910759091
 21
13.6232124988
  0
LINE
  5
33C
100
AcDbEntity
  8
0
100
AcDbLine
 62
7
  6
CONTINUOUS
 10
15.6989635223
 20
13.2724756321
 11
15.8103998274
 21
13.3849233062
  0
LINE
  5
33D
100
AcDbEntity
  8
0
100
AcDbLine
 62
7
  6
CONTINUOUS
 10
17.6659395879
 20
12.17285142
 11
18.0113374606
 21
12.17285142
  0
LINE
  5
33E
100
AcDbEntity
  8
0
100
AcDbLine
 62
7
  6
CONTINUOUS
 10
15.8378602511
 20
11.3822149036
 11
15.8119506096
 21
11.4167319619
  0
LINE
  5
33F
100
AcDbEntity
  8
0
100
AcDbLine
 62
7
  6
CONTINUOUS
 10
15.8378584359
 20
11.3822059496
 11
15.847183925
 21
11.3667099086
  0
LINE
  5
340
100
AcDbEntity
  8
0
100
AcDbLine
 62
7
  6
CONTINUOUS
 10
16.0698403451
 20
13.4281315494
 11
16.0423198303
 21
13.4003612651
  0
LINE
  5
341
100
AcDbEntity
  8
0
100
AcDbLine
 62
7
  6
CONTINUOUS
 10
16.2900653116
 20
13.4309117259
 11
16.2625447969
 21
13.4031414416
  0
LINE
  5
342
100
AcDbEntity
  8
0
100
AcDbLine
 62
7
  6
CONTINUOUS
 10
16.1858046126
 20
13.1946004841
 11
16.0743683075
 21
13.08215281
  0
LINE
  5
343
100
AcDbEntity
  8
0
100
AcDbLine
 62
7
  6
CONTINUOUS
 10
14.2486713539
 20
12.1456441953
 11
14.1440593865
 21
12.1010454247
  0
LINE
  5
344
100
AcDbEntity
  8
0
100
AcDbLine
 62
7
  6
CONTINUOUS
 10
14.1532106425
 20
12.0823971256
 11
14.2578226099
 21
12.1269958963
  0
LINE
  5
345
100
AcDbEntity
  8
0
100
AcDbLine
 62
7
  6
CONTINUOUS
 10
14.1935431039
 20
11.9672491128
 11
14.2981550713
 21
12.0118478834
  0
LINE
  5
346
100
AcDbEntity
  8
0
100
AcDbLine
 62
7
  6
CONTINUOUS
 10
12.5810121996
 20
12.31939338
 11
12.5921012465
 21
12.31939338
  0
LINE
  5
347
100
AcDbEntity
  8
0
100
AcDbLine
 62
7
  6
CONTINUOUS
 10
17.7040592388
 20
12.31939338
 11
18.1304046884
 21
12.31939338
  0
LINE
  5
348
100
AcDbEntity
  8
0
100
AcDbLine
 62
7
  6
CONTINUOUS
 10
17.7001502069
 20
12.3295168019
 11
17.5877069659
 21
12.3295168019
  0
LINE
  5
349
100
AcDbEntity
  8
0
100
AcDbLine
 62
7
  6
CONTINUOUS
 10
15.9443822886
 20
13.7933033405
 11
15.8832385762
 21
13.5954422145
  0
LINE
  5
34A
100
AcDbEntity
  8
0
100
AcDbLine
 62
7
  6
CONTINUOUS
 10
15.910759091
 20
13.6232124988
 11
15.9719028034
 21
13.8210736247
  0
LINE
  5
34B
100
AcDbEntity
  8
0
100
AcDbLine
 62
7
  6
CONTINUOUS
 10
16.3528429087
 20
13.2807303733
 11
16.4642792137
 21
13.3931780474
  0
LINE
  5
34C
100
AcDbEntity
  8
0
100
AcDbLine
 62
7
  6
CONTINUOUS
 10
18.8528028866
 20
12.8337512738
 11
17.9449959457
 21
12.8337512738
  0
LINE
  5
34D
100
AcDbEntity
  8
0
100
AcDbLine
 62
7
  6
CONTINUOUS
 10
12.7510498576
 20
12.8337512738
 11
12.3102002175
 21
12.8337512738
  0
LINE
  5
34E
100
AcDbEntity
  8
0
100
AcDbLine
 62
7
  6
CONTINUOUS
 10
15.767345784
 20
11.2669971685
 11
15.7836452513
 21
11.1610986852
  0
LINE
  5
34F
100
AcDbEntity
  8
0
100
AcDbLine
 62
7
  6
CONTINUOUS
 10
15.8111416715
 20
11.3394937677
 11
15.8274411388
 21
11.2335952844
  0
LINE
  5
350
100
AcDbEntity
  8
0
100
AcDbLine
 62
7
  6
CONTINUOUS
 10
15.8550729686
 20
11.2335952844
 11
15.8387735013
 21
11.3394937677
  0
LINE
  5
351
100
AcDbEntity
  8
0
100
AcDbLine
 62
7
  6
CONTINUOUS
 10
15.6801081545
 20
11.9630407305
 11
15.6607428487
 21
11.9003745777
  0
LINE
  5
352
100
AcDbEntity
  8
0
100
AcDbLine
 62
7
  6
CONTINUOUS
 10
16.2900653116
 20
13.4309117259
 11
16.351209024
 21
13.6287728518
  0
LINE
  5
353
100
AcDbEntity
  8
0
100
AcDbLine
 62
7
  6
CONTINUOUS
 10
15.6692112839
 20
12.0819474726
 11
15.5158019481
 21
12.0080405825
  0
LINE
  5
354
100
AcDbEntity
  8
0
100
AcDbLine
 62
7
  6
CONTINUOUS
 10
15.7718004087
 20
12.007214635
 11
15.6801081545
 21
11.9630407305
  0
LINE
  5
355
100
AcDbEntity
  8
0
100
AcDbLine
 62
7
  6
CONTINUOUS
 10
16.0268033704
 20
11.1544216638
 11
16.0178331027
 21
11.1208798083
  0
LINE
  5
356
100
AcDbEntity
  8
0
100
AcDbLine
 62
7
  6
CONTINUOUS
 10
15.794909909
 20
11.3561947098
 11
15.767345784
 21
11.2669971685
  0
LINE
  5
357
100
AcDbEntity
  8
0
100
AcDbLine
 62
7
  6
CONTINUOUS
 10
15.8274411388
 20
11.2335952844
 11
15.8027859092
 21
11.1538109323
  0
LINE
  5
358
100
AcDbEntity
  8
0
100
AcDbLine
 62
7
  6
CONTINUOUS
 10
15.8550729686
 20
11.2335952844
 11
15.8275088436
 21
11.1443977431
  0
LINE
  5
359
100
AcDbEntity
  8
0
100
AcDbLine
 62
7
  6
CONTINUOUS
 10
16.0170455361
 20
11.5279032767
 11
15.9976802302
 21
11.4652371239
  0
LINE
  5
35A
100
AcDbEntity
  8
0
100
AcDbLine
 62
7
  6
CONTINUOUS
 10
15.9365594425
 20
11.1288326477
 11
15.7870834878
 21
10.645128281
  0
LINE
  5
35B
100
AcDbEntity
  8
0
100
AcDbLine
 62
7
  6
CONTINUOUS
 10
15.8247116908
 20
10.6917176175
 11
15.8053463849
 21
10.6290514647
  0
LINE
  5
35C
100
AcDbEntity
  8
0
100
AcDbLine
 62
7
  6
CONTINUOUS
 10
15.6607428487
 20
11.9003745777
 11
15.8141521845
 21
11.9742814679
  0
LINE
  5
35D
100
AcDbEntity
  8
0
100
AcDbLine
 62
7
  6
CONTINUOUS
 10
16.0423198303
 20
13.4003612651
 11
16.2625447969
 21
13.4031414416
  0
LINE
  5
35E
100
AcDbEntity
  8
0
100
AcDbLine
 62
7
  6
CONTINUOUS
 10
16.0698403451
 20
13.4281315494
 11
16.2900653116
 21
13.4309117259
  0
LINE
  5
35F
100
AcDbEntity
  8
0
100
AcDbLine
 62
7
  6
CONTINUOUS
 10
17.5512704429
 20
11.5468213373
 11
17.4960865013
 21
11.6089823341
  0
LINE
  5
360
100
AcDbEntity
  8
0
100
AcDbLine
 62
7
  6
CONTINUOUS
 10
17.4822905159
 20
11.6245225833
 11
17.2308673854
 21
11.9077338212
  0
LINE
  5
361
100
AcDbEntity
  8
0
100
AcDbLine
 62
7
  6
CONTINUOUS
 10
16.2445136337
 20
11.0508302261
 11
16.252749174
 21
11.0805147736
  0
LINE
  5
362
100
AcDbEntity
  8
0
100
AcDbLine
 62
7
  6
CONTINUOUS
 10
16.2328431816
 20
11.0355149216
 11
16.2134778758
 21
10.9728487688
  0
LINE
  5
363
100
AcDbEntity
  8
0
100
AcDbLine
 62
7
  6
CONTINUOUS
 10
15.8378602511
 20
11.1183775493
 11
15.8119506096
 21
11.083860491
  0
LINE
  5
364
100
AcDbEntity
  8
0
100
AcDbLine
 62
7
  6
CONTINUOUS
 10
15.8832385762
 20
13.5954422145
 11
16.0423198303
 21
13.4003612651
  0
LINE
  5
365
100
AcDbEntity
  8
0
100
AcDbLine
 62
7
  6
CONTINUOUS
 10
16.0698403451
 20
13.4281315494
 11
15.910759091
 21
13.6232124988
  0
LINE
  5
366
100
AcDbEntity
  8
0
100
AcDbLine
 62
7
  6
CONTINUOUS
 10
15.9719028034
 20
13.8210736247
 11
16.130736839
 21
13.8230787864
  0
LINE
  5
367
100
AcDbEntity
  8
0
100
AcDbLine
 62
7
  6
CONTINUOUS
 10
16.3398356168
 20
13.642720033
 11
16.351209024
 21
13.6287728518
  0
LINE
  5
368
100
AcDbEntity
  8
0
100
AcDbLine
 62
7
  6
CONTINUOUS
 10
17.4487270764
 20
12.6127280399
 11
17.7001502069
 21
12.3295168019
  0
LINE
  5
369
100
AcDbEntity
  8
0
100
AcDbLine
 62
7
  6
CONTINUOUS
 10
17.9458378636
 20
12.8333728773
 11
17.1012612639
 21
13.7847315842
  0
LINE
  5
36A
100
AcDbEntity
  8
0
100
AcDbLine
 62
7
  6
CONTINUOUS
 10
18.6318331193
 20
10.2064769382
 11
18.284847996
 21
10.9135582771
  0
LINE
  5
36B
100
AcDbEntity
  8
0
100
AcDbLine
 62
7
  6
CONTINUOUS
 10
17.488342174
 20
11.644105756
 11
17.4822905159
 21
11.6245225833
  0
LINE
  5
36C
100
AcDbEntity
  8
0
100
AcDbLine
 62
7
  6
CONTINUOUS
 10
17.6940985489
 20
12.3099336292
 11
17.7001502069
 21
12.3295168019
  0
LINE
  5
36D
100
AcDbEntity
  8
0
100
AcDbLine
 62
7
  6
CONTINUOUS
 10
17.377285273
 20
10.983805121
 11
17.5512704429
 21
11.5468213373
  0
LINE
  5
36E
100
AcDbEntity
  8
0
100
AcDbLine
 62
7
  6
CONTINUOUS
 10
17.7900132611
 20
12.31939338
 11
17.9431153039
 21
12.8148317722
  0
LINE
  5
36F
100
AcDbEntity
  8
0
100
AcDbLine
 62
7
  6
CONTINUOUS
 10
18.431505745
 20
12.1597236624
 11
18.4620099317
 21
12.0975626656
  0
LINE
  5
370
100
AcDbEntity
  8
0
100
AcDbLine
 62
7
  6
CONTINUOUS
 10
18.8748846593
 20
12.8229176193
 11
19.2218697826
 21
12.1158362804
  0
LINE
  5
371
100
AcDbEntity
  8
0
100
AcDbLine
 62
7
  6
CONTINUOUS
 10
19.2218697826
 20
12.1158362804
 11
18.6318331193
 21
10.2064769382
  0
CIRCLE
  5
372
100
AcDbEntity
  8
0
100
AcDbCircle
 62
7
  6
CONTINUOUS
 10
4.8917769412
 20
4.2225650956
 40
0.125
  0
ARC
  5
373
100
AcDbEntity
  8
0
100
AcDbCircle
 62
7
  6
CONTINUOUS
 10
4.6143251791
 20
4.5852193353
 40
0.125
100
AcDbArc
 50
58.9324621112
 51
181.0873123583
  0
ARC
  5
374
100
AcDbEntity
  8
0
100
AcDbCircle
 62
7
  6
CONTINUOUS
 10
4.6155751791
 20
4.5830542718
 40
0.125
100
AcDbArc
 50
60.0
 51
360.0
  0
ARC
  5
375
100
AcDbEntity
  8
0
100
AcDbCircle
 62
7
  6
CONTINUOUS
 10
4.6155751791
 20
4.5830542718
 40
0.075
100
AcDbArc
 50
10.4059317735
 51
29.5940682268
  0
ARC
  5
376
100
AcDbEntity
  8
0
100
AcDbCircle
 62
7
  6
CONTINUOUS
 10
4.6155751791
 20
4.5830542718
 40
0.075
100
AcDbArc
 50
190.4059317733
 51
209.5940682266
  0
ARC
  5
377
100
AcDbEntity
  8
0
100
AcDbCircle
 62
7
  6
CONTINUOUS
 10
4.6155751791
 20
4.5830542718
 40
0.070669873
100
AcDbArc
 50
189.8119906829
 51
210.1880093169
  0
ARC
  5
378
100
AcDbEntity
  8
0
100
AcDbCircle
 62
7
  6
CONTINUOUS
 10
4.6155751791
 20
4.5830542718
 40
0.070669873
100
AcDbArc
 50
9.8119906832
 51
30.1880093172
  0
CIRCLE
  5
379
100
AcDbEntity
  8
0
100
AcDbCircle
 62
7
  6
CONTINUOUS
 10
4.8917769412
 20
4.2225650956
 40
0.06
  0
ARC
  5
37A
100
AcDbEntity
  8
0
100
AcDbCircle
 62
7
  6
CONTINUOUS
 10
2.6178672762
 20
4.4701198968
 40
0.05
100
AcDbArc
 50
90.0
 51
180.0
  0
ARC
  5
37B
100
AcDbEntity
  8
0
100
AcDbCircle
 62
7
  6
CONTINUOUS
 10
2.6928672762
 20
4.6201198968
 40
0.025
100
AcDbArc
 50
89.9999999998
 51
180.0
  0
ARC
  5
37C
100
AcDbEntity
  8
0
100
AcDbCircle
 62
7
  6
CONTINUOUS
 10
6.1303672762
 20
5.4576198968
 40
2.25
100
AcDbArc
 50
15.0
 51
165.0
  0
ARC
  5
37D
100
AcDbEntity
  8
0
100
AcDbCircle
 62
7
  6
CONTINUOUS
 10
6.1303672762
 20
5.4576198968
 40
1.61413125
100
AcDbArc
 50
26.448089669
 51
33.551910331
  0
ARC
  5
37E
100
AcDbEntity
  8
0
100
AcDbCircle
 62
7
  6
CONTINUOUS
 10
6.1303672762
 20
5.4576198968
 40
1.61413125
100
AcDbArc
 50
56.448089669
 51
63.551910331
  0
ARC
  5
37F
100
AcDbEntity
  8
0
100
AcDbCircle
 62
7
  6
CONTINUOUS
 10
6.1303672762
 20
5.4576198968
 40
1.61413125
100
AcDbArc
 50
86.448089669
 51
93.551910331
  0
ARC
  5
380
100
AcDbEntity
  8
0
100
AcDbCircle
 62
7
  6
CONTINUOUS
 10
6.1303672762
 20
5.4576198968
 40
1.61413125
100
AcDbArc
 50
116.448089669
 51
123.551910331
  0
ARC
  5
381
100
AcDbEntity
  8
0
100
AcDbCircle
 62
7
  6
CONTINUOUS
 10
6.1303672762
 20
5.4576198968
 40
1.61413125
100
AcDbArc
 50
146.448089669
 51
153.551910331
  0
ARC
  5
382
100
AcDbEntity
  8
0
100
AcDbCircle
 62
7
  6
CONTINUOUS
 10
6.1303672762
 20
5.4576198968
 40
1.61413125
100
AcDbArc
 50
206.448089669
 51
207.8119799666
  0
ARC
  5
383
100
AcDbEntity
  8
0
100
AcDbCircle
 62
7
  6
CONTINUOUS
 10
6.1303672762
 20
5.4576198968
 40
1.61413125
100
AcDbArc
 50
212.1870090426
 51
213.551910331
  0
ARC
  5
384
100
AcDbEntity
  8
0
100
AcDbCircle
 62
7
  6
CONTINUOUS
 10
6.1303672762
 20
5.4576198968
 40
1.61413125
100
AcDbArc
 50
236.448089669
 51
243.551910331
  0
ARC
  5
385
100
AcDbEntity
  8
0
100
AcDbCircle
 62
7
  6
CONTINUOUS
 10
6.1303672762
 20
5.4576198968
 40
1.61413125
100
AcDbArc
 50
266.448089669
 51
273.551910331
  0
ARC
  5
386
100
AcDbEntity
  8
0
100
AcDbCircle
 62
7
  6
CONTINUOUS
 10
6.1303672762
 20
5.4576198968
 40
1.61413125
100
AcDbArc
 50
296.448089669
 51
303.551910331
  0
ARC
  5
387
100
AcDbEntity
  8
0
100
AcDbCircle
 62
7
  6
CONTINUOUS
 10
6.1303672762
 20
5.4576198968
 40
1.61413125
100
AcDbArc
 50
326.448089669
 51
333.551910331
  0
ARC
  5
388
100
AcDbEntity
  8
0
100
AcDbCircle
 62
7
  6
CONTINUOUS
 10
6.1303672762
 20
5.4576198968
 40
1.61413125
100
AcDbArc
 50
176.448089669
 51
183.551910331
  0
ARC
  5
389
100
AcDbEntity
  8
0
100
AcDbCircle
 62
7
  6
CONTINUOUS
 10
6.1303672762
 20
5.4576198968
 40
1.61413125
100
AcDbArc
 50
356.448089669
 51
3.551910331
  0
ARC
  5
38A
100
AcDbEntity
  8
0
100
AcDbCircle
 62
7
  6
CONTINUOUS
 10
6.1303672762
 20
5.4576198968
 40
1.376875
100
AcDbArc
 50
25.8350416224
 51
34.1649583776
  0
ARC
  5
38B
100
AcDbEntity
  8
0
100
AcDbCircle
 62
7
  6
CONTINUOUS
 10
6.1303672762
 20
5.4576198968
 40
1.376875
100
AcDbArc
 50
55.8350416224
 51
64.1649583776
  0
ARC
  5
38C
100
AcDbEntity
  8
0
100
AcDbCircle
 62
7
  6
CONTINUOUS
 10
6.1303672762
 20
5.4576198968
 40
1.376875
100
AcDbArc
 50
85.8350416224
 51
94.1649583776
  0
ARC
  5
38D
100
AcDbEntity
  8
0
100
AcDbCircle
 62
7
  6
CONTINUOUS
 10
6.1303672762
 20
5.4576198968
 40
1.376875
100
AcDbArc
 50
115.8350416224
 51
124.1649583776
  0
ARC
  5
38E
100
AcDbEntity
  8
0
100
AcDbCircle
 62
7
  6
CONTINUOUS
 10
6.1303672762
 20
5.4576198968
 40
1.376875
100
AcDbArc
 50
145.8350416224
 51
154.1649583776
  0
ARC
  5
38F
100
AcDbEntity
  8
0
100
AcDbCircle
 62
7
  6
CONTINUOUS
 10
6.1303672762
 20
5.4576198968
 40
1.376875
100
AcDbArc
 50
205.8350416224
 51
214.1649583776
  0
ARC
  5
390
100
AcDbEntity
  8
0
100
AcDbCircle
 62
7
  6
CONTINUOUS
 10
6.1303672762
 20
5.4576198968
 40
1.376875
100
AcDbArc
 50
235.8350416224
 51
244.1649583776
  0
ARC
  5
391
100
AcDbEntity
  8
0
100
AcDbCircle
 62
7
  6
CONTINUOUS
 10
6.1303672762
 20
5.4576198968
 40
1.376875
100
AcDbArc
 50
265.8350416224
 51
274.1649583776
  0
ARC
  5
392
100
AcDbEntity
  8
0
100
AcDbCircle
 62
7
  6
CONTINUOUS
 10
6.1303672762
 20
5.4576198968
 40
1.376875
100
AcDbArc
 50
295.8350416224
 51
304.1649583776
  0
ARC
  5
393
100
AcDbEntity
  8
0
100
AcDbCircle
 62
7
  6
CONTINUOUS
 10
6.1303672762
 20
5.4576198968
 40
1.376875
100
AcDbArc
 50
325.8350416224
 51
334.1649583776
  0
ARC
  5
394
100
AcDbEntity
  8
0
100
AcDbCircle
 62
7
  6
CONTINUOUS
 10
6.1303672762
 20
5.4576198968
 40
1.376875
100
AcDbArc
 50
175.8350416224
 51
184.1649583776
  0
ARC
  5
395
100
AcDbEntity
  8
0
100
AcDbCircle
 62
7
  6
CONTINUOUS
 10
6.1303672762
 20
5.4576198968
 40
1.376875
100
AcDbArc
 50
355.8350416224
 51
4.1649583776
  0
CIRCLE
  5
396
100
AcDbEntity
  8
0
100
AcDbCircle
 62
7
  6
CONTINUOUS
 10
6.1303672762
 20
5.4576198968
 40
1.296875
  0
CIRCLE
  5
397
100
AcDbEntity
  8
0
100
AcDbCircle
 62
7
  6
CONTINUOUS
 10
6.1303672762
 20
5.4576198968
 40
1.246875
  0
CIRCLE
  5
398
100
AcDbEntity
  8
0
100
AcDbCircle
 62
7
  6
CONTINUOUS
 10
6.1303672762
 20
5.4576198968
 40
0.8125
  0
CIRCLE
  5
399
100
AcDbEntity
  8
03__ASM_ALL_CURVES
100
AcDbCircle
 62
4
  6
CONTINUOUS
 10
6.1303672762
 20
5.4576198968
 40
0.7874015748
  0
CIRCLE
  5
39A
100
AcDbEntity
  8
02__ASM_ALL_AXES
100
AcDbCircle
 62
8
  6
HIDDEN
 10
6.1303672762
 20
5.4576198968
 40
0.5
  0
ARC
  5
39B
100
AcDbEntity
  8
0
100
AcDbCircle
 62
7
  6
CONTINUOUS
 10
9.6428672762
 20
4.4701198968
 40
0.05
100
AcDbArc
 50
0.0
 51
90.0
  0
ARC
  5
39C
100
AcDbEntity
  8
0
100
AcDbCircle
 62
7
  6
CONTINUOUS
 10
9.5678672762
 20
4.6201198968
 40
0.025
100
AcDbArc
 50
0.0
 51
90.0000000002
  0
ARC
  5
39D
100
AcDbEntity
  8
0
100
AcDbCircle
 62
7
  6
CONTINUOUS
 10
8.2844607815
 20
7.7376395156
 40
0.9366294291
100
AcDbArc
 50
242.4405671217
 51
244.0392430406
  0
ARC
  5
39E
100
AcDbEntity
  8
0
100
AcDbCircle
 62
7
  6
CONTINUOUS
 10
8.410386895
 20
7.6117134021
 40
0.9366294291
100
AcDbArc
 50
205.9607569594
 51
207.5594328783
  0
ARC
  5
39F
100
AcDbEntity
  8
0
100
AcDbCircle
 62
7
  6
CONTINUOUS
 10
8.0438959526
 20
6.9287899923
 40
0.1849942289
100
AcDbArc
 50
244.2768636579
 51
247.1187420051
  0
ARC
  5
3A0
100
AcDbEntity
  8
0
100
AcDbCircle
 62
7
  6
CONTINUOUS
 10
7.8848725974
 20
7.5568154215
 40
0.125
100
AcDbArc
 50
236.5289034521
 51
340.6992498484
  0
ARC
  5
3A1
100
AcDbEntity
  8
0
100
AcDbCircle
 62
7
  6
CONTINUOUS
 10
8.2295628009
 20
7.212125218
 40
0.125
100
AcDbArc
 50
109.3007501518
 51
213.4710965479
  0
ARC
  5
3A2
100
AcDbEntity
  8
0
100
AcDbCircle
 62
7
  6
CONTINUOUS
 10
8.0877888716
 20
7.4857521703
 40
0.09
100
AcDbArc
 50
44.9999999998
 51
160.6992498477
  0
ARC
  5
3A3
100
AcDbEntity
  8
0
100
AcDbCircle
 62
7
  6
CONTINUOUS
 10
8.1584995497
 20
7.4150414922
 40
0.09
100
AcDbArc
 50
289.3007501518
 51
45.0000000002
  0
ARC
  5
3A4
100
AcDbEntity
  8
0
100
AcDbCircle
 62
7
  6
CONTINUOUS
 10
8.7213012674
 20
12.4804386684
 40
1.4732177196
100
AcDbArc
 50
145.3909918774
 51
146.9577604169
  0
ARC
  5
3A5
100
AcDbEntity
  8
0
100
AcDbCircle
 62
7
  6
CONTINUOUS
 10
8.6845535358
 20
13.3793326256
 40
1.4289868108
100
AcDbArc
 50
213.0179901928
 51
214.6332575129
  0
ARC
  5
3A6
100
AcDbEntity
  8
0
100
AcDbCircle
 62
7
  6
CONTINUOUS
 10
8.6941817563
 20
11.3742676004
 40
1.3402659461
100
AcDbArc
 50
185.8849429181
 51
187.1624234778
  0
ARC
  5
3A7
100
AcDbEntity
  8
0
100
AcDbCircle
 62
7
  6
CONTINUOUS
 10
8.6909329092
 20
11.3656388296
 40
1.3369800149
100
AcDbArc
 50
171.7624630345
 51
172.8530127862
  0
ARC
  5
3A8
100
AcDbEntity
  8
0
100
AcDbCircle
 62
7
  6
CONTINUOUS
 10
8.6796389952
 20
11.3669003036
 40
1.3256181323
100
AcDbArc
 50
174.149088283
 51
174.8761977808
  0
ARC
  5
3A9
100
AcDbEntity
  8
0
100
AcDbCircle
 62
7
  6
CONTINUOUS
 10
8.6789729105
 20
11.3669223238
 40
1.3249532737
100
AcDbArc
 50
172.8437377124
 51
174.1470992789
  0
ARC
  5
3AA
100
AcDbEntity
  8
0
100
AcDbCircle
 62
7
  6
CONTINUOUS
 10
8.6745600351
 20
11.3720539096
 40
1.3205206769
100
AcDbArc
 50
185.1249054682
 51
185.8766909408
  0
ARC
  5
3AB
100
AcDbEntity
  8
0
100
AcDbCircle
 62
7
  6
CONTINUOUS
 10
8.671638938
 20
11.3710497865
 40
1.3174978163
100
AcDbArc
 50
187.1458105744
 51
188.241249615
  0
ARC
  5
3AC
100
AcDbEntity
  8
0
100
AcDbCircle
 62
7
  6
CONTINUOUS
 10
8.6428444064
 20
11.369695452
 40
1.2887199124
100
AcDbArc
 50
174.8538758393
 51
185.1464256275
  0
ARC
  5
3AD
100
AcDbEntity
  8
0
100
AcDbCircle
 62
7
  6
CONTINUOUS
 10
7.3105460488
 20
12.8089381701
 40
0.8484927414
100
AcDbArc
 50
17.7883926798
 51
22.2115929071
  0
ARC
  5
3AE
100
AcDbEntity
  8
0
100
AcDbCircle
 62
7
  6
CONTINUOUS
 10
7.314046013
 20
13.0741798769
 40
0.8447695699
100
AcDbArc
 50
337.7788867373
 51
342.2368371098
  0
ARC
  5
3AF
100
AcDbEntity
  8
0
100
AcDbCircle
 62
7
  6
CONTINUOUS
 10
9.0833720839
 20
12.9421977814
 40
0.45
100
AcDbArc
 50
270.0
 51
90.0
  0
ARC
  5
3B0
100
AcDbEntity
  8
0
100
AcDbCircle
 62
7
  6
CONTINUOUS
 10
3.6458720839
 20
12.9421977814
 40
0.45
100
AcDbArc
 50
270.0
 51
90.0
  0
ARC
  5
3B1
100
AcDbEntity
  8
0
100
AcDbCircle
 62
7
  6
CONTINUOUS
 10
3.0583720839
 20
12.9421977814
 40
0.45
100
AcDbArc
 50
90.0
 51
270.0
  0
ARC
  5
3B2
100
AcDbEntity
  8
0
100
AcDbCircle
 62
7
  6
CONTINUOUS
 10
8.4958720839
 20
12.9421977814
 40
0.45
100
AcDbArc
 50
90.0
 51
154.0475169319
  0
ARC
  5
3B3
100
AcDbEntity
  8
0
100
AcDbCircle
 62
7
  6
CONTINUOUS
 10
8.4958720839
 20
12.9421977814
 40
0.45
100
AcDbArc
 50
205.9556717497
 51
270.0
  0
ARC
  5
3B4
100
AcDbEntity
  8
0
100
AcDbCircle
 62
7
  6
CONTINUOUS
 10
9.0083720839
 20
12.9421977814
 40
0.25
100
AcDbArc
 50
270.0
 51
90.0
  0
ARC
  5
3B5
100
AcDbEntity
  8
0
100
AcDbCircle
 62
7
  6
CONTINUOUS
 10
8.6333720839
 20
12.9421977814
 40
0.25
100
AcDbArc
 50
90.0
 51
270.0
  0
ARC
  5
3B6
100
AcDbEntity
  8
0
100
AcDbCircle
 62
7
  6
CONTINUOUS
 10
3.5083720839
 20
12.9421977814
 40
0.25
100
AcDbArc
 50
270.0
 51
90.0
  0
ARC
  5
3B7
100
AcDbEntity
  8
0
100
AcDbCircle
 62
7
  6
CONTINUOUS
 10
3.1333720839
 20
12.9421977814
 40
0.25
100
AcDbArc
 50
90.0
 51
270.0
  0
CIRCLE
  5
3B8
100
AcDbEntity
  8
0
100
AcDbCircle
 62
7
  6
CONTINUOUS
 10
6.0708720839
 20
11.3696977814
 40
0.1875
  0
CIRCLE
  5
3B9
100
AcDbEntity
  8
0
100
AcDbCircle
 62
7
  6
CONTINUOUS
 10
6.0708720839
 20
11.3696977814
 40
0.14861443
  0
ARC
  5
3BA
100
AcDbEntity
  8
0
100
AcDbCircle
 62
7
  6
CONTINUOUS
 10
8.0668575486
 20
12.9599843584
 40
0.122972685
100
AcDbArc
 50
124.5677012605
 51
127.8276002955
  0
ARC
  5
3BB
100
AcDbEntity
  8
0
100
AcDbCircle
 62
7
  6
CONTINUOUS
 10
8.0667914216
 20
12.9243264211
 40
0.1228651633
100
AcDbArc
 50
232.1725090794
 51
235.5987179382
  0
ARC
  5
3BC
100
AcDbEntity
  8
0
100
AcDbCircle
 62
7
  6
CONTINUOUS
 10
16.3642643699
 20
8.048553888
 40
1.4732177196
100
AcDbArc
 50
235.3909918774
 51
236.957760417
  0
ARC
  5
3BD
100
AcDbEntity
  8
0
100
AcDbCircle
 62
7
  6
CONTINUOUS
 10
15.4653704127
 20
8.0118061564
 40
1.4289868108
100
AcDbArc
 50
303.0179901928
 51
304.6332575129
  0
ARC
  5
3BE
100
AcDbEntity
  8
0
100
AcDbCircle
 62
7
  6
CONTINUOUS
 10
14.3254862714
 20
8.0213562012
 40
1.3401825495
100
AcDbArc
 50
275.8750831671
 51
277.1571822444
  0
ARC
  5
3BF
100
AcDbEntity
  8
0
100
AcDbCircle
 62
7
  6
CONTINUOUS
 10
14.3333945184
 20
8.0114404672
 40
1.3302035146
100
AcDbArc
 50
262.8454882838
 51
264.1411175278
  0
ARC
  5
3C0
100
AcDbEntity
  8
0
100
AcDbCircle
 62
7
  6
CONTINUOUS
 10
14.3327187993
 20
8.0084338212
 40
1.3271361539
100
AcDbArc
 50
261.7596278662
 51
262.8582670658
  0
ARC
  5
3C1
100
AcDbEntity
  8
0
100
AcDbCircle
 62
7
  6
CONTINUOUS
 10
14.327629268
 20
8.0062326932
 40
1.3249098443
100
AcDbArc
 50
277.1467154837
 51
278.2395682617
  0
ARC
  5
3C2
100
AcDbEntity
  8
0
100
AcDbCircle
 62
7
  6
CONTINUOUS
 10
14.3271945496
 20
8.0060369767
 40
1.3247689376
100
AcDbArc
 50
275.1282492995
 51
275.8694075045
  0
ARC
  5
3C3
100
AcDbEntity
  8
0
100
AcDbCircle
 62
7
  6
CONTINUOUS
 10
14.3327714653
 20
8.0057151044
 40
1.3244444592
100
AcDbArc
 50
264.1426472539
 51
264.8729331738
  0
ARC
  5
3C4
100
AcDbEntity
  8
0
100
AcDbCircle
 62
7
  6
CONTINUOUS
 10
14.330004817
 20
7.969931554
 40
1.2885569151
100
AcDbArc
 50
264.8532701939
 51
275.1472927387
  0
ARC
  5
3C5
100
AcDbEntity
  8
0
100
AcDbCircle
 62
7
  6
CONTINUOUS
 10
16.0357648683
 20
6.6377986694
 40
0.8484927414
100
AcDbArc
 50
107.7883926798
 51
112.2115929071
  0
ARC
  5
3C6
100
AcDbEntity
  8
0
100
AcDbCircle
 62
7
  6
CONTINUOUS
 10
15.7705231614
 20
6.6412986336
 40
0.8447695699
100
AcDbArc
 50
67.7788867373
 51
72.2368371098
  0
CIRCLE
  5
3C7
100
AcDbEntity
  8
0
100
AcDbCircle
 62
7
  6
CONTINUOUS
 10
14.3300052569
 20
5.3981247044
 40
0.1875
  0
CIRCLE
  5
3C8
100
AcDbEntity
  8
0
100
AcDbCircle
 62
7
  6
CONTINUOUS
 10
14.3300052569
 20
5.3981247044
 40
0.14861443
  0
ARC
  5
3C9
100
AcDbEntity
  8
0
100
AcDbCircle
 62
7
  6
CONTINUOUS
 10
15.8847186799
 20
7.3941101692
 40
0.122972685
100
AcDbArc
 50
214.5677012605
 51
217.8276002954
  0
ARC
  5
3CA
100
AcDbEntity
  8
0
100
AcDbCircle
 62
7
  6
CONTINUOUS
 10
15.9203766172
 20
7.3940440422
 40
0.1228651633
100
AcDbArc
 50
322.1725090793
 51
325.5987179383
  0
ARC
  5
3CB
100
AcDbEntity
  8
0
100
AcDbCircle
 62
7
  6
CONTINUOUS
 10
17.0712552569
 20
7.5981247044
 40
0.05
100
AcDbArc
 50
0.0
 51
90.0
  0
ARC
  5
3CC
100
AcDbEntity
  8
0
100
AcDbCircle
 62
7
  6
CONTINUOUS
 10
14.7337552569
 20
7.5981247044
 40
0.05
100
AcDbArc
 50
90.0
 51
180.0000000005
  0
ARC
  5
3CD
100
AcDbEntity
  8
0
100
AcDbCircle
 62
7
  6
CONTINUOUS
 10
17.0712552569
 20
4.4106247044
 40
0.05
100
AcDbArc
 50
0.0
 51
90.0
  0
ARC
  5
3CE
100
AcDbEntity
  8
0
100
AcDbCircle
 62
7
  6
CONTINUOUS
 10
14.7337552569
 20
4.4106247044
 40
0.05
100
AcDbArc
 50
90.0
 51
180.0
  0
ARC
  5
3CF
100
AcDbEntity
  8
0
100
AcDbCircle
 62
7
  6
CONTINUOUS
 10
16.3275052569
 20
4.5606247044
 40
0.025
100
AcDbArc
 50
0.0
 51
90.0000000002
  0
ARC
  5
3D0
100
AcDbEntity
  8
0
100
AcDbCircle
 62
7
  6
CONTINUOUS
 10
15.4775052569
 20
4.5606247044
 40
0.025
100
AcDbArc
 50
90.0
 51
180.0
  0
ARC
  5
3D1
100
AcDbEntity
  8
0
100
AcDbCircle
 62
7
  6
CONTINUOUS
 10
11.9462398027
 20
19.0006110594
 40
7.2204699291
100
AcDbArc
 50
306.7176610964
 51
307.6107003187
  0
ARC
  5
3D2
100
AcDbEntity
  8
0
100
AcDbCircle
 62
7
  6
CONTINUOUS
 10
14.2551663997
 20
9.9626737788
 40
3.6049554562
100
AcDbArc
 50
60.1532600442
 51
66.0785212221
  0
ARC
  5
3D3
100
AcDbEntity
  8
0
100
AcDbCircle
 62
7
  6
CONTINUOUS
 10
14.1446708448
 20
9.72268437
 40
2.8130687098
100
AcDbArc
 50
69.8504374136
 51
73.9237130392
  0
ARC
  5
3D4
100
AcDbEntity
  8
0
100
AcDbCircle
 62
7
  6
CONTINUOUS
 10
14.2258681759
 20
9.9856530079
 40
2.4020090415
100
AcDbArc
 50
69.5017175534
 51
74.2724328993
  0
ARC
  5
3D5
100
AcDbEntity
  8
0
100
AcDbCircle
 62
7
  6
CONTINUOUS
 10
14.2463200601
 20
10.051633348
 40
2.3985242067
100
AcDbArc
 50
69.4983068182
 51
74.1975614785
  0
ARC
  5
3D6
100
AcDbEntity
  8
0
100
AcDbCircle
 62
7
  6
CONTINUOUS
 10
14.2109075709
 20
10.3067574479
 40
2.2239814756
100
AcDbArc
 50
87.6264188407
 51
92.3735811593
  0
ARC
  5
3D7
100
AcDbEntity
  8
0
100
AcDbCircle
 62
7
  6
CONTINUOUS
 10
15.0216173188
 20
14.772188491
 40
1.9911065384
100
AcDbArc
 50
301.9194565781
 51
302.5813938103
  0
ARC
  5
3D8
100
AcDbEntity
  8
0
100
AcDbCircle
 62
7
  6
CONTINUOUS
 10
14.3022655565
 20
10.5884324847
 40
1.8575087737
100
AcDbArc
 50
88.7142087305
 51
92.8254299066
  0
ARC
  5
3D9
100
AcDbEntity
  8
0
100
AcDbCircle
 62
7
  6
CONTINUOUS
 10
14.5909431237
 20
10.6461716247
 40
1.7089250148
100
AcDbArc
 50
50.4062991096
 51
54.6088566664
  0
ARC
  5
3DA
100
AcDbEntity
  8
0
100
AcDbCircle
 62
7
  6
CONTINUOUS
 10
14.3903394007
 20
10.0926880925
 40
1.667357645
100
AcDbArc
 50
52.2871737416
 51
54.253703083
  0
ARC
  5
3DB
100
AcDbEntity
  8
0
100
AcDbCircle
 62
7
  6
CONTINUOUS
 10
16.5193995137
 20
14.6548920734
 40
1.6344912252
100
AcDbArc
 50
253.2844619645
 51
254.20030851
  0
ARC
  5
3DC
100
AcDbEntity
  8
0
100
AcDbCircle
 62
7
  6
CONTINUOUS
 10
14.4280737405
 20
10.1421366785
 40
1.6051573273
100
AcDbArc
 50
51.9153058876
 51
52.27301097
  0
ARC
  5
3DD
100
AcDbEntity
  8
0
100
AcDbCircle
 62
7
  6
CONTINUOUS
 10
16.4209057069
 20
14.147810247
 40
1.1346414438
100
AcDbArc
 50
230.4855047148
 51
231.6511112296
  0
ARC
  5
3DE
100
AcDbEntity
  8
0
100
AcDbCircle
 62
7
  6
CONTINUOUS
 10
14.3666810991
 20
11.5352620191
 40
1.1253288518
100
AcDbArc
 50
220.276355345
 51
222.4266145498
  0
ARC
  5
3DF
100
AcDbEntity
  8
0
100
AcDbCircle
 62
7
  6
CONTINUOUS
 10
14.9867704164
 20
11.3332856899
 40
1.1137347656
100
AcDbArc
 50
283.2178565057
 51
285.3888407935
  0
ARC
  5
3E0
100
AcDbEntity
  8
0
100
AcDbCircle
 62
7
  6
CONTINUOUS
 10
15.4141480182
 20
11.7140778582
 40
1.1017181995
100
AcDbArc
 50
291.8796127126
 51
295.7662476781
  0
ARC
  5
3E1
100
AcDbEntity
  8
0
100
AcDbCircle
 62
7
  6
CONTINUOUS
 10
14.1146014904
 20
12.0220970892
 40
0.9799830474
100
AcDbArc
 50
206.1915182202
 51
210.2841078441
  0
ARC
  5
3E2
100
AcDbEntity
  8
0
100
AcDbCircle
 62
7
  6
CONTINUOUS
 10
16.5411347061
 20
13.6948228804
 40
0.9421409135
100
AcDbArc
 50
204.6596724136
 51
206.6336778546
  0
ARC
  5
3E3
100
AcDbEntity
  8
0
100
AcDbCircle
 62
7
  6
CONTINUOUS
 10
14.0666000739
 20
11.3786665391
 40
0.7946254165
100
AcDbArc
 50
206.1845357347
 51
209.7544229992
  0
ARC
  5
3E4
100
AcDbEntity
  8
0
100
AcDbCircle
 62
7
  6
CONTINUOUS
 10
14.0081625512
 20
11.2936745189
 40
0.6914980578
100
AcDbArc
 50
202.0118683907
 51
206.1550558628
  0
ARC
  5
3E5
100
AcDbEntity
  8
0
100
AcDbCircle
 62
7
  6
CONTINUOUS
 10
15.7482244746
 20
11.2739273518
 40
0.5400886761
100
AcDbArc
 50
333.8047152083
 51
335.7911202014
  0
ARC
  5
3E6
100
AcDbEntity
  8
0
100
AcDbCircle
 62
7
  6
CONTINUOUS
 10
15.7532668684
 20
11.2716540286
 40
0.5345575189
100
AcDbArc
 50
335.7917304264
 51
339.0638315585
  0
ARC
  5
3E7
100
AcDbEntity
  8
0
100
AcDbCircle
 62
7
  6
CONTINUOUS
 10
13.6693817846
 20
11.8464680591
 40
0.5330174133
100
AcDbArc
 50
153.7821354542
 51
162.8134459489
  0
ARC
  5
3E8
100
AcDbEntity
  8
0
100
AcDbCircle
 62
7
  6
CONTINUOUS
 10
15.7352969386
 20
11.2083281824
 40
0.5330174133
100
AcDbArc
 50
333.7821354542
 51
342.8134459489
  0
ARC
  5
3E9
100
AcDbEntity
  8
0
100
AcDbCircle
 62
7
  6
CONTINUOUS
 10
12.5810185404
 20
11.8340075908
 40
0.4853857892
100
AcDbArc
 50
90.0007484853
 51
90.9732334565
  0
ARC
  5
3EA
100
AcDbEntity
  8
0
100
AcDbCircle
 62
7
  6
CONTINUOUS
 10
15.5826799553
 20
11.2555173197
 40
0.4555070444
100
AcDbArc
 50
332.7221423412
 51
342.8077971203
  0
ARC
  5
3EB
100
AcDbEntity
  8
0
100
AcDbCircle
 62
7
  6
CONTINUOUS
 10
13.8219987679
 20
11.7992789217
 40
0.4555070444
100
AcDbArc
 50
152.7221423412
 51
162.8077971203
  0
ARC
  5
3EC
100
AcDbEntity
  8
0
100
AcDbCircle
 62
7
  6
CONTINUOUS
 10
13.8376493157
 20
11.8632588804
 40
0.4515699611
100
AcDbArc
 50
161.0146179866
 51
162.8277304489
  0
ARC
  5
3ED
100
AcDbEntity
  8
0
100
AcDbCircle
 62
7
  6
CONTINUOUS
 10
12.4066464292
 20
11.8624309305
 40
0.3599450672
100
AcDbArc
 50
160.4932610247
 51
160.962334714
  0
ARC
  5
3EE
100
AcDbEntity
  8
0
100
AcDbCircle
 62
7
  6
CONTINUOUS
 10
14.3112183213
 20
12.0729825022
 40
0.0993228118
100
AcDbArc
 50
29.9179156024
 51
40.9738495336
  0
ARC
  5
3EF
100
AcDbEntity
  8
0
100
AcDbCircle
 62
7
  6
CONTINUOUS
 10
14.1527568681
 20
11.9951819376
 40
0.099160029
100
AcDbArc
 50
195.8135295705
 51
199.3585523161
  0
ARC
  5
3F0
100
AcDbEntity
  8
0
100
AcDbCircle
 62
7
  6
CONTINUOUS
 10
15.808542324
 20
11.0897621473
 40
0.0273245315
100
AcDbArc
 50
244.087070369
 51
246.0244766259
  0
SPLINE
  5
3F1
100
AcDbEntity
  8
0
100
AcDbSpline
 62
7
  6
CONTINUOUS
 70
0
 71
3
 72
12
 73
8
 74
0
 42
0.0000001
 43
0.0000001
 44
0.0000000001
 40
0.0
 40
0.0
 40
0.0
 40
0.0
 40
0.2615783559
 40
0.5143855655
 40
0.6378200463
 40
0.7596268691
 40
1.0
 40
1.0
 40
1.0
 40
1.0
 10
8.2084322457
 20
6.9233303938
 30
0.0
 10
8.2058463359
 20
6.9329811406
 30
0.0
 10
8.2000284605
 20
6.9517773275
 30
0.0
 10
8.1904073434
 20
6.9742277796
 30
0.0
 10
8.1811850275
 20
6.9908851973
 30
0.0
 10
8.1710172982
 20
7.0064118316
 30
0.0
 10
8.1620629441
 20
7.0170654787
 30
0.0
 10
8.1555708283
 20
7.0235575945
 30
0.0
  0
SPLINE
  5
3F2
100
AcDbEntity
  8
0
100
AcDbSpline
 62
7
  6
CONTINUOUS
 70
0
 71
3
 72
9
 73
5
 74
0
 42
0.0000001
 43
0.0000001
 44
0.0000000001
 40
0.0
 40
0.0
 40
0.0
 40
0.0
 40
0.4961948867
 40
1.0
 40
1.0
 40
1.0
 40
1.0
 10
7.6963049739
 20
7.4828234489
 30
0.0
 10
7.6906353695
 20
7.4884930533
 30
0.0
 10
7.6783322948
 20
7.4990715061
 30
0.0
 10
7.6646717158
 20
7.5078008484
 30
0.0
 10
7.6575553518
 20
7.5117547493
 30
0.0
  0
SPLINE
  5
3F3
100
AcDbEntity
  8
0
100
AcDbSpline
 62
7
  6
CONTINUOUS
 70
0
 71
3
 72
10
 73
6
 74
0
 42
0.0000001
 43
0.0000001
 44
0.0000000001
 40
0.0
 40
0.0
 40
0.0
 40
0.0
 40
0.2429848498
 40
0.6160567497
 40
1.0
 40
1.0
 40
1.0
 40
1.0
 10
7.6575553518
 20
7.5117547493
 30
0.0
 10
7.6528741906
 20
7.5143556347
 30
0.0
 10
7.6407390592
 20
7.5204774439
 30
0.0
 10
7.6202338156
 20
7.5286480803
 30
0.0
 10
7.6042512174
 20
7.5334947985
 30
0.0
 10
7.5960777732
 20
7.5356848663
 30
0.0
  0
SPLINE
  5
3F4
100
AcDbEntity
  8
0
100
AcDbSpline
 62
7
  6
CONTINUOUS
 70
0
 71
3
 72
11
 73
7
 74
0
 42
0.0000001
 43
0.0000001
 44
0.0000000001
 40
0.0
 40
0.0
 40
0.0
 40
0.0
 40
0.2404095087
 40
0.485518681
 40
0.738366392
 40
1.0
 40
1.0
 40
1.0
 40
1.0
 10
7.6963049739
 20
7.4828234489
 30
0.0
 10
7.7027969723
 20
7.4763314505
 30
0.0
 10
7.7147943211
 20
7.4620592724
 30
0.0
 10
7.7293108964
 20
7.4377718445
 30
0.0
 10
7.7407636905
 20
7.4110459758
 30
0.0
 10
7.7465803735
 20
7.3922473982
 30
0.0
 10
7.7491663913
 20
7.3825962482
 30
0.0
  0
SPLINE
  5
3F5
100
AcDbEntity
  8
0
100
AcDbSpline
 62
7
  6
CONTINUOUS
 70
0
 71
3
 72
11
 73
7
 74
0
 42
0.0000001
 43
0.0000001
 44
0.0000000001
 40
0.0
 40
0.0
 40
0.0
 40
0.0
 40
0.2616298025
 40
0.5144812204
 40
0.7595919102
 40
1.0
 40
1.0
 40
1.0
 40
1.0
 10
8.0553436276
 20
7.0764190119
 30
0.0
 10
8.0649946448
 20
7.0738330297
 30
0.0
 10
8.0837926564
 20
7.0680144314
 30
0.0
 10
8.1105189541
 20
7.0565630941
 30
0.0
 10
8.1348084472
 20
7.0420491093
 30
0.0
 10
8.1490788632
 20
7.0300495596
 30
0.0
 10
8.1555708283
 20
7.0235575945
 30
0.0
  0
SPLINE
  5
3F6
100
AcDbEntity
  8
0
100
AcDbSpline
 62
7
  6
CONTINUOUS
 70
0
 71
3
 72
9
 73
5
 74
0
 42
0.0000001
 43
0.0000001
 44
0.0000000001
 40
0.0
 40
0.0
 40
0.0
 40
0.0
 40
0.4895725283
 40
1.0
 40
1.0
 40
1.0
 40
1.0
 10
7.9719660155
 20
6.7583524705
 30
0.0
 10
7.9806674924
 20
6.7546740956
 30
0.0
 10
7.9989915853
 20
6.7484381115
 30
0.0
 10
8.0178474287
 20
6.7442125166
 30
0.0
 10
8.0275347701
 20
6.7424329182
 30
0.0
  0
SPLINE
  5
3F7
100
AcDbEntity
  8
0
100
AcDbSpline
 62
7
  6
CONTINUOUS
 70
0
 71
3
 72
9
 73
5
 74
0
 42
0.0000001
 43
0.0000001
 44
0.0000000001
 40
0.0
 40
0.0
 40
0.0
 40
0.0
 40
0.2528528509
 40
1.0
 40
1.0
 40
1.0
 40
1.0
 10
7.874446152
 20
6.8955215363
 30
0.0
 10
7.8747957446
 20
6.8936185099
 30
0.0
 10
7.8762365378
 20
6.8861032295
 30
0.0
 10
7.8779225054
 20
6.8786339066
 30
0.0
 10
7.8793457511
 20
6.8730965989
 30
0.0
  0
SPLINE
  5
3F8
100
AcDbEntity
  8
0
100
AcDbSpline
 62
7
  6
CONTINUOUS
 70
0
 71
3
 72
9
 73
5
 74
0
 42
0.0000001
 43
0.0000001
 44
0.0000000001
 40
0.0
 40
0.0
 40
0.0
 40
0.0
 40
0.2471454918
 40
1.0
 40
1.0
 40
1.0
 40
1.0
 10
7.5458439783
 20
7.2065983717
 30
0.0
 10
7.5476756548
 20
7.2061275787
 30
0.0
 10
7.5551056383
 20
7.2042954806
 30
0.0
 10
7.5626027199
 20
7.2027396725
 30
0.0
 10
7.5682689157
 20
7.2016987725
 30
0.0
  0
SPLINE
  5
3F9
100
AcDbEntity
  8
0
100
AcDbSpline
 62
7
  6
CONTINUOUS
 70
0
 71
3
 72
12
 73
8
 74
0
 42
0.0000001
 43
0.0000001
 44
0.0000000001
 40
0.0
 40
0.0
 40
0.0
 40
0.0
 40
0.2499804298
 40
0.3750093269
 40
0.5000231055
 40
0.7500190702
 40
1.0
 40
1.0
 40
1.0
 40
1.0
 10
7.9259379011
 20
7.2531905217
 30
0.0
 10
7.9388875501
 20
7.2402408727
 30
0.0
 10
7.9574927214
 20
7.2199694045
 30
0.0
 10
7.9805793342
 20
7.1915204748
 30
0.0
 10
8.0025506173
 20
7.1621971362
 30
0.0
 10
8.0280128142
 20
7.1240993819
 30
0.0
 10
8.046493576
 20
7.0924522507
 30
0.0
 10
8.0553436276
 20
7.0764190119
 30
0.0
  0
SPLINE
  5
3FA
100
AcDbEntity
  8
0
100
AcDbSpline
 62
7
  6
CONTINUOUS
 70
0
 71
3
 72
11
 73
7
 74
0
 42
0.0000001
 43
0.0000001
 44
0.0000000001
 40
0.0
 40
0.0
 40
0.0
 40
0.0
 40
0.2499932964
 40
0.5000007577
 40
0.7500086647
 40
1.0
 40
1.0
 40
1.0
 40
1.0
 10
7.7491663913
 20
7.3825962482
 30
0.0
 10
7.7651996803
 20
7.3737461689
 30
0.0
 10
7.7968482157
 20
7.3552662588
 30
0.0
 10
7.8425628381
 20
7.32471569
 30
0.0
 10
7.8859657897
 20
7.2909427277
 30
0.0
 10
7.9129882873
 20
7.2661401355
 30
0.0
 10
7.9259379011
 20
7.2531905217
 30
0.0
  0
SPLINE
  5
3FB
100
AcDbEntity
  8
0
100
AcDbSpline
 62
7
  6
CONTINUOUS
 70
0
 71
3
 72
9
 73
5
 74
0
 42
0.0000001
 43
0.0000001
 44
0.0000000001
 40
0.0
 40
0.0
 40
0.0
 40
0.0
 40
0.5122756437
 40
1.0
 40
1.0
 40
1.0
 40
1.0
 10
7.4151802976
 20
7.3547873907
 30
0.0
 10
7.4172487653
 20
7.3435275734
 30
0.0
 10
7.4222780396
 20
7.3217086816
 30
0.0
 10
7.4301431132
 20
7.3006753357
 30
0.0
 10
7.4348757317
 20
7.2908568399
 30
0.0
  0
SPLINE
  5
3FC
100
AcDbEntity
  8
0
100
AcDbSpline
 62
7
  6
CONTINUOUS
 70
0
 71
3
 72
25
 73
21
 74
0
 42
0.0000001
 43
0.0000001
 44
0.0000000001
 40
0.0
 40
0.0
 40
0.0
 40
0.0
 40
0.0635379909
 40
0.1270651598
 40
0.1903142181
 40
0.2532150228
 40
0.3158349256
 40
0.3782297388
 40
0.4404710658
 40
0.4715796766
 40
0.5026710292
 40
0.5648035079
 40
0.626948418
 40
0.6891055231
 40
0.7202158838
 40
0.751327507
 40
0.813505463
 40
0.8756830985
 40
0.9378257148
 40
1.0
 40
1.0
 40
1.0
 40
1.0
 10
8.1890043574
 20
12.9421977814
 30
0.0
 10
8.1890043574
 20
12.9362841963
 30
0.0
 10
8.1883462136
 20
12.9244478582
 30
0.0
 10
8.1854115534
 20
12.906944159
 30
0.0
 10
8.1805273762
 20
12.8899384581
 30
0.0
 10
8.1737197344
 20
12.8736967151
 30
0.0
 10
8.1650254867
 20
12.8584690705
 30
0.0
 10
8.1545155834
 20
12.8445069585
 30
0.0
 10
8.1443082417
 20
12.8341466293
 30
0.0
 10
8.1353648021
 20
12.8267746341
 30
0.0
 10
8.1259391292
 20
12.8200477325
 30
0.0
 10
8.1132889173
 20
12.8129297208
 30
0.0
 10
8.09703439
 20
12.806687038
 30
0.0
 10
8.0828519758
 20
12.8035547564
 30
0.0
 10
8.0713294202
 20
12.8023487506
 30
0.0
 10
8.0597467292
 20
12.8020071625
 30
0.0
 10
8.0452694637
 20
12.8032374561
 30
0.0
 10
8.0283255654
 20
12.8072894083
 30
0.0
 10
8.0121740165
 20
12.8138107162
 30
0.0
 10
8.0021490813
 20
12.8196810513
 30
0.0
 10
7.99737439
 20
12.8229502697
 30
0.0
  0
SPLINE
  5
3FD
100
AcDbEntity
  8
0
100
AcDbSpline
 62
7
  6
CONTINUOUS
 70
0
 71
3
 72
25
 73
21
 74
0
 42
0.0000001
 43
0.0000001
 44
0.0000000001
 40
0.0
 40
0.0
 40
0.0
 40
0.0
 40
0.0621413018
 40
0.1242571602
 40
0.1864035874
 40
0.2485602664
 40
0.2796665606
 40
0.3107722836
 40
0.3418739654
 40
0.3729741334
 40
0.4351345571
 40
0.4972815868
 40
0.5594722315
 40
0.621733296
 40
0.6841503052
 40
0.7467871857
 40
0.8096973068
 40
0.8729457108
 40
0.9364661254
 40
1.0
 40
1.0
 40
1.0
 40
1.0
 10
7.9970853512
 20
13.0612469958
 30
0.0
 10
8.0018539962
 20
13.0645324588
 30
0.0
 10
8.0118697146
 20
13.0704367196
 30
0.0
 10
8.0280162011
 20
13.0770056166
 30
0.0
 10
8.0449619069
 20
13.0811132708
 30
0.0
 10
8.0594497164
 20
13.0823757297
 30
0.0
 10
8.0710444013
 20
13.082066173
 30
0.0
 10
8.0797037
 20
13.0811823084
 30
0.0
 10
8.0882709427
 20
13.0796461761
 30
0.0
 10
8.0994998861
 20
13.0767434187
 30
0.0
 10
8.1130872221
 20
13.0715668999
 30
0.0
 10
8.1282964804
 20
13.0630345931
 30
0.0
 10
8.1421480089
 20
13.0524275888
 30
0.0
 10
8.1544213004
 20
13.0399985105
 30
0.0
 10
8.1649627208
 20
13.0260238835
 30
0.0
 10
8.1736813907
 20
13.0107797002
 30
0.0
 10
8.1805066452
 20
12.9945184654
 30
0.0
 10
8.1854032641
 20
12.977492905
 30
0.0
 10
8.1883449462
 20
12.9599686916
 30
0.0
 10
8.1890043574
 20
12.9481184294
 30
0.0
 10
8.1890043574
 20
12.9421977814
 30
0.0
  0
SPLINE
  5
3FE
100
AcDbEntity
  8
0
100
AcDbSpline
 62
7
  6
CONTINUOUS
 70
0
 71
3
 72
11
 73
7
 74
0
 42
0.0000001
 43
0.0000001
 44
0.0000000001
 40
0.0
 40
0.0
 40
0.0
 40
0.0
 40
0.254577763
 40
0.5068905799
 40
0.7557993574
 40
1.0
 40
1.0
 40
1.0
 40
1.0
 10
7.9958484353
 20
13.3171867812
 30
0.0
 10
8.0056292652
 20
13.3019979909
 30
0.0
 10
8.0246499339
 20
13.2714587014
 30
0.0
 10
8.051251499
 20
13.2248685652
 30
0.0
 10
8.0753188577
 20
13.1777396674
 30
0.0
 10
8.0895258301
 20
13.1457359636
 30
0.0
 10
8.096075636
 20
13.1296922813
 30
0.0
  0
SPLINE
  5
3FF
100
AcDbEntity
  8
0
100
AcDbSpline
 62
7
  6
CONTINUOUS
 70
0
 71
3
 72
11
 73
7
 74
0
 42
0.0000001
 43
0.0000001
 44
0.0000000001
 40
0.0
 40
0.0
 40
0.0
 40
0.0
 40
0.254584049
 40
0.5069008832
 40
0.7558047272
 40
1.0
 40
1.0
 40
1.0
 40
1.0
 10
7.9958484353
 20
12.5672087815
 30
0.0
 10
8.0056295051
 20
12.5823979444
 30
0.0
 10
8.0246512035
 20
12.6129374662
 30
0.0
 10
8.0512513217
 20
12.6595288603
 30
0.0
 10
8.0753190936
 20
12.7066569998
 30
0.0
 10
8.0895259752
 20
12.7386599545
 30
0.0
 10
8.096075636
 20
12.7547032814
 30
0.0
  0
SPLINE
  5
400
100
AcDbEntity
  8
0
100
AcDbSpline
 62
7
  6
CONTINUOUS
 70
0
 71
3
 72
9
 73
5
 74
0
 42
0.0000001
 43
0.0000001
 44
0.0000000001
 40
0.0
 40
0.0
 40
0.0
 40
0.0
 40
0.4915350665
 40
1.0
 40
1.0
 40
1.0
 40
1.0
 10
7.3556851053
 20
12.9421977814
 30
0.0
 10
7.357834512
 20
12.9252352857
 30
0.0
 10
7.3631831604
 20
12.8908402302
 30
0.0
 10
7.3708409431
 20
12.8568718329
 30
0.0
 10
7.3753805393
 20
12.8397772853
 30
0.0
  0
SPLINE
  5
401
100
AcDbEntity
  8
0
100
AcDbSpline
 62
7
  6
CONTINUOUS
 70
0
 71
3
 72
9
 73
5
 74
0
 42
0.0000001
 43
0.0000001
 44
0.0000000001
 40
0.0
 40
0.0
 40
0.0
 40
0.0
 40
0.508465134
 40
1.0
 40
1.0
 40
1.0
 40
1.0
 10
7.3753805393
 20
13.0446182775
 30
0.0
 10
7.3708409413
 20
13.0275237231
 30
0.0
 10
7.3631831631
 20
12.9935553249
 30
0.0
 10
7.3578345111
 20
12.9591602701
 30
0.0
 10
7.3556851053
 20
12.9421977814
 30
0.0
  0
SPLINE
  5
402
100
AcDbEntity
  8
0
100
AcDbSpline
 62
7
  6
CONTINUOUS
 70
0
 71
3
 72
14
 73
10
 74
0
 42
0.0000001
 43
0.0000001
 44
0.0000000001
 40
0.0
 40
0.0
 40
0.0
 40
0.0
 40
0.0977963422
 40
0.1988271584
 40
0.3061710643
 40
0.4226415881
 40
0.5504774356
 40
0.6907739604
 40
1.0
 40
1.0
 40
1.0
 40
1.0
 10
3.5286646594
 20
11.7234477814
 30
0.0
 10
3.5263985404
 20
11.7234477814
 30
0.0
 10
3.5217745739
 20
11.7239876237
 30
0.0
 10
3.5150455579
 20
11.7264081561
 30
0.0
 10
3.5086348027
 20
11.7304610112
 30
0.0
 10
3.5027411781
 20
11.736163718
 30
0.0
 10
3.4976075314
 20
11.7435152679
 30
0.0
 10
3.4920259827
 20
11.7557308766
 30
0.0
 10
3.49029831
 20
11.7662824518
 30
0.0
 10
3.49029831
 20
11.7734477814
 30
0.0
  0
SPLINE
  5
403
100
AcDbEntity
  8
0
100
AcDbSpline
 62
7
  6
CONTINUOUS
 70
0
 71
3
 72
14
 73
10
 74
0
 42
0.0000001
 43
0.0000001
 44
0.0000000001
 40
0.0
 40
0.0
 40
0.0
 40
0.0
 40
0.3092267161
 40
0.4495231104
 40
0.5773588303
 40
0.6938294133
 40
0.8011732142
 40
0.9022038299
 40
1.0
 40
1.0
 40
1.0
 40
1.0
 10
3.49029831
 20
14.1109477814
 30
0.0
 10
3.49029831
 20
14.1181131266
 30
0.0
 10
3.4920259886
 20
14.1286647151
 30
0.0
 10
3.4976075505
 20
14.1408803285
 30
0.0
 10
3.502741201
 20
14.1482318695
 30
0.0
 10
3.5086348254
 20
14.1539345712
 30
0.0
 10
3.5150455811
 20
14.1579874142
 30
0.0
 10
3.5217745863
 20
14.1604079426
 30
0.0
 10
3.5263985444
 20
14.1609477814
 30
0.0
 10
3.5286646594
 20
14.1609477814
 30
0.0
  0
SPLINE
  5
404
100
AcDbEntity
  8
0
100
AcDbSpline
 62
7
  6
CONTINUOUS
 70
0
 71
3
 72
14
 73
10
 74
0
 42
0.0000001
 43
0.0000001
 44
0.0000000001
 40
0.0
 40
0.0
 40
0.0
 40
0.0
 40
0.3092267161
 40
0.4495231104
 40
0.5773588303
 40
0.6938294133
 40
0.8011732142
 40
0.9022038299
 40
1.0
 40
1.0
 40
1.0
 40
1.0
 10
8.6514458577
 20
14.1109477814
 30
0.0
 10
8.6514458577
 20
14.1181131266
 30
0.0
 10
8.6497181791
 20
14.1286647151
 30
0.0
 10
8.6441366173
 20
14.1408803285
 30
0.0
 10
8.6390029667
 20
14.1482318695
 30
0.0
 10
8.6331093423
 20
14.1539345712
 30
0.0
 10
8.6266985866
 20
14.1579874142
 30
0.0
 10
8.6199695815
 20
14.1604079426
 30
0.0
 10
8.6153456233
 20
14.1609477814
 30
0.0
 10
8.6130795083
 20
14.1609477814
 30
0.0
  0
SPLINE
  5
405
100
AcDbEntity
  8
0
100
AcDbSpline
 62
7
  6
CONTINUOUS
 70
0
 71
3
 72
14
 73
10
 74
0
 42
0.0000001
 43
0.0000001
 44
0.0000000001
 40
0.0
 40
0.0
 40
0.0
 40
0.0
 40
0.1354274063
 40
0.2699481732
 40
0.4021269567
 40
0.5309817371
 40
0.6557338336
 40
0.7758145156
 40
1.0
 40
1.0
 40
1.0
 40
1.0
 10
7.7564378735
 20
12.9421977814
 30
0.0
 10
7.7564378735
 20
12.9326787539
 30
0.0
 10
7.7573208715
 20
12.9136930876
 30
0.0
 10
7.7612354162
 20
12.8856605794
 30
0.0
 10
7.7677127627
 20
12.8585760603
 30
0.0
 10
7.7766145057
 20
12.8329153145
 30
0.0
 10
7.787819381
 20
12.8090914131
 30
0.0
 10
7.8051311157
 20
12.7809973497
 30
0.0
 10
7.8215717966
 20
12.7627207845
 30
0.0
 10
7.8337776777
 20
12.7527547243
 30
0.0
  0
SPLINE
  5
406
100
AcDbEntity
  8
0
100
AcDbSpline
 62
7
  6
CONTINUOUS
 70
0
 71
3
 72
15
 73
11
 74
0
 42
0.0000001
 43
0.0000001
 44
0.0000000001
 40
0.0
 40
0.0
 40
0.0
 40
0.0
 40
0.1311474841
 40
0.2573719437
 40
0.3797213992
 40
0.5
 40
0.6202786008
 40
0.7426280563
 40
0.8688525159
 40
1.0
 40
1.0
 40
1.0
 40
1.0
 10
7.8337776777
 20
12.7527547243
 30
0.0
 10
7.8394845115
 20
12.748095114
 30
0.0
 10
7.8513753532
 20
12.7397527167
 30
0.0
 10
7.8706585029
 20
12.7304068011
 30
0.0
 10
7.8907029506
 20
12.7247271776
 30
0.0
 10
7.9111174819
 20
12.7228149471
 30
0.0
 10
7.9315320132
 20
12.7247271776
 30
0.0
 10
7.9515764609
 20
12.7304068011
 30
0.0
 10
7.9708596106
 20
12.7397527167
 30
0.0
 10
7.9827504523
 20
12.748095114
 30
0.0
 10
7.9884572861
 20
12.7527547243
 30
0.0
  0
SPLINE
  5
407
100
AcDbEntity
  8
0
100
AcDbSpline
 62
7
  6
CONTINUOUS
 70
0
 71
3
 72
9
 73
5
 74
0
 42
0.0000001
 43
0.0000001
 44
0.0000000001
 40
0.0
 40
0.0
 40
0.0
 40
0.0
 40
0.4834765406
 40
1.0
 40
1.0
 40
1.0
 40
1.0
 10
7.9884572861
 20
12.7527547243
 30
0.0
 10
7.9971826718
 20
12.7598789719
 30
0.0
 10
8.0136228797
 20
12.7766428089
 30
0.0
 10
8.0266414052
 20
12.7961194359
 30
0.0
 10
8.0325080237
 20
12.8066270068
 30
0.0
  0
SPLINE
  5
408
100
AcDbEntity
  8
0
100
AcDbSpline
 62
7
  6
CONTINUOUS
 70
0
 71
3
 72
15
 73
11
 74
0
 42
0.0000001
 43
0.0000001
 44
0.0000000001
 40
0.0
 40
0.0
 40
0.0
 40
0.0
 40
0.1311474841
 40
0.2573719437
 40
0.3797213992
 40
0.5
 40
0.6202786008
 40
0.7426280563
 40
0.8688525159
 40
1.0
 40
1.0
 40
1.0
 40
1.0
 10
7.9884572861
 20
13.1316408384
 30
0.0
 10
7.9827504523
 20
13.1363004488
 30
0.0
 10
7.9708596106
 20
13.1446428461
 30
0.0
 10
7.9515764609
 20
13.1539887617
 30
0.0
 10
7.9315320132
 20
13.1596683851
 30
0.0
 10
7.9111174819
 20
13.1615806156
 30
0.0
 10
7.8907029506
 20
13.1596683851
 30
0.0
 10
7.8706585029
 20
13.1539887617
 30
0.0
 10
7.8513753532
 20
13.1446428461
 30
0.0
 10
7.8394845115
 20
13.1363004488
 30
0.0
 10
7.8337776777
 20
13.1316408384
 30
0.0
  0
SPLINE
  5
409
100
AcDbEntity
  8
0
100
AcDbSpline
 62
7
  6
CONTINUOUS
 70
0
 71
3
 72
14
 73
10
 74
0
 42
0.0000001
 43
0.0000001
 44
0.0000000001
 40
0.0
 40
0.0
 40
0.0
 40
0.0
 40
0.3092266746
 40
0.4495230421
 40
0.5773588635
 40
0.6938294715
 40
0.8011732933
 40
0.9022038716
 40
1.0
 40
1.0
 40
1.0
 40
1.0
 10
8.6514458577
 20
11.7734477814
 30
0.0
 10
8.6514458577
 20
11.7662824371
 30
0.0
 10
8.6497181794
 20
11.7557308503
 30
0.0
 10
8.6441366182
 20
11.7435152359
 30
0.0
 10
8.6390029668
 20
11.7361636924
 30
0.0
 10
8.6331093392
 20
11.730460989
 30
0.0
 10
8.6266985826
 20
11.726408147
 30
0.0
 10
8.6199695787
 20
11.7239876195
 30
0.0
 10
8.6153456224
 20
11.7234477814
 30
0.0
 10
8.6130795083
 20
11.7234477814
 30
0.0
  0
SPLINE
  5
40A
100
AcDbEntity
  8
0
100
AcDbSpline
 62
7
  6
CONTINUOUS
 70
0
 71
3
 72
15
 73
11
 74
0
 42
0.0000001
 43
0.0000001
 44
0.0000000001
 40
0.0
 40
0.0
 40
0.0
 40
0.0
 40
0.1213254813
 40
0.2458153166
 40
0.372361797
 40
0.5
 40
0.627638203
 40
0.7541846834
 40
0.8786745187
 40
1.0
 40
1.0
 40
1.0
 40
1.0
 10
7.6368097816
 20
13.1296922813
 30
0.0
 10
7.6309420329
 20
13.115319291
 30
0.0
 10
7.620612004
 20
13.0855405118
 30
0.0
 10
7.6095150358
 20
13.0391314183
 30
0.0
 10
7.6027858188
 20
12.9910726584
 30
0.0
 10
7.6005357746
 20
12.9421977814
 30
0.0
 10
7.6027858188
 20
12.8933229043
 30
0.0
 10
7.6095150358
 20
12.8452641444
 30
0.0
 10
7.620612004
 20
12.798855051
 30
0.0
 10
7.6309420329
 20
12.7690762718
 30
0.0
 10
7.6368097816
 20
12.7547032814
 30
0.0
  0
SPLINE
  5
40B
100
AcDbEntity
  8
0
100
AcDbSpline
 62
7
  6
CONTINUOUS
 70
0
 71
3
 72
11
 73
7
 74
0
 42
0.0000001
 43
0.0000001
 44
0.0000000001
 40
0.0
 40
0.0
 40
0.0
 40
0.0
 40
0.254577763
 40
0.5068905799
 40
0.7557993574
 40
1.0
 40
1.0
 40
1.0
 40
1.0
 10
7.5365825809
 20
12.9421977814
 30
0.0
 10
7.5463634108
 20
12.9573865716
 30
0.0
 10
7.5653840795
 20
12.9879258612
 30
0.0
 10
7.5919856447
 20
13.0345159973
 30
0.0
 10
7.6160530033
 20
13.0816448952
 30
0.0
 10
7.6302599757
 20
13.113648599
 30
0.0
 10
7.6368097816
 20
13.1296922813
 30
0.0
  0
SPLINE
  5
40C
100
AcDbEntity
  8
0
100
AcDbSpline
 62
7
  6
CONTINUOUS
 70
0
 71
3
 72
11
 73
7
 74
0
 42
0.0000001
 43
0.0000001
 44
0.0000000001
 40
0.0
 40
0.0
 40
0.0
 40
0.0
 40
0.2442003527
 40
0.4931093963
 40
0.7454225534
 40
1.0
 40
1.0
 40
1.0
 40
1.0
 10
7.6368097816
 20
12.7547032814
 30
0.0
 10
7.6302599834
 20
12.7707469449
 30
0.0
 10
7.6160533571
 20
12.8027508024
 30
0.0
 10
7.5919856115
 20
12.849879545
 30
0.0
 10
7.5653837686
 20
12.8964695318
 30
0.0
 10
7.5463633987
 20
12.9270090098
 30
0.0
 10
7.5365825809
 20
12.9421977814
 30
0.0
  0
SPLINE
  5
40D
100
AcDbEntity
  8
0
100
AcDbSpline
 62
7
  6
CONTINUOUS
 70
0
 71
3
 72
12
 73
8
 74
0
 42
0.0000001
 43
0.0000001
 44
0.0000000001
 40
0.0
 40
0.0
 40
0.0
 40
0.0
 40
0.260033886
 40
0.3875062306
 40
0.5132166758
 40
0.7596287699
 40
1.0
 40
1.0
 40
1.0
 40
1.0
 10
7.6368097816
 20
13.1296922813
 30
0.0
 10
7.6432040709
 20
13.1453550273
 30
0.0
 10
7.6520453562
 20
13.1689861555
 30
0.0
 10
7.6623256692
 20
13.2007574788
 30
0.0
 10
7.6714199543
 20
13.2319672251
 30
0.0
 10
7.6809670151
 20
13.2706758589
 30
0.0
 10
7.6870121384
 20
13.3017760491
 30
0.0
 10
7.689671199
 20
13.3171867812
 30
0.0
  0
SPLINE
  5
40E
100
AcDbEntity
  8
0
100
AcDbSpline
 62
7
  6
CONTINUOUS
 70
0
 71
3
 72
11
 73
7
 74
0
 42
0.0000001
 43
0.0000001
 44
0.0000000001
 40
0.0
 40
0.0
 40
0.0
 40
0.0
 40
0.2600315428
 40
0.5131927795
 40
0.7596206438
 40
1.0
 40
1.0
 40
1.0
 40
1.0
 10
7.6368097816
 20
12.7547032814
 30
0.0
 10
7.6432038386
 20
12.7390411045
 30
0.0
 10
7.6549120406
 20
12.7077486236
 30
0.0
 10
7.6694349773
 20
12.6604830944
 30
0.0
 10
7.6809688747
 20
12.6137212305
 30
0.0
 10
7.6870121211
 20
12.5826196136
 30
0.0
 10
7.689671199
 20
12.5672087815
 30
0.0
  0
SPLINE
  5
40F
100
AcDbEntity
  8
0
100
AcDbSpline
 62
7
  6
CONTINUOUS
 70
0
 71
3
 72
9
 73
5
 74
0
 42
0.0000001
 43
0.0000001
 44
0.0000000001
 40
0.0
 40
0.0
 40
0.0
 40
0.0
 40
0.2535624121
 40
1.0
 40
1.0
 40
1.0
 40
1.0
 10
8.1159736816
 20
12.815370086
 30
0.0
 10
8.1146436565
 20
12.8101377102
 30
0.0
 10
8.1090534829
 20
12.7895920495
 30
0.0
 10
8.1020825923
 20
12.7694172592
 30
0.0
 10
8.096075636
 20
12.7547032814
 30
0.0
  0
SPLINE
  5
410
100
AcDbEntity
  8
0
100
AcDbSpline
 62
7
  6
CONTINUOUS
 70
0
 71
3
 72
9
 73
5
 74
0
 42
0.0000001
 43
0.0000001
 44
0.0000000001
 40
0.0
 40
0.0
 40
0.0
 40
0.0
 40
0.2463153468
 40
1.0
 40
1.0
 40
1.0
 40
1.0
 10
8.096075636
 20
13.1296922813
 30
0.0
 10
8.0980401811
 20
13.1248801482
 30
0.0
 10
8.1056625146
 20
13.1052007314
 30
0.0
 10
8.1118964915
 20
13.0849878447
 30
0.0
 10
8.1158327485
 20
13.0695785479
 30
0.0
  0
SPLINE
  5
411
100
AcDbEntity
  8
0
100
AcDbSpline
 62
7
  6
CONTINUOUS
 70
0
 71
3
 72
17
 73
13
 74
0
 42
0.0000001
 43
0.0000001
 44
0.0000000001
 40
0.0
 40
0.0
 40
0.0
 40
0.0
 40
0.0551918861
 40
0.1106847669
 40
0.1666613533
 40
0.2233003148
 40
0.3392254215
 40
0.4599109181
 40
0.5861655067
 40
0.7183581784
 40
0.8565145575
 40
1.0
 40
1.0
 40
1.0
 40
1.0
 10
7.8664427088
 20
13.3171867812
 30
0.0
 10
7.8722240149
 20
13.3171867812
 30
0.0
 10
7.8838252199
 20
13.3166455077
 30
0.0
 10
7.9011378286
 20
13.3142284517
 30
0.0
 10
7.918309684
 20
13.3102164916
 30
0.0
 10
7.9410664266
 20
13.3026988006
 30
0.0
 10
7.9688634876
 20
13.2892537823
 30
0.0
 10
8.0000807744
 20
13.2673123242
 30
0.0
 10
8.0289576237
 20
13.2398557406
 30
0.0
 10
8.0550116905
 20
13.2073485139
 30
0.0
 10
8.077810461
 20
13.1703661989
 30
0.0
 10
8.0903948354
 20
13.1436073442
 30
0.0
 10
8.096075636
 20
13.1296922813
 30
0.0
  0
SPLINE
  5
412
100
AcDbEntity
  8
0
100
AcDbSpline
 62
7
  6
CONTINUOUS
 70
0
 71
3
 72
17
 73
13
 74
0
 42
0.0000001
 43
0.0000001
 44
0.0000000001
 40
0.0
 40
0.0
 40
0.0
 40
0.0
 40
0.1434854425
 40
0.2816418216
 40
0.4138344933
 40
0.5400890819
 40
0.6607745785
 40
0.7766996852
 40
0.8333386467
 40
0.8893152331
 40
0.9448081139
 40
1.0
 40
1.0
 40
1.0
 40
1.0
 10
7.6368097816
 20
13.1296922813
 30
0.0
 10
7.6424905823
 20
13.1436073442
 30
0.0
 10
7.6550749566
 20
13.1703661989
 30
0.0
 10
7.6778737271
 20
13.2073485139
 30
0.0
 10
7.703927794
 20
13.2398557406
 30
0.0
 10
7.7328046433
 20
13.2673123242
 30
0.0
 10
7.7640219301
 20
13.2892537823
 30
0.0
 10
7.7918189911
 20
13.3026988006
 30
0.0
 10
7.8145757336
 20
13.3102164916
 30
0.0
 10
7.831747589
 20
13.3142284517
 30
0.0
 10
7.8490601977
 20
13.3166455077
 30
0.0
 10
7.8606614027
 20
13.3171867812
 30
0.0
 10
7.8664427088
 20
13.3171867812
 30
0.0
  0
SPLINE
  5
413
100
AcDbEntity
  8
0
100
AcDbSpline
 62
7
  6
CONTINUOUS
 70
0
 71
3
 72
17
 73
13
 74
0
 42
0.0000001
 43
0.0000001
 44
0.0000000001
 40
0.0
 40
0.0
 40
0.0
 40
0.0
 40
0.0551918861
 40
0.1106847669
 40
0.1666613533
 40
0.2233003148
 40
0.3392254215
 40
0.4599109181
 40
0.5861655067
 40
0.7183581784
 40
0.8565145575
 40
1.0
 40
1.0
 40
1.0
 40
1.0
 10
7.8664427088
 20
12.5672087815
 30
0.0
 10
7.8606614027
 20
12.5672087815
 30
0.0
 10
7.8490601977
 20
12.567750055
 30
0.0
 10
7.831747589
 20
12.570167111
 30
0.0
 10
7.8145757336
 20
12.5741790711
 30
0.0
 10
7.7918189911
 20
12.5816967622
 30
0.0
 10
7.7640219301
 20
12.5951417805
 30
0.0
 10
7.7328046433
 20
12.6170832385
 30
0.0
 10
7.703927794
 20
12.6445398222
 30
0.0
 10
7.6778737271
 20
12.6770470488
 30
0.0
 10
7.6550749566
 20
12.7140293639
 30
0.0
 10
7.6424905823
 20
12.7407882186
 30
0.0
 10
7.6368097816
 20
12.7547032814
 30
0.0
  0
SPLINE
  5
414
100
AcDbEntity
  8
0
100
AcDbSpline
 62
7
  6
CONTINUOUS
 70
0
 71
3
 72
17
 73
13
 74
0
 42
0.0000001
 43
0.0000001
 44
0.0000000001
 40
0.0
 40
0.0
 40
0.0
 40
0.0
 40
0.1434854425
 40
0.2816418216
 40
0.4138344933
 40
0.5400890819
 40
0.6607745785
 40
0.7766996852
 40
0.8333386467
 40
0.8893152331
 40
0.9448081139
 40
1.0
 40
1.0
 40
1.0
 40
1.0
 10
8.096075636
 20
12.7547032814
 30
0.0
 10
8.0903948354
 20
12.7407882186
 30
0.0
 10
8.077810461
 20
12.7140293639
 30
0.0
 10
8.0550116905
 20
12.6770470488
 30
0.0
 10
8.0289576237
 20
12.6445398222
 30
0.0
 10
8.0000807744
 20
12.6170832385
 30
0.0
 10
7.9688634876
 20
12.5951417805
 30
0.0
 10
7.9410664266
 20
12.5816967622
 30
0.0
 10
7.918309684
 20
12.5741790711
 30
0.0
 10
7.9011378286
 20
12.570167111
 30
0.0
 10
7.8838252199
 20
12.567750055
 30
0.0
 10
7.8722240149
 20
12.5672087815
 30
0.0
 10
7.8664427088
 20
12.5672087815
 30
0.0
  0
SPLINE
  5
415
100
AcDbEntity
  8
0
100
AcDbSpline
 62
7
  6
CONTINUOUS
 70
0
 71
3
 72
9
 73
5
 74
0
 42
0.0000001
 43
0.0000001
 44
0.0000000001
 40
0.0
 40
0.0
 40
0.0
 40
0.0
 40
0.5165325842
 40
1.0
 40
1.0
 40
1.0
 40
1.0
 10
8.0325312884
 20
13.0777268767
 30
0.0
 10
8.0266628055
 20
13.0882430257
 30
0.0
 10
8.0136387904
 20
13.107735306
 30
0.0
 10
7.9971884424
 20
13.1245118792
 30
0.0
 10
7.9884572861
 20
13.1316408384
 30
0.0
  0
SPLINE
  5
416
100
AcDbEntity
  8
0
100
AcDbSpline
 62
7
  6
CONTINUOUS
 70
0
 71
3
 72
14
 73
10
 74
0
 42
0.0000001
 43
0.0000001
 44
0.0000000001
 40
0.0
 40
0.0
 40
0.0
 40
0.0
 40
0.2241854844
 40
0.3442661664
 40
0.4690182629
 40
0.5978730433
 40
0.7300518268
 40
0.8645725937
 40
1.0
 40
1.0
 40
1.0
 40
1.0
 10
7.8337776777
 20
13.1316408384
 30
0.0
 10
7.8215717966
 20
13.1216747783
 30
0.0
 10
7.8051311157
 20
13.103398213
 30
0.0
 10
7.787819381
 20
13.0753041496
 30
0.0
 10
7.7766145057
 20
13.0514802482
 30
0.0
 10
7.7677127627
 20
13.0258195024
 30
0.0
 10
7.7612354162
 20
12.9987349833
 30
0.0
 10
7.7573208715
 20
12.9707024751
 30
0.0
 10
7.7564378735
 20
12.9517168088
 30
0.0
 10
7.7564378735
 20
12.9421977814
 30
0.0
  0
SPLINE
  5
417
100
AcDbEntity
  8
0
100
AcDbSpline
 62
7
  6
CONTINUOUS
 70
0
 71
3
 72
25
 73
21
 74
0
 42
0.0000001
 43
0.0000001
 44
0.0000000001
 40
0.0
 40
0.0
 40
0.0
 40
0.0
 40
0.0621413018
 40
0.1242571602
 40
0.1864035874
 40
0.2485602664
 40
0.2796665606
 40
0.3107722836
 40
0.3418739654
 40
0.3729741334
 40
0.4351345571
 40
0.4972815868
 40
0.5594722315
 40
0.621733296
 40
0.6841503052
 40
0.7467871857
 40
0.8096973068
 40
0.8729457108
 40
0.9364661254
 40
1.0
 40
1.0
 40
1.0
 40
1.0
 10
15.7834560425
 20
7.3243379718
 30
0.0
 10
15.7801705795
 20
7.3291066168
 30
0.0
 10
15.7742663187
 20
7.3391223352
 30
0.0
 10
15.7676974217
 20
7.3552688216
 30
0.0
 10
15.7635897675
 20
7.3722145275
 30
0.0
 10
15.7623273086
 20
7.386702337
 30
0.0
 10
15.7626368653
 20
7.3982970218
 30
0.0
 10
15.7635207299
 20
7.4069563206
 30
0.0
 10
15.7650568622
 20
7.4155235633
 30
0.0
 10
15.7679596196
 20
7.4267525067
 30
0.0
 10
15.7731361384
 20
7.4403398427
 30
0.0
 10
15.7816684452
 20
7.455549101
 30
0.0
 10
15.7922754495
 20
7.4694006295
 30
0.0
 10
15.8047045278
 20
7.4816739209
 30
0.0
 10
15.8186791548
 20
7.4922153414
 30
0.0
 10
15.8339233381
 20
7.5009340112
 30
0.0
 10
15.8501845729
 20
7.5077592658
 30
0.0
 10
15.8672101333
 20
7.5126558847
 30
0.0
 10
15.8847343467
 20
7.5155975668
 30
0.0
 10
15.8965846089
 20
7.516256978
 30
0.0
 10
15.9025052569
 20
7.516256978
 30
0.0
  0
SPLINE
  5
418
100
AcDbEntity
  8
0
100
AcDbSpline
 62
7
  6
CONTINUOUS
 70
0
 71
3
 72
25
 73
21
 74
0
 42
0.0000001
 43
0.0000001
 44
0.0000000001
 40
0.0
 40
0.0
 40
0.0
 40
0.0
 40
0.0635379909
 40
0.1270651598
 40
0.1903142181
 40
0.2532150228
 40
0.3158349256
 40
0.3782297388
 40
0.4404710658
 40
0.4715796766
 40
0.5026710292
 40
0.5648035079
 40
0.626948418
 40
0.6891055231
 40
0.7202158838
 40
0.751327507
 40
0.813505463
 40
0.8756830985
 40
0.9378257148
 40
1.0
 40
1.0
 40
1.0
 40
1.0
 10
15.9025052569
 20
7.516256978
 30
0.0
 10
15.908418842
 20
7.516256978
 30
0.0
 10
15.9202551801
 20
7.5155988341
 30
0.0
 10
15.9377588793
 20
7.512664174
 30
0.0
 10
15.9547645802
 20
7.5077799967
 30
0.0
 10
15.9710063232
 20
7.500972355
 30
0.0
 10
15.9862339678
 20
7.4922781073
 30
0.0
 10
16.0001960798
 20
7.481768204
 30
0.0
 10
16.010556409
 20
7.4715608623
 30
0.0
 10
16.0179284042
 20
7.4626174227
 30
0.0
 10
16.0246553058
 20
7.4531917498
 30
0.0
 10
16.0317733175
 20
7.4405415379
 30
0.0
 10
16.0380160003
 20
7.4242870106
 30
0.0
 10
16.0411482819
 20
7.4101045964
 30
0.0
 10
16.0423542877
 20
7.3985820408
 30
0.0
 10
16.0426958758
 20
7.3869993498
 30
0.0
 10
16.0414655822
 20
7.3725220843
 30
0.0
 10
16.03741363
 20
7.355578186
 30
0.0
 10
16.0308923221
 20
7.3394266371
 30
0.0
 10
16.025021987
 20
7.3294017018
 30
0.0
 10
16.0217527686
 20
7.3246270106
 30
0.0
  0
SPLINE
  5
419
100
AcDbEntity
  8
0
100
AcDbSpline
 62
7
  6
CONTINUOUS
 70
0
 71
3
 72
11
 73
7
 74
0
 42
0.0000001
 43
0.0000001
 44
0.0000000001
 40
0.0
 40
0.0
 40
0.0
 40
0.0
 40
0.2442003527
 40
0.4931093963
 40
0.7454225534
 40
1.0
 40
1.0
 40
1.0
 40
1.0
 10
16.0899997569
 20
7.4233282566
 30
0.0
 10
16.1060434203
 20
7.4167784584
 30
0.0
 10
16.1380472778
 20
7.4025718321
 30
0.0
 10
16.1851760204
 20
7.3785040864
 30
0.0
 10
16.2317660072
 20
7.3519022436
 30
0.0
 10
16.2623054852
 20
7.3328818737
 30
0.0
 10
16.2774942568
 20
7.3231010559
 30
0.0
  0
SPLINE
  5
41A
100
AcDbEntity
  8
0
100
AcDbSpline
 62
7
  6
CONTINUOUS
 70
0
 71
3
 72
11
 73
7
 74
0
 42
0.0000001
 43
0.0000001
 44
0.0000000001
 40
0.0
 40
0.0
 40
0.0
 40
0.0
 40
0.2441974913
 40
0.4931006935
 40
0.7454154631
 40
1.0
 40
1.0
 40
1.0
 40
1.0
 10
15.715010757
 20
7.4233282566
 30
0.0
 10
15.6989672856
 20
7.4167785368
 30
0.0
 10
15.6669649799
 20
7.4025699473
 30
0.0
 10
15.6198359778
 20
7.3785040889
 30
0.0
 10
15.573244154
 20
7.3519049292
 30
0.0
 10
15.5427054478
 20
7.3328821436
 30
0.0
 10
15.5275162571
 20
7.3231010559
 30
0.0
  0
SPLINE
  5
41B
100
AcDbEntity
  8
0
100
AcDbSpline
 62
7
  6
CONTINUOUS
 70
0
 71
3
 72
9
 73
5
 74
0
 42
0.0000001
 43
0.0000001
 44
0.0000000001
 40
0.0
 40
0.0
 40
0.0
 40
0.0
 40
0.4915350665
 40
1.0
 40
1.0
 40
1.0
 40
1.0
 10
15.9025052569
 20
6.6829377259
 30
0.0
 10
15.9194677526
 20
6.6850871326
 30
0.0
 10
15.9538628081
 20
6.690435781
 30
0.0
 10
15.9878312054
 20
6.6980935637
 30
0.0
 10
16.004925753
 20
6.7026331599
 30
0.0
  0
SPLINE
  5
41C
100
AcDbEntity
  8
0
100
AcDbSpline
 62
7
  6
CONTINUOUS
 70
0
 71
3
 72
9
 73
5
 74
0
 42
0.0000001
 43
0.0000001
 44
0.0000000001
 40
0.0
 40
0.0
 40
0.0
 40
0.0
 40
0.508465134
 40
1.0
 40
1.0
 40
1.0
 40
1.0
 10
15.8000847608
 20
6.7026331599
 30
0.0
 10
15.8171793152
 20
6.6980935619
 30
0.0
 10
15.8511477134
 20
6.6904357837
 30
0.0
 10
15.8855427682
 20
6.6850871317
 30
0.0
 10
15.9025052569
 20
6.6829377259
 30
0.0
  0
SPLINE
  5
41D
100
AcDbEntity
  8
0
100
AcDbSpline
 62
7
  6
CONTINUOUS
 70
0
 71
3
 72
14
 73
10
 74
0
 42
0.0000001
 43
0.0000001
 44
0.0000000001
 40
0.0
 40
0.0
 40
0.0
 40
0.0
 40
0.1354274063
 40
0.2699481732
 40
0.4021269567
 40
0.5309817371
 40
0.6557338336
 40
0.7758145156
 40
1.0
 40
1.0
 40
1.0
 40
1.0
 10
15.9025052569
 20
7.0836904941
 30
0.0
 10
15.9120242844
 20
7.0836904941
 30
0.0
 10
15.9310099507
 20
7.0845734921
 30
0.0
 10
15.9590424589
 20
7.0884880367
 30
0.0
 10
15.986126978
 20
7.0949653833
 30
0.0
 10
16.0117877238
 20
7.1038671263
 30
0.0
 10
16.0356116252
 20
7.1150720016
 30
0.0
 10
16.0637056886
 20
7.1323837363
 30
0.0
 10
16.0819822539
 20
7.1488244172
 30
0.0
 10
16.091948314
 20
7.1610302983
 30
0.0
  0
SPLINE
  5
41E
100
AcDbEntity
  8
0
100
AcDbSpline
 62
7
  6
CONTINUOUS
 70
0
 71
3
 72
9
 73
5
 74
0
 42
0.0000001
 43
0.0000001
 44
0.0000000001
 40
0.0
 40
0.0
 40
0.0
 40
0.0
 40
0.4834765406
 40
1.0
 40
1.0
 40
1.0
 40
1.0
 10
16.091948314
 20
7.3157099067
 30
0.0
 10
16.0848240664
 20
7.3244352924
 30
0.0
 10
16.0680602294
 20
7.3408755002
 30
0.0
 10
16.0485836024
 20
7.3538940258
 30
0.0
 10
16.0380760315
 20
7.3597606443
 30
0.0
  0
SPLINE
  5
41F
100
AcDbEntity
  8
0
100
AcDbSpline
 62
7
  6
CONTINUOUS
 70
0
 71
3
 72
9
 73
5
 74
0
 42
0.0000001
 43
0.0000001
 44
0.0000000001
 40
0.0
 40
0.0
 40
0.0
 40
0.0
 40
0.5165325842
 40
1.0
 40
1.0
 40
1.0
 40
1.0
 10
15.7669761616
 20
7.359783909
 30
0.0
 10
15.7564600126
 20
7.3539154261
 30
0.0
 10
15.7369677323
 20
7.3408914109
 30
0.0
 10
15.7201911591
 20
7.324441063
 30
0.0
 10
15.7130621999
 20
7.3157099067
 30
0.0
  0
SPLINE
  5
420
100
AcDbEntity
  8
0
100
AcDbSpline
 62
7
  6
CONTINUOUS
 70
0
 71
3
 72
15
 73
11
 74
0
 42
0.0000001
 43
0.0000001
 44
0.0000000001
 40
0.0
 40
0.0
 40
0.0
 40
0.0
 40
0.1311474841
 40
0.2573719437
 40
0.3797213992
 40
0.5
 40
0.6202786008
 40
0.7426280563
 40
0.8688525159
 40
1.0
 40
1.0
 40
1.0
 40
1.0
 10
15.7130621999
 20
7.3157099067
 30
0.0
 10
15.7084025896
 20
7.3100030729
 30
0.0
 10
15.7000601922
 20
7.2981122312
 30
0.0
 10
15.6907142766
 20
7.2788290815
 30
0.0
 10
15.6850346532
 20
7.2587846338
 30
0.0
 10
15.6831224227
 20
7.2383701025
 30
0.0
 10
15.6850346532
 20
7.2179555712
 30
0.0
 10
15.6907142766
 20
7.1979111235
 30
0.0
 10
15.7000601922
 20
7.1786279738
 30
0.0
 10
15.7084025896
 20
7.1667371321
 30
0.0
 10
15.7130621999
 20
7.1610302983
 30
0.0
  0
SPLINE
  5
421
100
AcDbEntity
  8
0
100
AcDbSpline
 62
7
  6
CONTINUOUS
 70
0
 71
3
 72
14
 73
10
 74
0
 42
0.0000001
 43
0.0000001
 44
0.0000000001
 40
0.0
 40
0.0
 40
0.0
 40
0.0
 40
0.2241854844
 40
0.3442661664
 40
0.4690182629
 40
0.5978730433
 40
0.7300518268
 40
0.8645725937
 40
1.0
 40
1.0
 40
1.0
 40
1.0
 10
15.7130621999
 20
7.1610302983
 30
0.0
 10
15.72302826
 20
7.1488244172
 30
0.0
 10
15.7413048253
 20
7.1323837363
 30
0.0
 10
15.7693988887
 20
7.1150720016
 30
0.0
 10
15.7932227901
 20
7.1038671263
 30
0.0
 10
15.8188835359
 20
7.0949653833
 30
0.0
 10
15.845968055
 20
7.0884880367
 30
0.0
 10
15.8740005632
 20
7.0845734921
 30
0.0
 10
15.8929862295
 20
7.0836904941
 30
0.0
 10
15.9025052569
 20
7.0836904941
 30
0.0
  0
SPLINE
  5
422
100
AcDbEntity
  8
0
100
AcDbSpline
 62
7
  6
CONTINUOUS
 70
0
 71
3
 72
15
 73
11
 74
0
 42
0.0000001
 43
0.0000001
 44
0.0000000001
 40
0.0
 40
0.0
 40
0.0
 40
0.0
 40
0.1311474841
 40
0.2573719437
 40
0.3797213992
 40
0.5
 40
0.6202786008
 40
0.7426280563
 40
0.8688525159
 40
1.0
 40
1.0
 40
1.0
 40
1.0
 10
16.091948314
 20
7.1610302983
 30
0.0
 10
16.0966079243
 20
7.1667371321
 30
0.0
 10
16.1049503216
 20
7.1786279738
 30
0.0
 10
16.1142962372
 20
7.1979111235
 30
0.0
 10
16.1199758607
 20
7.2179555712
 30
0.0
 10
16.1218880912
 20
7.2383701025
 30
0.0
 10
16.1199758607
 20
7.2587846338
 30
0.0
 10
16.1142962372
 20
7.2788290815
 30
0.0
 10
16.1049503216
 20
7.2981122312
 30
0.0
 10
16.0966079243
 20
7.3100030729
 30
0.0
 10
16.091948314
 20
7.3157099067
 30
0.0
  0
SPLINE
  5
423
100
AcDbEntity
  8
0
100
AcDbSpline
 62
7
  6
CONTINUOUS
 70
0
 71
3
 72
11
 73
7
 74
0
 42
0.0000001
 43
0.0000001
 44
0.0000000001
 40
0.0
 40
0.0
 40
0.0
 40
0.0
 40
0.254577763
 40
0.5068905799
 40
0.7557993574
 40
1.0
 40
1.0
 40
1.0
 40
1.0
 10
15.9025052569
 20
6.8638352015
 30
0.0
 10
15.8873164667
 20
6.8736160314
 30
0.0
 10
15.8567771771
 20
6.8926367001
 30
0.0
 10
15.810187041
 20
6.9192382653
 30
0.0
 10
15.7630581431
 20
6.9433056239
 30
0.0
 10
15.7310544393
 20
6.9575125963
 30
0.0
 10
15.715010757
 20
6.9640624022
 30
0.0
  0
SPLINE
  5
424
100
AcDbEntity
  8
0
100
AcDbSpline
 62
7
  6
CONTINUOUS
 70
0
 71
3
 72
11
 73
7
 74
0
 42
0.0000001
 43
0.0000001
 44
0.0000000001
 40
0.0
 40
0.0
 40
0.0
 40
0.0
 40
0.2442003527
 40
0.4931093963
 40
0.7454225534
 40
1.0
 40
1.0
 40
1.0
 40
1.0
 10
16.0899997569
 20
6.9640624022
 30
0.0
 10
16.0739560934
 20
6.957512604
 30
0.0
 10
16.0419522359
 20
6.9433059777
 30
0.0
 10
15.9948234933
 20
6.919238232
 30
0.0
 10
15.9482335065
 20
6.8926363892
 30
0.0
 10
15.9176940285
 20
6.8736160193
 30
0.0
 10
15.9025052569
 20
6.8638352015
 30
0.0
  0
SPLINE
  5
425
100
AcDbEntity
  8
0
100
AcDbSpline
 62
7
  6
CONTINUOUS
 70
0
 71
3
 72
12
 73
8
 74
0
 42
0.0000001
 43
0.0000001
 44
0.0000000001
 40
0.0
 40
0.0
 40
0.0
 40
0.0
 40
0.2403707007
 40
0.486783244
 40
0.6124942755
 40
0.7399667036
 40
1.0
 40
1.0
 40
1.0
 40
1.0
 10
16.2774942568
 20
7.0169238196
 30
0.0
 10
16.2620835588
 20
7.0142647649
 30
0.0
 10
16.2309832983
 20
7.0082200331
 30
0.0
 10
16.1922746828
 20
6.9986727023
 30
0.0
 10
16.1610649748
 20
6.9895780354
 30
0.0
 10
16.1292936533
 20
6.9792977166
 30
0.0
 10
16.1056624671
 20
6.9704566769
 30
0.0
 10
16.0899997569
 20
6.9640624022
 30
0.0
  0
SPLINE
  5
426
100
AcDbEntity
  8
0
100
AcDbSpline
 62
7
  6
CONTINUOUS
 70
0
 71
3
 72
9
 73
5
 74
0
 42
0.0000001
 43
0.0000001
 44
0.0000000001
 40
0.0
 40
0.0
 40
0.0
 40
0.0
 40
0.2462327691
 40
1.0
 40
1.0
 40
1.0
 40
1.0
 10
16.0899997569
 20
7.4233282566
 30
0.0
 10
16.0851959207
 20
7.4252894145
 30
0.0
 10
16.065543823
 20
7.4329011556
 30
0.0
 10
16.0453595161
 20
7.4391273308
 30
0.0
 10
16.0299709269
 20
7.4430623995
 30
0.0
  0
SPLINE
  5
427
100
AcDbEntity
  8
0
100
AcDbSpline
 62
7
  6
CONTINUOUS
 70
0
 71
3
 72
9
 73
5
 74
0
 42
0.0000001
 43
0.0000001
 44
0.0000000001
 40
0.0
 40
0.0
 40
0.0
 40
0.0
 40
0.2536045939
 40
1.0
 40
1.0
 40
1.0
 40
1.0
 10
15.7744693508
 20
7.4429162137
 30
0.0
 10
15.7693416734
 20
7.4415983641
 30
0.0
 10
15.7492095458
 20
7.4360710901
 30
0.0
 10
15.7294368414
 20
7.4292176809
 30
0.0
 10
15.715010757
 20
7.4233282566
 30
0.0
  0
SPLINE
  5
428
100
AcDbEntity
  8
0
100
AcDbSpline
 62
7
  6
CONTINUOUS
 70
0
 71
3
 72
11
 73
7
 74
0
 42
0.0000001
 43
0.0000001
 44
0.0000000001
 40
0.0
 40
0.0
 40
0.0
 40
0.0
 40
0.2552781809
 40
0.6333686804
 40
0.8185884279
 40
1.0
 40
1.0
 40
1.0
 40
1.0
 10
15.9025052569
 20
6.9285380647
 30
0.0
 10
15.886174554
 20
6.9285380647
 30
0.0
 10
15.8456442464
 20
6.9304105225
 30
0.0
 10
15.7937588233
 20
6.9388756775
 30
0.0
 10
15.7478355789
 20
6.9516810047
 30
0.0
 10
15.725755172
 20
6.9596760132
 30
0.0
 10
15.715010757
 20
6.9640624022
 30
0.0
  0
SPLINE
  5
429
100
AcDbEntity
  8
0
100
AcDbSpline
 62
7
  6
CONTINUOUS
 70
0
 71
3
 72
11
 73
7
 74
0
 42
0.0000001
 43
0.0000001
 44
0.0000000001
 40
0.0
 40
0.0
 40
0.0
 40
0.0
 40
0.2427372986
 40
0.6176425105
 40
0.8084238241
 40
1.0
 40
1.0
 40
1.0
 40
1.0
 10
16.0899997569
 20
6.9640624022
 30
0.0
 10
16.0756234021
 20
6.95819328
 30
0.0
 10
16.0382273143
 20
6.9452171497
 30
0.0
 10
15.9874385943
 20
6.9344273191
 30
0.0
 10
15.9392307119
 20
6.9293890754
 30
0.0
 10
15.9147606476
 20
6.9285380647
 30
0.0
 10
15.9025052569
 20
6.9285380647
 30
0.0
  0
SPLINE
  5
42A
100
AcDbEntity
  8
0
100
AcDbSpline
 62
7
  6
CONTINUOUS
 70
0
 71
3
 72
17
 73
13
 74
0
 42
0.0000001
 43
0.0000001
 44
0.0000000001
 40
0.0
 40
0.0
 40
0.0
 40
0.0
 40
0.0551918861
 40
0.1106847669
 40
0.1666613533
 40
0.2233003148
 40
0.3392254215
 40
0.4599109181
 40
0.5861655067
 40
0.7183581784
 40
0.8565145575
 40
1.0
 40
1.0
 40
1.0
 40
1.0
 10
16.2774942568
 20
7.1936953294
 30
0.0
 10
16.2774942568
 20
7.1879140233
 30
0.0
 10
16.2769529833
 20
7.1763128183
 30
0.0
 10
16.2745359273
 20
7.1590002096
 30
0.0
 10
16.2705239672
 20
7.1418283542
 30
0.0
 10
16.2630062762
 20
7.1190716116
 30
0.0
 10
16.2495612578
 20
7.0912745506
 30
0.0
 10
16.2276197998
 20
7.0600572638
 30
0.0
 10
16.2001632161
 20
7.0311804145
 30
0.0
 10
16.1676559895
 20
7.0051263477
 30
0.0
 10
16.1306736744
 20
6.9823275772
 30
0.0
 10
16.1039148197
 20
6.9697432028
 30
0.0
 10
16.0899997569
 20
6.9640624022
 30
0.0
  0
SPLINE
  5
42B
100
AcDbEntity
  8
0
100
AcDbSpline
 62
7
  6
CONTINUOUS
 70
0
 71
3
 72
17
 73
13
 74
0
 42
0.0000001
 43
0.0000001
 44
0.0000000001
 40
0.0
 40
0.0
 40
0.0
 40
0.0
 40
0.1434854425
 40
0.2816418216
 40
0.4138344933
 40
0.5400890819
 40
0.6607745785
 40
0.7766996852
 40
0.8333386467
 40
0.8893152331
 40
0.9448081139
 40
1.0
 40
1.0
 40
1.0
 40
1.0
 10
16.0899997569
 20
7.4233282566
 30
0.0
 10
16.1039148197
 20
7.4176474559
 30
0.0
 10
16.1306736744
 20
7.4050630816
 30
0.0
 10
16.1676559895
 20
7.3822643111
 30
0.0
 10
16.2001632161
 20
7.3562102442
 30
0.0
 10
16.2276197998
 20
7.3273333949
 30
0.0
 10
16.2495612578
 20
7.2961161081
 30
0.0
 10
16.2630062762
 20
7.2683190471
 30
0.0
 10
16.2705239672
 20
7.2455623046
 30
0.0
 10
16.2745359273
 20
7.2283904492
 30
0.0
 10
16.2769529833
 20
7.2110778405
 30
0.0
 10
16.2774942568
 20
7.1994766355
 30
0.0
 10
16.2774942568
 20
7.1936953294
 30
0.0
  0
SPLINE
  5
42C
100
AcDbEntity
  8
0
100
AcDbSpline
 62
7
  6
CONTINUOUS
 70
0
 71
3
 72
17
 73
13
 74
0
 42
0.0000001
 43
0.0000001
 44
0.0000000001
 40
0.0
 40
0.0
 40
0.0
 40
0.0
 40
0.0551918861
 40
0.1106847669
 40
0.1666613533
 40
0.2233003148
 40
0.3392254215
 40
0.4599109181
 40
0.5861655067
 40
0.7183581784
 40
0.8565145575
 40
1.0
 40
1.0
 40
1.0
 40
1.0
 10
15.5275162571
 20
7.1936953294
 30
0.0
 10
15.5275162571
 20
7.1994766355
 30
0.0
 10
15.5280575306
 20
7.2110778405
 30
0.0
 10
15.5304745866
 20
7.2283904492
 30
0.0
 10
15.5344865467
 20
7.2455623046
 30
0.0
 10
15.5420042377
 20
7.2683190471
 30
0.0
 10
15.555449256
 20
7.2961161081
 30
0.0
 10
15.5773907141
 20
7.3273333949
 30
0.0
 10
15.6048472977
 20
7.3562102442
 30
0.0
 10
15.6373545244
 20
7.3822643111
 30
0.0
 10
15.6743368394
 20
7.4050630816
 30
0.0
 10
15.7010956941
 20
7.4176474559
 30
0.0
 10
15.715010757
 20
7.4233282566
 30
0.0
  0
SPLINE
  5
42D
100
AcDbEntity
  8
0
100
AcDbSpline
 62
7
  6
CONTINUOUS
 70
0
 71
3
 72
17
 73
13
 74
0
 42
0.0000001
 43
0.0000001
 44
0.0000000001
 40
0.0
 40
0.0
 40
0.0
 40
0.0
 40
0.1434854425
 40
0.2816418216
 40
0.4138344933
 40
0.5400890819
 40
0.6607745785
 40
0.7766996852
 40
0.8333386467
 40
0.8893152331
 40
0.9448081139
 40
1.0
 40
1.0
 40
1.0
 40
1.0
 10
15.715010757
 20
6.9640624022
 30
0.0
 10
15.7010956941
 20
6.9697432028
 30
0.0
 10
15.6743368394
 20
6.9823275772
 30
0.0
 10
15.6373545244
 20
7.0051263477
 30
0.0
 10
15.6048472977
 20
7.0311804145
 30
0.0
 10
15.5773907141
 20
7.0600572638
 30
0.0
 10
15.555449256
 20
7.0912745506
 30
0.0
 10
15.5420042377
 20
7.1190716116
 30
0.0
 10
15.5344865467
 20
7.1418283542
 30
0.0
 10
15.5304745866
 20
7.1590002096
 30
0.0
 10
15.5280575306
 20
7.1763128183
 30
0.0
 10
15.5275162571
 20
7.1879140233
 30
0.0
 10
15.5275162571
 20
7.1936953294
 30
0.0
  0
SPLINE
  5
42E
100
AcDbEntity
  8
0
100
AcDbSpline
 62
7
  6
CONTINUOUS
 70
0
 71
3
 72
11
 73
7
 74
0
 42
0.0000001
 43
0.0000001
 44
0.0000000001
 40
0.0
 40
0.0
 40
0.0
 40
0.0
 40
0.2403821886
 40
0.4868091817
 40
0.7399665419
 40
1.0
 40
1.0
 40
1.0
 40
1.0
 10
15.5275162571
 20
7.0169238196
 30
0.0
 10
15.5429272715
 20
7.0142647103
 30
0.0
 10
15.5740287134
 20
7.0082198832
 30
0.0
 10
15.6207906998
 20
6.9966873134
 30
0.0
 10
15.6680567471
 20
6.9821664247
 30
0.0
 10
15.699348464
 20
6.9704565065
 30
0.0
 10
15.715010757
 20
6.9640624022
 30
0.0
  0
SPLINE
  5
42F
100
AcDbEntity
  8
0
100
AcDbSpline
 62
7
  6
CONTINUOUS
 70
0
 71
3
 72
42
 73
38
 74
0
 42
0.0000001
 43
0.0000001
 44
0.0000000001
 40
0.0
 40
0.0
 40
0.0
 40
0.0
 40
0.0628856357
 40
0.0941056172
 40
0.1251733072
 40
0.1560929459
 40
0.1868867803
 40
0.2481714871
 40
0.2787883883
 40
0.2941154032
 40
0.3094720569
 40
0.3403116944
 40
0.3714194642
 40
0.4029116032
 40
0.4188384073
 40
0.4348897882
 40
0.4510476887
 40
0.467305672
 40
0.4836384002
 40
0.5000035702
 40
0.516368682
 40
0.5327012532
 40
0.5489590873
 40
0.5651172772
 40
0.5811683155
 40
0.5970941146
 40
0.6285873868
 40
0.6596957728
 40
0.6905349076
 40
0.7212099415
 40
0.7518275371
 40
0.813112936
 40
0.8439066069
 40
0.8748259964
 40
0.90589355
 40
0.937113703
 40
1.0
 40
1.0
 40
1.0
 40
1.0
 10
15.5294586432
 20
5.9804675559
 30
0.0
 10
15.5344701067
 20
6.0081911254
 30
0.0
 10
15.5429823449
 20
6.0495130242
 30
0.0
 10
15.5569239602
 20
6.1038395501
 30
0.0
 10
15.5687552569
 20
6.1438959847
 30
0.0
 10
15.5821936902
 20
6.1832469525
 30
0.0
 10
15.6024544871
 20
6.2345018631
 30
0.0
 10
15.6268498512
 20
6.2839547496
 30
0.0
 10
15.6526804985
 20
6.3245159411
 30
0.0
 10
15.6688868288
 20
6.3466984256
 30
0.0
 10
15.6861472505
 20
6.3681967522
 30
0.0
 10
15.7097972928
 20
6.3935916133
 30
0.0
 10
15.7416997218
 20
6.4208452515
 30
0.0
 10
15.7712898276
 20
6.440106539
 30
0.0
 10
15.7967157224
 20
6.4528910179
 30
0.0
 10
15.8167005179
 20
6.4610559733
 30
0.0
 10
15.8374232079
 20
6.4676228958
 30
0.0
 10
15.8587557496
 20
6.472427521
 30
0.0
 10
15.8805181256
 20
6.4753693032
 30
0.0
 10
15.9025055773
 20
6.4763763268
 30
0.0
 10
15.9244927114
 20
6.4753653421
 30
0.0
 10
15.9462547355
 20
6.472422864
 30
0.0
 10
15.9675876818
 20
6.4676206687
 30
0.0
 10
15.9883124372
 20
6.4610608552
 30
0.0
 10
16.0082994296
 20
6.4529022311
 30
0.0
 10
16.0337251103
 20
6.4401167625
 30
0.0
 10
16.0633076429
 20
6.4208437022
 30
0.0
 10
16.095209367
 20
6.393587175
 30
0.0
 10
16.1235477392
 20
6.3631697455
 30
0.0
 10
16.1486366526
 20
6.3303221825
 30
0.0
 10
16.1781598431
 20
6.2839577085
 30
0.0
 10
16.2025539925
 20
6.2345013039
 30
0.0
 10
16.2228160485
 20
6.1832471917
 30
0.0
 10
16.2362562683
 20
6.1438970174
 30
0.0
 10
16.248088961
 20
6.103841099
 30
0.0
 10
16.2620300988
 20
6.0495140842
 30
0.0
 10
16.2705403544
 20
6.0081914169
 30
0.0
 10
16.2755518707
 20
5.9804675559
 30
0.0
  0
SPLINE
  5
430
100
AcDbEntity
  8
0
100
AcDbSpline
 62
7
  6
CONTINUOUS
 70
0
 71
3
 72
24
 73
20
 74
0
 42
0.0000001
 43
0.0000001
 44
0.0000000001
 40
0.0
 40
0.0
 40
0.0
 40
0.0
 40
0.0532006526
 40
0.1066193182
 40
0.1336054677
 40
0.1608487459
 40
0.2163103406
 40
0.2734888119
 40
0.332709279
 40
0.3941356708
 40
0.4577742524
 40
0.5234608906
 40
0.590881777
 40
0.6595859753
 40
0.7289957331
 40
0.798448535
 40
0.8672653348
 40
0.9347323664
 40
1.0
 40
1.0
 40
1.0
 40
1.0
 10
14.3922678777
 20
12.1332665865
 30
0.0
 10
14.3951248017
 20
12.1274469475
 30
0.0
 10
14.3998287016
 20
12.115250714
 30
0.0
 10
14.4029194619
 20
12.099176443
 30
0.0
 10
14.4036975697
 20
12.0860668665
 30
0.0
 10
14.4033288169
 20
12.0726902881
 30
0.0
 10
14.4006809524
 20
12.0557641589
 30
0.0
 10
14.3941232285
 20
12.0357866646
 30
0.0
 10
14.3843198799
 20
12.0163752145
 30
0.0
 10
14.3714703561
 20
11.9978765726
 30
0.0
 10
14.3558545369
 20
11.9805800605
 30
0.0
 10
14.3377806809
 20
11.9647505461
 30
0.0
 10
14.3176158028
 20
11.9505959763
 30
0.0
 10
14.2957441802
 20
11.9383104899
 30
0.0
 10
14.2725921695
 20
11.9280343126
 30
0.0
 10
14.2485914124
 20
11.9198994023
 30
0.0
 10
14.2241890969
 20
11.9139978565
 30
0.0
 10
14.1998572965
 20
11.9104170421
 30
0.0
 10
14.1836733558
 20
11.9095728585
 30
0.0
 10
14.1757197933
 20
11.9095728585
 30
0.0
  0
SPLINE
  5
431
100
AcDbEntity
  8
0
100
AcDbSpline
 62
7
  6
CONTINUOUS
 70
0
 71
3
 72
17
 73
13
 74
0
 42
0.0000001
 43
0.0000001
 44
0.0000000001
 40
0.0
 40
0.0
 40
0.0
 40
0.0
 40
0.0539352607
 40
0.108126895
 40
0.1628252785
 40
0.2182708222
 40
0.3321938731
 40
0.4515141002
 40
0.5773785598
 40
0.7105447377
 40
0.851395273
 40
1.0
 40
1.0
 40
1.0
 40
1.0
 10
15.7870834717
 20
10.6451282859
 30
0.0
 10
15.7835512388
 20
10.633697051
 30
0.0
 10
15.7754942795
 20
10.6110689031
 30
0.0
 10
15.7605462036
 20
10.5781439883
 30
0.0
 10
15.7427598757
 20
10.5462736694
 30
0.0
 10
15.7150746979
 20
10.504937308
 30
0.0
 10
15.6731954118
 20
10.4561311401
 30
0.0
 10
15.6129443937
 20
10.4036474008
 30
0.0
 10
15.5428425816
 20
10.3571054616
 30
0.0
 10
15.4635639469
 20
10.3169106851
 30
0.0
 10
15.375861264
 20
10.2833730217
 30
0.0
 10
15.3139153947
 20
10.2661031414
 30
0.0
 10
15.2818258967
 20
10.2585555568
 30
0.0
  0
SPLINE
  5
432
100
AcDbEntity
  8
0
100
AcDbSpline
 62
7
  6
CONTINUOUS
 70
0
 71
3
 72
15
 73
11
 74
0
 42
0.0000001
 43
0.0000001
 44
0.0000000001
 40
0.0
 40
0.0
 40
0.0
 40
0.0
 40
0.1164343838
 40
0.2337725649
 40
0.3528785008
 40
0.4745664214
 40
0.5995740681
 40
0.7285418326
 40
0.8619206153
 40
1.0
 40
1.0
 40
1.0
 40
1.0
 10
15.9365589744
 20
11.1288327913
 30
0.0
 10
15.9410831929
 20
11.1434748001
 30
0.0
 10
15.9485752773
 20
11.1733907687
 30
0.0
 10
15.9549754053
 20
11.2194773969
 30
0.0
 10
15.9565324894
 20
11.2666740523
 30
0.0
 10
15.9532383732
 20
11.3147861658
 30
0.0
 10
15.9451248838
 20
11.3636338427
 30
0.0
 10
15.9322140914
 20
11.4130241954
 30
0.0
 10
15.914585608
 20
11.4627525419
 30
0.0
 10
15.9000054128
 20
11.4954162524
 30
0.0
 10
15.8919990117
 20
11.5117315825
 30
0.0
  0
SPLINE
  5
433
100
AcDbEntity
  8
0
100
AcDbSpline
 62
7
  6
CONTINUOUS
 70
0
 71
3
 72
9
 73
5
 74
0
 42
0.0000001
 43
0.0000001
 44
0.0000000001
 40
0.0
 40
0.0
 40
0.0
 40
0.0
 40
0.2456739036
 40
1.0
 40
1.0
 40
1.0
 40
1.0
 10
15.8141521845
 20
11.9742814679
 30
0.0
 10
15.8026856004
 20
11.9836204542
 30
0.0
 10
15.7555754818
 20
12.0210966946
 30
0.0
 10
15.7067822635
 20
12.0564479477
 30
0.0
 10
15.6692112839
 20
12.0819474726
 30
0.0
  0
SPLINE
  5
434
100
AcDbEntity
  8
0
100
AcDbSpline
 62
7
  6
CONTINUOUS
 70
0
 71
3
 72
9
 73
5
 74
0
 42
0.0000001
 43
0.0000001
 44
0.0000000001
 40
0.0
 40
0.0
 40
0.0
 40
0.0
 40
0.2568854852
 40
1.0
 40
1.0
 40
1.0
 40
1.0
 10
13.5993323383
 20
12.4257447767
 30
0.0
 10
13.5879482911
 20
12.4211690595
 30
0.0
 10
13.5439218063
 20
12.4026519216
 30
0.0
 10
13.5010917771
 20
12.3812420617
 30
0.0
 10
13.4703040811
 20
12.3635837799
 30
0.0
  0
SPLINE
  5
435
100
AcDbEntity
  8
0
100
AcDbSpline
 62
7
  6
CONTINUOUS
 70
0
 71
3
 72
9
 73
5
 74
0
 42
0.0000001
 43
0.0000001
 44
0.0000000001
 40
0.0
 40
0.0
 40
0.0
 40
0.0
 40
0.4871082965
 40
1.0
 40
1.0
 40
1.0
 40
1.0
 10
15.8063751183
 20
11.0627990865
 30
0.0
 10
15.8048801306
 20
11.0627993662
 30
0.0
 10
15.8018025078
 20
11.063154593
 30
0.0
 10
15.798877496
 20
11.0641557694
 30
0.0
 10
15.7974391006
 20
11.0647952001
 30
0.0
  0
SPLINE
  5
436
100
AcDbEntity
  8
0
100
AcDbSpline
 62
7
  6
CONTINUOUS
 70
0
 71
3
 72
10
 73
6
 74
0
 42
0.0000001
 43
0.0000001
 44
0.0000000001
 40
0.0
 40
0.0
 40
0.0
 40
0.0
 40
0.455594382
 40
0.7157896108
 40
1.0
 40
1.0
 40
1.0
 40
1.0
 10
15.7966013733
 20
11.0651848465
 30
0.0
 10
15.7938354797
 20
11.0665281799
 30
0.0
 10
15.7898283613
 20
11.0693483175
 30
0.0
 10
15.7849558104
 20
11.0740181175
 30
0.0
 10
15.7825326842
 20
11.0767888307
 30
0.0
 10
15.7813218766
 20
11.0782765465
 30
0.0
  0
SPLINE
  5
437
100
AcDbEntity
  8
0
100
AcDbSpline
 62
7
  6
CONTINUOUS
 70
0
 71
3
 72
10
 73
6
 74
0
 42
0.0000001
 43
0.0000001
 44
0.0000000001
 40
0.0
 40
0.0
 40
0.0
 40
0.0
 40
0.2221802057
 40
0.4632229321
 40
1.0
 40
1.0
 40
1.0
 40
1.0
 10
15.7813218766
 20
11.0782765465
 30
0.0
 10
15.7799384836
 20
11.0799763173
 30
0.0
 10
15.7771966581
 20
11.0836373983
 30
0.0
 10
15.7718023449
 20
11.0919009078
 30
0.0
 10
15.7681545003
 20
11.0986691741
 30
0.0
 10
15.7658219406
 20
11.1034224309
 30
0.0
  0
SPLINE
  5
438
100
AcDbEntity
  8
0
100
AcDbSpline
 62
7
  6
CONTINUOUS
 70
0
 71
3
 72
15
 73
11
 74
0
 42
0.0000001
 43
0.0000001
 44
0.0000000001
 40
0.0
 40
0.0
 40
0.0
 40
0.0
 40
0.1164347551
 40
0.2337662107
 40
0.3528668327
 40
0.4745587764
 40
0.5995843987
 40
0.7285741399
 40
0.8619491857
 40
1.0
 40
1.0
 40
1.0
 40
1.0
 10
15.3121950295
 20
10.7489733543
 30
0.0
 10
15.3150289224
 20
10.7581468474
 30
0.0
 10
15.3197249681
 20
10.776888059
 30
0.0
 10
15.3237383281
 20
10.8057603362
 30
0.0
 10
15.3247102504
 20
10.8353287386
 30
0.0
 10
15.3226486404
 20
10.8654726253
 30
0.0
 10
15.3175639061
 20
10.8960795334
 30
0.0
 10
15.3094712527
 20
10.9270248092
 30
0.0
 10
15.2984287044
 20
10.9581794898
 30
0.0
 10
15.2892958336
 20
10.9786413509
 30
0.0
 10
15.2842808219
 20
10.9888608704
 30
0.0
  0
SPLINE
  5
439
100
AcDbEntity
  8
0
100
AcDbSpline
 62
7
  6
CONTINUOUS
 70
0
 71
3
 72
23
 73
19
 74
0
 42
0.0000001
 43
0.0000001
 44
0.0000000001
 40
0.0
 40
0.0
 40
0.0
 40
0.0
 40
0.0555744022
 40
0.1137455025
 40
0.1742688401
 40
0.2368380519
 40
0.3011004926
 40
0.3666636522
 40
0.4331094465
 40
0.5000008747
 40
0.5668924239
 40
0.633338548
 40
0.6989023293
 40
0.7631650718
 40
0.8257334779
 40
0.8862567068
 40
0.9444286634
 40
1.0
 40
1.0
 40
1.0
 40
1.0
 10
15.2414306368
 20
10.2490563321
 30
0.0
 10
15.2079539573
 20
10.2411825317
 30
0.0
 10
15.1386927506
 20
10.22811312
 30
0.0
 10
15.0313845447
 20
10.2164992316
 30
0.0
 10
14.9191944354
 20
10.2125158603
 30
0.0
 10
14.8032334559
 20
10.2161899836
 30
0.0
 10
14.684638697
 20
10.2274957835
 30
0.0
 10
14.5645777668
 20
10.246312752
 30
0.0
 10
14.4442339989
 20
10.2724568964
 30
0.0
 10
14.3247961076
 20
10.3056759407
 30
0.0
 10
14.2074398732
 20
10.3456319307
 30
0.0
 10
14.0933268373
 20
10.3919408565
 30
0.0
 10
13.9835809429
 20
10.4441398476
 30
0.0
 10
13.8792841043
 20
10.5017134743
 30
0.0
 10
13.7814672076
 20
10.5641010643
 30
0.0
 10
13.6910842933
 20
10.6306850343
 30
0.0
 10
13.6090392054
 20
10.7008149823
 30
0.0
 10
13.55922587
 20
10.7506783475
 30
0.0
 10
13.536028565
 20
10.7760641579
 30
0.0
  0
SPLINE
  5
43A
100
AcDbEntity
  8
0
100
AcDbSpline
 62
7
  6
CONTINUOUS
 70
0
 71
3
 72
9
 73
5
 74
0
 42
0.0000001
 43
0.0000001
 44
0.0000000001
 40
0.0
 40
0.0
 40
0.0
 40
0.0
 40
0.5155980858
 40
1.0
 40
1.0
 40
1.0
 40
1.0
 10
13.5080358962
 20
10.8066972777
 30
0.0
 10
13.482389959
 20
10.8347627939
 30
0.0
 10
13.4351776329
 20
10.8915856792
 30
0.0
 10
13.3944558572
 20
10.9532935136
 30
0.0
 10
13.3767376702
 20
10.9843070375
 30
0.0
  0
SPLINE
  5
43B
100
AcDbEntity
  8
0
100
AcDbSpline
 62
7
  6
CONTINUOUS
 70
0
 71
3
 72
16
 73
12
 74
0
 42
0.0000001
 43
0.0000001
 44
0.0000000001
 40
0.0
 40
0.0
 40
0.0
 40
0.0
 40
0.1150510954
 40
0.1729986028
 40
0.2313708741
 40
0.3498371462
 40
0.4714810887
 40
0.5970017471
 40
0.726855043
 40
0.8612880343
 40
1.0
 40
1.0
 40
1.0
 40
1.0
 10
18.431505745
 20
12.1597236624
 30
0.0
 10
18.4254395316
 20
12.1720853057
 30
0.0
 10
18.4147159983
 20
12.189944905
 30
0.0
 10
18.3976245216
 20
12.2117600348
 30
0.0
 10
18.378527508
 20
12.2324131696
 30
0.0
 10
18.3511813521
 20
12.2556440085
 30
0.0
 10
18.3138118647
 20
12.278703759
 30
0.0
 10
18.2723492571
 20
12.2968538223
 30
0.0
 10
18.227427969
 20
12.309896449
 30
0.0
 10
18.1797281393
 20
12.3177103542
 30
0.0
 10
18.1470063989
 20
12.31939338
 30
0.0
 10
18.1304046884
 20
12.31939338
 30
0.0
  0
SPLINE
  5
43C
100
AcDbEntity
  8
0
100
AcDbSpline
 62
7
  6
CONTINUOUS
 70
0
 71
3
 72
9
 73
5
 74
0
 42
0.0000001
 43
0.0000001
 44
0.0000000001
 40
0.0
 40
0.0
 40
0.0
 40
0.0
 40
0.500383686
 40
1.0
 40
1.0
 40
1.0
 40
1.0
 10
16.0899404613
 20
13.7320264345
 30
0.0
 10
16.0899683311
 20
13.7383415525
 30
0.0
 10
16.0909312177
 20
13.7509755499
 30
0.0
 10
16.0937475624
 20
13.7633328924
 30
0.0
 10
16.0956092431
 20
13.7693572935
 30
0.0
  0
SPLINE
  5
43D
100
AcDbEntity
  8
0
100
AcDbSpline
 62
7
  6
CONTINUOUS
 70
0
 71
3
 72
15
 73
11
 74
0
 42
0.0000001
 43
0.0000001
 44
0.0000000001
 40
0.0
 40
0.0
 40
0.0
 40
0.0
 40
0.1249616899
 40
0.2498938461
 40
0.3747997227
 40
0.4996912179
 40
0.6246054233
 40
0.7496128715
 40
0.8747401198
 40
1.0
 40
1.0
 40
1.0
 40
1.0
 10
16.3542835598
 20
13.6722583042
 30
0.0
 10
16.3523727239
 20
13.6660748368
 30
0.0
 10
16.3475728761
 20
13.6539882332
 30
0.0
 10
16.3376308874
 20
13.6372240661
 30
0.0
 10
16.3251224392
 20
13.6222742116
 30
0.0
 10
16.3103980616
 20
13.6095041793
 30
0.0
 10
16.2938084844
 20
13.599265595
 30
0.0
 10
16.2758090978
 20
13.5917496786
 30
0.0
 10
16.2568457343
 20
13.587137436
 30
0.0
 10
16.2438711408
 20
13.5859959636
 30
0.0
 10
16.2373843006
 20
13.5859087242
 30
0.0
  0
SPLINE
  5
43E
100
AcDbEntity
  8
0
100
AcDbSpline
 62
7
  6
CONTINUOUS
 70
0
 71
3
 72
31
 73
27
 74
0
 42
0.0000001
 43
0.0000001
 44
0.0000000001
 40
0.0
 40
0.0
 40
0.0
 40
0.0
 40
0.0620139641
 40
0.0930564816
 40
0.12409685
 40
0.1551350039
 40
0.1861692211
 40
0.217208765
 40
0.2482590099
 40
0.2793194857
 40
0.3104049132
 40
0.3415235029
 40
0.3726725737
 40
0.4350624029
 40
0.4663944729
 40
0.4978015279
 40
0.5607761072
 40
0.6239659567
 40
0.6556182658
 40
0.6872561718
 40
0.750334192
 40
0.8131255577
 40
0.8756056362
 40
0.9067853199
 40
0.9379285171
 40
1.0
 40
1.0
 40
1.0
 40
1.0
 10
16.0956092431
 20
13.7693572935
 30
0.0
 10
16.0981913067
 20
13.7777128541
 30
0.0
 10
16.1034175188
 20
13.7898928708
 30
0.0
 10
16.112818659
 20
13.8046820587
 30
0.0
 10
16.1210449227
 20
13.8149542987
 30
0.0
 10
16.130326866
 20
13.8242778934
 30
0.0
 10
16.1405679063
 20
13.8325383646
 30
0.0
 10
16.1516460248
 20
13.8396382719
 30
0.0
 10
16.1634205658
 20
13.8455189132
 30
0.0
 10
16.1757623524
 20
13.8501093856
 30
0.0
 10
16.1885256656
 20
13.853380166
 30
0.0
 10
16.2015703857
 20
13.8553272632
 30
0.0
 10
16.2191547639
 20
13.8561404498
 30
0.0
 10
16.2368031144
 20
13.8543151059
 30
0.0
 10
16.2539377309
 20
13.8500154903
 30
0.0
 10
16.27067952
 20
13.8441132956
 30
0.0
 10
16.2905470754
 20
13.8338790321
 30
0.0
 10
16.3083234804
 20
13.8202884408
 30
0.0
 10
16.3209781197
 20
13.8076902536
 30
0.0
 10
16.332476228
 20
13.7940498337
 30
0.0
 10
16.3445184268
 20
13.7752351783
 30
0.0
 10
16.3546694154
 20
13.7505367054
 30
0.0
 10
16.3591566894
 20
13.7287855649
 30
0.0
 10
16.3601696552
 20
13.7111878871
 30
0.0
 10
16.3594259382
 20
13.6936410003
 30
0.0
 10
16.3568680182
 20
13.6806216148
 30
0.0
 10
16.3542835598
 20
13.6722583042
 30
0.0
  0
SPLINE
  5
43F
100
AcDbEntity
  8
0
100
AcDbSpline
 62
7
  6
CONTINUOUS
 70
0
 71
3
 72
14
 73
10
 74
0
 42
0.0000001
 43
0.0000001
 44
0.0000000001
 40
0.0
 40
0.0
 40
0.0
 40
0.0
 40
0.2382403295
 40
0.3644615981
 40
0.4932899237
 40
0.6230057773
 40
0.7517923821
 40
0.8780051343
 40
1.0
 40
1.0
 40
1.0
 40
1.0
 10
17.490323487
 20
11.7876122005
 30
0.0
 10
17.5039955019
 20
11.8121395858
 30
0.0
 10
17.5312644359
 20
11.8463477643
 30
0.0
 10
17.5756500558
 20
11.8840161143
 30
0.0
 10
17.6137467111
 20
11.9088676985
 30
0.0
 10
17.6548482069
 20
11.9289871391
 30
0.0
 10
17.6978177467
 20
11.9438414583
 30
0.0
 10
17.7414209826
 20
11.9529799894
 30
0.0
 10
17.7707084974
 20
11.9551423408
 30
0.0
 10
17.7850875973
 20
11.9551423408
 30
0.0
  0
SPLINE
  5
440
100
AcDbEntity
  8
0
100
AcDbSpline
 62
7
  6
CONTINUOUS
 70
0
 71
3
 72
18
 73
14
 74
0
 42
0.0000001
 43
0.0000001
 44
0.0000000001
 40
0.0
 40
0.0
 40
0.0
 40
0.0
 40
0.0615778487
 40
0.1243815596
 40
0.188143307
 40
0.2526469933
 40
0.3829348415
 40
0.5133347564
 40
0.6418077557
 40
0.7665435083
 40
0.8271029407
 40
0.8862581111
 40
1.0
 40
1.0
 40
1.0
 40
1.0
 10
12.5727741116
 20
12.3193233579
 30
0.0
 10
12.5596019796
 20
12.3191001002
 30
0.0
 10
12.5330034414
 20
12.3175786749
 30
0.0
 10
12.4930713042
 20
12.3122491154
 30
0.0
 10
12.4530220836
 20
12.3038762395
 30
0.0
 10
12.3997807995
 20
12.2887331851
 30
0.0
 10
12.3349891581
 20
12.2627426798
 30
0.0
 10
12.262402364
 20
12.2214484551
 30
0.0
 10
12.1971117997
 20
12.1712887321
 30
0.0
 10
12.1501348929
 20
12.1229496123
 30
0.0
 10
12.1183559784
 20
12.0813433405
 30
0.0
 10
12.0913897092
 20
12.0392629534
 30
0.0
 10
12.0754868755
 20
12.0055603344
 30
0.0
 10
12.0673614087
 20
11.9826229695
 30
0.0
  0
SPLINE
  5
441
100
AcDbEntity
  8
0
100
AcDbSpline
 62
7
  6
CONTINUOUS
 70
0
 71
3
 72
14
 73
10
 74
0
 42
0.0000001
 43
0.0000001
 44
0.0000000001
 40
0.0
 40
0.0
 40
0.0
 40
0.0
 40
0.2622786944
 40
0.3895544696
 40
0.5145600454
 40
0.6376582804
 40
0.7592902559
 40
0.8799174509
 40
1.0
 40
1.0
 40
1.0
 40
1.0
 10
12.066388792
 20
11.9798412868
 30
0.0
 10
12.0600462346
 20
11.9614601537
 30
0.0
 10
12.0528200293
 20
11.9332960556
 30
0.0
 10
12.0485403011
 20
11.8953457664
 30
0.0
 10
12.0480904242
 20
11.8674726334
 30
0.0
 10
12.0503840299
 20
11.8401107264
 30
0.0
 10
12.0554460751
 20
11.8134493475
 30
0.0
 10
12.0632414082
 20
11.7876914324
 30
0.0
 10
12.0702327928
 20
11.7712273696
 30
0.0
 10
12.0741547681
 20
11.7632352244
 30
0.0
  0
LINE
  5
442
100
AcDbEntity
  8
0
100
AcDbLine
 62
7
  6
CONTINUOUS
 10
12.8638568176
 20
13.198794771
 11
12.8314643857
 21
13.0939728224
  0
SPLINE
  5
443
100
AcDbEntity
  8
0
100
AcDbSpline
 62
7
  6
CONTINUOUS
 70
0
 71
3
 72
9
 73
5
 74
0
 42
0.0000001
 43
0.0000001
 44
0.0000000001
 40
0.0
 40
0.0
 40
0.0
 40
0.0
 40
0.2457442741
 40
1.0
 40
1.0
 40
1.0
 40
1.0
 10
18.171236848
 20
11.9521435339
 30
0.0
 10
18.1679256206
 20
11.9526447751
 30
0.0
 10
18.1544117732
 20
11.9544171623
 30
0.0
 10
18.1407643063
 20
11.9551423408
 30
0.0
 10
18.13048547
 20
11.9551423408
 30
0.0
  0
SPLINE
  5
444
100
AcDbEntity
  8
0
100
AcDbSpline
 62
7
  6
CONTINUOUS
 70
0
 71
3
 72
23
 73
19
 74
0
 42
0.0000001
 43
0.0000001
 44
0.0000000001
 40
0.0
 40
0.0
 40
0.0
 40
0.0
 40
0.0253128957
 40
0.0506503114
 40
0.101780726
 40
0.1542717854
 40
0.2087819709
 40
0.2657612056
 40
0.3254190403
 40
0.3877532899
 40
0.4525649913
 40
0.5194972566
 40
0.5880724722
 40
0.7276496503
 40
0.7975473197
 40
0.8666249259
 40
0.9343246043
 40
1.0
 40
1.0
 40
1.0
 40
1.0
 10
18.1705789916
 20
12.0958331417
 30
0.0
 10
18.1726973228
 20
12.0922342442
 30
0.0
 10
18.176592243
 20
12.0848232363
 30
0.0
 10
18.1829414796
 20
12.0692562246
 30
0.0
 10
18.1880995698
 20
12.0484716506
 30
0.0
 10
18.1896010942
 20
12.0222898154
 30
0.0
 10
18.1864764223
 20
11.9952920986
 30
0.0
 10
18.1787972457
 20
11.9680085845
 30
0.0
 10
18.1667513137
 20
11.9409490467
 30
0.0
 10
18.1505788287
 20
11.9146182554
 30
0.0
 10
18.1305951494
 20
11.8895096436
 30
0.0
 10
18.1071875049
 20
11.8660816981
 30
0.0
 10
18.0718196454
 20
11.8375417626
 30
0.0
 10
18.0318075333
 20
11.8143539285
 30
0.0
 10
17.9890168929
 20
11.7974446944
 30
0.0
 10
17.9561378658
 20
11.7881687973
 30
0.0
 10
17.9231599773
 20
11.7825150616
 30
0.0
 10
17.9011392391
 20
11.7811879652
 30
0.0
 10
17.8903042989
 20
11.7811879652
 30
0.0
  0
SPLINE
  5
445
100
AcDbEntity
  8
0
100
AcDbSpline
 62
7
  6
CONTINUOUS
 70
0
 71
3
 72
15
 73
11
 74
0
 42
0.0000001
 43
0.0000001
 44
0.0000000001
 40
0.0
 40
0.0
 40
0.0
 40
0.0
 40
0.1132079275
 40
0.2273915317
 40
0.3441542682
 40
0.4648374259
 40
0.5903798779
 40
0.7213829529
 40
0.8580799072
 40
1.0
 40
1.0
 40
1.0
 40
1.0
 10
17.3769884171
 20
11.8758920221
 30
0.0
 10
17.3798571196
 20
11.868722428
 30
0.0
 10
17.3869161031
 20
11.8548012101
 30
0.0
 10
17.4011598926
 20
11.8359948769
 30
0.0
 10
17.4187873985
 20
11.8195609333
 30
0.0
 10
17.4394829252
 20
11.8057838629
 30
0.0
 10
17.4628808435
 20
11.794862813
 30
0.0
 10
17.4885990522
 20
11.7869635748
 30
0.0
 10
17.5162008792
 20
11.7822126307
 30
0.0
 10
17.5352256834
 20
11.7811879652
 30
0.0
 10
17.5449064262
 20
11.7811879652
 30
0.0
  0
SPLINE
  5
446
100
AcDbEntity
  8
0
100
AcDbSpline
 62
7
  6
CONTINUOUS
 70
0
 71
3
 72
13
 73
9
 74
0
 42
0.0000001
 43
0.0000001
 44
0.0000000001
 40
0.0
 40
0.0
 40
0.0
 40
0.0
 40
0.2720689546
 40
0.5257724118
 40
0.6467525323
 40
0.7649645202
 40
0.8820890233
 40
1.0
 40
1.0
 40
1.0
 40
1.0
 10
18.8528029268
 20
12.8337513794
 30
0.0
 10
18.8551544101
 20
12.833751381
 30
0.0
 10
18.8597109602
 20
12.8334114051
 30
0.0
 10
18.8651375997
 20
12.8318253932
 30
0.0
 10
18.8688884181
 20
12.8297724614
 30
0.0
 10
18.8713279188
 20
12.8278677865
 30
0.0
 10
18.8733741264
 20
12.8255801138
 30
0.0
 10
18.8744357019
 20
12.8238324983
 30
0.0
 10
18.8748846593
 20
12.8229176193
 30
0.0
  0
SPLINE
  5
447
100
AcDbEntity
  8
0
100
AcDbSpline
 62
7
  6
CONTINUOUS
 70
0
 71
3
 72
41
 73
37
 74
0
 42
0.0000001
 43
0.0000001
 44
0.0000000001
 40
0.0
 40
0.0
 40
0.0
 40
0.0
 40
0.0302423941
 40
0.061553929
 40
0.0938525641
 40
0.1270665505
 40
0.1611172121
 40
0.195903942
 40
0.2313158845
 40
0.2672345233
 40
0.3035362427
 40
0.3400913203
 40
0.3767672757
 40
0.4134300997
 40
0.4499458651
 40
0.4861827998
 40
0.5220118984
 40
0.5573102846
 40
0.5919607624
 40
0.6258563625
 40
0.6588990797
 40
0.6910055893
 40
0.7221054544
 40
0.7521478054
 40
0.7810994524
 40
0.8089518201
 40
0.8357196072
 40
0.8614461099
 40
0.8862033872
 40
0.9100934023
 40
0.9332490322
 40
0.9558244918
 40
0.9669555538
 40
0.9780113232
 40
0.989017339
 40
1.0
 40
1.0
 40
1.0
 40
1.0
 10
17.1012612639
 20
13.7847315842
 30
0.0
 10
17.0708793568
 20
13.8189547582
 30
0.0
 10
17.0066782991
 20
13.8865426722
 30
0.0
 10
16.9027013995
 20
13.9833951019
 30
0.0
 10
16.7898824218
 20
14.0769973044
 30
0.0
 10
16.6688693576
 20
14.1668594887
 30
0.0
 10
16.5402999313
 20
14.2525158919
 30
0.0
 10
16.4048738798
 20
14.3335363222
 30
0.0
 10
16.2633179498
 20
14.4094678668
 30
0.0
 10
16.1164132816
 20
14.4799211434
 30
0.0
 10
15.9649528368
 20
14.5445002995
 30
0.0
 10
15.8097703302
 20
14.6028736687
 30
0.0
 10
15.6517074479
 20
14.6547052256
 30
0.0
 10
15.491634474
 20
14.6997303106
 30
0.0
 10
15.330420808
 20
14.7376839546
 30
0.0
 10
15.168951189
 20
14.768375754
 30
0.0
 10
15.0081012018
 20
14.7916166747
 30
0.0
 10
14.8487483472
 20
14.8072948519
 30
0.0
 10
14.6917525297
 20
14.8152999754
 30
0.0
 10
14.5379620725
 20
14.815599446
 30
0.0
 10
14.3882002529
 20
14.8081605556
 30
0.0
 10
14.2432657393
 20
14.7930264168
 30
0.0
 10
14.1039267806
 20
14.7702367368
 30
0.0
 10
13.9709158251
 20
14.7399017709
 30
0.0
 10
13.8449340386
 20
14.7021242554
 30
0.0
 10
13.7266405838
 20
14.6570689212
 30
0.0
 10
13.6166717881
 20
14.6048906807
 30
0.0
 10
13.515623386
 20
14.5458024556
 30
0.0
 10
13.4240895105
 20
14.4800143187
 30
0.0
 10
13.3426268892
 20
14.4078036847
 30
0.0
 10
13.2718290774
 20
14.3294865035
 30
0.0
 10
13.2218937887
 20
14.2591293406
 30
0.0
 10
13.1880084747
 20
14.2004357388
 30
0.0
 10
13.1656709623
 20
14.1554084383
 30
0.0
 10
13.1463412787
 20
14.1092571178
 30
0.0
 10
13.1354825761
 20
14.077776007
 30
0.0
 10
13.1305758092
 20
14.0618977033
 30
0.0
  0
SPLINE
  5
448
100
AcDbEntity
  8
0
100
AcDbSpline
 62
7
  6
CONTINUOUS
 70
0
 71
3
 72
11
 73
7
 74
0
 42
0.0000001
 43
0.0000001
 44
0.0000000001
 40
0.0
 40
0.0
 40
0.0
 40
0.0
 40
0.2586571646
 40
0.4928899849
 40
0.729993377
 40
1.0
 40
1.0
 40
1.0
 40
1.0
 10
12.3102001479
 20
12.8337513798
 30
0.0
 10
12.3100792254
 20
12.8337513801
 30
0.0
 10
12.3098467216
 20
12.8337268119
 30
0.0
 10
12.3095299547
 20
12.8335808576
 30
0.0
 10
12.3092879122
 20
12.8333217964
 30
0.0
 10
12.3091919449
 20
12.8331007065
 30
0.0
 10
12.3091546636
 20
12.8329801092
 30
0.0
  0
SPLINE
  5
449
100
AcDbEntity
  8
0
100
AcDbSpline
 62
7
  6
CONTINUOUS
 70
0
 71
3
 72
11
 73
7
 74
0
 42
0.0000001
 43
0.0000001
 44
0.0000000001
 40
0.0
 40
0.0
 40
0.0
 40
0.0
 40
0.2730026029
 40
0.5305521538
 40
0.7721251148
 40
1.0
 40
1.0
 40
1.0
 40
1.0
 10
11.722022759
 20
10.9330205697
 30
0.0
 10
11.7214880187
 20
10.9312902723
 30
0.0
 10
11.7206434836
 20
10.9278613587
 30
0.0
 10
11.7201667344
 20
10.9227378936
 30
0.0
 10
11.7206208607
 20
10.9179037942
 30
0.0
 10
11.7216224564
 20
10.9149153555
 30
0.0
 10
11.7222884138
 20
10.9135582771
 30
0.0
  0
SPLINE
  5
44A
100
AcDbEntity
  8
0
100
AcDbSpline
 62
7
  6
CONTINUOUS
 70
0
 71
3
 72
11
 73
7
 74
0
 42
0.0000001
 43
0.0000001
 44
0.0000000001
 40
0.0
 40
0.0
 40
0.0
 40
0.0
 40
0.2465128764
 40
0.4944326545
 40
0.745160256
 40
1.0
 40
1.0
 40
1.0
 40
1.0
 10
12.5647457782
 20
12.230871052
 30
0.0
 10
12.5570189546
 20
12.2058670417
 30
0.0
 10
12.5440712318
 20
12.1548880107
 30
0.0
 10
12.5324368533
 20
12.0765100424
 30
0.0
 10
12.5285803897
 20
11.9964862049
 30
0.0
 10
12.5311568438
 20
11.9427825366
 30
0.0
 10
12.5336807893
 20
11.9158458373
 30
0.0
  0
SPLINE
  5
44B
100
AcDbEntity
  8
0
100
AcDbSpline
 62
7
  6
CONTINUOUS
 70
0
 71
3
 72
18
 73
14
 74
0
 42
0.0000001
 43
0.0000001
 44
0.0000000001
 40
0.0
 40
0.0
 40
0.0
 40
0.0
 40
0.1418469566
 40
0.2785171661
 40
0.4094911111
 40
0.5349887358
 40
0.6556283557
 40
0.7144599156
 40
0.7724627033
 40
0.8298175364
 40
0.8867203039
 40
0.9433761783
 40
1.0
 40
1.0
 40
1.0
 40
1.0
 10
12.4790709591
 20
11.7811879652
 30
0.0
 10
12.4693920586
 20
11.7811879652
 30
0.0
 10
12.4503680515
 20
11.7822143151
 30
0.0
 10
12.4227655042
 20
11.7869619836
 30
0.0
 10
12.3970455144
 20
11.7948638774
 30
0.0
 10
12.37364739
 20
11.8057791705
 30
0.0
 10
12.3562516393
 20
11.8173704474
 30
0.0
 10
12.3439534061
 20
11.8279458235
 30
0.0
 10
12.3356136768
 20
11.8364355166
 30
0.0
 10
12.3281188286
 20
11.8455091234
 30
0.0
 10
12.3214965188
 20
11.855127322
 30
0.0
 10
12.315776358
 20
11.8652499736
 30
0.0
 10
12.3125860607
 20
11.872303845
 30
0.0
 10
12.3111515327
 20
11.8758913832
 30
0.0
  0
SPLINE
  5
44C
100
AcDbEntity
  8
0
100
AcDbSpline
 62
7
  6
CONTINUOUS
 70
0
 71
3
 72
11
 73
7
 74
0
 42
0.0000001
 43
0.0000001
 44
0.0000000001
 40
0.0
 40
0.0
 40
0.0
 40
0.0
 40
0.2608550311
 40
0.5160464209
 40
0.7630769397
 40
1.0
 40
1.0
 40
1.0
 40
1.0
 10
12.5349934559
 20
11.9000771848
 30
0.0
 10
12.5232164198
 20
11.8927161599
 30
0.0
 10
12.5007172075
 20
11.8768232494
 30
0.0
 10
12.4704329052
 20
11.8495988927
 30
0.0
 10
12.4445636175
 20
11.81980821
 30
0.0
 10
12.4303599661
 20
11.7981902387
 30
0.0
 10
12.4242381612
 20
11.7871612595
 30
0.0
  0
SPLINE
  5
44D
100
AcDbEntity
  8
0
100
AcDbSpline
 62
7
  6
CONTINUOUS
 70
0
 71
3
 72
15
 73
11
 74
0
 42
0.0000001
 43
0.0000001
 44
0.0000000001
 40
0.0
 40
0.0
 40
0.0
 40
0.0
 40
0.1464462078
 40
0.2866890986
 40
0.4198662348
 40
0.5459919156
 40
0.6656651516
 40
0.7800434619
 40
0.8907878986
 40
1.0
 40
1.0
 40
1.0
 40
1.0
 10
14.1757197933
 20
11.9095728585
 30
0.0
 10
14.1688539622
 20
11.9095728585
 30
0.0
 10
14.1554032428
 20
11.9101800311
 30
0.0
 10
14.1358879751
 20
11.9130069466
 30
0.0
 10
14.1177183218
 20
11.9177353139
 30
0.0
 10
14.1011596914
 20
11.9243167119
 30
0.0
 10
14.0864354617
 20
11.9327070694
 30
0.0
 10
14.0737410282
 20
11.9428322207
 30
0.0
 10
14.0632718752
 20
11.9546019228
 30
0.0
 10
14.0578768148
 20
11.9634683142
 30
0.0
 10
14.0556203943
 20
11.9680644944
 30
0.0
  0
SPLINE
  5
44E
100
AcDbEntity
  8
0
100
AcDbSpline
 62
7
  6
CONTINUOUS
 70
0
 71
3
 72
15
 73
11
 74
0
 42
0.0000001
 43
0.0000001
 44
0.0000000001
 40
0.0
 40
0.0
 40
0.0
 40
0.0
 40
0.1380799318
 40
0.2714583019
 40
0.400424799
 40
0.5254316948
 40
0.647119483
 40
0.7662256933
 40
0.8835644243
 40
1.0
 40
1.0
 40
1.0
 40
1.0
 10
13.3535211038
 20
11.0280272158
 30
0.0
 10
13.3455146677
 20
11.0443426173
 30
0.0
 10
13.3309344086
 20
11.0770063305
 30
0.0
 10
13.3133058337
 20
11.1267345164
 30
0.0
 10
13.3003952846
 20
11.1761246241
 30
0.0
 10
13.2922817258
 20
11.224972012
 30
0.0
 10
13.288987417
 20
11.2730840587
 30
0.0
 10
13.2905444846
 20
11.3202808177
 30
0.0
 10
13.2969441791
 20
11.3663677864
 30
0.0
 10
13.3044362962
 20
11.39628402
 30
0.0
 10
13.3089606892
 20
11.4109261457
 30
0.0
  0
SPLINE
  5
44F
100
AcDbEntity
  8
0
100
AcDbSpline
 62
7
  6
CONTINUOUS
 70
0
 71
3
 72
15
 73
11
 74
0
 42
0.0000001
 43
0.0000001
 44
0.0000000001
 40
0.0
 40
0.0
 40
0.0
 40
0.0
 40
0.1176333618
 40
0.2374356197
 40
0.3594001891
 40
0.4835075683
 40
0.6097223793
 40
0.7379961836
 40
0.8681563436
 40
1.0
 40
1.0
 40
1.0
 40
1.0
 10
16.7311890744
 20
12.5518504622
 30
0.0
 10
16.7234414425
 20
12.5634884568
 30
0.0
 10
16.7078066124
 20
12.5869812252
 30
0.0
 10
16.6842656539
 20
12.6226247302
 30
0.0
 10
16.660533468
 20
12.6590632993
 30
0.0
 10
16.6367507481
 20
12.6963767555
 30
0.0
 10
16.6131186466
 20
12.7346707658
 30
0.0
 10
16.5898373774
 20
12.7740195196
 30
0.0
 10
16.5672387181
 20
12.8145339604
 30
0.0
 10
16.5529386547
 20
12.842205631
 30
0.0
 10
16.5460345203
 20
12.856272613
 30
0.0
  0
SPLINE
  5
450
100
AcDbEntity
  8
0
100
AcDbSpline
 62
7
  6
CONTINUOUS
 70
0
 71
3
 72
9
 73
5
 74
0
 42
0.0000001
 43
0.0000001
 44
0.0000000001
 40
0.0
 40
0.0
 40
0.0
 40
0.0
 40
0.5028903319
 40
1.0
 40
1.0
 40
1.0
 40
1.0
 10
15.6020333382
 20
13.6613760175
 30
0.0
 10
15.6034494403
 20
13.641196218
 30
0.0
 10
15.6068726252
 20
13.6011076348
 30
0.0
 10
15.6118871093
 20
13.5611786209
 30
0.0
 10
15.6148829759
 20
13.5414074192
 30
0.0
  0
SPLINE
  5
451
100
AcDbEntity
  8
0
100
AcDbSpline
 62
7
  6
CONTINUOUS
 70
0
 71
3
 72
9
 73
5
 74
0
 42
0.0000001
 43
0.0000001
 44
0.0000000001
 40
0.0
 40
0.0
 40
0.0
 40
0.0
 40
0.5372616353
 40
1.0
 40
1.0
 40
1.0
 40
1.0
 10
15.8672960581
 20
13.8878339948
 30
0.0
 10
15.8892610982
 20
13.903497054
 30
0.0
 10
15.9304550789
 20
13.9322202713
 30
0.0
 10
15.972383816
 20
13.9598599987
 30
0.0
 10
15.9919442444
 20
13.972401255
 30
0.0
  0
SPLINE
  5
452
100
AcDbEntity
  8
0
100
AcDbSpline
 62
7
  6
CONTINUOUS
 70
0
 71
3
 72
11
 73
7
 74
0
 42
0.0000001
 43
0.0000001
 44
0.0000000001
 40
0.0
 40
0.0
 40
0.0
 40
0.0
 40
0.2519890848
 40
0.5033210176
 40
0.7530675404
 40
1.0
 40
1.0
 40
1.0
 40
1.0
 10
15.9919442444
 20
13.972401255
 30
0.0
 10
16.0094041564
 20
13.9669022786
 30
0.0
 10
16.0441291823
 20
13.9554342142
 30
0.0
 10
16.0954621245
 20
13.9364850817
 30
0.0
 10
16.1456251431
 20
13.9155520754
 30
0.0
 10
16.1782363855
 20
13.9000727283
 30
0.0
 10
16.1942357513
 20
13.8919613654
 30
0.0
  0
SPLINE
  5
453
100
AcDbEntity
  8
0
100
AcDbSpline
 62
7
  6
CONTINUOUS
 70
0
 71
3
 72
9
 73
5
 74
0
 42
0.0000001
 43
0.0000001
 44
0.0000000001
 40
0.0
 40
0.0
 40
0.0
 40
0.0
 40
0.5197955235
 40
1.0
 40
1.0
 40
1.0
 40
1.0
 10
15.7134696433
 20
13.7738236916
 30
0.0
 10
15.7398641904
 20
13.7939230592
 30
0.0
 10
15.7908139044
 20
13.8323673584
 30
0.0
 10
15.8423416512
 20
13.870039247
 30
0.0
 10
15.8672960581
 20
13.8878339948
 30
0.0
  0
SPLINE
  5
454
100
AcDbEntity
  8
0
100
AcDbSpline
 62
7
  6
CONTINUOUS
 70
0
 71
3
 72
11
 73
7
 74
0
 42
0.0000001
 43
0.0000001
 44
0.0000000001
 40
0.0
 40
0.0
 40
0.0
 40
0.0
 40
0.2578301741
 40
0.5105275847
 40
0.7578159355
 40
1.0
 40
1.0
 40
1.0
 40
1.0
 10
16.1942357513
 20
13.8919613654
 30
0.0
 10
16.2099745299
 20
13.8839821151
 30
0.0
 10
16.2407398781
 20
13.8673801797
 30
0.0
 10
16.2850803536
 20
13.8404354727
 30
0.0
 10
16.3272020929
 20
13.8120190665
 30
0.0
 10
16.3541790492
 20
13.7921424637
 30
0.0
 10
16.3673490296
 20
13.7820784328
 30
0.0
  0
SPLINE
  5
455
100
AcDbEntity
  8
0
100
AcDbSpline
 62
7
  6
CONTINUOUS
 70
0
 71
3
 72
11
 73
7
 74
0
 42
0.0000001
 43
0.0000001
 44
0.0000000001
 40
0.0
 40
0.0
 40
0.0
 40
0.0
 40
0.2378335987
 40
0.4833660782
 40
0.7373982523
 40
1.0
 40
1.0
 40
1.0
 40
1.0
 10
16.3673490296
 20
13.7820784328
 30
0.0
 10
16.3735912964
 20
13.7683071613
 30
0.0
 10
16.3857680177
 20
13.7400834379
 30
0.0
 10
16.4025075327
 20
13.6962781101
 30
0.0
 10
16.4176554774
 20
13.6502335062
 30
0.0
 10
16.4263657667
 20
13.6185487748
 30
0.0
 10
16.4304032359
 20
13.6023497616
 30
0.0
  0
SPLINE
  5
456
100
AcDbEntity
  8
0
100
AcDbSpline
 62
7
  6
CONTINUOUS
 70
0
 71
3
 72
11
 73
7
 74
0
 42
0.0000001
 43
0.0000001
 44
0.0000000001
 40
0.0
 40
0.0
 40
0.0
 40
0.0
 40
0.2431478813
 40
0.4918979234
 40
0.7446425473
 40
1.0
 40
1.0
 40
1.0
 40
1.0
 10
16.4304032359
 20
13.6023497616
 30
0.0
 10
16.4345603007
 20
13.5856709106
 30
0.0
 10
16.4421382317
 20
13.5517169608
 30
0.0
 10
16.4513377302
 20
13.4998713023
 30
0.0
 10
16.4587051583
 20
13.4468656531
 30
0.0
 10
16.4625591819
 20
13.4111481643
 30
0.0
 10
16.4642792137
 20
13.3931780474
 30
0.0
  0
SPLINE
  5
457
100
AcDbEntity
  8
0
100
AcDbSpline
 62
7
  6
CONTINUOUS
 70
0
 71
3
 72
9
 73
5
 74
0
 42
0.0000001
 43
0.0000001
 44
0.0000000001
 40
0.0
 40
0.0
 40
0.0
 40
0.0
 40
0.2569366366
 40
1.0
 40
1.0
 40
1.0
 40
1.0
 10
16.1556926488
 20
11.5895591176
 30
0.0
 10
16.16166705
 20
11.5793062088
 30
0.0
 10
16.1842365576
 20
11.5390107644
 30
0.0
 10
16.2039897789
 20
11.4971144985
 30
0.0
 10
16.2167010221
 20
11.4652371239
 30
0.0
  0
SPLINE
  5
458
100
AcDbEntity
  8
0
100
AcDbSpline
 62
7
  6
CONTINUOUS
 70
0
 71
3
 72
21
 73
17
 74
0
 42
0.0000001
 43
0.0000001
 44
0.0000000001
 40
0.0
 40
0.0
 40
0.0
 40
0.0
 40
0.0524423348
 40
0.1099570942
 40
0.1718732095
 40
0.2374717863
 40
0.3059938858
 40
0.3765992297
 40
0.5202912484
 40
0.661080833
 40
0.7281299383
 40
0.7917997186
 40
0.8513574612
 40
0.9061828581
 40
0.9558065976
 40
1.0
 40
1.0
 40
1.0
 40
1.0
 10
15.847183925
 20
11.3667099086
 30
0.0
 10
15.849161532
 20
11.3626799691
 30
0.0
 10
15.8528612783
 20
11.3540083148
 30
0.0
 10
15.8575242708
 20
11.3400417158
 30
0.0
 10
15.8614802203
 20
11.3246932273
 30
0.0
 10
15.8646684178
 20
11.3082089529
 30
0.0
 10
15.8670410708
 20
11.290837266
 30
0.0
 10
15.8690785735
 20
11.2667052364
 30
0.0
 10
15.8694050409
 20
11.2362626123
 30
0.0
 10
15.8668540675
 20
11.2062252279
 30
0.0
 10
15.8630317628
 20
11.183289949
 30
0.0
 10
15.8594194871
 20
11.1673971617
 30
0.0
 10
15.8550738007
 20
11.1527760883
 30
0.0
 10
15.850064036
 20
11.1396435816
 30
0.0
 10
15.8444589843
 20
11.1282004212
 30
0.0
 10
15.8401308967
 20
11.1214040638
 30
0.0
 10
15.8378600494
 20
11.1183785468
 30
0.0
  0
SPLINE
  5
459
100
AcDbEntity
  8
0
100
AcDbSpline
 62
7
  6
CONTINUOUS
 70
0
 71
3
 72
9
 73
5
 74
0
 42
0.0000001
 43
0.0000001
 44
0.0000000001
 40
0.0
 40
0.0
 40
0.0
 40
0.0
 40
0.4819710063
 40
1.0
 40
1.0
 40
1.0
 40
1.0
 10
15.7658219406
 20
11.1034224309
 30
0.0
 10
15.7641240656
 20
11.1068823365
 30
0.0
 10
15.7608045805
 20
11.1141616159
 30
0.0
 10
15.7578289127
 20
11.1215867181
 30
0.0
 10
15.7563655845
 20
11.1254620317
 30
0.0
  0
SPLINE
  5
45A
100
AcDbEntity
  8
0
100
AcDbSpline
 62
7
  6
CONTINUOUS
 70
0
 71
3
 72
21
 73
17
 74
0
 42
0.0000001
 43
0.0000001
 44
0.0000000001
 40
0.0
 40
0.0
 40
0.0
 40
0.0
 40
0.0597662327
 40
0.1236246832
 40
0.1907792732
 40
0.2604086274
 40
0.4035179103
 40
0.5460366552
 40
0.6150583517
 40
0.6815728362
 40
0.7449329854
 40
0.804581056
 40
0.8600882611
 40
0.9111832798
 40
0.9577708214
 40
1.0
 40
1.0
 40
1.0
 40
1.0
 10
15.7563655845
 20
11.1254620317
 30
0.0
 10
15.7541636166
 20
11.1312934756
 30
0.0
 10
15.7499724129
 20
11.143494906
 30
0.0
 10
15.7444810183
 20
11.162627067
 30
0.0
 10
15.7396656302
 20
11.1829997166
 30
0.0
 10
15.7342553769
 20
11.2116939841
 30
0.0
 10
15.7298971399
 20
11.2485444625
 30
0.0
 10
15.7291531191
 20
11.2856019117
 30
0.0
 10
15.7310931701
 20
11.3145529529
 30
0.0
 10
15.7338057928
 20
11.3351350507
 30
0.0
 10
15.737783207
 20
11.3545159939
 30
0.0
 10
15.7429820076
 20
11.3724178021
 30
0.0
 10
15.7493418151
 20
11.3885779818
 30
0.0
 10
15.7567478567
 20
11.4027760049
 30
0.0
 10
15.7650895058
 20
11.4147983691
 30
0.0
 10
15.7714686429
 20
11.4215834209
 30
0.0
 10
15.774772753
 20
11.424495587
 30
0.0
  0
SPLINE
  5
45B
100
AcDbEntity
  8
0
100
AcDbSpline
 62
7
  6
CONTINUOUS
 70
0
 71
3
 72
9
 73
5
 74
0
 42
0.0000001
 43
0.0000001
 44
0.0000000001
 40
0.0
 40
0.0
 40
0.0
 40
0.0
 40
0.5229664314
 40
1.0
 40
1.0
 40
1.0
 40
1.0
 10
15.774772753
 20
11.424495587
 30
0.0
 10
15.7780368587
 20
11.4273724941
 30
0.0
 10
15.7848143434
 20
11.432315727
 30
0.0
 10
15.7925985811
 20
11.4355417631
 30
0.0
 10
15.7964433702
 20
11.4365262169
 30
0.0
  0
SPLINE
  5
45C
100
AcDbEntity
  8
0
100
AcDbSpline
 62
7
  6
CONTINUOUS
 70
0
 71
3
 72
9
 73
5
 74
0
 42
0.0000001
 43
0.0000001
 44
0.0000000001
 40
0.0
 40
0.0
 40
0.0
 40
0.0
 40
0.2533982866
 40
1.0
 40
1.0
 40
1.0
 40
1.0
 10
15.7964433702
 20
11.4365262169
 30
0.0
 10
15.7972637986
 20
11.4367362866
 30
0.0
 10
15.8005255899
 20
11.4374676569
 30
0.0
 10
15.803879303
 20
11.4377936407
 30
0.0
 10
15.8063745593
 20
11.4377933083
 30
0.0
  0
SPLINE
  5
45D
100
AcDbEntity
  8
0
100
AcDbSpline
 62
7
  6
CONTINUOUS
 70
0
 71
3
 72
41
 73
37
 74
0
 42
0.0000001
 43
0.0000001
 44
0.0000000001
 40
0.0
 40
0.0
 40
0.0
 40
0.0
 40
0.0265221715
 40
0.0543690641
 40
0.083530291
 40
0.1139842418
 40
0.1456861757
 40
0.1785550525
 40
0.2124892963
 40
0.2473687497
 40
0.2830602607
 40
0.3194152441
 40
0.3562767864
 40
0.393479974
 40
0.4308560154
 40
0.4682333356
 40
0.5054403081
 40
0.5423080814
 40
0.5786716934
 40
0.614374528
 40
0.6492681325
 40
0.68321832
 40
0.7161040844
 40
0.7478253649
 40
0.7783015764
 40
0.8074810006
 40
0.835339536
 40
0.8618913748
 40
0.8871881857
 40
0.9113295291
 40
0.9344608759
 40
0.9567788743
 40
0.9677127692
 40
0.9785369896
 40
0.9892871469
 40
1.0
 40
1.0
 40
1.0
 40
1.0
 10
15.8919990117
 20
11.5117315825
 30
0.0
 10
15.8808316174
 20
11.5344883395
 30
0.0
 10
15.8555636744
 20
11.580000528
 30
0.0
 10
15.8106991042
 20
11.6461466811
 30
0.0
 10
15.7582458271
 20
11.7113462517
 30
0.0
 10
15.6985938295
 20
11.7751578683
 30
0.0
 10
15.6321334879
 20
11.8371543506
 30
0.0
 10
15.5593256029
 20
11.896937047
 30
0.0
 10
15.4806513562
 20
11.954083793
 30
0.0
 10
15.396655596
 20
12.0082241709
 30
0.0
 10
15.3078988404
 20
12.0589767573
 30
0.0
 10
15.2149924415
 20
12.10601339
 30
0.0
 10
15.1185606122
 20
12.1489968946
 30
0.0
 10
15.0192667841
 20
12.187651632
 30
0.0
 10
14.9177804062
 20
12.2216978938
 30
0.0
 10
14.8147977719
 20
12.2509208841
 30
0.0
 10
14.7110148478
 20
12.2751046773
 30
0.0
 10
14.6071421385
 20
12.2941019569
 30
0.0
 10
14.503882561
 20
12.3077660979
 30
0.0
 10
14.4019409691
 20
12.3160218605
 30
0.0
 10
14.3020075865
 20
12.3187948058
 30
0.0
 10
14.2047617498
 20
12.3160841273
 30
0.0
 10
14.1108619593
 20
12.3078879992
 30
0.0
 10
14.0209426279
 20
12.2942796283
 30
0.0
 10
13.9356130069
 20
12.2753273319
 30
0.0
 10
13.8554448433
 20
12.2511744447
 30
0.0
 10
13.7809841149
 20
12.2219538181
 30
0.0
 10
13.7127264916
 20
12.1878714891
 30
0.0
 10
13.6511480797
 20
12.1491185404
 30
0.0
 10
13.5966632213
 20
12.1059546441
 30
0.0
 10
13.5496846064
 20
12.0586372956
 30
0.0
 10
13.5168329214
 20
12.0156972746
 30
0.0
 10
13.4948235361
 20
11.9797431534
 30
0.0
 10
13.4804835912
 20
11.95214913
 30
0.0
 10
13.4682292466
 20
11.9238001871
 30
0.0
 10
13.4614598424
 20
11.9044130761
 30
0.0
 10
13.4584370958
 20
11.8946303738
 30
0.0
  0
SPLINE
  5
45E
100
AcDbEntity
  8
0
100
AcDbSpline
 62
7
  6
CONTINUOUS
 70
0
 71
3
 72
37
 73
33
 74
0
 42
0.0000001
 43
0.0000001
 44
0.0000000001
 40
0.0
 40
0.0
 40
0.0
 40
0.0
 40
0.026520344
 40
0.0543712198
 40
0.083538606
 40
0.1139956508
 40
0.1456981916
 40
0.1785701457
 40
0.2125072687
 40
0.2473901137
 40
0.319417655
 40
0.3934668413
 40
0.4682056548
 40
0.5054161815
 40
0.5422870918
 40
0.5786541018
 40
0.6143601685
 40
0.649256827
 40
0.6832102438
 40
0.7160987903
 40
0.7478230161
 40
0.7783019678
 40
0.8074838063
 40
0.8353452017
 40
0.8487864774
 40
0.8619061673
 40
0.8872058959
 40
0.9113486265
 40
0.9344824143
 40
0.9568014484
 40
0.9785485261
 40
1.0
 40
1.0
 40
1.0
 40
1.0
 10
15.2842808219
 20
10.9888608704
 30
0.0
 10
15.2772854711
 20
11.0031158964
 30
0.0
 10
15.2614541242
 20
11.03162734
 30
0.0
 10
15.2333469337
 20
11.0730694244
 30
0.0
 10
15.2004841202
 20
11.1139213857
 30
0.0
 10
15.1631101634
 20
11.1538997806
 30
0.0
 10
15.1214736269
 20
11.1927412183
 30
0.0
 10
15.0758574706
 20
11.2301910785
 30
0.0
 10
15.0265700159
 20
11.265999594
 30
0.0
 10
14.9556522866
 20
11.3117006713
 30
0.0
 10
14.859992091
 20
11.3630207142
 30
0.0
 10
14.7377606237
 20
11.4139098964
 30
0.0
 10
14.6311978053
 20
11.446885991
 30
0.0
 10
14.54439139
 20
11.4671182644
 30
0.0
 10
14.4793127407
 20
11.4790193621
 30
0.0
 10
14.4146202039
 20
11.4875802174
 30
0.0
 10
14.3507529009
 20
11.4927534815
 30
0.0
 10
14.288143769
 20
11.4944895761
 30
0.0
 10
14.2272185019
 20
11.4927927248
 30
0.0
 10
14.168389458
 20
11.4876569976
 30
0.0
 10
14.1120545639
 20
11.4791312632
 30
0.0
 10
14.0585939724
 20
11.4672587651
 30
0.0
 10
14.0083707764
 20
11.4521244848
 30
0.0
 10
13.969030788
 20
11.4366913772
 30
0.0
 10
13.9395641633
 20
11.4227552111
 30
0.0
 10
13.9121386119
 20
11.4081746714
 30
0.0
 10
13.8803715517
 20
11.3881903771
 30
0.0
 10
13.8462441809
 20
11.3611417125
 30
0.0
 10
13.8168026875
 20
11.3315024771
 30
0.0
 10
13.7922872665
 20
11.2994455385
 30
0.0
 10
13.7728787706
 20
11.2652133612
 30
0.0
 10
13.7634335123
 20
11.2410201392
 30
0.0
 10
13.759642499
 20
11.2287483864
 30
0.0
  0
SPLINE
  5
45F
100
AcDbEntity
  8
0
100
AcDbSpline
 62
7
  6
CONTINUOUS
 70
0
 71
3
 72
35
 73
31
 74
0
 42
0.0000001
 43
0.0000001
 44
0.0000000001
 40
0.0
 40
0.0
 40
0.0
 40
0.0
 40
0.0394155166
 40
0.0790112283
 40
0.158233296
 40
0.1975577329
 40
0.236343733
 40
0.2743092736
 40
0.2928827485
 40
0.3111176512
 40
0.3464184959
 40
0.3634351732
 40
0.3799892004
 40
0.4116840727
 40
0.4416899657
 40
0.4703125408
 40
0.4979536282
 40
0.524985233
 40
0.5517630624
 40
0.5784900107
 40
0.6053366552
 40
0.6323691937
 40
0.6596240299
 40
0.6871286469
 40
0.7148574286
 40
0.7709166177
 40
0.799222788
 40
0.8276673924
 40
0.8848932215
 40
1.0
 40
1.0
 40
1.0
 40
1.0
 10
16.5460345203
 20
12.856272613
 30
0.0
 10
16.5413585209
 20
12.8657998319
 30
0.0
 10
16.5322543155
 20
12.885032916
 30
0.0
 10
16.5153006742
 20
12.9241225482
 30
0.0
 10
16.500618942
 20
12.9641717807
 30
0.0
 10
16.489352389
 20
13.0050332382
 30
0.0
 10
16.4830362405
 20
13.0356693347
 30
0.0
 10
16.479860942
 20
13.0611750954
 30
0.0
 10
16.4788003614
 20
13.0812887518
 30
0.0
 10
16.4787767107
 20
13.100710387
 30
0.0
 10
16.4803621696
 20
13.1196980099
 30
0.0
 10
16.483737139
 20
13.1379457631
 30
0.0
 10
16.4881484897
 20
13.1549693101
 30
0.0
 10
16.4957567953
 20
13.1747209858
 30
0.0
 10
16.5081719838
 20
13.1957707791
 30
0.0
 10
16.5233723907
 20
13.2134938533
 30
0.0
 10
16.5407671759
 20
13.2278228481
 30
0.0
 10
16.55985627
 20
13.2388078343
 30
0.0
 10
16.5801249843
 20
13.2467155645
 30
0.0
 10
16.6012003118
 20
13.2518498026
 30
0.0
 10
16.6227888726
 20
13.2544736131
 30
0.0
 10
16.6446644115
 20
13.2548762634
 30
0.0
 10
16.6666567185
 20
13.2532898487
 30
0.0
 10
16.6886315057
 20
13.2499195757
 30
0.0
 10
16.7178785016
 20
13.2433066495
 30
0.0
 10
16.746627858
 20
13.233860137
 30
0.0
 10
16.7746772988
 20
13.2221872889
 30
0.0
 10
16.8024340869
 20
13.2090686804
 30
0.0
 10
16.8497336311
 20
13.1827809433
 30
0.0
 10
16.8876615135
 20
13.1557338431
 30
0.0
 10
16.9117931189
 20
13.1362853644
 30
0.0
  0
SPLINE
  5
460
100
AcDbEntity
  8
0
100
AcDbSpline
 62
7
  6
CONTINUOUS
 70
0
 71
3
 72
21
 73
17
 74
0
 42
0.0000001
 43
0.0000001
 44
0.0000000001
 40
0.0
 40
0.0
 40
0.0
 40
0.0
 40
0.0506865389
 40
0.1022919866
 40
0.1553580678
 40
0.210300375
 40
0.326565205
 40
0.3882398757
 40
0.4520749186
 40
0.5178474376
 40
0.5852402621
 40
0.6538798802
 40
0.7233384774
 40
0.7931609959
 40
0.8628649199
 40
1.0
 40
1.0
 40
1.0
 40
1.0
 10
12.3111515327
 20
11.8758913832
 30
0.0
 10
12.3084870291
 20
11.882554905
 30
0.0
 10
12.3042125107
 20
11.8964723864
 30
0.0
 10
12.3011992009
 20
11.9183483178
 30
0.0
 10
12.3015717425
 20
11.9410309595
 30
0.0
 10
12.3066425835
 20
11.9724669963
 30
0.0
 10
12.3184939351
 20
12.003667233
 30
0.0
 10
12.3358236736
 20
12.0332326641
 30
0.0
 10
12.3519323134
 20
12.0550706409
 30
0.0
 10
12.3706617729
 20
12.0757952272
 30
0.0
 10
12.3917475386
 20
12.0951370324
 30
0.0
 10
12.4149006991
 20
12.112818835
 30
0.0
 10
12.4397923704
 20
12.1286030158
 30
0.0
 10
12.466085016
 20
12.1422626297
 30
0.0
 10
12.5022816927
 20
12.1573111587
 30
0.0
 10
12.5307359212
 20
12.1650525786
 30
0.0
 10
12.5498632564
 20
12.1683904081
 30
0.0
  0
SPLINE
  5
461
100
AcDbEntity
  8
0
100
AcDbSpline
 62
7
  6
CONTINUOUS
 70
0
 71
3
 72
17
 73
13
 74
0
 42
0.0000001
 43
0.0000001
 44
0.0000000001
 40
0.0
 40
0.0
 40
0.0
 40
0.0
 40
0.0563395317
 40
0.1128694627
 40
0.169775502
 40
0.2272365547
 40
0.3443737378
 40
0.4654830482
 40
0.5913225185
 40
0.7223379939
 40
0.8586954161
 40
1.0
 40
1.0
 40
1.0
 40
1.0
 10
12.1046599394
 20
11.7010747108
 30
0.0
 10
12.1075617121
 20
11.6951617556
 30
0.0
 10
12.1138799311
 20
11.6835561156
 30
0.0
 10
12.1248124081
 20
11.6669639427
 30
0.0
 10
12.137168123
 20
11.6512327361
 30
0.0
 10
12.1555922355
 20
11.6313723346
 30
0.0
 10
12.1821066968
 20
11.6089477686
 30
0.0
 10
12.2185104136
 20
11.5866083306
 30
0.0
 10
12.2591533599
 20
11.5689283046
 30
0.0
 10
12.3034389574
 20
11.5561594798
 30
0.0
 10
12.3506973533
 20
11.5484769416
 30
0.0
 10
12.3831885667
 20
11.5468213373
 30
0.0
 10
12.3997083532
 20
11.5468213373
 30
0.0
  0
SPLINE
  5
462
100
AcDbEntity
  8
0
100
AcDbSpline
 62
7
  6
CONTINUOUS
 70
0
 71
3
 72
24
 73
20
 74
0
 42
0.0000001
 43
0.0000001
 44
0.0000000001
 40
0.0
 40
0.0
 40
0.0
 40
0.0
 40
0.0236725471
 40
0.0475897346
 40
0.0966417275
 40
0.1481348863
 40
0.2026554499
 40
0.2604394075
 40
0.3214228392
 40
0.3853027711
 40
0.4516084709
 40
0.519766376
 40
0.5891645807
 40
0.6591868371
 40
0.7292349591
 40
0.7987615204
 40
0.8673276865
 40
0.9345603142
 40
1.0
 40
1.0
 40
1.0
 40
1.0
 10
14.0556203943
 20
11.9680644944
 30
0.0
 10
14.0543595992
 20
11.9706326513
 30
0.0
 10
14.0520833412
 20
11.9759273275
 30
0.0
 10
14.048555594
 20
11.9870777243
 30
0.0
 10
14.0461378346
 20
12.0020216852
 30
0.0
 10
14.0464716704
 20
12.0208444564
 30
0.0
 10
14.0499460315
 20
12.0404078237
 30
0.0
 10
14.0564739076
 20
12.0603710048
 30
0.0
 10
14.0659156589
 20
12.0803810704
 30
0.0
 10
14.0781042664
 20
12.1000619835
 30
0.0
 10
14.0928237456
 20
12.1190347421
 30
0.0
 10
14.1098388376
 20
12.1369093763
 30
0.0
 10
14.1288648444
 20
12.1533226908
 30
0.0
 10
14.149604628
 20
12.1679113435
 30
0.0
 10
14.1717108858
 20
12.1803689575
 30
0.0
 10
14.1948328935
 20
12.1903938129
 30
0.0
 10
14.2185827666
 20
12.1977644081
 30
0.0
 10
14.2425371628
 20
12.2022646661
 30
0.0
 10
14.2585859396
 20
12.2033204496
 30
0.0
 10
14.2664946645
 20
12.2033204496
 30
0.0
  0
SPLINE
  5
463
100
AcDbEntity
  8
0
100
AcDbSpline
 62
7
  6
CONTINUOUS
 70
0
 71
3
 72
14
 73
10
 74
0
 42
0.0000001
 43
0.0000001
 44
0.0000000001
 40
0.0
 40
0.0
 40
0.0
 40
0.0
 40
0.1406268455
 40
0.2767525574
 40
0.533556519
 40
0.6551452221
 40
0.7727939844
 40
0.8873661263
 40
1.0
 40
1.0
 40
1.0
 40
1.0
 10
18.0113374606
 20
12.17285142
 30
0.0
 10
18.020004381
 20
12.17285142
 30
0.0
 10
18.0370792045
 20
12.172024144
 30
0.0
 10
18.0696186606
 20
12.1670589739
 30
0.0
 10
18.1001141627
 20
12.1570881783
 30
0.0
 10
18.1267947041
 20
12.1419994089
 30
0.0
 10
18.1441628533
 20
12.1286846031
 30
0.0
 10
18.1589758197
 20
12.1133346488
 30
0.0
 10
18.1670577663
 20
12.1018154587
 30
0.0
 10
18.1705789916
 20
12.0958331417
 30
0.0
  0
SPLINE
  5
464
100
AcDbEntity
  8
0
100
AcDbSpline
 62
7
  6
CONTINUOUS
 70
0
 71
3
 72
16
 73
12
 74
0
 42
0.0000001
 43
0.0000001
 44
0.0000000001
 40
0.0
 40
0.0
 40
0.0
 40
0.0
 40
0.2391889359
 40
0.3019897107
 40
0.3655882121
 40
0.4943303937
 40
0.6238145433
 40
0.7523017336
 40
0.878176325
 40
0.9397108762
 40
1.0
 40
1.0
 40
1.0
 40
1.0
 10
17.1007189846
 20
12.0585258748
 30
0.0
 10
17.1241859989
 20
12.098402457
 30
0.0
 10
17.1620734565
 20
12.1442710622
 30
0.0
 10
17.2150440441
 20
12.1910969541
 30
0.0
 10
17.2540412475
 20
12.2214119569
 30
0.0
 10
17.3066667835
 20
12.254974879
 30
0.0
 10
17.3742688793
 20
12.2874200601
 30
0.0
 10
17.4447529299
 20
12.3113340272
 30
0.0
 10
17.5047851905
 20
12.3236951889
 30
0.0
 10
17.5524706313
 20
12.3286663529
 30
0.0
 10
17.5760445036
 20
12.3295168019
 30
0.0
 10
17.5877069659
 20
12.3295168019
 30
0.0
  0
SPLINE
  5
465
100
AcDbEntity
  8
0
100
AcDbSpline
 62
7
  6
CONTINUOUS
 70
0
 71
3
 72
12
 73
8
 74
0
 42
0.0000001
 43
0.0000001
 44
0.0000000001
 40
0.0
 40
0.0
 40
0.0
 40
0.0
 40
0.2635628188
 40
0.5165805533
 40
0.7608628872
 40
0.8808701379
 40
1.0
 40
1.0
 40
1.0
 40
1.0
 10
17.3751577585
 20
11.9770196926
 30
0.0
 10
17.3724848641
 20
11.9683702031
 30
0.0
 10
17.3684505828
 20
11.9510082705
 30
0.0
 10
17.3666156871
 20
11.9248261078
 30
0.0
 10
17.368809445
 20
11.9036103165
 30
0.0
 10
17.372772828
 20
11.8874659329
 30
0.0
 10
17.3754683031
 20
11.8796911613
 30
0.0
 10
17.3769884171
 20
11.8758920221
 30
0.0
  0
SPLINE
  5
466
100
AcDbEntity
  8
0
100
AcDbSpline
 62
7
  6
CONTINUOUS
 70
0
 71
3
 72
16
 73
12
 74
0
 42
0.0000001
 43
0.0000001
 44
0.0000000001
 40
0.0
 40
0.0
 40
0.0
 40
0.0
 40
0.0614389925
 40
0.1243432416
 40
0.2532222249
 40
0.3845524448
 40
0.515994042
 40
0.6451479438
 40
0.7698506863
 40
0.8884617274
 40
1.0
 40
1.0
 40
1.0
 40
1.0
 10
17.6659395879
 20
12.17285142
 30
0.0
 10
17.6583184948
 20
12.17285142
 30
0.0
 10
17.6428875602
 20
12.1721957494
 30
0.0
 10
17.6116832043
 20
12.168388014
 30
0.0
 10
17.5725619863
 20
12.1589552502
 30
0.0
 10
17.5273024463
 20
12.1408733781
 30
0.0
 10
17.4849833701
 20
12.1166137571
 30
0.0
 10
17.4471987614
 20
12.0870716679
 30
0.0
 10
17.415349559
 20
12.0533343986
 30
0.0
 10
17.390659343
 20
12.0166470468
 30
0.0
 10
17.3792426746
 20
11.9902384858
 30
0.0
 10
17.3751577585
 20
11.9770196926
 30
0.0
  0
SPLINE
  5
467
100
AcDbEntity
  8
0
100
AcDbSpline
 62
7
  6
CONTINUOUS
 70
0
 71
3
 72
9
 73
5
 74
0
 42
0.0000001
 43
0.0000001
 44
0.0000000001
 40
0.0
 40
0.0
 40
0.0
 40
0.0
 40
0.2454156298
 40
1.0
 40
1.0
 40
1.0
 40
1.0
 10
14.1913379393
 20
12.3810170394
 30
0.0
 10
14.2063918241
 20
12.3817751532
 30
0.0
 10
14.2677707266
 20
12.3840663722
 30
0.0
 10
14.3292582702
 20
12.3832385
 30
0.0
 10
14.3755501381
 20
12.3810170394
 30
0.0
  0
SPLINE
  5
468
100
AcDbEntity
  8
0
100
AcDbSpline
 62
7
  6
CONTINUOUS
 70
0
 71
3
 72
16
 73
12
 74
0
 42
0.0000001
 43
0.0000001
 44
0.0000000001
 40
0.0
 40
0.0
 40
0.0
 40
0.0
 40
0.1071330466
 40
0.2241382491
 40
0.3497679915
 40
0.4825687243
 40
0.6202051846
 40
0.7583935553
 40
0.8891531748
 40
0.947960794
 40
1.0
 40
1.0
 40
1.0
 40
1.0
 10
18.2356461692
 20
10.983805121
 30
0.0
 10
18.2376560599
 20
10.9814863966
 30
0.0
 10
18.2417890274
 20
10.9765726348
 30
0.0
 10
18.2480541416
 20
10.9687540945
 30
0.0
 10
18.2545946412
 20
10.9602172788
 30
0.0
 10
18.2613002476
 20
10.9510657777
 30
0.0
 10
18.2680027244
 20
10.9414693338
 30
0.0
 10
18.2744186652
 20
10.9317488743
 30
0.0
 10
18.2793312394
 20
10.923745324
 30
0.0
 10
18.2827245746
 20
10.9177132987
 30
0.0
 10
18.2841913493
 20
10.9148963823
 30
0.0
 10
18.284847996
 20
10.9135582771
 30
0.0
  0
SPLINE
  5
469
100
AcDbEntity
  8
0
100
AcDbSpline
 62
7
  6
CONTINUOUS
 70
0
 71
3
 72
15
 73
11
 74
0
 42
0.0000001
 43
0.0000001
 44
0.0000000001
 40
0.0
 40
0.0
 40
0.0
 40
0.0
 40
0.1276731316
 40
0.2680032978
 40
0.411389127
 40
0.5507551821
 40
0.6816392242
 40
0.8012976901
 40
0.9079080821
 40
1.0
 40
1.0
 40
1.0
 40
1.0
 10
17.3772852729
 20
10.983805121
 30
0.0
 10
17.3763121515
 20
10.9806560989
 30
0.0
 10
17.3740827343
 20
10.9741034004
 30
0.0
 10
17.3702862072
 20
10.964183169
 30
0.0
 10
17.3660683643
 20
10.9541065953
 30
0.0
 10
17.3616758861
 20
10.9443722396
 30
0.0
 10
17.3572941103
 20
10.9353090103
 30
0.0
 10
17.3530540319
 20
10.9271201824
 30
0.0
 10
17.3490512241
 20
10.9199407124
 30
0.0
 10
17.3463866861
 20
10.9155550143
 30
0.0
 10
17.3450963022
 20
10.9135582771
 30
0.0
  0
SPLINE
  5
46A
100
AcDbEntity
  8
0
100
AcDbSpline
 62
7
  6
CONTINUOUS
 70
0
 71
3
 72
9
 73
5
 74
0
 42
0.0000001
 43
0.0000001
 44
0.0000000001
 40
0.0
 40
0.0
 40
0.0
 40
0.0
 40
0.4935576461
 40
1.0
 40
1.0
 40
1.0
 40
1.0
 10
15.8063745593
 20
11.4377933083
 30
0.0
 10
15.8091621927
 20
11.4377929369
 30
0.0
 10
15.8148269933
 20
11.4371761735
 30
0.0
 10
15.8202244421
 20
11.4353651104
 30
0.0
 10
15.8228357005
 20
11.434197525
 30
0.0
  0
SPLINE
  5
46B
100
AcDbEntity
  8
0
100
AcDbSpline
 62
7
  6
CONTINUOUS
 70
0
 71
3
 72
11
 73
7
 74
0
 42
0.0000001
 43
0.0000001
 44
0.0000000001
 40
0.0
 40
0.0
 40
0.0
 40
0.0
 40
0.2155313843
 40
0.4515046697
 40
0.7124557206
 40
1.0
 40
1.0
 40
1.0
 40
1.0
 10
15.8228357005
 20
11.434197525
 30
0.0
 10
15.8261831246
 20
11.432700774
 30
0.0
 10
15.8328214007
 20
11.4286873065
 30
0.0
 10
15.8417405607
 20
11.4203822896
 30
0.0
 10
15.8498553034
 20
11.4097209988
 30
0.0
 10
15.8544416947
 20
11.4015616891
 30
0.0
 10
15.8565968119
 20
11.397170022
 30
0.0
  0
SPLINE
  5
46C
100
AcDbEntity
  8
0
100
AcDbSpline
 62
7
  6
CONTINUOUS
 70
0
 71
3
 72
10
 73
6
 74
0
 42
0.0000001
 43
0.0000001
 44
0.0000000001
 40
0.0
 40
0.0
 40
0.0
 40
0.0
 40
0.2807883623
 40
0.5398490579
 40
1.0
 40
1.0
 40
1.0
 40
1.0
 10
15.8119499263
 20
11.416728582
 30
0.0
 10
15.8104199719
 20
11.4187681361
 30
0.0
 10
15.8073124758
 20
11.4225734455
 30
0.0
 10
15.8008883792
 20
11.4289944602
 30
0.0
 10
15.7954645881
 20
11.4328239682
 30
0.0
 10
15.7916952865
 20
11.434626817
 30
0.0
  0
SPLINE
  5
46D
100
AcDbEntity
  8
0
100
AcDbSpline
 62
7
  6
CONTINUOUS
 70
0
 71
3
 72
21
 73
17
 74
0
 42
0.0000001
 43
0.0000001
 44
0.0000000001
 40
0.0
 40
0.0
 40
0.0
 40
0.0
 40
0.136630775
 40
0.1974804963
 40
0.2540486752
 40
0.3072016224
 40
0.3580860324
 40
0.4080289996
 40
0.4584444063
 40
0.5107174504
 40
0.5660577997
 40
0.6254316791
 40
0.6895755838
 40
0.7589969016
 40
0.8338926853
 40
1.0
 40
1.0
 40
1.0
 40
1.0
 10
15.8378600494
 20
11.1183785468
 30
0.0
 10
15.8355839186
 20
11.1153459905
 30
0.0
 10
15.8319374623
 20
11.1111890334
 30
0.0
 10
15.82641961
 20
11.1067755197
 30
0.0
 10
15.8223478163
 20
11.1043287415
 30
0.0
 10
15.8182005688
 20
11.102642504
 30
0.0
 10
15.8140027428
 20
11.1017296877
 30
0.0
 10
15.8097833968
 20
11.1015998413
 30
0.0
 10
15.8055749408
 20
11.1022570813
 30
0.0
 10
15.8014102564
 20
11.1036971028
 30
0.0
 10
15.7973126051
 20
11.1058982827
 30
0.0
 10
15.793299044
 20
11.1088423102
 30
0.0
 10
15.789386404
 20
11.1125137312
 30
0.0
 10
15.7855941681
 20
11.1168944528
 30
0.0
 10
15.7805437226
 20
11.1238833585
 30
0.0
 10
15.7772656173
 20
11.1297442301
 30
0.0
 10
15.7752348276
 20
11.1338825443
 30
0.0
  0
SPLINE
  5
46E
100
AcDbEntity
  8
0
100
AcDbSpline
 62
7
  6
CONTINUOUS
 70
0
 71
3
 72
10
 73
6
 74
0
 42
0.0000001
 43
0.0000001
 44
0.0000000001
 40
0.0
 40
0.0
 40
0.0
 40
0.0
 40
0.4633508752
 40
0.7218459606
 40
1.0
 40
1.0
 40
1.0
 40
1.0
 10
15.7933974795
 20
11.0668354892
 30
0.0
 10
15.7968383405
 20
11.0687003373
 30
0.0
 10
15.8017770202
 20
11.0724105462
 30
0.0
 10
15.8076780655
 20
11.0784575337
 30
0.0
 10
15.8105399601
 20
11.0819833488
 30
0.0
 10
15.811950211
 20
11.0838624637
 30
0.0
  0
SPLINE
  5
46F
100
AcDbEntity
  8
0
100
AcDbSpline
 62
7
  6
CONTINUOUS
 70
0
 71
3
 72
9
 73
5
 74
0
 42
0.0000001
 43
0.0000001
 44
0.0000000001
 40
0.0
 40
0.0
 40
0.0
 40
0.0
 40
0.2421584719
 40
1.0
 40
1.0
 40
1.0
 40
1.0
 10
13.6426329009
 20
12.2355732911
 30
0.0
 10
13.6525923405
 20
12.2414579251
 30
0.0
 10
13.6942608203
 20
12.2648390072
 30
0.0
 10
13.7379234273
 20
12.2846047663
 30
0.0
 10
13.7716611581
 20
12.2977342879
 30
0.0
  0
SPLINE
  5
470
100
AcDbEntity
  8
0
100
AcDbSpline
 62
7
  6
CONTINUOUS
 70
0
 71
3
 72
15
 73
11
 74
0
 42
0.0000001
 43
0.0000001
 44
0.0000000001
 40
0.0
 40
0.0
 40
0.0
 40
0.0
 40
0.1128684023
 40
0.2283269169
 40
0.347009707
 40
0.4694207258
 40
0.5959034059
 40
0.7266484915
 40
0.8614949938
 40
1.0
 40
1.0
 40
1.0
 40
1.0
 10
14.3862079317
 20
12.1381099103
 30
0.0
 10
14.3832362593
 20
12.1415378433
 30
0.0
 10
14.3767527226
 20
12.148076355
 30
0.0
 10
14.3657338041
 20
12.1566822272
 30
0.0
 10
14.3534323731
 20
12.1641001286
 30
0.0
 10
14.3399678911
 20
12.1702540992
 30
0.0
 10
14.3254698832
 20
12.1750999375
 30
0.0
 10
14.310074027
 20
12.1785794175
 30
0.0
 10
14.2939456955
 20
12.180671678
 30
0.0
 10
14.2829521561
 20
12.1811282491
 30
0.0
 10
14.2773850148
 20
12.1811282491
 30
0.0
  0
SPLINE
  5
471
100
AcDbEntity
  8
0
100
AcDbSpline
 62
7
  6
CONTINUOUS
 70
0
 71
3
 72
9
 73
5
 74
0
 42
0.0000001
 43
0.0000001
 44
0.0000000001
 40
0.0
 40
0.0
 40
0.0
 40
0.0
 40
0.2568854852
 40
1.0
 40
1.0
 40
1.0
 40
1.0
 10
15.8053463849
 20
10.6290514647
 30
0.0
 10
15.8167304321
 20
10.633627182
 30
0.0
 10
15.8607569168
 20
10.6521443199
 30
0.0
 10
15.9035869461
 20
10.6735541798
 30
0.0
 10
15.9343746421
 20
10.6912124616
 30
0.0
  0
SPLINE
  5
472
100
AcDbEntity
  8
0
100
AcDbSpline
 62
7
  6
CONTINUOUS
 70
0
 71
3
 72
15
 73
11
 74
0
 42
0.0000001
 43
0.0000001
 44
0.0000000001
 40
0.0
 40
0.0
 40
0.0
 40
0.0
 40
0.1164347551
 40
0.2337662107
 40
0.3528668327
 40
0.4745587764
 40
0.5995843987
 40
0.7285741399
 40
0.8619491857
 40
1.0
 40
1.0
 40
1.0
 40
1.0
 10
13.759642499
 20
11.2287483864
 30
0.0
 10
13.7568086061
 20
11.2195748933
 30
0.0
 10
13.7521125604
 20
11.2008336817
 30
0.0
 10
13.7480992004
 20
11.1719614045
 30
0.0
 10
13.7471272781
 20
11.1423930021
 30
0.0
 10
13.7491888881
 20
11.1122491154
 30
0.0
 10
13.7542736224
 20
11.0816422073
 30
0.0
 10
13.7623662758
 20
11.0506969315
 30
0.0
 10
13.7734088241
 20
11.019542251
 30
0.0
 10
13.7825416949
 20
10.9990803898
 30
0.0
 10
13.7875567066
 20
10.9888608704
 30
0.0
  0
SPLINE
  5
473
100
AcDbEntity
  8
0
100
AcDbSpline
 62
7
  6
CONTINUOUS
 70
0
 71
3
 72
9
 73
5
 74
0
 42
0.0000001
 43
0.0000001
 44
0.0000000001
 40
0.0
 40
0.0
 40
0.0
 40
0.0
 40
0.5066928459
 40
1.0
 40
1.0
 40
1.0
 40
1.0
 10
15.5158019481
 20
12.0080405825
 30
0.0
 10
15.5411649096
 20
11.9910911533
 30
0.0
 10
15.5904277331
 20
11.9564351619
 30
0.0
 10
15.6378641587
 20
11.9193116091
 30
0.0
 10
15.6607428487
 20
11.9003745777
 30
0.0
  0
SPLINE
  5
474
100
AcDbEntity
  8
0
100
AcDbSpline
 62
7
  6
CONTINUOUS
 70
0
 71
3
 72
28
 73
24
 74
0
 42
0.0000001
 43
0.0000001
 44
0.0000000001
 40
0.0
 40
0.0
 40
0.0
 40
0.0
 40
0.0645847176
 40
0.0955228234
 40
0.1254491029
 40
0.1823848266
 40
0.2096910751
 40
0.2363883398
 40
0.2626597468
 40
0.2887210176
 40
0.3148017425
 40
0.3411287051
 40
0.3952395198
 40
0.4524870868
 40
0.5135546746
 40
0.5455911622
 40
0.5785456129
 40
0.6468230765
 40
0.717535103
 40
0.7895003369
 40
0.8613983126
 40
0.9320020396
 40
1.0
 40
1.0
 40
1.0
 40
1.0
 10
14.2570817776
 20
12.1728603362
 30
0.0
 10
14.2657801414
 20
12.1728603362
 30
0.0
 10
14.2786904014
 20
12.1718086195
 30
0.0
 10
14.2951937186
 20
12.1680819805
 30
0.0
 10
14.3102594874
 20
12.1630496125
 30
0.0
 10
14.3240430359
 20
12.1558841227
 30
0.0
 10
14.3358399927
 20
12.1466612044
 30
0.0
 10
14.3434736821
 20
12.1389613625
 30
0.0
 10
14.3499251578
 20
12.1304552356
 30
0.0
 10
14.3551212805
 20
12.1212237436
 30
0.0
 10
14.3590211662
 20
12.1113653941
 30
0.0
 10
14.3624619593
 20
12.0973991139
 30
0.0
 10
14.3632480396
 20
12.078652993
 30
0.0
 10
14.3586345978
 20
12.0557027827
 30
0.0
 10
14.3505462304
 20
12.0369860159
 30
0.0
 10
14.341741844
 20
12.0224499925
 30
0.0
 10
14.331137167
 20
12.0079435284
 30
0.0
 10
14.3151661329
 20
11.9910282081
 30
0.0
 10
14.2927063888
 20
11.9734686289
 30
0.0
 10
14.2675528714
 20
11.9590441714
 30
0.0
 10
14.2406382842
 20
11.9482911721
 30
0.0
 10
14.2129832669
 20
11.9416307462
 30
0.0
 10
14.1942907446
 20
11.9400329719
 30
0.0
 10
14.1851326802
 20
11.9400329719
 30
0.0
  0
SPLINE
  5
475
100
AcDbEntity
  8
0
100
AcDbSpline
 62
7
  6
CONTINUOUS
 70
0
 71
3
 72
28
 73
24
 74
0
 42
0.0000001
 43
0.0000001
 44
0.0000000001
 40
0.0
 40
0.0
 40
0.0
 40
0.0
 40
0.0645847176
 40
0.0955228234
 40
0.1254491029
 40
0.1823848266
 40
0.2096910751
 40
0.2363883398
 40
0.2626597468
 40
0.2887210176
 40
0.3148017425
 40
0.3411287051
 40
0.3952395198
 40
0.4524870868
 40
0.5135546746
 40
0.5455911622
 40
0.5785456129
 40
0.6468230765
 40
0.717535103
 40
0.7895003369
 40
0.8613983126
 40
0.9320020396
 40
1.0
 40
1.0
 40
1.0
 40
1.0
 10
14.1851326802
 20
11.9400329719
 30
0.0
 10
14.1764343164
 20
11.9400329719
 30
0.0
 10
14.1635240564
 20
11.9410846886
 30
0.0
 10
14.1470207392
 20
11.9448113276
 30
0.0
 10
14.1319549704
 20
11.9498436956
 30
0.0
 10
14.1181714219
 20
11.9570091854
 30
0.0
 10
14.1063744651
 20
11.9662321037
 30
0.0
 10
14.0987407757
 20
11.9739319456
 30
0.0
 10
14.0922893
 20
11.9824380725
 30
0.0
 10
14.0870931773
 20
11.9916695645
 30
0.0
 10
14.0831932916
 20
12.001527914
 30
0.0
 10
14.0797524985
 20
12.0154941942
 30
0.0
 10
14.0789664182
 20
12.0342403151
 30
0.0
 10
14.08357986
 20
12.0571905254
 30
0.0
 10
14.0916682274
 20
12.0759072922
 30
0.0
 10
14.1004726138
 20
12.0904433156
 30
0.0
 10
14.1110772908
 20
12.1049497797
 30
0.0
 10
14.1270483249
 20
12.1218651
 30
0.0
 10
14.149508069
 20
12.1394246792
 30
0.0
 10
14.1746615864
 20
12.1538491367
 30
0.0
 10
14.2015761736
 20
12.164602136
 30
0.0
 10
14.2292311909
 20
12.1712625619
 30
0.0
 10
14.2479237132
 20
12.1728603362
 30
0.0
 10
14.2570817776
 20
12.1728603362
 30
0.0
  0
SPLINE
  5
476
100
AcDbEntity
  8
0
100
AcDbSpline
 62
7
  6
CONTINUOUS
 70
0
 71
3
 72
22
 73
18
 74
0
 42
0.0000001
 43
0.0000001
 44
0.0000000001
 40
0.0
 40
0.0
 40
0.0
 40
0.0
 40
0.064460266
 40
0.1308192787
 40
0.1985093317
 40
0.2670526419
 40
0.335972257
 40
0.4047360236
 40
0.4728035565
 40
0.5396815167
 40
0.6049213603
 40
0.6681604184
 40
0.7874429419
 40
0.8435668346
 40
0.8974452565
 40
0.9494172868
 40
1.0
 40
1.0
 40
1.0
 40
1.0
 10
14.2773850148
 20
12.1811282491
 30
0.0
 10
14.2699474866
 20
12.1811282491
 30
0.0
 10
14.2548437172
 20
12.1802923281
 30
0.0
 10
14.2321829647
 20
12.176727806
 30
0.0
 10
14.2095188715
 20
12.1708595255
 30
0.0
 10
14.1872254774
 20
12.162802712
 30
0.0
 10
14.1656571604
 20
12.1526742833
 30
0.0
 10
14.1451479412
 20
12.1406517272
 30
0.0
 10
14.1260367484
 20
12.1269090059
 30
0.0
 10
14.1086225311
 20
12.1116817939
 30
0.0
 10
14.0931889773
 20
12.0951924413
 30
0.0
 10
14.0759270402
 20
12.0723666004
 30
0.0
 10
14.0630092609
 20
12.0476741482
 30
0.0
 10
14.0556838473
 20
12.0221766922
 30
0.0
 10
14.0531486289
 20
12.0035863785
 30
0.0
 10
14.0535304348
 20
11.9854662924
 30
0.0
 10
14.0557589794
 20
11.973775447
 30
0.0
 10
14.0573496821
 20
11.9681600907
 30
0.0
  0
SPLINE
  5
477
100
AcDbEntity
  8
0
100
AcDbSpline
 62
7
  6
CONTINUOUS
 70
0
 71
3
 72
15
 73
11
 74
0
 42
0.0000001
 43
0.0000001
 44
0.0000000001
 40
0.0
 40
0.0
 40
0.0
 40
0.0
 40
0.1367342584
 40
0.2699366189
 40
0.3992722772
 40
0.5249103637
 40
0.6472498611
 40
0.7667932549
 40
0.8841273916
 40
1.0
 40
1.0
 40
1.0
 40
1.0
 10
14.2664946645
 20
12.2033204496
 30
0.0
 10
14.2734058805
 20
12.2033204496
 30
0.0
 10
14.2870643671
 20
12.2025332526
 30
0.0
 10
14.3069759422
 20
12.1989512475
 30
0.0
 10
14.3257356416
 20
12.193011896
 30
0.0
 10
14.3430390857
 20
12.1848512966
 30
0.0
 10
14.358615173
 20
12.1746125915
 30
0.0
 10
14.3722264382
 20
12.1624937598
 30
0.0
 10
14.3836420871
 20
12.1487103242
 30
0.0
 10
14.3896869503
 20
12.1385240124
 30
0.0
 10
14.3922678777
 20
12.1332665865
 30
0.0
  0
SPLINE
  5
478
100
AcDbEntity
  8
0
100
AcDbSpline
 62
7
  6
CONTINUOUS
 70
0
 71
3
 72
10
 73
6
 74
0
 42
0.0000001
 43
0.0000001
 44
0.0000000001
 40
0.0
 40
0.0
 40
0.0
 40
0.0
 40
0.5168546963
 40
0.762680867
 40
1.0
 40
1.0
 40
1.0
 40
1.0
 10
13.5081281289
 20
10.8077650623
 30
0.0
 10
13.4838482705
 20
10.8364371356
 30
0.0
 10
13.4501620602
 20
10.8806783322
 30
0.0
 10
13.4116806848
 20
10.9423905024
 30
0.0
 10
13.3950707399
 20
10.9733738973
 30
0.0
 10
13.3874708374
 20
10.9888608704
 30
0.0
  0
SPLINE
  5
479
100
AcDbEntity
  8
0
100
AcDbSpline
 62
7
  6
CONTINUOUS
 70
0
 71
3
 72
10
 73
6
 74
0
 42
0.0000001
 43
0.0000001
 44
0.0000000001
 40
0.0
 40
0.0
 40
0.0
 40
0.0
 40
0.5032934918
 40
0.7530535517
 40
1.0
 40
1.0
 40
1.0
 40
1.0
 10
15.8103998274
 20
13.3849233062
 30
0.0
 10
15.8452695595
 20
13.3739411298
 30
0.0
 10
15.897027271
 20
13.3560556253
 30
0.0
 10
15.9640805717
 20
13.3280723829
 30
0.0
 10
15.9966922788
 20
13.3125946222
 30
0.0
 10
16.0126913342
 20
13.3044834167
 30
0.0
  0
SPLINE
  5
47A
100
AcDbEntity
  8
0
100
AcDbSpline
 62
7
  6
CONTINUOUS
 70
0
 71
3
 72
11
 73
7
 74
0
 42
0.0000001
 43
0.0000001
 44
0.0000000001
 40
0.0
 40
0.0
 40
0.0
 40
0.0
 40
0.2578237068
 40
0.5105163329
 40
0.7578117085
 40
1.0
 40
1.0
 40
1.0
 40
1.0
 10
16.0126913342
 20
13.3044834167
 30
0.0
 10
16.0284297155
 20
13.2965043678
 30
0.0
 10
16.0591941382
 20
13.2799023221
 30
0.0
 10
16.1035341424
 20
13.2529575007
 30
0.0
 10
16.1456574223
 20
13.2245425726
 30
0.0
 10
16.1726344045
 20
13.204664689
 30
0.0
 10
16.1858046126
 20
13.1946004841
 30
0.0
  0
SPLINE
  5
47B
100
AcDbEntity
  8
0
100
AcDbSpline
 62
7
  6
CONTINUOUS
 70
0
 71
3
 72
35
 73
31
 74
0
 42
0.0000001
 43
0.0000001
 44
0.0000000001
 40
0.0
 40
0.0
 40
0.0
 40
0.0
 40
0.0212378596
 40
0.0426613869
 40
0.06444887
 40
0.0867639956
 40
0.1097492362
 40
0.1335259282
 40
0.1581887681
 40
0.183809518
 40
0.2104367986
 40
0.2380958087
 40
0.2667949586
 40
0.2965221313
 40
0.3272510219
 40
0.3589417243
 40
0.4249655428
 40
0.4591811956
 40
0.4940876823
 40
0.5295978006
 40
0.565617134
 40
0.602048095
 40
0.638788508
 40
0.7127638816
 40
0.7867035244
 40
0.8233996684
 40
0.8597691136
 40
0.8957104137
 40
0.9311264829
 40
1.0
 40
1.0
 40
1.0
 40
1.0
 10
13.3089606892
 20
11.4109261457
 30
0.0
 10
13.3137642035
 20
11.4264715818
 30
0.0
 10
13.3252269914
 20
11.4571696213
 30
0.0
 10
13.3476931715
 20
11.5012493137
 30
0.0
 10
13.375366023
 20
11.5432549891
 30
0.0
 10
13.4081086087
 20
11.5829919287
 30
0.0
 10
13.4457585441
 20
11.6203022739
 30
0.0
 10
13.488155925
 20
11.655015912
 30
0.0
 10
13.5350995708
 20
11.6870045777
 30
0.0
 10
13.5863896215
 20
11.716131319
 30
0.0
 10
13.6418036977
 20
11.742275456
 30
0.0
 10
13.7010999105
 20
11.7653413
 30
0.0
 10
13.7640296858
 20
11.7852188346
 30
0.0
 10
13.8303192498
 20
11.8018394017
 30
0.0
 10
13.8996894504
 20
11.8151282682
 30
0.0
 10
13.9972145675
 20
11.8285066066
 30
0.0
 10
14.0982829934
 20
11.8346590704
 30
0.0
 10
14.2018397359
 20
11.8340671853
 30
0.0
 10
14.2819310752
 20
11.830151945
 30
0.0
 10
14.363161887
 20
11.8227840237
 30
0.0
 10
14.4451886465
 20
11.8120053244
 30
0.0
 10
14.5276571513
 20
11.7978496641
 30
0.0
 10
14.6379710061
 20
11.7745161066
 30
0.0
 10
14.7746216439
 20
11.7373684917
 30
0.0
 10
14.9080816206
 20
11.6901222206
 30
0.0
 10
15.0119525199
 20
11.6465322963
 30
0.0
 10
15.0876738231
 20
11.6112607885
 30
0.0
 10
15.1610749817
 20
11.5734759738
 30
0.0
 10
15.254546138
 20
11.5204784285
 30
0.0
 10
15.3215827862
 20
11.4767637693
 30
0.0
 10
15.3644050876
 20
11.4459351335
 30
0.0
  0
SPLINE
  5
47C
100
AcDbEntity
  8
0
100
AcDbSpline
 62
7
  6
CONTINUOUS
 70
0
 71
3
 72
14
 73
10
 74
0
 42
0.0000001
 43
0.0000001
 44
0.0000000001
 40
0.0
 40
0.0
 40
0.0
 40
0.0
 40
0.1384993269
 40
0.2734244651
 40
0.4045704314
 40
0.5317877602
 40
0.7740250432
 40
0.8890657656
 40
1.0
 40
1.0
 40
1.0
 40
1.0
 10
15.4181759246
 20
11.4055557342
 30
0.0
 10
15.4364069597
 20
11.3912684234
 30
0.0
 10
15.4717912187
 20
11.3622752464
 30
0.0
 10
15.5221117474
 20
11.3170112821
 30
0.0
 10
15.5688327244
 20
11.2706714112
 30
0.0
 10
15.6251587669
 20
11.208702289
 30
0.0
 10
15.6747655299
 20
11.1443485496
 30
0.0
 10
15.716435687
 20
11.0780018487
 30
0.0
 10
15.7343498979
 20
11.0446823631
 30
0.0
 10
15.742523057
 20
11.0280272158
 30
0.0
  0
SPLINE
  5
47D
100
AcDbEntity
  8
0
100
AcDbSpline
 62
7
  6
CONTINUOUS
 70
0
 71
3
 72
9
 73
5
 74
0
 42
0.0000001
 43
0.0000001
 44
0.0000000001
 40
0.0
 40
0.0
 40
0.0
 40
0.0
 40
0.5198042166
 40
1.0
 40
1.0
 40
1.0
 40
1.0
 10
16.1858046126
 20
13.1946004841
 30
0.0
 10
16.212199601
 20
13.2147001876
 30
0.0
 10
16.2631494271
 20
13.253144336
 30
0.0
 10
16.3146770725
 20
13.2908163617
 30
0.0
 10
16.3396310274
 20
13.3086107873
 30
0.0
  0
SPLINE
  5
47E
100
AcDbEntity
  8
0
100
AcDbSpline
 62
7
  6
CONTINUOUS
 70
0
 71
3
 72
15
 73
11
 74
0
 42
0.0000001
 43
0.0000001
 44
0.0000000001
 40
0.0
 40
0.0
 40
0.0
 40
0.0
 40
0.1135700342
 40
0.2294836386
 40
0.348430718
 40
0.4710591035
 40
0.5976452399
 40
0.728195073
 40
0.8625370208
 40
1.0
 40
1.0
 40
1.0
 40
1.0
 10
16.3396310274
 20
13.3086107873
 30
0.0
 10
16.3290505064
 20
13.3010659193
 30
0.0
 10
16.3063576661
 20
13.2875832561
 30
0.0
 10
16.2691330544
 20
13.2728796079
 30
0.0
 10
16.2290924897
 20
13.2637928955
 30
0.0
 10
16.1869618288
 20
13.2604599363
 30
0.0
 10
16.1434521751
 20
13.2628928256
 30
0.0
 10
16.0992912803
 20
13.2710549629
 30
0.0
 10
16.0552461837
 20
13.2847930588
 30
0.0
 10
16.0267204003
 20
13.2973709569
 30
0.0
 10
16.0126913342
 20
13.3044834167
 30
0.0
  0
SPLINE
  5
47F
100
AcDbEntity
  8
0
100
AcDbSpline
 62
7
  6
CONTINUOUS
 70
0
 71
3
 72
15
 73
11
 74
0
 42
0.0000001
 43
0.0000001
 44
0.0000000001
 40
0.0
 40
0.0
 40
0.0
 40
0.0
 40
0.1249559032
 40
0.2516101525
 40
0.3790021085
 40
0.5063781047
 40
0.6329053921
 40
0.7577903503
 40
0.8804024576
 40
1.0
 40
1.0
 40
1.0
 40
1.0
 10
16.0126913342
 20
13.3044834167
 30
0.0
 10
15.9983986763
 20
13.3117295123
 30
0.0
 10
15.970400529
 20
13.3279147081
 30
0.0
 10
15.9310319482
 20
13.356559209
 30
0.0
 10
15.8945945542
 20
13.3893236687
 30
0.0
 10
15.8617186687
 20
13.4256357429
 30
0.0
 10
15.8329398338
 20
13.4648777619
 30
0.0
 10
15.8087545166
 20
13.506407554
 30
0.0
 10
15.7895902141
 20
13.5495066184
 30
0.0
 10
15.7802330876
 20
13.5792129264
 30
0.0
 10
15.7765238496
 20
13.5940950204
 30
0.0
  0
SPLINE
  5
480
100
AcDbEntity
  8
0
100
AcDbSpline
 62
7
  6
CONTINUOUS
 70
0
 71
3
 72
15
 73
11
 74
0
 42
0.0000001
 43
0.0000001
 44
0.0000000001
 40
0.0
 40
0.0
 40
0.0
 40
0.0
 40
0.1135700342
 40
0.2294836386
 40
0.348430718
 40
0.4710591035
 40
0.5976452399
 40
0.728195073
 40
0.8625370208
 40
1.0
 40
1.0
 40
1.0
 40
1.0
 10
15.8672960581
 20
13.8878339948
 30
0.0
 10
15.8778765791
 20
13.8953788627
 30
0.0
 10
15.9005694194
 20
13.908861526
 30
0.0
 10
15.9377940311
 20
13.9235651742
 30
0.0
 10
15.9778345958
 20
13.9326518866
 30
0.0
 10
16.0199652567
 20
13.9359848457
 30
0.0
 10
16.0634749104
 20
13.9335519565
 30
0.0
 10
16.1076358053
 20
13.9253898192
 30
0.0
 10
16.1516809018
 20
13.9116517233
 30
0.0
 10
16.1802066853
 20
13.8990738252
 30
0.0
 10
16.1942357513
 20
13.8919613654
 30
0.0
  0
SPLINE
  5
481
100
AcDbEntity
  8
0
100
AcDbSpline
 62
7
  6
CONTINUOUS
 70
0
 71
3
 72
9
 73
5
 74
0
 42
0.0000001
 43
0.0000001
 44
0.0000000001
 40
0.0
 40
0.0
 40
0.0
 40
0.0
 40
0.2474392735
 40
1.0
 40
1.0
 40
1.0
 40
1.0
 10
16.1942357513
 20
13.8919613654
 30
0.0
 10
16.200883781
 20
13.8885909455
 30
0.0
 10
16.2273978214
 20
13.8742819466
 30
0.0
 10
16.2524697214
 20
13.8573157179
 30
0.0
 10
16.2702801784
 20
13.8432912482
 30
0.0
  0
SPLINE
  5
482
100
AcDbEntity
  8
0
100
AcDbSpline
 62
7
  6
CONTINUOUS
 70
0
 71
3
 72
10
 73
6
 74
0
 42
0.0000001
 43
0.0000001
 44
0.0000000001
 40
0.0
 40
0.0
 40
0.0
 40
0.0
 40
0.5088646867
 40
0.7574145452
 40
1.0
 40
1.0
 40
1.0
 40
1.0
 10
16.3487874953
 20
13.7650178072
 30
0.0
 10
16.3680811131
 20
13.7406680136
 30
0.0
 10
16.3933360814
 20
13.7014156207
 30
0.0
 10
16.4178467726
 20
13.6454148164
 30
0.0
 10
16.4268214897
 20
13.6167203368
 30
0.0
 10
16.4304032359
 20
13.6023497616
 30
0.0
  0
SPLINE
  5
483
100
AcDbEntity
  8
0
100
AcDbSpline
 62
7
  6
CONTINUOUS
 70
0
 71
3
 72
11
 73
7
 74
0
 42
0.0000001
 43
0.0000001
 44
0.0000000001
 40
0.0
 40
0.0
 40
0.0
 40
0.0
 40
0.2617563958
 40
0.5155996147
 40
0.7614924921
 40
1.0
 40
1.0
 40
1.0
 40
1.0
 10
16.4304032359
 20
13.6023497616
 30
0.0
 10
16.4340099611
 20
13.5878789667
 30
0.0
 10
16.4394341242
 20
13.5589195472
 30
0.0
 10
16.4419634227
 20
13.5154853141
 30
0.0
 10
16.4386903518
 20
13.4734201854
 30
0.0
 10
16.4325857098
 20
13.4463811082
 30
0.0
 10
16.4285736235
 20
13.4333979922
 30
0.0
  0
SPLINE
  5
484
100
AcDbEntity
  8
0
100
AcDbSpline
 62
7
  6
CONTINUOUS
 70
0
 71
3
 72
11
 73
7
 74
0
 42
0.0000001
 43
0.0000001
 44
0.0000000001
 40
0.0
 40
0.0
 40
0.0
 40
0.0
 40
0.2548359482
 40
0.5048951045
 40
0.7524436108
 40
1.0
 40
1.0
 40
1.0
 40
1.0
 10
16.4285736235
 20
13.4333979922
 30
0.0
 10
16.4246648106
 20
13.420749069
 30
0.0
 10
16.4150008772
 20
13.3962286883
 30
0.0
 10
16.3949552237
 20
13.3624717902
 30
0.0
 10
16.3698514109
 20
13.3327742559
 30
0.0
 10
16.3501023113
 20
13.3160777592
 30
0.0
 10
16.3396310274
 20
13.3086107873
 30
0.0
  0
SPLINE
  5
485
100
AcDbEntity
  8
0
100
AcDbSpline
 62
7
  6
CONTINUOUS
 70
0
 71
3
 72
11
 73
7
 74
0
 42
0.0000001
 43
0.0000001
 44
0.0000000001
 40
0.0
 40
0.0
 40
0.0
 40
0.0
 40
0.2431455611
 40
0.4918894369
 40
0.7446352839
 40
1.0
 40
1.0
 40
1.0
 40
1.0
 10
15.7765238496
 20
13.5940950204
 30
0.0
 10
15.780680874
 20
13.5774163314
 30
0.0
 10
15.7882567655
 20
13.5434625439
 30
0.0
 10
15.7974575947
 20
13.4916177249
 30
0.0
 10
15.8048276142
 20
13.43861223
 30
0.0
 10
15.8086797469
 20
13.4028939312
 30
0.0
 10
15.8103998274
 20
13.3849233062
 30
0.0
  0
SPLINE
  5
486
100
AcDbEntity
  8
0
100
AcDbSpline
 62
7
  6
CONTINUOUS
 70
0
 71
3
 72
11
 73
7
 74
0
 42
0.0000001
 43
0.0000001
 44
0.0000000001
 40
0.0
 40
0.0
 40
0.0
 40
0.0
 40
0.262602459
 40
0.5166338006
 40
0.7621656879
 40
1.0
 40
1.0
 40
1.0
 40
1.0
 10
15.7765238496
 20
13.5940950204
 30
0.0
 10
15.7724863694
 20
13.6102940774
 30
0.0
 10
15.7637763847
 20
13.6419788857
 30
0.0
 10
15.7486281351
 20
13.6880233544
 30
0.0
 10
15.7318883401
 20
13.731828514
 30
0.0
 10
15.7197119288
 20
13.7600523788
 30
0.0
 10
15.7134696433
 20
13.7738236916
 30
0.0
  0
SPLINE
  5
487
100
AcDbEntity
  8
0
100
AcDbSpline
 62
7
  6
CONTINUOUS
 70
0
 71
3
 72
16
 73
12
 74
0
 42
0.0000001
 43
0.0000001
 44
0.0000000001
 40
0.0
 40
0.0
 40
0.0
 40
0.0
 40
0.1180296023
 40
0.1770630404
 40
0.2362266856
 40
0.3554532504
 40
0.4769973199
 40
0.6017472047
 40
0.7303253564
 40
0.8631339588
 40
1.0
 40
1.0
 40
1.0
 40
1.0
 10
15.8672960581
 20
13.8878339948
 30
0.0
 10
15.8568273071
 20
13.8803688291
 30
0.0
 10
15.84201252
 20
13.8678354842
 30
0.0
 10
15.8245729358
 20
13.848883047
 30
0.0
 10
15.808687632
 20
13.8284372114
 30
0.0
 10
15.7919173368
 20
13.8002109094
 30
0.0
 10
15.7772705003
 20
13.7630116869
 30
0.0
 10
15.7682334969
 20
13.7230314049
 30
0.0
 10
15.7649635489
 20
13.6809543024
 30
0.0
 10
15.7674964496
 20
13.6375240783
 30
0.0
 10
15.7729180169
 20
13.6085622344
 30
0.0
 10
15.7765238496
 20
13.5940950204
 30
0.0
  0
SPLINE
  5
488
100
AcDbEntity
  8
0
100
AcDbSpline
 62
7
  6
CONTINUOUS
 70
0
 71
3
 72
9
 73
5
 74
0
 42
0.0000001
 43
0.0000001
 44
0.0000000001
 40
0.0
 40
0.0
 40
0.0
 40
0.0
 40
0.4627381132
 40
1.0
 40
1.0
 40
1.0
 40
1.0
 10
16.4642792137
 20
13.3931780474
 30
0.0
 10
16.444718796
 20
13.380636798
 30
0.0
 10
16.4027900543
 20
13.3529970774
 30
0.0
 10
16.3615960778
 20
13.3242738537
 30
0.0
 10
16.3396310274
 20
13.3086107873
 30
0.0
  0
SPLINE
  5
489
100
AcDbEntity
  8
0
100
AcDbSpline
 62
7
  6
CONTINUOUS
 70
0
 71
3
 72
9
 73
5
 74
0
 42
0.0000001
 43
0.0000001
 44
0.0000000001
 40
0.0
 40
0.0
 40
0.0
 40
0.0
 40
0.2422151579
 40
1.0
 40
1.0
 40
1.0
 40
1.0
 10
15.9976802302
 20
11.4652371239
 30
0.0
 10
15.9936798539
 20
11.4756866635
 30
0.0
 10
15.976136017
 20
11.5184319725
 30
0.0
 10
15.9546518992
 20
11.5595237721
 30
0.0
 10
15.9366718569
 20
11.5895591176
 30
0.0
  0
SPLINE
  5
48A
100
AcDbEntity
  8
0
100
AcDbSpline
 62
7
  6
CONTINUOUS
 70
0
 71
3
 72
9
 73
5
 74
0
 42
0.0000001
 43
0.0000001
 44
0.0000000001
 40
0.0
 40
0.0
 40
0.0
 40
0.0
 40
0.2541671348
 40
1.0
 40
1.0
 40
1.0
 40
1.0
 10
13.7254729518
 20
12.3320442512
 30
0.0
 10
13.719977659
 20
12.3294103715
 30
0.0
 10
13.6984646928
 20
12.3188247647
 30
0.0
 10
13.6773936635
 20
12.3073360026
 30
0.0
 10
13.6619982068
 20
12.2982394438
 30
0.0
  0
SPLINE
  5
48B
100
AcDbEntity
  8
0
100
AcDbSpline
 62
7
  6
CONTINUOUS
 70
0
 71
3
 72
9
 73
5
 74
0
 42
0.0000001
 43
0.0000001
 44
0.0000000001
 40
0.0
 40
0.0
 40
0.0
 40
0.0
 40
0.2539753408
 40
1.0
 40
1.0
 40
1.0
 40
1.0
 10
15.990138288
 20
11.5895589693
 30
0.0
 10
15.9926440775
 20
11.5844435879
 30
0.0
 10
16.0022942272
 20
11.5641974828
 30
0.0
 10
16.0110635038
 20
11.5435291774
 30
0.0
 10
16.0170455361
 20
11.5279032767
 30
0.0
  0
SPLINE
  5
48C
100
AcDbEntity
  8
0
100
AcDbSpline
 62
7
  6
CONTINUOUS
 70
0
 71
3
 72
9
 73
5
 74
0
 42
0.0000001
 43
0.0000001
 44
0.0000000001
 40
0.0
 40
0.0
 40
0.0
 40
0.0
 40
0.2569366366
 40
1.0
 40
1.0
 40
1.0
 40
1.0
 10
13.2489860744
 20
11.4652371239
 30
0.0
 10
13.2430116732
 20
11.4754900327
 30
0.0
 10
13.2204421656
 20
11.5157854771
 30
0.0
 10
13.2006889443
 20
11.557681743
 30
0.0
 10
13.1879777011
 20
11.5895591176
 30
0.0
  0
SPLINE
  5
48D
100
AcDbEntity
  8
0
100
AcDbSpline
 62
7
  6
CONTINUOUS
 70
0
 71
3
 72
9
 73
5
 74
0
 42
0.0000001
 43
0.0000001
 44
0.0000000001
 40
0.0
 40
0.0
 40
0.0
 40
0.0
 40
0.2554104469
 40
1.0
 40
1.0
 40
1.0
 40
1.0
 10
16.1253612707
 20
13.8181384971
 30
0.0
 10
16.1217265736
 20
13.8188956673
 30
0.0
 10
16.1074232057
 20
13.8214931812
 30
0.0
 10
16.0928380087
 20
13.8226003418
 30
0.0
 10
16.0820152867
 20
13.822463713
 30
0.0
  0
SPLINE
  5
48E
100
AcDbEntity
  8
0
100
AcDbSpline
 62
7
  6
CONTINUOUS
 70
0
 71
3
 72
15
 73
11
 74
0
 42
0.0000001
 43
0.0000001
 44
0.0000000001
 40
0.0
 40
0.0
 40
0.0
 40
0.0
 40
0.1324364277
 40
0.2611477226
 40
0.3864253654
 40
0.5092047111
 40
0.6306877507
 40
0.7522020947
 40
0.8750267764
 40
1.0
 40
1.0
 40
1.0
 40
1.0
 10
16.1799528283
 20
13.4295216376
 30
0.0
 10
16.1881298473
 20
13.4296248664
 30
0.0
 10
16.2042647695
 20
13.4309128314
 30
0.0
 10
16.2276191851
 20
13.4361991084
 30
0.0
 10
16.2493463168
 20
13.4447829404
 30
0.0
 10
16.2690499644
 20
13.456490583
 30
0.0
 10
16.2863765719
 20
13.4711413294
 30
0.0
 10
16.3010311054
 20
13.4884712923
 30
0.0
 10
16.3127143542
 20
13.50816876
 30
0.0
 10
16.318358793
 20
13.5224694654
 30
0.0
 10
16.3206371678
 20
13.5298422889
 30
0.0
  0
SPLINE
  5
48F
100
AcDbEntity
  8
0
100
AcDbSpline
 62
7
  6
CONTINUOUS
 70
0
 71
3
 72
14
 73
10
 74
0
 42
0.0000001
 43
0.0000001
 44
0.0000000001
 40
0.0
 40
0.0
 40
0.0
 40
0.0
 40
0.1301454759
 40
0.2605472047
 40
0.3900428964
 40
0.5178386516
 40
0.6432790542
 40
0.7658336173
 40
1.0
 40
1.0
 40
1.0
 40
1.0
 10
15.990299718
 20
13.5256720241
 30
0.0
 10
15.9963165239
 20
13.5182936299
 30
0.0
 10
16.0091427693
 20
13.5041414965
 30
0.0
 10
16.030387454
 20
13.4850229711
 30
0.0
 10
16.0533640309
 20
13.4683068715
 30
0.0
 10
16.077647862
 20
13.4542694697
 30
0.0
 10
16.1028604413
 20
13.4431528484
 30
0.0
 10
16.1365705102
 20
13.4326320545
 30
0.0
 10
16.162824019
 20
13.4293053992
 30
0.0
 10
16.1799528283
 20
13.4295216376
 30
0.0
  0
SPLINE
  5
490
100
AcDbEntity
  8
0
100
AcDbSpline
 62
7
  6
CONTINUOUS
 70
0
 71
3
 72
15
 73
11
 74
0
 42
0.0000001
 43
0.0000001
 44
0.0000000001
 40
0.0
 40
0.0
 40
0.0
 40
0.0
 40
0.1128947721
 40
0.2294561533
 40
0.3497183627
 40
0.4736935195
 40
0.6012218026
 40
0.7319281096
 40
0.865215012
 40
1.0
 40
1.0
 40
1.0
 40
1.0
 10
15.9413309472
 20
13.7221430618
 30
0.0
 10
15.9389922662
 20
13.7145750873
 30
0.0
 10
15.9354382363
 20
13.6988005926
 30
0.0
 10
15.9335181696
 20
13.6742626617
 30
0.0
 10
15.9349975866
 20
13.6489163922
 30
0.0
 10
15.9398107062
 20
13.6232131891
 30
0.0
 10
15.9478846441
 20
13.5975767902
 30
0.0
 10
15.9590682445
 20
13.5724231004
 30
0.0
 10
15.973184358
 20
13.5482064644
 30
0.0
 10
15.9843231435
 20
13.5330010826
 30
0.0
 10
15.990299718
 20
13.5256720241
 30
0.0
  0
SPLINE
  5
491
100
AcDbEntity
  8
0
100
AcDbSpline
 62
7
  6
CONTINUOUS
 70
0
 71
3
 72
15
 73
11
 74
0
 42
0.0000001
 43
0.0000001
 44
0.0000000001
 40
0.0
 40
0.0
 40
0.0
 40
0.0
 40
0.1324364277
 40
0.2611477226
 40
0.3864253654
 40
0.5092047111
 40
0.6306877507
 40
0.7522020947
 40
0.8750267764
 40
1.0
 40
1.0
 40
1.0
 40
1.0
 10
16.0820152867
 20
13.822463713
 30
0.0
 10
16.0738382677
 20
13.8223604842
 30
0.0
 10
16.0577033455
 20
13.8210725193
 30
0.0
 10
16.0343489299
 20
13.8157862422
 30
0.0
 10
16.0126217982
 20
13.8072024102
 30
0.0
 10
15.9929181506
 20
13.7954947676
 30
0.0
 10
15.9755915431
 20
13.7808440212
 30
0.0
 10
15.9609370096
 20
13.7635140583
 30
0.0
 10
15.9492537608
 20
13.7438165906
 30
0.0
 10
15.9436093219
 20
13.7295158852
 30
0.0
 10
15.9413309472
 20
13.7221430618
 30
0.0
  0
SPLINE
  5
492
100
AcDbEntity
  8
0
100
AcDbSpline
 62
7
  6
CONTINUOUS
 70
0
 71
3
 72
9
 73
5
 74
0
 42
0.0000001
 43
0.0000001
 44
0.0000000001
 40
0.0
 40
0.0
 40
0.0
 40
0.0
 40
0.4851493426
 40
1.0
 40
1.0
 40
1.0
 40
1.0
 10
16.3206371678
 20
13.5298422889
 30
0.0
 10
16.3250930804
 20
13.5442616272
 30
0.0
 10
16.3298737914
 20
13.5754548207
 30
0.0
 10
16.3265480812
 20
13.6067174743
 30
0.0
 10
16.323118079
 20
13.6223619672
 30
0.0
  0
SPLINE
  5
493
100
AcDbEntity
  8
0
100
AcDbSpline
 62
7
  6
CONTINUOUS
 70
0
 71
3
 72
26
 73
22
 74
0
 42
0.0000001
 43
0.0000001
 44
0.0000000001
 40
0.0
 40
0.0
 40
0.0
 40
0.0
 40
0.0251968868
 40
0.0504991197
 40
0.0760098873
 40
0.1018257201
 40
0.1280329195
 40
0.1547089729
 40
0.2096699471
 40
0.2380846841
 40
0.2671468323
 40
0.3272068158
 40
0.3898340744
 40
0.4548002989
 40
0.5217442798
 40
0.5901913404
 40
0.7291974014
 40
0.7987078844
 40
0.867371089
 40
0.9346664573
 40
1.0
 40
1.0
 40
1.0
 40
1.0
 10
18.4620076276
 20
12.0975615444
 30
0.0
 10
18.4652383477
 20
12.0909764121
 30
0.0
 10
18.4710970054
 20
12.0774660182
 30
0.0
 10
18.4779762124
 20
12.056403563
 30
0.0
 10
18.4829139209
 20
12.0346171173
 30
0.0
 10
18.4858946354
 20
12.0122145095
 30
0.0
 10
18.4869112655
 20
11.9892973389
 30
0.0
 10
18.4856202688
 20
11.9578993411
 30
0.0
 10
18.4803133563
 20
11.9261445498
 30
0.0
 10
18.4713453479
 20
11.8946446477
 30
0.0
 10
18.4596145764
 20
11.86247361
 30
0.0
 10
18.4401896733
 20
11.8226419632
 30
0.0
 10
18.4101799799
 20
11.7768417356
 30
0.0
 10
18.3737872934
 20
11.7332977536
 30
0.0
 10
18.3316572566
 20
11.6927974054
 30
0.0
 10
18.2685927558
 20
11.6436011923
 30
0.0
 10
18.1978062077
 20
11.603718361
 30
0.0
 10
18.1224231204
 20
11.5746808043
 30
0.0
 10
18.0646481438
 20
11.5587796734
 30
0.0
 10
18.0067574466
 20
11.5490892776
 30
0.0
 10
17.9681197946
 20
11.5468213373
 30
0.0
 10
17.9491008421
 20
11.5468213373
 30
0.0
  0
SPLINE
  5
494
100
AcDbEntity
  8
0
100
AcDbSpline
 62
7
  6
CONTINUOUS
 70
0
 71
3
 72
14
 73
10
 74
0
 42
0.0000001
 43
0.0000001
 44
0.0000000001
 40
0.0
 40
0.0
 40
0.0
 40
0.0
 40
0.2462845013
 40
0.3727205018
 40
0.5003759943
 40
0.6283221267
 40
0.7553462507
 40
0.8798675688
 40
1.0
 40
1.0
 40
1.0
 40
1.0
 10
12.6620401076
 20
10.9135582771
 30
0.0
 10
12.6570613698
 20
10.9166170266
 30
0.0
 10
12.6499578709
 20
10.9219980554
 30
0.0
 10
12.6415599741
 20
10.9304050342
 30
0.0
 10
12.6357882678
 20
10.9374148458
 30
0.0
 10
12.6307569179
 20
10.9449913825
 30
0.0
 10
12.626647528
 20
10.9530280378
 30
0.0
 10
12.6236743157
 20
10.9613580386
 30
0.0
 10
12.6225782988
 20
10.9670928139
 30
0.0
 10
12.6223122492
 20
10.9699305936
 30
0.0
  0
SPLINE
  5
495
100
AcDbEntity
  8
0
100
AcDbSpline
 62
7
  6
CONTINUOUS
 70
0
 71
3
 72
13
 73
9
 74
0
 42
0.0000001
 43
0.0000001
 44
0.0000000001
 40
0.0
 40
0.0
 40
0.0
 40
0.0
 40
0.2567576263
 40
0.5133773124
 40
0.6400312757
 40
0.7642800123
 40
0.8848254845
 40
1.0
 40
1.0
 40
1.0
 40
1.0
 10
11.7651926863
 20
10.983805121
 30
0.0
 10
11.7603833908
 20
10.9805662231
 30
0.0
 10
11.7511487583
 20
10.9735062927
 30
0.0
 10
11.740789706
 20
10.9633621806
 30
0.0
 10
11.7335088018
 20
10.9544976189
 30
0.0
 10
11.7287336519
 20
10.9475866226
 30
0.0
 10
11.7247870459
 20
10.9404638525
 30
0.0
 10
11.7227907297
 20
10.9355055475
 30
0.0
 10
11.722022759
 20
10.9330205697
 30
0.0
  0
SPLINE
  5
496
100
AcDbEntity
  8
0
100
AcDbSpline
 62
7
  6
CONTINUOUS
 70
0
 71
3
 72
16
 73
12
 74
0
 42
0.0000001
 43
0.0000001
 44
0.0000000001
 40
0.0
 40
0.0
 40
0.0
 40
0.0
 40
0.3576722283
 40
0.5138654896
 40
0.6529239794
 40
0.7731090586
 40
0.8722454224
 40
0.9132496101
 40
0.9481951413
 40
0.9770173375
 40
1.0
 40
1.0
 40
1.0
 40
1.0
 10
12.3310227173
 20
12.8148317722
 30
0.0
 10
12.3288032783
 20
12.8173922433
 30
0.0
 10
12.3255557292
 20
12.8210217443
 30
0.0
 10
12.3212552462
 20
12.8254687448
 30
0.0
 10
12.318428528
 20
12.8282089046
 30
0.0
 10
12.3158889572
 20
12.8304636765
 30
0.0
 10
12.3139418624
 20
12.8319836538
 30
0.0
 10
12.3125489948
 20
12.8328862826
 30
0.0
 10
12.3116733501
 20
12.8333577083
 30
0.0
 10
12.310907323
 20
12.8336599951
 30
0.0
 10
12.3104178799
 20
12.8337513793
 30
0.0
 10
12.3102001479
 20
12.8337513798
 30
0.0
  0
SPLINE
  5
497
100
AcDbEntity
  8
0
100
AcDbSpline
 62
7
  6
CONTINUOUS
 70
0
 71
3
 72
32
 73
28
 74
0
 42
0.0000001
 43
0.0000001
 44
0.0000000001
 40
0.0
 40
0.0
 40
0.0
 40
0.0
 40
0.0305585638
 40
0.0634047891
 40
0.1350901412
 40
0.2132602296
 40
0.2959009248
 40
0.3806883377
 40
0.4651890325
 40
0.5469865109
 40
0.6238086288
 40
0.659718946
 40
0.6936695158
 40
0.7254717488
 40
0.7549883781
 40
0.7821430007
 40
0.8069080534
 40
0.8293510355
 40
0.8496666511
 40
0.8681808013
 40
0.8853994362
 40
0.9019998499
 40
0.9187452085
 40
0.9363842477
 40
0.9555338967
 40
0.9766438105
 40
1.0
 40
1.0
 40
1.0
 40
1.0
 10
15.7752348276
 20
11.1338825443
 30
0.0
 10
15.773790154
 20
11.1368264796
 30
0.0
 10
15.7710300532
 20
11.14305288
 30
0.0
 10
15.7660069323
 20
11.1566593309
 30
0.0
 10
15.7608051211
 20
11.1756022367
 30
0.0
 10
15.7563835637
 20
11.2001839743
 30
0.0
 10
15.7537628578
 20
11.2264344365
 30
0.0
 10
15.7530275225
 20
11.2534819802
 30
0.0
 10
15.7542087267
 20
11.2804243855
 30
0.0
 10
15.7572677429
 20
11.3063580557
 30
0.0
 10
15.7613713495
 20
11.3268568264
 30
0.0
 10
15.7655763706
 20
11.3420318328
 30
0.0
 10
15.7690401808
 20
11.3523830936
 30
0.0
 10
15.7728590493
 20
11.3618741014
 30
0.0
 10
15.7770029051
 20
11.3704258526
 30
0.0
 10
15.7814328266
 20
11.3779715797
 30
0.0
 10
15.7861183875
 20
11.3844492123
 30
0.0
 10
15.7910295622
 20
11.3898035884
 30
0.0
 10
15.7961300753
 20
11.3939947784
 30
0.0
 10
15.8013957059
 20
11.3969759348
 30
0.0
 10
15.8067921898
 20
11.3986892081
 30
0.0
 10
15.812254505
 20
11.3991000546
 30
0.0
 10
15.8177012123
 20
11.3981906861
 30
0.0
 10
15.8230508935
 20
11.3959832622
 30
0.0
 10
15.8282589926
 20
11.3925367135
 30
0.0
 10
15.8332945411
 20
11.3878927934
 30
0.0
 10
15.8363552334
 20
11.3842151302
 30
0.0
 10
15.8378592888
 20
11.382210169
 30
0.0
  0
SPLINE
  5
498
100
AcDbEntity
  8
0
100
AcDbSpline
 62
7
  6
CONTINUOUS
 70
0
 71
3
 72
9
 73
5
 74
0
 42
0.0000001
 43
0.0000001
 44
0.0000000001
 40
0.0
 40
0.0
 40
0.0
 40
0.0
 40
0.4835530559
 40
1.0
 40
1.0
 40
1.0
 40
1.0
 10
15.8565968119
 20
11.397170022
 30
0.0
 10
15.8583692265
 20
11.3935582209
 30
0.0
 10
15.8616909179
 20
11.3859177688
 30
0.0
 10
15.8644192171
 20
11.3780496684
 30
0.0
 10
15.8656940089
 20
11.3739461865
 30
0.0
  0
SPLINE
  5
499
100
AcDbEntity
  8
0
100
AcDbSpline
 62
7
  6
CONTINUOUS
 70
0
 71
3
 72
15
 73
11
 74
0
 42
0.0000001
 43
0.0000001
 44
0.0000000001
 40
0.0
 40
0.0
 40
0.0
 40
0.0
 40
0.1111703369
 40
0.2321724745
 40
0.3605963399
 40
0.4934423231
 40
0.6273673708
 40
0.7588235185
 40
0.8841911753
 40
1.0
 40
1.0
 40
1.0
 40
1.0
 10
15.8656940089
 20
11.3739461865
 30
0.0
 10
15.8683698848
 20
11.3653326945
 30
0.0
 10
15.8727297585
 20
11.34695405
 30
0.0
 10
15.8765347058
 20
11.317909127
 30
0.0
 10
15.8779603847
 20
11.2868950396
 30
0.0
 10
15.8771541502
 20
11.2548188223
 30
0.0
 10
15.8743255023
 20
11.22261445
 30
0.0
 10
15.8697415511
 20
11.1912276199
 30
0.0
 10
15.8636877395
 20
11.1615916586
 30
0.0
 10
15.8586162393
 20
11.142675101
 30
0.0
 10
15.8558410079
 20
11.1336984086
 30
0.0
  0
SPLINE
  5
49A
100
AcDbEntity
  8
0
100
AcDbSpline
 62
7
  6
CONTINUOUS
 70
0
 71
3
 72
9
 73
5
 74
0
 42
0.0000001
 43
0.0000001
 44
0.0000000001
 40
0.0
 40
0.0
 40
0.0
 40
0.0
 40
0.5272798193
 40
1.0
 40
1.0
 40
1.0
 40
1.0
 10
15.8558410079
 20
11.1336984086
 30
0.0
 10
15.8539595974
 20
11.1276128467
 30
0.0
 10
15.8500919482
 20
11.1161608695
 30
0.0
 10
15.845474942
 20
11.1049824159
 30
0.0
 10
15.8430552009
 20
11.0998097574
 30
0.0
  0
SPLINE
  5
49B
100
AcDbEntity
  8
0
100
AcDbSpline
 62
7
  6
CONTINUOUS
 70
0
 71
3
 72
10
 73
6
 74
0
 42
0.0000001
 43
0.0000001
 44
0.0000000001
 40
0.0
 40
0.0
 40
0.0
 40
0.0
 40
0.5398985816
 40
0.7798915661
 40
1.0
 40
1.0
 40
1.0
 40
1.0
 10
15.8430552009
 20
11.0998097574
 30
0.0
 10
15.840937691
 20
11.0952831754
 30
0.0
 10
15.8376144994
 20
11.0888544586
 30
0.0
 10
15.8326175086
 20
11.0810568527
 30
0.0
 10
15.8300628742
 20
11.0776423156
 30
0.0
 10
15.828768794
 20
11.0760687298
 30
0.0
  0
SPLINE
  5
49C
100
AcDbEntity
  8
0
100
AcDbSpline
 62
7
  6
CONTINUOUS
 70
0
 71
3
 72
12
 73
8
 74
0
 42
0.0000001
 43
0.0000001
 44
0.0000000001
 40
0.0
 40
0.0
 40
0.0
 40
0.0
 40
0.2954592599
 40
0.5539131809
 40
0.7841016419
 40
0.8928877052
 40
1.0
 40
1.0
 40
1.0
 40
1.0
 10
15.828768794
 20
11.0760687298
 30
0.0
 10
15.8270881153
 20
11.074025045
 30
0.0
 10
15.8237025909
 20
11.0703712791
 30
0.0
 10
15.8181040486
 20
11.0660661872
 30
0.0
 10
15.8131832306
 20
11.0638067961
 30
0.0
 10
15.8092708891
 20
11.0629406231
 30
0.0
 10
15.8073343686
 20
11.062798907
 30
0.0
 10
15.8063751183
 20
11.0627990865
 30
0.0
  0
SPLINE
  5
49D
100
AcDbEntity
  8
0
100
AcDbSpline
 62
7
  6
CONTINUOUS
 70
0
 71
3
 72
14
 73
10
 74
0
 42
0.0000001
 43
0.0000001
 44
0.0000000001
 40
0.0
 40
0.0
 40
0.0
 40
0.0
 40
0.3958174491
 40
0.5579270435
 40
0.6943906904
 40
0.8052306692
 40
0.8913516958
 40
0.9548991077
 40
1.0
 40
1.0
 40
1.0
 40
1.0
 10
17.9431153039
 20
12.8148317722
 30
0.0
 10
17.9438576639
 20
12.8172340501
 30
0.0
 10
17.9448351251
 20
12.8206440032
 30
0.0
 10
17.9458046292
 20
12.8249482669
 30
0.0
 10
17.946252234
 20
12.8275117218
 30
0.0
 10
17.94647982
 20
12.8296190988
 30
0.0
 10
17.9464951346
 20
12.8312791673
 30
0.0
 10
17.9463218651
 20
12.8325075443
 30
0.0
 10
17.9460280295
 20
12.8331585722
 30
0.0
 10
17.9458378483
 20
12.833372841
 30
0.0
  0
SPLINE
  5
49E
100
AcDbEntity
  8
0
100
AcDbSpline
 62
7
  6
CONTINUOUS
 70
0
 71
3
 72
12
 73
8
 74
0
 42
0.0000001
 43
0.0000001
 44
0.0000000001
 40
0.0
 40
0.0
 40
0.0
 40
0.0
 40
0.2649658446
 40
0.5228002982
 40
0.7694824868
 40
0.8871559229
 40
1.0
 40
1.0
 40
1.0
 40
1.0
 10
18.8014762001
 20
12.8148317722
 30
0.0
 10
18.8055344868
 20
12.817564891
 30
0.0
 10
18.8138236552
 20
12.8225556664
 30
0.0
 10
18.8267527732
 20
12.8285163118
 30
0.0
 10
18.8377669732
 20
12.8319571958
 30
0.0
 10
18.8464599495
 20
12.833466186
 30
0.0
 10
18.8507191674
 20
12.833751378
 30
0.0
 10
18.8528029268
 20
12.8337513794
 30
0.0
  0
SPLINE
  5
49F
100
AcDbEntity
  8
0
100
AcDbSpline
 62
7
  6
CONTINUOUS
 70
0
 71
3
 72
47
 73
43
 74
0
 42
0.0000001
 43
0.0000001
 44
0.0000000001
 40
0.0
 40
0.0
 40
0.0
 40
0.0
 40
0.025337872
 40
0.037531248
 40
0.0494420189
 40
0.0611087187
 40
0.0725739354
 40
0.0838839917
 40
0.0950877541
 40
0.106236087
 40
0.117381438
 40
0.1285767123
 40
0.1398735008
 40
0.1513213902
 40
0.1629665685
 40
0.1748505765
 40
0.1870107695
 40
0.2122716424
 40
0.2389618821
 40
0.2528888199
 40
0.2672114623
 40
0.2970486966
 40
0.3284693606
 40
0.3614078386
 40
0.3957531042
 40
0.4313600241
 40
0.4680521762
 40
0.5056310814
 40
0.5438795704
 40
0.582567596
 40
0.6214570201
 40
0.6603056334
 40
0.6988723756
 40
0.7369209426
 40
0.774225319
 40
0.8105728446
 40
0.8457736033
 40
0.8796607941
 40
0.9120971978
 40
0.9429900995
 40
0.9722973484
 40
1.0
 40
1.0
 40
1.0
 40
1.0
 10
13.3670703884
 20
11.0345019842
 30
0.0
 10
13.3573219385
 20
11.058677635
 30
0.0
 10
13.3449970335
 20
11.0954228673
 30
0.0
 10
13.3339202076
 20
11.1451001151
 30
0.0
 10
13.328511991
 20
11.1815363849
 30
0.0
 10
13.3259100187
 20
11.2175285845
 30
0.0
 10
13.3261253722
 20
11.2529987283
 30
0.0
 10
13.3291612438
 20
11.2878626562
 30
0.0
 10
13.3350046123
 20
11.3220375785
 30
0.0
 10
13.343644369
 20
11.3554406263
 30
0.0
 10
13.3550689142
 20
11.387987385
 30
0.0
 10
13.3692430925
 20
11.4196008056
 30
0.0
 10
13.3861293592
 20
11.450207384
 30
0.0
 10
13.4056921248
 20
11.4797316911
 30
0.0
 10
13.4278819586
 20
11.5081039843
 30
0.0
 10
13.4526401963
 20
11.5352636615
 30
0.0
 10
13.4894577904
 20
11.5702098679
 30
0.0
 10
13.5419469212
 20
11.6104902949
 30
0.0
 10
13.6005288189
 20
11.6448833927
 30
0.0
 10
13.6514651854
 20
11.6694299885
 30
0.0
 10
13.7066017647
 20
11.692537901
 30
0.0
 10
13.7804878546
 20
11.7171636962
 30
0.0
 10
13.8748792712
 20
11.7395824984
 30
0.0
 10
13.9753395224
 20
11.7550617031
 30
0.0
 10
14.0809435876
 20
11.7634805443
 30
0.0
 10
14.1907287571
 20
11.7647518184
 30
0.0
 10
14.303688211
 20
11.7588761616
 30
0.0
 10
14.4187846346
 20
11.7459046895
 30
0.0
 10
14.5349587533
 20
11.7259537471
 30
0.0
 10
14.6511428672
 20
11.6992162256
 30
0.0
 10
14.7662636008
 20
11.6659261156
 30
0.0
 10
14.8792635872
 20
11.6264020687
 30
0.0
 10
14.9890989332
 20
11.581000209
 30
0.0
 10
15.0947582924
 20
11.5301407488
 30
0.0
 10
15.1952704757
 20
11.474296444
 30
0.0
 10
15.2897069144
 20
11.41397156
 30
0.0
 10
15.3772067039
 20
11.349728372
 30
0.0
 10
15.4569587301
 20
11.2821431671
 30
0.0
 10
15.528240922
 20
11.2118414999
 30
0.0
 10
15.5904027619
 20
11.1394391956
 30
0.0
 10
15.6428403229
 20
11.0656010175
 30
0.0
 10
15.671811245
 20
11.0144461796
 30
0.0
 10
15.6843666911
 20
10.9888608704
 30
0.0
  0
SPLINE
  5
4A0
100
AcDbEntity
  8
0
100
AcDbSpline
 62
7
  6
CONTINUOUS
 70
0
 71
3
 72
15
 73
11
 74
0
 42
0.0000001
 43
0.0000001
 44
0.0000000001
 40
0.0
 40
0.0
 40
0.0
 40
0.0
 40
0.1380799318
 40
0.2714583019
 40
0.400424799
 40
0.5254316948
 40
0.647119483
 40
0.7662256933
 40
0.8835644243
 40
1.0
 40
1.0
 40
1.0
 40
1.0
 10
15.742523057
 20
11.0280272158
 30
0.0
 10
15.7505294932
 20
11.0117118144
 30
0.0
 10
15.7651097523
 20
10.9790481012
 30
0.0
 10
15.7827383272
 20
10.9293199152
 30
0.0
 10
15.7956488763
 20
10.8799298076
 30
0.0
 10
15.803762435
 20
10.8310824197
 30
0.0
 10
15.8070567438
 20
10.782970373
 30
0.0
 10
15.8054996762
 20
10.735773614
 30
0.0
 10
15.7990999817
 20
10.6896866453
 30
0.0
 10
15.7916078646
 20
10.6597704117
 30
0.0
 10
15.7870834717
 20
10.6451282859
 30
0.0
  0
SPLINE
  5
4A1
100
AcDbEntity
  8
0
100
AcDbSpline
 62
7
  6
CONTINUOUS
 70
0
 71
3
 72
37
 73
33
 74
0
 42
0.0000001
 43
0.0000001
 44
0.0000000001
 40
0.0
 40
0.0
 40
0.0
 40
0.0
 40
0.026520344
 40
0.0543712198
 40
0.083538606
 40
0.1139956508
 40
0.1456981916
 40
0.1785701457
 40
0.2125072687
 40
0.2473901137
 40
0.319417655
 40
0.3934668413
 40
0.4682056548
 40
0.5054161815
 40
0.5422870918
 40
0.5786541018
 40
0.6143601685
 40
0.649256827
 40
0.6832102438
 40
0.7160987903
 40
0.7478230161
 40
0.7783019678
 40
0.8074838063
 40
0.8353452017
 40
0.8487864774
 40
0.8619061673
 40
0.8872058959
 40
0.9113486265
 40
0.9344824143
 40
0.9568014484
 40
0.9785485261
 40
1.0
 40
1.0
 40
1.0
 40
1.0
 10
13.7875567066
 20
10.9888608704
 30
0.0
 10
13.7945520574
 20
10.9746058443
 30
0.0
 10
13.8103834043
 20
10.9460944007
 30
0.0
 10
13.8384905948
 20
10.9046523163
 30
0.0
 10
13.8713534083
 20
10.863800355
 30
0.0
 10
13.9087273651
 20
10.8238219601
 30
0.0
 10
13.9503639016
 20
10.7849805224
 30
0.0
 10
13.9959800579
 20
10.7475306622
 30
0.0
 10
14.0452675126
 20
10.7117221467
 30
0.0
 10
14.1161852419
 20
10.6660210694
 30
0.0
 10
14.2118454375
 20
10.6147010265
 30
0.0
 10
14.3340769048
 20
10.5638118443
 30
0.0
 10
14.4406397232
 20
10.5308357497
 30
0.0
 10
14.5274461385
 20
10.5106034763
 30
0.0
 10
14.5925247878
 20
10.4987023786
 30
0.0
 10
14.6572173246
 20
10.4901415233
 30
0.0
 10
14.7210846276
 20
10.4849682592
 30
0.0
 10
14.7836937595
 20
10.4832321646
 30
0.0
 10
14.8446190266
 20
10.4849290159
 30
0.0
 10
14.9034480705
 20
10.4900647431
 30
0.0
 10
14.9597829646
 20
10.4985904775
 30
0.0
 10
15.0132435561
 20
10.5104629756
 30
0.0
 10
15.0634667521
 20
10.5255972559
 30
0.0
 10
15.1028067405
 20
10.5410303636
 30
0.0
 10
15.1322733652
 20
10.5549665296
 30
0.0
 10
15.1596989166
 20
10.5695470693
 30
0.0
 10
15.1914659768
 20
10.5895313636
 30
0.0
 10
15.2255933476
 20
10.6165800282
 30
0.0
 10
15.255034841
 20
10.6462192637
 30
0.0
 10
15.279550262
 20
10.6782762022
 30
0.0
 10
15.2989587579
 20
10.7125083795
 30
0.0
 10
15.3084040162
 20
10.7367016015
 30
0.0
 10
15.3121950295
 20
10.7489733543
 30
0.0
  0
SPLINE
  5
4A2
100
AcDbEntity
  8
0
100
AcDbSpline
 62
7
  6
CONTINUOUS
 70
0
 71
3
 72
26
 73
22
 74
0
 42
0.0000001
 43
0.0000001
 44
0.0000000001
 40
0.0
 40
0.0
 40
0.0
 40
0.0
 40
0.0661341332
 40
0.1295049469
 40
0.1903644287
 40
0.2491329387
 40
0.3063432396
 40
0.3625977342
 40
0.3905829016
 40
0.4185741889
 40
0.4748793766
 40
0.5033865471
 40
0.532223817
 40
0.591143744
 40
0.6521762098
 40
0.7157363958
 40
0.7485734873
 40
0.782149794
 40
0.8515929593
 40
0.9241974594
 40
1.0
 40
1.0
 40
1.0
 40
1.0
 10
15.6843666911
 20
10.9888608704
 30
0.0
 10
15.6938581635
 20
10.9695192832
 30
0.0
 10
15.7107591648
 20
10.9307811126
 30
0.0
 10
15.729817873
 20
10.8716523981
 30
0.0
 10
15.741853408
 20
10.8131321999
 30
0.0
 10
15.746777242
 20
10.7555901913
 30
0.0
 10
15.7445311804
 20
10.6993747637
 30
0.0
 10
15.7366682998
 20
10.6538203129
 30
0.0
 10
15.7268581416
 20
10.6185735523
 30
0.0
 10
15.7147045797
 20
10.5840491858
 30
0.0
 10
15.6990304752
 20
10.5506703318
 30
0.0
 10
15.6800972448
 20
10.5188303126
 30
0.0
 10
15.6586886559
 20
10.4875565524
 30
0.0
 10
15.6275896786
 20
10.4502070474
 30
0.0
 10
15.584155776
 20
10.4089510421
 30
0.0
 10
15.5432927867
 20
10.3777943158
 30
0.0
 10
15.5078169092
 20
10.3546552409
 30
0.0
 10
15.4696273924
 20
10.3322556303
 30
0.0
 10
15.4183278573
 20
10.3067414399
 30
0.0
 10
15.3523252069
 20
10.2804697125
 30
0.0
 10
15.3061289882
 20
10.2660372465
 30
0.0
 10
15.2823203629
 20
10.2594815377
 30
0.0
  0
ELLIPSE
  5
4A3
100
AcDbEntity
  8
0
100
AcDbEllipse
 62
7
  6
CONTINUOUS
 10
8.6246509384
 20
13.3671977814
 30
0.0
 11
0.0
 21
0.025
 31
0.0
 40
0.2679491924
 41
-0.0
 42
1.5707963268
  0
ELLIPSE
  5
4A4
100
AcDbEntity
  8
0
100
AcDbEllipse
 62
7
  6
CONTINUOUS
 10
6.0708720839
 20
13.692175781
 30
0.0
 11
1.8252949166
 21
3.8467926633
 31
0.0
 40
0.3419987131
 41
-1.5768586772
 42
-1.5149233892
  0
ELLIPSE
  5
4A5
100
AcDbEntity
  8
0
100
AcDbEllipse
 62
7
  6
CONTINUOUS
 10
6.0708720839
 20
12.1922197817
 30
0.0
 11
-1.8252949166
 21
3.8467926633
 31
0.0
 40
0.3419987131
 41
-1.6266692643
 42
-1.5647339764
  0
ELLIPSE
  5
4A6
100
AcDbEntity
  8
0
100
AcDbEllipse
 62
7
  6
CONTINUOUS
 10
3.5170932293
 20
12.5171977814
 30
0.0
 11
-0.0
 21
0.025
 31
0.0
 40
0.2679491924
 41
-3.1415926536
 42
-1.5707963268
  0
ELLIPSE
  5
4A7
100
AcDbEntity
  8
0
100
AcDbEllipse
 62
7
  6
CONTINUOUS
 10
3.5170932293
 20
13.3671977814
 30
0.0
 11
-0.0
 21
0.025
 31
0.0
 40
0.2679491924
 41
-1.5707963268
 42
0.0
  0
ELLIPSE
  5
4A8
100
AcDbEntity
  8
0
100
AcDbEllipse
 62
7
  6
CONTINUOUS
 10
8.6246509384
 20
12.5171977814
 30
0.0
 11
-0.0
 21
0.025
 31
0.0
 40
0.2679491924
 41
-4.7123889804
 42
-3.1415926536
  0
ELLIPSE
  5
4A9
100
AcDbEntity
  8
0
100
AcDbEllipse
 62
7
  6
CONTINUOUS
 10
15.9025052569
 20
5.0412339327
 30
0.0
 11
0.0
 21
1.6794228634
 31
0.0
 40
0.2679491924
 41
-1.5707963268
 42
-0.9773037385
  0
ELLIPSE
  5
4AA
100
AcDbEntity
  8
0
100
AcDbEllipse
 62
7
  6
CONTINUOUS
 10
15.1525272573
 20
5.3981247044
 30
0.0
 11
3.8467926633
 21
-1.8252949166
 31
0.0
 40
0.3419987131
 41
1.5647339764
 42
1.6266692643
  0
ELLIPSE
  5
4AB
100
AcDbEntity
  8
0
100
AcDbEllipse
 62
7
  6
CONTINUOUS
 10
16.6524832566
 20
5.3981247044
 30
0.0
 11
3.8467926633
 21
1.8252949166
 31
0.0
 40
0.3419987131
 41
1.5149233892
 42
1.5768586772
  0
ELLIPSE
  5
4AC
100
AcDbEntity
  8
0
100
AcDbEllipse
 62
7
  6
CONTINUOUS
 10
15.9025052569
 20
5.0412339327
 30
0.0
 11
0.0
 21
1.6794228634
 31
0.0
 40
0.2679491924
 41
0.9773037385
 42
1.5707963268
  0
ELLIPSE
  5
4AD
100
AcDbEntity
  8
0
100
AcDbEllipse
 62
7
  6
CONTINUOUS
 10
17.3397972309
 20
12.2602309305
 30
0.0
 11
-0.9017241437
 21
1.0835791464
 31
0.0
 40
0.2216133796
 41
1.1205704482
 42
1.7140630365
  0
ELLIPSE
  5
4AE
100
AcDbEntity
  8
0
100
AcDbEllipse
 62
7
  6
CONTINUOUS
 10
17.7078945343
 20
12.29439338
 30
0.0
 11
-0.0056615067
 21
0.0247959587
 31
0.0
 40
0.5630202753
 41
-0.1278125829
 42
0.7721502657
  0
ELLIPSE
  5
4AF
100
AcDbEntity
  8
0
100
AcDbEllipse
 62
7
  6
CONTINUOUS
 10
17.3397972309
 20
12.2602309305
 30
0.0
 11
-0.9017241437
 21
1.0835791464
 31
0.0
 40
0.2216133796
 41
-1.4275296171
 42
-0.8340370287
  0
ELLIPSE
  5
4B0
100
AcDbEntity
  8
0
100
AcDbEllipse
 62
7
  6
CONTINUOUS
 10
14.8158132762
 20
11.8945998431
 30
0.0
 11
3.0526794157
 21
2.2816568803
 31
0.0
 40
0.0578005151
 41
1.0341556466
 42
1.0960909346
  0
ELLIPSE
  5
4B1
100
AcDbEntity
  8
0
100
AcDbEllipse
 62
7
  6
CONTINUOUS
 10
14.8158132762
 20
11.8945998431
 30
0.0
 11
-0.8085206096
 21
4.1549108477
 31
0.0
 40
0.2766889488
 41
-1.2796059071
 42
-1.2176706192
  0
ELLIPSE
  5
4B2
100
AcDbEntity
  8
0
100
AcDbEllipse
 62
7
  6
CONTINUOUS
 10
17.5021381594
 20
11.6285655068
 30
0.0
 11
-0.0056615067
 21
0.0247959587
 31
0.0
 40
0.5630202753
 41
0.7721502657
 42
2.3429465925
  0
ENDSEC
  0
SECTION
  2
OBJECTS
  0
DICTIONARY
  5
C
100
AcDbDictionary
280
0
281
1
  3
ACAD_GROUP
350
D
  3
ACAD_MLINESTYLE
350
17
  3
ACAD_LAYOUT
350
1A
  3
ACAD_PLOTSETTINGS
350
19
  3
ACAD_PLOTSTYLENAME
350
E
  0
DICTIONARY
  5
D
102
{ACAD_REACTORS
330
C
102
}
100
AcDbDictionary
280
0
281
1
  0
ACDBDICTIONARYWDFLT
  5
E
102
{ACAD_REACTORS
330
C
102
}
100
AcDbDictionary
281
1
  3
Normal
350
F
100
AcDbDictionaryWithDefault
340
F
  0
DICTIONARY
  5
17
102
{ACAD_REACTORS
330
C
102
}
100
AcDbDictionary
280
0
281
1
  3
Standard
350
18
  0
DICTIONARY
  5
19
102
{ACAD_REACTORS
330
C
102
}
100
AcDbDictionary
281
1
  0
DICTIONARY
  5
1A
102
{ACAD_REACTORS
330
C
102
}
100
AcDbDictionary
281
1
  3
Model
350
4B3
  3
Layout1
350
4B4
  0
ACDBPLACEHOLDER
  5
F
102
{ACAD_REACTORS
330
E
102
}
  0
MLINESTYLE
  5
18
102
{ACAD_REACTORS
330
17
102
}
100
AcDbMlineStyle
  2
STANDARD
 70
0
  3

 62
256
 51
90.0
 52
90.0
 71
2
 49
0.5
 62
256
  6
BYLAYER
 49
-0.5
 62
256
  6
BYLAYER
  0
LAYOUT
  5
4B3
102
{ACAD_REACTORS
330
1A
102
}
100
AcDbPlotSettings
  1

  2
none_device
  4
ANSI_C_(22.00_x_17.00_Inches)
  6

 40
0.0
 41
0.0
 42
0.0
 43
0.0
 44
558.8
 45
431.8
 46
0.0
 47
0.0
 48
0.0
 49
0.0
140
0.0
141
0.0
142
1.0
143
1.0
 70
1024
 72
0
 73
0
 74
0
  7

 75
0
147
1.0
148
0.0
149
0.0
100
AcDbLayout
  1
Model
 70
0
 71
0
 10
0.0
 20
0.0
 11
22.0
 21
17.0
 12
0.0
 22
0.0
 32
0.0
 14
0.0
 24
0.0
 34
0.0
 15
0.0
 25
0.0
 35
0.0
146
0.0
 13
0.0
 23
0.0
 33
0.0
 16
1.0
 26
0.0
 36
0.0
 17
0.0
 27
1.0
 37
0.0
 76
0
330
23D
345
0
346
0
  0
LAYOUT
  5
4B4
102
{ACAD_REACTORS
330
1A
102
}
100
AcDbPlotSettings
  1

  2
none_device
  4
ANSI_C_(22.00_x_17.00_Inches)
  6

 40
0.0
 41
0.0
 42
0.0
 43
0.0
 44
558.8
 45
431.8
 46
0.0
 47
0.0
 48
0.0
 49
0.0
140
0.0
141
0.0
142
1.0
143
1.0
 70
0
 72
0
 73
0
 74
0
  7

 75
0
147
1.0
148
0.0
149
0.0
100
AcDbLayout
  1
Layout1
 70
0
 71
1
 10
0.0
 20
0.0
 11
22.0
 21
17.0
 12
0.0
 22
0.0
 32
0.0
 14
0.0
 24
0.0
 34
0.0
 15
0.0
 25
0.0
 35
0.0
146
0.0
 13
0.0
 23
0.0
 33
0.0
 16
1.0
 26
0.0
 36
0.0
 17
0.0
 27
1.0
 37
0.0
 76
0
330
23E
345
0
346
0
  0
ENDSEC
  0
EOF