999
DXF file: _cgs_temp_output.dxf
999
Pro/ENGINEER 2016360 by Parametric Technology Corporation
  0
SECTION
  2
HEADER
  9
$ACADVER
  1
AC1021
  9
$DWGCODEPAGE
  3
ANSI_1252
  9
$EXTMAX
 10
22.0
 20
17.0
 30
0.0
  9
$EXTMIN
 10
0.0
 20
0.0
 30
0.0
  9
$LIMMIN
 10
0.0
 20
0.0
  9
$LIMMAX
 10
22.0
 20
17.0
  9
$VIEWCTR
 10
11.0
 20
8.5
  9
$VIEWSIZE
 40
17.0
  9
$CLAYER
  8
0
  9
$LTSCALE
 40
1.21
  9
$CELTYPE
  6
BYLAYER
  9
$DIMSCALE
 40
1.0
  9
$DIMASZ
 40
0.1875
  9
$DIMEXO
 40
0.0625
  9
$DIMDLI
 40
0.836
  9
$DIMEXE
 40
0.125
  9
$DIMCEN
 40
0.198
  9
$DIMLFAC
 40
1.0
  9
$DIMBLK
  1
_CLOSED
  9
$DIMALT
 70
0
  9
$DIMALTF
 40
25.4
  9
$DIMTXT
 40
0.15625
  9
$DIMTOL
 70
0
  9
$DIMLIM
 70
0
  9
$DIMTFAC
 40
1.0
  9
$DIMGAP
 40
0.09
  9
$DIMDSEP
 70
46
  9
$AUNITS
 70
0
  9
$PDMODE
 70
3
  9
$PDSIZE
 40
0.3125
  9
$HANDSEED
  5
56C
  9
$TILEMODE
 70
1
  9
$MEASUREMENT
 70
0
  9
$INSUNITS
 70
1
  0
ENDSEC
  0
SECTION
  2
CLASSES
  0
CLASS
  1
ACDBDICTIONARYWDFLT
  2
AcDbDictionaryWithDefault
  3
AutoCAD 2000
 90
0
 91
1
280
0
281
0
  0
CLASS
  1
ACDBPLACEHOLDER
  2
AcDbPlaceHolder
  3
AutoCAD 2000
 90
0
 91
1
280
0
281
0
  0
CLASS
  1
LAYOUT
  2
AcDbLayout
  3
AutoCAD 2000
 90
0
 91
0
280
0
281
0
  0
ENDSEC
  0
SECTION
  2
TABLES
  0
TABLE
  2
VPORT
  5
8
100
AcDbSymbolTable
 70
2
  0
VPORT
  5
1F4
100
AcDbSymbolTableRecord
100
AcDbViewportTableRecord
  2
*ACTIVE
 70
0
 10
0.0
 20
0.0
 11
1.0
 21
1.0
 12
11.0
 22
8.5
 13
0.0
 23
0.0
 14
1.0
 24
1.0
 15
0.0
 25
0.0
 16
0.0
 26
0.0
 36
1.0
 17
0.0
 27
0.0
 37
0.0
 40
17.0
 41
1.2941176471
 42
50.0
 43
0.0
 44
0.0
 50
0.0
 51
0.0
 71
0
 72
100
 73
1
 74
1
 75
0
 76
0
 77
0
 78
0
  0
ENDTAB
  0
TABLE
  2
LTYPE
  5
5
100
AcDbSymbolTable
 70
6
  0
LTYPE
  5
14
100
AcDbSymbolTableRecord
100
AcDbLinetypeTableRecord
  2
BYBLOCK
 70
0
  3

 72
65
 73
0
 40
0.0
  0
LTYPE
  5
15
100
AcDbSymbolTableRecord
100
AcDbLinetypeTableRecord
  2
BYLAYER
 70
0
  3

 72
65
 73
0
 40
0.0
  0
LTYPE
  5
16
100
AcDbSymbolTableRecord
100
AcDbLinetypeTableRecord
  2
CONTINUOUS
 70
64
  3
Solid line
 72
65
 73
0
 40
0.0
  0
LTYPE
  5
1F5
100
AcDbSymbolTableRecord
100
AcDbLinetypeTableRecord
  2
CENTER
 70
64
  3
____ _ ____ _ ____ _ ____ _ ____ _ ____ _ ____
 72
65
 73
4
 40
0.6
 49
0.375
 74
0
 49
-0.075
 74
0
 49
0.075
 74
0
 49
-0.075
 74
0
  0
LTYPE
  5
1F6
100
AcDbSymbolTableRecord
100
AcDbLinetypeTableRecord
  2
HIDDEN
 70
64
  3
- - - - - - - - - - - - - - - - - - - -
 72
65
 73
2
 40
0.2
 49
0.1
 74
0
 49
-0.1
 74
0
  0
LTYPE
  5
1F7
100
AcDbSymbolTableRecord
100
AcDbLinetypeTableRecord
  2
PHANTOM
 70
64
  3
_____ _ _ _____ _ _ _____ _ _ _____
 72
65
 73
6
 40
0.8
 49
0.45
 74
0
 49
-0.05
 74
0
 49
0.1
 74
0
 49
-0.05
 74
0
 49
0.1
 74
0
 49
-0.05
 74
0
  0
LTYPE
  5
1F8
100
AcDbSymbolTableRecord
100
AcDbLinetypeTableRecord
  2
DOT
 70
64
  3
. . . . . . . . . . . . . . . . . . . .
 72
65
 73
2
 40
0.2
 49
0.1
 74
0
 49
-0.1
 74
0
  0
LTYPE
  5
1F9
100
AcDbSymbolTableRecord
100
AcDbLinetypeTableRecord
  2
DASHED
 70
64
  3
- - - - - - - - - - - - - - - - - - - -
 72
65
 73
2
 40
0.2
 49
0.1
 74
0
 49
-0.1
 74
0
  0
ENDTAB
  0
TABLE
  2
LAYER
  5
2
100
AcDbSymbolTable
 70
36
  0
LAYER
  5
10
100
AcDbSymbolTableRecord
100
AcDbLayerTableRecord
  2
0
 70
0
 62
7
  6
CONTINUOUS
370
-3
390
F
  0
LAYER
  5
1FA
100
AcDbSymbolTableRecord
100
AcDbLayerTableRecord
  2
DEFAULT_1
 70
0
 62
7
  6
CENTER
370
-3
390
F
  0
LAYER
  5
1FB
100
AcDbSymbolTableRecord
100
AcDbLayerTableRecord
  2
DEFAULT_2
 70
0
 62
8
  6
HIDDEN
370
-3
390
F
  0
LAYER
  5
1FC
100
AcDbSymbolTableRecord
100
AcDbLayerTableRecord
  2
DEFAULT_3
 70
0
 62
7
  6
PHANTOM
370
-3
390
F
  0
LAYER
  5
1FD
100
AcDbSymbolTableRecord
100
AcDbLayerTableRecord
  2
01_ALL_DTM_PLN
 70
0
 62
7
  6
CONTINUOUS
370
-3
390
F
  0
LAYER
  5
1FE
100
AcDbSymbolTableRecord
100
AcDbLayerTableRecord
  2
01__ASM_ALL_DTM_PLN
 70
0
 62
7
  6
CONTINUOUS
370
-3
390
F
  0
LAYER
  5
1FF
100
AcDbSymbolTableRecord
100
AcDbLayerTableRecord
  2
01__ASM_DEF_DTM_PLN
 70
0
 62
7
  6
CONTINUOUS
370
-3
390
F
  0
LAYER
  5
200
100
AcDbSymbolTableRecord
100
AcDbLayerTableRecord
  2
01___PRT_ALL_DTM_PLN
 70
0
 62
7
  6
CONTINUOUS
370
-3
390
F
  0
LAYER
  5
201
100
AcDbSymbolTableRecord
100
AcDbLayerTableRecord
  2
01___PRT_DEF_DTM_PLN
 70
0
 62
7
  6
CONTINUOUS
370
-3
390
F
  0
LAYER
  5
202
100
AcDbSymbolTableRecord
100
AcDbLayerTableRecord
  2
02_ALL_AXES
 70
0
 62
7
  6
CONTINUOUS
370
-3
390
F
  0
LAYER
  5
203
100
AcDbSymbolTableRecord
100
AcDbLayerTableRecord
  2
02__ASM_ALL_AXES
 70
0
 62
7
  6
CONTINUOUS
370
-3
390
F
  0
LAYER
  5
204
100
AcDbSymbolTableRecord
100
AcDbLayerTableRecord
  2
02___PRT_ALL_AXES
 70
0
 62
7
  6
CONTINUOUS
370
-3
390
F
  0
LAYER
  5
205
100
AcDbSymbolTableRecord
100
AcDbLayerTableRecord
  2
03_ALL_CURVES
 70
0
 62
7
  6
CONTINUOUS
370
-3
390
F
  0
LAYER
  5
206
100
AcDbSymbolTableRecord
100
AcDbLayerTableRecord
  2
03__ASM_ALL_CURVES
 70
0
 62
7
  6
CONTINUOUS
370
-3
390
F
  0
LAYER
  5
207
100
AcDbSymbolTableRecord
100
AcDbLayerTableRecord
  2
03___PRT_ALL_CURVES
 70
0
 62
7
  6
CONTINUOUS
370
-3
390
F
  0
LAYER
  5
208
100
AcDbSymbolTableRecord
100
AcDbLayerTableRecord
  2
04_ALL_DTM_PNT
 70
0
 62
7
  6
CONTINUOUS
370
-3
390
F
  0
LAYER
  5
209
100
AcDbSymbolTableRecord
100
AcDbLayerTableRecord
  2
04__ASM_ALL_DTM_PNT
 70
0
 62
7
  6
CONTINUOUS
370
-3
390
F
  0
LAYER
  5
20A
100
AcDbSymbolTableRecord
100
AcDbLayerTableRecord
  2
04___PRT_ALL_DTM_PNT
 70
0
 62
7
  6
CONTINUOUS
370
-3
390
F
  0
LAYER
  5
20B
100
AcDbSymbolTableRecord
100
AcDbLayerTableRecord
  2
05_ALL_DTM_CSYS
 70
0
 62
7
  6
CONTINUOUS
370
-3
390
F
  0
LAYER
  5
20C
100
AcDbSymbolTableRecord
100
AcDbLayerTableRecord
  2
05__ASM_ALL_DTM_CSYS
 70
0
 62
7
  6
CONTINUOUS
370
-3
390
F
  0
LAYER
  5
20D
100
AcDbSymbolTableRecord
100
AcDbLayerTableRecord
  2
05__ASM_DEF_DTM_CSYS
 70
0
 62
7
  6
CONTINUOUS
370
-3
390
F
  0
LAYER
  5
20E
100
AcDbSymbolTableRecord
100
AcDbLayerTableRecord
  2
05___PRT_ALL_DTM_CSYS
 70
0
 62
7
  6
CONTINUOUS
370
-3
390
F
  0
LAYER
  5
20F
100
AcDbSymbolTableRecord
100
AcDbLayerTableRecord
  2
05___PRT_DEF_DTM_CSYS
 70
0
 62
7
  6
CONTINUOUS
370
-3
390
F
  0
LAYER
  5
210
100
AcDbSymbolTableRecord
100
AcDbLayerTableRecord
  2
06_ALL_SURFS
 70
0
 62
7
  6
CONTINUOUS
370
-3
390
F
  0
LAYER
  5
211
100
AcDbSymbolTableRecord
100
AcDbLayerTableRecord
  2
06__ASM_ALL_SURFS
 70
0
 62
7
  6
CONTINUOUS
370
-3
390
F
  0
LAYER
  5
212
100
AcDbSymbolTableRecord
100
AcDbLayerTableRecord
  2
06___PRT_ALL_SURFS
 70
0
 62
7
  6
CONTINUOUS
370
-3
390
F
  0
LAYER
  5
213
100
AcDbSymbolTableRecord
100
AcDbLayerTableRecord
  2
07__ASM_ALL_SKELETONS
 70
0
 62
7
  6
CONTINUOUS
370
-3
390
F
  0
LAYER
  5
214
100
AcDbSymbolTableRecord
100
AcDbLayerTableRecord
  2
ASM0001
 70
0
 62
7
  6
CONTINUOUS
370
-3
390
F
  0
LAYER
  5
215
100
AcDbSymbolTableRecord
100
AcDbLayerTableRecord
  2
COLOR1
 70
0
 62
7
  6
CONTINUOUS
370
-3
390
F
  0
LAYER
  5
216
100
AcDbSymbolTableRecord
100
AcDbLayerTableRecord
  2
COLOR2
 70
0
 62
7
  6
CONTINUOUS
370
-3
390
F
  0
LAYER
  5
217
100
AcDbSymbolTableRecord
100
AcDbLayerTableRecord
  2
INTFCLR_11727
 70
0
 62
7
  6
CONTINUOUS
370
-3
390
F
  0
LAYER
  5
218
100
AcDbSymbolTableRecord
100
AcDbLayerTableRecord
  2
INTFCLR_11727_1
 70
0
 62
7
  6
CONTINUOUS
370
-3
390
F
  0
LAYER
  5
219
100
AcDbSymbolTableRecord
100
AcDbLayerTableRecord
  2
INTFCLR_11727_10
 70
0
 62
7
  6
CONTINUOUS
370
-3
390
F
  0
LAYER
  5
21A
100
AcDbSymbolTableRecord
100
AcDbLayerTableRecord
  2
INTFCLR_11727_2
 70
0
 62
7
  6
CONTINUOUS
370
-3
390
F
  0
LAYER
  5
21B
100
AcDbSymbolTableRecord
100
AcDbLayerTableRecord
  2
INTFCLR_11727_3
 70
0
 62
7
  6
CONTINUOUS
370
-3
390
F
  0
LAYER
  5
21C
100
AcDbSymbolTableRecord
100
AcDbLayerTableRecord
  2
INTFCLR_11727_4
 70
0
 62
7
  6
CONTINUOUS
370
-3
390
F
  0
LAYER
  5
21D
100
AcDbSymbolTableRecord
100
AcDbLayerTableRecord
  2
INTFCLR_11727_5
 70
0
 62
7
  6
CONTINUOUS
370
-3
390
F
  0
LAYER
  5
21E
100
AcDbSymbolTableRecord
100
AcDbLayerTableRecord
  2
INTFCLR_11727_6
 70
0
 62
7
  6
CONTINUOUS
370
-3
390
F
  0
LAYER
  5
21F
100
AcDbSymbolTableRecord
100
AcDbLayerTableRecord
  2
INTFCLR_11727_7
 70
0
 62
7
  6
CONTINUOUS
370
-3
390
F
  0
LAYER
  5
220
100
AcDbSymbolTableRecord
100
AcDbLayerTableRecord
  2
INTFCLR_11727_8
 70
0
 62
7
  6
CONTINUOUS
370
-3
390
F
  0
LAYER
  5
221
100
AcDbSymbolTableRecord
100
AcDbLayerTableRecord
  2
INTFCLR_11727_9
 70
0
 62
7
  6
CONTINUOUS
370
-3
390
F
  0
LAYER
  5
222
100
AcDbSymbolTableRecord
100
AcDbLayerTableRecord
  2
NONE
 70
0
 62
7
  6
CONTINUOUS
370
-3
390
F
  0
LAYER
  5
223
100
AcDbSymbolTableRecord
100
AcDbLayerTableRecord
  2
NONE_1
 70
0
 62
7
  6
CONTINUOUS
370
-3
390
F
  0
LAYER
  5
224
100
AcDbSymbolTableRecord
100
AcDbLayerTableRecord
  2
NONE_10
 70
0
 62
7
  6
CONTINUOUS
370
-3
390
F
  0
LAYER
  5
225
100
AcDbSymbolTableRecord
100
AcDbLayerTableRecord
  2
NONE_11
 70
0
 62
7
  6
CONTINUOUS
370
-3
390
F
  0
LAYER
  5
226
100
AcDbSymbolTableRecord
100
AcDbLayerTableRecord
  2
NONE_12
 70
0
 62
7
  6
CONTINUOUS
370
-3
390
F
  0
LAYER
  5
227
100
AcDbSymbolTableRecord
100
AcDbLayerTableRecord
  2
NONE_13
 70
0
 62
7
  6
CONTINUOUS
370
-3
390
F
  0
LAYER
  5
228
100
AcDbSymbolTableRecord
100
AcDbLayerTableRecord
  2
NONE_14
 70
0
 62
7
  6
CONTINUOUS
370
-3
390
F
  0
LAYER
  5
229
100
AcDbSymbolTableRecord
100
AcDbLayerTableRecord
  2
NONE_2
 70
0
 62
7
  6
CONTINUOUS
370
-3
390
F
  0
LAYER
  5
22A
100
AcDbSymbolTableRecord
100
AcDbLayerTableRecord
  2
NONE_3
 70
0
 62
7
  6
CONTINUOUS
370
-3
390
F
  0
LAYER
  5
22B
100
AcDbSymbolTableRecord
100
AcDbLayerTableRecord
  2
NONE_4
 70
0
 62
7
  6
CONTINUOUS
370
-3
390
F
  0
LAYER
  5
22C
100
AcDbSymbolTableRecord
100
AcDbLayerTableRecord
  2
NONE_5
 70
0
 62
7
  6
CONTINUOUS
370
-3
390
F
  0
LAYER
  5
22D
100
AcDbSymbolTableRecord
100
AcDbLayerTableRecord
  2
NONE_6
 70
0
 62
7
  6
CONTINUOUS
370
-3
390
F
  0
LAYER
  5
22E
100
AcDbSymbolTableRecord
100
AcDbLayerTableRecord
  2
NONE_7
 70
0
 62
7
  6
CONTINUOUS
370
-3
390
F
  0
LAYER
  5
22F
100
AcDbSymbolTableRecord
100
AcDbLayerTableRecord
  2
NONE_8
 70
0
 62
7
  6
CONTINUOUS
370
-3
390
F
  0
LAYER
  5
230
100
AcDbSymbolTableRecord
100
AcDbLayerTableRecord
  2
NONE_9
 70
0
 62
7
  6
CONTINUOUS
370
-3
390
F
  0
LAYER
  5
231
100
AcDbSymbolTableRecord
100
AcDbLayerTableRecord
  2
_12379
 70
0
 62
7
  6
CONTINUOUS
370
-3
390
F
  0
LAYER
  5
232
100
AcDbSymbolTableRecord
100
AcDbLayerTableRecord
  2
_12379_1
 70
0
 62
7
  6
CONTINUOUS
370
-3
390
F
  0
LAYER
  5
233
100
AcDbSymbolTableRecord
100
AcDbLayerTableRecord
  2
_14041
 70
0
 62
7
  6
CONTINUOUS
370
-3
390
F
  0
LAYER
  5
234
100
AcDbSymbolTableRecord
100
AcDbLayerTableRecord
  2
_14041_1
 70
0
 62
7
  6
CONTINUOUS
370
-3
390
F
  0
LAYER
  5
235
100
AcDbSymbolTableRecord
100
AcDbLayerTableRecord
  2
_14312
 70
0
 62
7
  6
CONTINUOUS
370
-3
390
F
  0
LAYER
  5
236
100
AcDbSymbolTableRecord
100
AcDbLayerTableRecord
  2
_14312_1
 70
0
 62
7
  6
CONTINUOUS
370
-3
390
F
  0
LAYER
  5
237
100
AcDbSymbolTableRecord
100
AcDbLayerTableRecord
  2
_15133
 70
0
 62
7
  6
CONTINUOUS
370
-3
390
F
  0
LAYER
  5
238
100
AcDbSymbolTableRecord
100
AcDbLayerTableRecord
  2
_15133_1
 70
0
 62
7
  6
CONTINUOUS
370
-3
390
F
  0
LAYER
  5
239
100
AcDbSymbolTableRecord
100
AcDbLayerTableRecord
  2
_15496
 70
0
 62
7
  6
CONTINUOUS
370
-3
390
F
  0
LAYER
  5
23A
100
AcDbSymbolTableRecord
100
AcDbLayerTableRecord
  2
_15496_1
 70
0
 62
7
  6
CONTINUOUS
370
-3
390
F
  0
LAYER
  5
23B
100
AcDbSymbolTableRecord
100
AcDbLayerTableRecord
  2
_15639
 70
0
 62
7
  6
CONTINUOUS
370
-3
390
F
  0
LAYER
  5
23C
100
AcDbSymbolTableRecord
100
AcDbLayerTableRecord
  2
_15639_1
 70
0
 62
7
  6
CONTINUOUS
370
-3
390
F
  0
LAYER
  5
23D
100
AcDbSymbolTableRecord
100
AcDbLayerTableRecord
  2
_17375
 70
0
 62
7
  6
CONTINUOUS
370
-3
390
F
  0
LAYER
  5
23E
100
AcDbSymbolTableRecord
100
AcDbLayerTableRecord
  2
_17375_1
 70
0
 62
7
  6
CONTINUOUS
370
-3
390
F
  0
LAYER
  5
23F
100
AcDbSymbolTableRecord
100
AcDbLayerTableRecord
  2
_17810
 70
0
 62
7
  6
CONTINUOUS
370
-3
390
F
  0
LAYER
  5
240
100
AcDbSymbolTableRecord
100
AcDbLayerTableRecord
  2
_17810_1
 70
0
 62
7
  6
CONTINUOUS
370
-3
390
F
  0
LAYER
  5
241
100
AcDbSymbolTableRecord
100
AcDbLayerTableRecord
  2
_18242
 70
0
 62
7
  6
CONTINUOUS
370
-3
390
F
  0
LAYER
  5
242
100
AcDbSymbolTableRecord
100
AcDbLayerTableRecord
  2
_18242_1
 70
0
 62
7
  6
CONTINUOUS
370
-3
390
F
  0
LAYER
  5
243
100
AcDbSymbolTableRecord
100
AcDbLayerTableRecord
  2
_18359
 70
0
 62
7
  6
CONTINUOUS
370
-3
390
F
  0
LAYER
  5
244
100
AcDbSymbolTableRecord
100
AcDbLayerTableRecord
  2
_18359_1
 70
0
 62
7
  6
CONTINUOUS
370
-3
390
F
  0
LAYER
  5
245
100
AcDbSymbolTableRecord
100
AcDbLayerTableRecord
  2
_19063
 70
0
 62
7
  6
CONTINUOUS
370
-3
390
F
  0
LAYER
  5
246
100
AcDbSymbolTableRecord
100
AcDbLayerTableRecord
  2
_19063_1
 70
0
 62
7
  6
CONTINUOUS
370
-3
390
F
  0
LAYER
  5
247
100
AcDbSymbolTableRecord
100
AcDbLayerTableRecord
  2
_21306
 70
0
 62
7
  6
CONTINUOUS
370
-3
390
F
  0
LAYER
  5
248
100
AcDbSymbolTableRecord
100
AcDbLayerTableRecord
  2
_21306_1
 70
0
 62
7
  6
CONTINUOUS
370
-3
390
F
  0
LAYER
  5
249
100
AcDbSymbolTableRecord
100
AcDbLayerTableRecord
  2
_22273
 70
0
 62
7
  6
CONTINUOUS
370
-3
390
F
  0
LAYER
  5
24A
100
AcDbSymbolTableRecord
100
AcDbLayerTableRecord
  2
_22273_1
 70
0
 62
7
  6
CONTINUOUS
370
-3
390
F
  0
LAYER
  5
24B
100
AcDbSymbolTableRecord
100
AcDbLayerTableRecord
  2
_22621
 70
0
 62
7
  6
CONTINUOUS
370
-3
390
F
  0
LAYER
  5
24C
100
AcDbSymbolTableRecord
100
AcDbLayerTableRecord
  2
_22621_1
 70
0
 62
7
  6
CONTINUOUS
370
-3
390
F
  0
LAYER
  5
24D
100
AcDbSymbolTableRecord
100
AcDbLayerTableRecord
  2
_23122
 70
0
 62
7
  6
CONTINUOUS
370
-3
390
F
  0
LAYER
  5
24E
100
AcDbSymbolTableRecord
100
AcDbLayerTableRecord
  2
_23122_1
 70
0
 62
7
  6
CONTINUOUS
370
-3
390
F
  0
LAYER
  5
24F
100
AcDbSymbolTableRecord
100
AcDbLayerTableRecord
  2
_2557
 70
0
 62
7
  6
CONTINUOUS
370
-3
390
F
  0
LAYER
  5
250
100
AcDbSymbolTableRecord
100
AcDbLayerTableRecord
  2
_2557_1
 70
0
 62
7
  6
CONTINUOUS
370
-3
390
F
  0
LAYER
  5
251
100
AcDbSymbolTableRecord
100
AcDbLayerTableRecord
  2
_3740
 70
0
 62
7
  6
CONTINUOUS
370
-3
390
F
  0
LAYER
  5
252
100
AcDbSymbolTableRecord
100
AcDbLayerTableRecord
  2
_3740_1
 70
0
 62
7
  6
CONTINUOUS
370
-3
390
F
  0
LAYER
  5
253
100
AcDbSymbolTableRecord
100
AcDbLayerTableRecord
  2
_4134
 70
0
 62
7
  6
CONTINUOUS
370
-3
390
F
  0
LAYER
  5
254
100
AcDbSymbolTableRecord
100
AcDbLayerTableRecord
  2
_4134_1
 70
0
 62
7
  6
CONTINUOUS
370
-3
390
F
  0
LAYER
  5
255
100
AcDbSymbolTableRecord
100
AcDbLayerTableRecord
  2
_5499
 70
0
 62
7
  6
CONTINUOUS
370
-3
390
F
  0
LAYER
  5
256
100
AcDbSymbolTableRecord
100
AcDbLayerTableRecord
  2
_5499_1
 70
0
 62
7
  6
CONTINUOUS
370
-3
390
F
  0
LAYER
  5
257
100
AcDbSymbolTableRecord
100
AcDbLayerTableRecord
  2
_5588
 70
0
 62
7
  6
CONTINUOUS
370
-3
390
F
  0
LAYER
  5
258
100
AcDbSymbolTableRecord
100
AcDbLayerTableRecord
  2
_5588_1
 70
0
 62
7
  6
CONTINUOUS
370
-3
390
F
  0
LAYER
  5
259
100
AcDbSymbolTableRecord
100
AcDbLayerTableRecord
  2
_5996
 70
0
 62
7
  6
CONTINUOUS
370
-3
390
F
  0
LAYER
  5
25A
100
AcDbSymbolTableRecord
100
AcDbLayerTableRecord
  2
_5996_1
 70
0
 62
7
  6
CONTINUOUS
370
-3
390
F
  0
LAYER
  5
25B
100
AcDbSymbolTableRecord
100
AcDbLayerTableRecord
  2
_6281
 70
0
 62
7
  6
CONTINUOUS
370
-3
390
F
  0
LAYER
  5
25C
100
AcDbSymbolTableRecord
100
AcDbLayerTableRecord
  2
_6281_1
 70
0
 62
7
  6
CONTINUOUS
370
-3
390
F
  0
LAYER
  5
25D
100
AcDbSymbolTableRecord
100
AcDbLayerTableRecord
  2
_6595
 70
0
 62
7
  6
CONTINUOUS
370
-3
390
F
  0
LAYER
  5
25E
100
AcDbSymbolTableRecord
100
AcDbLayerTableRecord
  2
_6595_1
 70
0
 62
7
  6
CONTINUOUS
370
-3
390
F
  0
LAYER
  5
25F
100
AcDbSymbolTableRecord
100
AcDbLayerTableRecord
  2
_7003
 70
0
 62
7
  6
CONTINUOUS
370
-3
390
F
  0
LAYER
  5
260
100
AcDbSymbolTableRecord
100
AcDbLayerTableRecord
  2
_7003_1
 70
0
 62
7
  6
CONTINUOUS
370
-3
390
F
  0
LAYER
  5
261
100
AcDbSymbolTableRecord
100
AcDbLayerTableRecord
  2
_8548
 70
0
 62
7
  6
CONTINUOUS
370
-3
390
F
  0
LAYER
  5
262
100
AcDbSymbolTableRecord
100
AcDbLayerTableRecord
  2
_8548_1
 70
0
 62
7
  6
CONTINUOUS
370
-3
390
F
  0
LAYER
  5
263
100
AcDbSymbolTableRecord
100
AcDbLayerTableRecord
  2
_8646
 70
0
 62
7
  6
CONTINUOUS
370
-3
390
F
  0
LAYER
  5
264
100
AcDbSymbolTableRecord
100
AcDbLayerTableRecord
  2
_8646_1
 70
0
 62
7
  6
CONTINUOUS
370
-3
390
F
  0
LAYER
  5
265
100
AcDbSymbolTableRecord
100
AcDbLayerTableRecord
  2
___SHELL
 70
0
 62
7
  6
CONTINUOUS
370
-3
390
F
  0
ENDTAB
  0
TABLE
  2
STYLE
  5
3
100
AcDbSymbolTable
 70
1
  0
STYLE
  5
11
100
AcDbSymbolTableRecord
100
AcDbTextStyleTableRecord
  2
STANDARD
 70
0
 40
0.0
 41
0.8
 50
0.0
 71
0
 42
0.2
  3
txt
  4

  0
STYLE
  5
266
100
AcDbSymbolTableRecord
100
AcDbTextStyleTableRecord
  2
TEXTSTYLE_1
 70
0
 40
0.0
 41
0.8
 50
0.0
 71
0
 42
0.2
  3
gdt
  4

  0
ENDTAB
  0
TABLE
  2
VIEW
  5
6
100
AcDbSymbolTable
 70
0
  0
ENDTAB
  0
TABLE
  2
UCS
  5
7
100
AcDbSymbolTable
 70
0
  0
ENDTAB
  0
TABLE
  2
APPID
  5
9
100
AcDbSymbolTable
 70
1
  0
APPID
  5
267
100
AcDbSymbolTableRecord
100
AcDbRegAppTableRecord
  2
ACAD
 70
0
  0
ENDTAB
  0
TABLE
  2
BLOCK_RECORD
  5
1
100
AcDbSymbolTable
 70
0
  0
BLOCK_RECORD
  5
268
100
AcDbSymbolTableRecord
100
AcDbBlockTableRecord
  2
*Model_Space
  0
BLOCK_RECORD
  5
269
100
AcDbSymbolTableRecord
100
AcDbBlockTableRecord
  2
*Paper_Space
  0
BLOCK_RECORD
  5
26A
100
AcDbSymbolTableRecord
100
AcDbBlockTableRecord
  2
_NONE
  0
ENDTAB
  0
TABLE
  2
DIMSTYLE
  5
A
100
AcDbSymbolTable
 70
1
100
AcDbDimStyleTable
 71
0
  0
DIMSTYLE
105
26B
100
AcDbSymbolTableRecord
100
AcDbDimStyleTableRecord
  2
STANDARD
 70
0
  3

  4

 40
1.0
 41
0.1875
 42
0.0625
 43
0.38
 44
0.125
 45
0.0
 46
0.0
 47
0.0001
 48
0.0001
140
0.15625
141
0.09
142
0.0
143
25.4
144
1.0
145
0.0
146
1.0
147
0.09
 71
0.0
 72
0.0
 73
1
 74
1
 75
0
 76
0
 77
0
 78
4
 79
1
170
0
171
3
172
0
173
0
174
0
175
0
176
0
177
0
178
0
270
2
179
4
271
4
272
4
273
2
274
2
275
0
280
0
281
0
282
0
283
1
284
4
285
0
286
0
287
3
288
0
340
11
278
46
  0
ENDTAB
  0
ENDSEC
  0
SECTION
  2
BLOCKS
  0
BLOCK
  5
20
100
AcDbEntity
  8
0
100
AcDbBlockBegin
  2
*Model_Space
 70
0
 10
0.0
 20
0.0
 30
0.0
  3
*Model_Space
  1

  0
ENDBLK
  5
21
100
AcDbEntity
  8
0
100
AcDbBlockEnd
  0
BLOCK
  5
1C
100
AcDbEntity
  8
0
100
AcDbBlockBegin
  2
*Paper_Space
 70
0
 10
0.0
 20
0.0
 30
0.0
  3
*Paper_Space
  1

  0
ENDBLK
  5
1D
100
AcDbEntity
  8
0
100
AcDbBlockEnd
  0
BLOCK
  5
26C
100
AcDbEntity
  8
0
100
AcDbBlockBegin
  2
_NONE
 70
64
 10
0.0
 20
0.0
  3
_NONE
  1

  0
ENDBLK
  5
26D
100
AcDbEntity
  8
0
  6
BYBLOCK
 62
0
100
AcDbBlockEnd
  0
ENDSEC
  0
SECTION
  2
ENTITIES
  0
MTEXT
  5
26E
100
AcDbEntity
  8
0
100
AcDbMText
 62
7
  6
CONTINUOUS
  7
STANDARD
 71
1
 72
1
 10
15.9560215477
 20
0.9479130325
 30
0.0
 11
1.0
 21
0.0
 31
0.0
 44
0.9
  1
SCALE: 1:0.250
 40
0.3
 41
3.36
  0
LEADER
  5
26F
100
AcDbEntity
  8
0
100
AcDbLeader
 62
2
  6
CONTINUOUS
  3
STANDARD
 71
1
 72
0
 73
0
 75
0
 40
0.15625
 41
1.5
 76
3
 10
4.3725547762
 20
5.1373073978
 30
0.0
 10
7.2861318461
 20
4.0888256718
 30
0.0
 10
7.5361318461
 20
4.0888256718
 30
0.0
340
270
1001
ACAD
1000
DSTYLE
1002
{
1070
77
1070
0
1070
341
1005
26A
1002
}
  0
MTEXT
  5
270
102
{ACAD_REACTORS
330
26F
102
}
100
AcDbEntity
  8
0
100
AcDbMText
 62
2
  6
CONTINUOUS
  7
STANDARD
 71
1
 72
1
 10
7.5361318461
 20
4.1669506718
 30
0.0
 11
1.0
 21
0.0
 31
0.0
 44
0.9
  1
 0.375 BOLTS
 40
0.15625
 41
1.5
  0
LINE
  5
271
100
AcDbEntity
  8
0
100
AcDbLine
 62
7
  6
CONTINUOUS
 10
0.0
 20
0.0
 11
0.0
 21
17.0
  0
LINE
  5
272
100
AcDbEntity
  8
0
100
AcDbLine
 62
7
  6
CONTINUOUS
 10
0.0
 20
0.0
 11
22.0
 21
0.0
  0
LINE
  5
273
100
AcDbEntity
  8
0
100
AcDbLine
 62
7
  6
CONTINUOUS
 10
0.0
 20
17.0
 11
22.0
 21
17.0
  0
LINE
  5
274
100
AcDbEntity
  8
0
100
AcDbLine
 62
7
  6
CONTINUOUS
 10
22.0
 20
0.0
 11
22.0
 21
17.0
  0
LINE
  5
275
100
AcDbEntity
  8
0
100
AcDbLine
 62
7
  6
CONTINUOUS
 10
4.1772422762
 20
4.4185573978
 11
4.1772422762
 21
4.9810573978
  0
LINE
  5
276
100
AcDbEntity
  8
0
100
AcDbLine
 62
7
  6
CONTINUOUS
 10
4.2748985262
 20
5.1248073978
 11
4.2748985262
 21
5.0060573978
  0
LINE
  5
277
100
AcDbEntity
  8
0
100
AcDbLine
 62
7
  6
CONTINUOUS
 10
5.0528672762
 20
5.7755669922
 11
5.0528672762
 21
5.1498028599
  0
LINE
  5
278
100
AcDbEntity
  8
0
100
AcDbLine
 62
7
  6
CONTINUOUS
 10
4.8017879946
 20
5.1451970775
 11
5.0533887863
 21
5.7792706676
  0
LINE
  5
279
100
AcDbEntity
  8
0
100
AcDbLine
 62
7
  6
CONTINUOUS
 10
5.0537485436
 20
5.7801773124
 11
5.1137281742
 21
5.9313354207
  0
LINE
  5
27A
100
AcDbEntity
  8
0
100
AcDbLine
 62
7
  6
CONTINUOUS
 10
4.1772422762
 20
4.4185573978
 11
8.0834922762
 21
4.4185573978
  0
LINE
  5
27B
100
AcDbEntity
  8
0
100
AcDbLine
 62
7
  6
CONTINUOUS
 10
6.0689610262
 20
6.2435573978
 11
6.0639610262
 21
6.2385573978
  0
LINE
  5
27C
100
AcDbEntity
  8
0
100
AcDbLine
 62
7
  6
CONTINUOUS
 10
4.1897422762
 20
4.9935573978
 11
5.0980760404
 21
4.9935573978
  0
LINE
  5
27D
100
AcDbEntity
  8
0
100
AcDbLine
 62
7
  6
CONTINUOUS
 10
7.162658512
 20
4.9935573978
 11
8.0709922762
 21
4.9935573978
  0
LINE
  5
27E
100
AcDbEntity
  8
0
100
AcDbLine
 62
7
  6
CONTINUOUS
 10
4.2873985262
 20
5.1373073978
 11
5.0403672762
 21
5.1373073978
  0
LINE
  5
27F
100
AcDbEntity
  8
0
100
AcDbLine
 62
7
  6
CONTINUOUS
 10
7.2203672761
 20
5.1373073978
 11
7.9733360262
 21
5.1373073978
  0
LINE
  5
280
100
AcDbEntity
  8
0
100
AcDbLine
 62
7
  6
CONTINUOUS
 10
6.0639610262
 20
6.227914523
 11
6.0639610262
 21
6.2385573978
  0
LINE
  5
281
100
AcDbEntity
  8
0
100
AcDbLine
 62
7
  6
CONTINUOUS
 10
6.1053672762
 20
6.347863857
 11
6.1053672762
 21
6.2435573978
  0
LINE
  5
282
100
AcDbEntity
  8
0
100
AcDbLine
 62
7
  6
CONTINUOUS
 10
6.1053672762
 20
4.8252519828
 11
6.1053672762
 21
4.7080009387
  0
LINE
  5
283
100
AcDbEntity
  8
0
100
AcDbLine
 62
7
  6
CONTINUOUS
 10
6.5186823706
 20
6.2505138708
 11
6.4600568486
 21
6.148971488
  0
LINE
  5
284
100
AcDbEntity
  8
0
100
AcDbLine
 62
7
  6
CONTINUOUS
 10
5.7573764336
 20
4.9318933077
 11
5.6987509115
 21
4.8303509249
  0
LINE
  5
285
100
AcDbEntity
  8
0
100
AcDbLine
 62
7
  6
CONTINUOUS
 10
7.0369876208
 20
6.1451198978
 11
7.1049781189
 21
6.1843742303
  0
LINE
  5
286
100
AcDbEntity
  8
0
100
AcDbLine
 62
7
  6
CONTINUOUS
 10
7.115290751
 20
6.1694948978
 11
7.1288223979
 21
6.1773073978
  0
LINE
  5
287
100
AcDbEntity
  8
0
100
AcDbLine
 62
7
  6
CONTINUOUS
 10
7.1218645939
 20
6.158108668
 11
7.1205730597
 21
6.1573630005
  0
LINE
  5
288
100
AcDbEntity
  8
0
100
AcDbLine
 62
7
  6
CONTINUOUS
 10
7.0527990679
 20
6.118233668
 11
7.0515923006
 21
6.1175369406
  0
LINE
  5
289
100
AcDbEntity
  8
0
100
AcDbLine
 62
7
  6
CONTINUOUS
 10
7.1310776724
 20
6.1421511478
 11
7.1446093194
 21
6.1499636478
  0
LINE
  5
28A
100
AcDbEntity
  8
0
100
AcDbLine
 62
7
  6
CONTINUOUS
 10
6.8279487491
 20
5.9595487625
 11
6.7264063663
 21
5.9009232404
  0
LINE
  5
28B
100
AcDbEntity
  8
0
100
AcDbLine
 62
7
  6
CONTINUOUS
 10
5.509328186
 20
5.1982428254
 11
5.4077858032
 21
5.1396173034
  0
LINE
  5
28C
100
AcDbEntity
  8
0
100
AcDbLine
 62
7
  6
CONTINUOUS
 10
7.0775825616
 20
6.0748073978
 11
7.1392930005
 21
6.1104359364
  0
LINE
  5
28D
100
AcDbEntity
  8
0
100
AcDbLine
 62
7
  6
CONTINUOUS
 10
5.4327858032
 20
5.0963160332
 11
5.534328186
 21
5.1549415553
  0
LINE
  5
28E
100
AcDbEntity
  8
0
100
AcDbLine
 62
7
  6
CONTINUOUS
 10
6.7514063663
 20
5.8576219703
 11
6.8529487491
 21
5.9162474923
  0
LINE
  5
28F
100
AcDbEntity
  8
0
100
AcDbLine
 62
7
  6
CONTINUOUS
 10
6.8303494014
 20
5.4615261478
 11
6.8409922762
 21
5.4615261478
  0
LINE
  5
290
100
AcDbEntity
  8
0
100
AcDbLine
 62
7
  6
CONTINUOUS
 10
5.4276868612
 20
5.5029323978
 11
5.310435817
 21
5.5029323978
  0
LINE
  5
291
100
AcDbEntity
  8
0
100
AcDbLine
 62
7
  6
CONTINUOUS
 10
6.8459922762
 20
5.5029323978
 11
6.9502987353
 21
5.5029323978
  0
LINE
  5
292
100
AcDbEntity
  8
0
100
AcDbLine
 62
7
  6
CONTINUOUS
 10
5.4077858032
 20
5.9162474923
 11
5.509328186
 21
5.8576219703
  0
LINE
  5
293
100
AcDbEntity
  8
0
100
AcDbLine
 62
7
  6
CONTINUOUS
 10
6.7264063663
 20
5.1549415553
 11
6.8279487491
 21
5.0963160332
  0
LINE
  5
294
100
AcDbEntity
  8
0
100
AcDbLine
 62
7
  6
CONTINUOUS
 10
5.6987509115
 20
6.2255138708
 11
5.7573764336
 21
6.123971488
  0
LINE
  5
295
100
AcDbEntity
  8
0
100
AcDbLine
 62
7
  6
CONTINUOUS
 10
6.4600568486
 20
4.9068933077
 11
6.5186823706
 21
4.8053509249
  0
LINE
  5
296
100
AcDbEntity
  8
0
100
AcDbLine
 62
7
  6
CONTINUOUS
 10
6.1553672762
 20
4.8252519828
 11
6.1553672762
 21
4.7080009387
  0
LINE
  5
297
100
AcDbEntity
  8
0
100
AcDbLine
 62
7
  6
CONTINUOUS
 10
6.1553672762
 20
6.2435573978
 11
6.1553672762
 21
6.347863857
  0
LINE
  5
298
100
AcDbEntity
  8
0
100
AcDbLine
 62
7
  6
CONTINUOUS
 10
6.1967735262
 20
6.227914523
 11
6.1967735262
 21
6.2385573978
  0
LINE
  5
299
100
AcDbEntity
  8
0
100
AcDbLine
 62
7
  6
CONTINUOUS
 10
5.7420521817
 20
4.8053509249
 11
5.8006777038
 21
4.9068933077
  0
LINE
  5
29A
100
AcDbEntity
  8
0
100
AcDbLine
 62
7
  6
CONTINUOUS
 10
6.5033581188
 20
6.123971488
 11
6.5619836408
 21
6.2255138708
  0
LINE
  5
29B
100
AcDbEntity
  8
0
100
AcDbLine
 62
7
  6
CONTINUOUS
 10
7.1761831622
 20
6.0952761478
 11
7.1626515153
 21
6.0874636478
  0
LINE
  5
29C
100
AcDbEntity
  8
0
100
AcDbLine
 62
7
  6
CONTINUOUS
 10
7.1015923006
 20
6.0309344002
 11
7.1027990679
 21
6.0316311277
  0
LINE
  5
29D
100
AcDbEntity
  8
0
100
AcDbLine
 62
7
  6
CONTINUOUS
 10
7.1705730597
 20
6.0707604601
 11
7.1718645939
 21
6.0715061277
  0
LINE
  5
29E
100
AcDbEntity
  8
0
100
AcDbLine
 62
7
  6
CONTINUOUS
 10
7.1919700836
 20
6.0679323978
 11
7.1784384367
 21
6.0601198978
  0
LINE
  5
29F
100
AcDbEntity
  8
0
100
AcDbLine
 62
7
  6
CONTINUOUS
 10
7.1861680005
 20
6.0437492303
 11
7.1181775024
 21
6.0044948978
  0
LINE
  5
2A0
100
AcDbEntity
  8
0
100
AcDbLine
 62
7
  6
CONTINUOUS
 10
5.4276868612
 20
5.5529323978
 11
5.310435817
 21
5.5529323978
  0
LINE
  5
2A1
100
AcDbEntity
  8
0
100
AcDbLine
 62
7
  6
CONTINUOUS
 10
6.8459922762
 20
5.5529323978
 11
6.9502987353
 21
5.5529323978
  0
LINE
  5
2A2
100
AcDbEntity
  8
0
100
AcDbLine
 62
7
  6
CONTINUOUS
 10
6.8303494014
 20
5.5943386478
 11
6.8409922762
 21
5.5943386478
  0
LINE
  5
2A3
100
AcDbEntity
  8
0
100
AcDbLine
 62
7
  6
CONTINUOUS
 10
6.8529487491
 20
5.1396173034
 11
6.7514063663
 21
5.1982428254
  0
LINE
  5
2A4
100
AcDbEntity
  8
0
100
AcDbLine
 62
7
  6
CONTINUOUS
 10
5.534328186
 20
5.9009232404
 11
5.4327858032
 21
5.9595487625
  0
LINE
  5
2A5
100
AcDbEntity
  8
0
100
AcDbLine
 62
7
  6
CONTINUOUS
 10
6.5619836408
 20
4.8303509249
 11
6.5033581188
 21
4.9318933077
  0
LINE
  5
2A6
100
AcDbEntity
  8
0
100
AcDbLine
 62
7
  6
CONTINUOUS
 10
5.8006777038
 20
6.148971488
 11
5.7420521817
 21
6.2505138708
  0
LINE
  5
2A7
100
AcDbEntity
  8
0
100
AcDbLine
 62
7
  6
CONTINUOUS
 10
6.8459922762
 20
5.4665261478
 11
6.8409922762
 21
5.4615261478
  0
LINE
  5
2A8
100
AcDbEntity
  8
0
100
AcDbLine
 62
7
  6
CONTINUOUS
 10
6.1917735262
 20
6.2435573978
 11
6.1967735262
 21
6.2385573978
  0
LINE
  5
2A9
100
AcDbEntity
  8
0
100
AcDbLine
 62
7
  6
CONTINUOUS
 10
6.8459922762
 20
5.5893386478
 11
6.8409922762
 21
5.5943386478
  0
LINE
  5
2AA
100
AcDbEntity
  8
0
100
AcDbLine
 62
7
  6
CONTINUOUS
 10
6.8409922762
 20
5.5943386478
 11
6.8409922762
 21
5.4615261478
  0
LINE
  5
2AB
100
AcDbEntity
  8
0
100
AcDbLine
 62
7
  6
CONTINUOUS
 10
6.8459922762
 20
5.4665268817
 11
6.8459922762
 21
5.589337914
  0
LINE
  5
2AC
100
AcDbEntity
  8
0
100
AcDbLine
 62
7
  6
CONTINUOUS
 10
6.0639610262
 20
6.2385573978
 11
6.1967735262
 21
6.2385573978
  0
LINE
  5
2AD
100
AcDbEntity
  8
0
100
AcDbLine
 62
7
  6
CONTINUOUS
 10
6.1917727923
 20
6.2435573978
 11
6.06896176
 21
6.2435573978
  0
LINE
  5
2AE
100
AcDbEntity
  8
0
100
AcDbLine
 62
7
  6
CONTINUOUS
 10
7.2078672762
 20
5.1498060872
 11
7.2078672762
 21
5.7755669922
  0
LINE
  5
2AF
100
AcDbEntity
  8
0
100
AcDbLine
 62
7
  6
CONTINUOUS
 10
7.0369876208
 20
6.1451198978
 11
7.0617956401
 21
6.1021511478
  0
LINE
  5
2B0
100
AcDbEntity
  8
0
100
AcDbLine
 62
7
  6
CONTINUOUS
 10
7.093369483
 20
6.0474636478
 11
7.1181775024
 21
6.0044948978
  0
LINE
  5
2B1
100
AcDbEntity
  8
0
100
AcDbLine
 62
7
  6
CONTINUOUS
 10
7.1861680005
 20
6.0437492303
 11
7.1705730597
 21
6.0707604601
  0
LINE
  5
2B2
100
AcDbEntity
  8
0
100
AcDbLine
 62
7
  6
CONTINUOUS
 10
7.1658705301
 20
6.0789054803
 11
7.1252755893
 21
6.1492179803
  0
LINE
  5
2B3
100
AcDbEntity
  8
0
100
AcDbLine
 62
7
  6
CONTINUOUS
 10
7.1205730597
 20
6.1573630005
 11
7.1049781189
 21
6.1843742303
  0
LINE
  5
2B4
100
AcDbEntity
  8
0
100
AcDbLine
 62
7
  6
CONTINUOUS
 10
7.1784384367
 20
6.0601198978
 11
7.115290751
 21
6.1694948978
  0
LINE
  5
2B5
100
AcDbEntity
  8
0
100
AcDbLine
 62
7
  6
CONTINUOUS
 10
7.1919700836
 20
6.0679323978
 11
7.1288223979
 21
6.1773073978
  0
LINE
  5
2B6
100
AcDbEntity
  8
0
100
AcDbLine
 62
7
  6
CONTINUOUS
 10
7.1470063781
 20
5.9313354207
 11
7.2069860088
 21
5.7801773124
  0
LINE
  5
2B7
100
AcDbEntity
  8
0
100
AcDbLine
 62
7
  6
CONTINUOUS
 10
7.4589465577
 20
5.1451970775
 11
7.207345766
 21
5.7792706676
  0
LINE
  5
2B8
100
AcDbEntity
  8
0
100
AcDbLine
 62
7
  6
CONTINUOUS
 10
7.1768961593
 20
6.1646848956
 11
7.2053603487
 21
6.1159897785
  0
LINE
  5
2B9
100
AcDbEntity
  8
0
100
AcDbLine
 62
7
  6
CONTINUOUS
 10
7.2309215637
 20
6.1489039553
 11
7.2184215637
 21
6.1705545904
  0
LINE
  5
2BA
100
AcDbEntity
  8
0
100
AcDbLine
 62
7
  6
CONTINUOUS
 10
7.9858360262
 20
5.0060573978
 11
7.9858360262
 21
5.1248073978
  0
LINE
  5
2BB
100
AcDbEntity
  8
0
100
AcDbLine
 62
7
  6
CONTINUOUS
 10
8.0834922762
 20
4.9810573978
 11
8.0834922762
 21
4.4185573978
  0
LINE
  5
2BC
100
AcDbEntity
  8
0
100
AcDbLine
 62
7
  6
CONTINUOUS
 10
4.1177470839
 20
11.9094227814
 11
4.1177470839
 21
13.2906727814
  0
LINE
  5
2BD
100
AcDbEntity
  8
0
100
AcDbLine
 62
7
  6
CONTINUOUS
 10
4.2154033339
 20
12.0109852814
 11
4.2154033339
 21
13.1891102814
  0
LINE
  5
2BE
100
AcDbEntity
  8
0
100
AcDbLine
 62
7
  6
CONTINUOUS
 10
4.9933720839
 20
13.1000477814
 11
4.9933720839
 21
12.6863759064
  0
LINE
  5
2BF
100
AcDbEntity
  8
0
100
AcDbLine
 62
7
  6
CONTINUOUS
 10
4.9933720839
 20
12.5137196564
 11
4.9933720839
 21
12.1000477814
  0
LINE
  5
2C0
100
AcDbEntity
  8
0
100
AcDbLine
 62
7
  6
CONTINUOUS
 10
4.9650256075
 20
12.0073306351
 11
4.9906677879
 21
12.0912024277
  0
LINE
  5
2C1
100
AcDbEntity
  8
0
100
AcDbLine
 62
7
  6
CONTINUOUS
 10
5.0527693325
 20
12.0912024277
 11
4.9960763799
 21
11.9057681351
  0
LINE
  5
2C2
100
AcDbEntity
  8
0
100
AcDbLine
 62
7
  6
CONTINUOUS
 10
4.9650256075
 20
13.1927649277
 11
4.9906677879
 21
13.108893135
  0
LINE
  5
2C3
100
AcDbEntity
  8
0
100
AcDbLine
 62
7
  6
CONTINUOUS
 10
5.0527693325
 20
13.108893135
 11
4.9960763799
 21
13.2943274277
  0
LINE
  5
2C4
100
AcDbEntity
  8
0
100
AcDbLine
 62
7
  6
CONTINUOUS
 10
5.3677470839
 20
13.3656727814
 11
5.3677470839
 21
13.1000477814
  0
LINE
  5
2C5
100
AcDbEntity
  8
0
100
AcDbLine
 62
7
  6
CONTINUOUS
 10
5.3677470839
 20
12.1000477814
 11
5.3677470839
 21
11.8344227814
  0
LINE
  5
2C6
100
AcDbEntity
  8
0
100
AcDbLine
 62
7
  6
CONTINUOUS
 10
5.3677470839
 20
11.8344227814
 11
6.7739970839
 21
11.8344227814
  0
LINE
  5
2C7
100
AcDbEntity
  8
0
100
AcDbLine
 62
7
  6
CONTINUOUS
 10
8.0114970839
 20
11.8969227814
 11
7.1576215973
 21
11.8969227814
  0
LINE
  5
2C8
100
AcDbEntity
  8
0
100
AcDbLine
 62
7
  6
CONTINUOUS
 10
4.9841225704
 20
11.8969227814
 11
4.1302470839
 21
11.8969227814
  0
LINE
  5
2C9
100
AcDbEntity
  8
0
100
AcDbLine
 62
7
  6
CONTINUOUS
 10
6.7814970839
 20
11.9008290314
 11
6.7739970839
 21
11.9008290314
  0
LINE
  5
2CA
100
AcDbEntity
  8
0
100
AcDbLine
 62
7
  6
CONTINUOUS
 10
6.0531456264
 20
11.9365321564
 11
6.0885985413
 21
11.9365321564
  0
LINE
  5
2CB
100
AcDbEntity
  8
0
100
AcDbLine
 62
7
  6
CONTINUOUS
 10
6.0531456264
 20
11.9979384064
 11
6.0885985413
 21
11.9979384064
  0
LINE
  5
2CC
100
AcDbEntity
  8
0
100
AcDbLine
 62
7
  6
CONTINUOUS
 10
4.2279033339
 20
11.9984852814
 11
4.9530717981
 21
11.9984852814
  0
LINE
  5
2CD
100
AcDbEntity
  8
0
100
AcDbLine
 62
7
  6
CONTINUOUS
 10
7.1886723696
 20
11.9984852814
 11
7.9138408339
 21
11.9984852814
  0
LINE
  5
2CE
100
AcDbEntity
  8
0
100
AcDbLine
 62
7
  6
CONTINUOUS
 10
6.7739970839
 20
12.0336415314
 11
6.7814970839
 21
12.0336415314
  0
LINE
  5
2CF
100
AcDbEntity
  8
0
100
AcDbLine
 62
7
  6
CONTINUOUS
 10
7.7193095839
 20
12.0687977814
 11
7.4849345839
 21
12.0687977814
  0
LINE
  5
2D0
100
AcDbEntity
  8
0
100
AcDbLine
 62
7
  6
CONTINUOUS
 10
4.6568095839
 20
12.0687977814
 11
4.4224345839
 21
12.0687977814
  0
LINE
  5
2D1
100
AcDbEntity
  8
0
100
AcDbLine
 62
7
  6
CONTINUOUS
 10
4.9928877901
 20
12.1000477814
 11
4.9922909677
 21
12.1000477814
  0
LINE
  5
2D2
100
AcDbEntity
  8
0
100
AcDbLine
 62
7
  6
CONTINUOUS
 10
4.9933720839
 20
12.1000477814
 11
7.149453209
 21
12.1000477814
  0
LINE
  5
2D3
100
AcDbEntity
  8
0
100
AcDbLine
 62
7
  6
CONTINUOUS
 10
6.0531456264
 20
13.2635634064
 11
6.0354191689
 21
13.2328602814
  0
LINE
  5
2D4
100
AcDbEntity
  8
0
100
AcDbLine
 62
7
  6
CONTINUOUS
 10
6.0885985413
 20
13.2021571564
 11
6.1063249988
 21
13.2328602814
  0
LINE
  5
2D5
100
AcDbEntity
  8
0
100
AcDbLine
 62
7
  6
CONTINUOUS
 10
4.4224345839
 20
12.2875477814
 11
4.6568095839
 21
12.2875477814
  0
LINE
  5
2D6
100
AcDbEntity
  8
0
100
AcDbLine
 62
7
  6
CONTINUOUS
 10
7.4849345839
 20
12.2875477814
 11
7.7193095839
 21
12.2875477814
  0
LINE
  5
2D7
100
AcDbEntity
  8
0
100
AcDbLine
 62
7
  6
CONTINUOUS
 10
6.0354191689
 20
11.9672352814
 11
6.0531456264
 21
11.9365321564
  0
LINE
  5
2D8
100
AcDbEntity
  8
0
100
AcDbLine
 62
7
  6
CONTINUOUS
 10
6.1063249988
 20
11.9672352814
 11
6.0885985413
 21
11.9979384064
  0
LINE
  5
2D9
100
AcDbEntity
  8
0
100
AcDbLine
 62
7
  6
CONTINUOUS
 10
7.0180873692
 20
12.5062977814
 11
7.0797978082
 21
12.5062977814
  0
LINE
  5
2DA
100
AcDbEntity
  8
0
100
AcDbLine
 62
7
  6
CONTINUOUS
 10
4.7575702908
 20
12.5262196564
 11
4.9808720839
 21
12.5262196564
  0
LINE
  5
2DB
100
AcDbEntity
  8
0
100
AcDbLine
 62
7
  6
CONTINUOUS
 10
7.1608720839
 20
12.5262196564
 11
7.3841738769
 21
12.5262196564
  0
LINE
  5
2DC
100
AcDbEntity
  8
0
100
AcDbLine
 62
7
  6
CONTINUOUS
 10
7.0715824801
 20
12.5453602814
 11
7.1166879699
 21
12.5453602814
  0
LINE
  5
2DD
100
AcDbEntity
  8
0
100
AcDbLine
 62
7
  6
CONTINUOUS
 10
6.9774924284
 20
12.5531727814
 11
7.0392028674
 21
12.5531727814
  0
LINE
  5
2DE
100
AcDbEntity
  8
0
100
AcDbLine
 62
7
  6
CONTINUOUS
 10
7.0557955587
 20
12.6000477814
 11
7.0693272056
 21
12.6000477814
  0
LINE
  5
2DF
100
AcDbEntity
  8
0
100
AcDbLine
 62
7
  6
CONTINUOUS
 10
6.7814970839
 20
13.1664540314
 11
6.7864970839
 21
13.1714540314
  0
LINE
  5
2E0
100
AcDbEntity
  8
0
100
AcDbLine
 62
7
  6
CONTINUOUS
 10
7.0392028674
 20
12.6469227814
 11
6.9774924284
 21
12.6469227814
  0
LINE
  5
2E1
100
AcDbEntity
  8
0
100
AcDbLine
 62
7
  6
CONTINUOUS
 10
7.0715824801
 20
12.6547352814
 11
7.1166879699
 21
12.6547352814
  0
LINE
  5
2E2
100
AcDbEntity
  8
0
100
AcDbLine
 62
7
  6
CONTINUOUS
 10
7.3841738769
 20
12.6738759064
 11
7.1608720839
 21
12.6738759064
  0
LINE
  5
2E3
100
AcDbEntity
  8
0
100
AcDbLine
 62
7
  6
CONTINUOUS
 10
4.9808720839
 20
12.6738759064
 11
4.7575702908
 21
12.6738759064
  0
LINE
  5
2E4
100
AcDbEntity
  8
0
100
AcDbLine
 62
7
  6
CONTINUOUS
 10
7.0180873692
 20
12.6937977814
 11
7.0797978082
 21
12.6937977814
  0
LINE
  5
2E5
100
AcDbEntity
  8
0
100
AcDbLine
 62
7
  6
CONTINUOUS
 10
6.7864970839
 20
12.0286415314
 11
6.7814970839
 21
12.0336415314
  0
LINE
  5
2E6
100
AcDbEntity
  8
0
100
AcDbLine
 62
7
  6
CONTINUOUS
 10
6.0531456264
 20
11.9979384064
 11
6.0354191689
 21
11.9672352814
  0
LINE
  5
2E7
100
AcDbEntity
  8
0
100
AcDbLine
 62
7
  6
CONTINUOUS
 10
6.0354191689
 20
13.2328602814
 11
6.0531456264
 21
13.2021571564
  0
LINE
  5
2E8
100
AcDbEntity
  8
0
100
AcDbLine
 62
7
  6
CONTINUOUS
 10
6.0885985413
 20
11.9365321564
 11
6.1063249988
 21
11.9672352814
  0
LINE
  5
2E9
100
AcDbEntity
  8
0
100
AcDbLine
 62
7
  6
CONTINUOUS
 10
7.7193095839
 20
12.9125477814
 11
7.4849345839
 21
12.9125477814
  0
LINE
  5
2EA
100
AcDbEntity
  8
0
100
AcDbLine
 62
7
  6
CONTINUOUS
 10
4.6568095839
 20
12.9125477814
 11
4.4224345839
 21
12.9125477814
  0
LINE
  5
2EB
100
AcDbEntity
  8
0
100
AcDbLine
 62
7
  6
CONTINUOUS
 10
6.1063249988
 20
13.2328602814
 11
6.0885985413
 21
13.2635634064
  0
LINE
  5
2EC
100
AcDbEntity
  8
0
100
AcDbLine
 62
7
  6
CONTINUOUS
 10
4.9922909588
 20
13.1000477814
 11
7.1483720839
 21
13.1000477814
  0
LINE
  5
2ED
100
AcDbEntity
  8
0
100
AcDbLine
 62
7
  6
CONTINUOUS
 10
7.1488564159
 20
13.1000477814
 11
7.1494532073
 21
13.1000477814
  0
LINE
  5
2EE
100
AcDbEntity
  8
0
100
AcDbLine
 62
7
  6
CONTINUOUS
 10
4.4224345839
 20
13.1312977814
 11
4.6568095839
 21
13.1312977814
  0
LINE
  5
2EF
100
AcDbEntity
  8
0
100
AcDbLine
 62
7
  6
CONTINUOUS
 10
7.4849345839
 20
13.1312977814
 11
7.7193095839
 21
13.1312977814
  0
LINE
  5
2F0
100
AcDbEntity
  8
0
100
AcDbLine
 62
7
  6
CONTINUOUS
 10
6.7814970839
 20
13.1664540314
 11
6.7739970839
 21
13.1664540314
  0
LINE
  5
2F1
100
AcDbEntity
  8
0
100
AcDbLine
 62
7
  6
CONTINUOUS
 10
6.7739970839
 20
11.8344227814
 11
6.7739970839
 21
11.9008290314
  0
LINE
  5
2F2
100
AcDbEntity
  8
0
100
AcDbLine
 62
7
  6
CONTINUOUS
 10
6.7739970839
 20
12.0336415314
 11
6.7739970839
 21
12.1000477814
  0
LINE
  5
2F3
100
AcDbEntity
  8
0
100
AcDbLine
 62
7
  6
CONTINUOUS
 10
6.7739970839
 20
13.1000477814
 11
6.7739970839
 21
13.1664540314
  0
LINE
  5
2F4
100
AcDbEntity
  8
0
100
AcDbLine
 62
7
  6
CONTINUOUS
 10
6.7739970839
 20
13.2992665314
 11
6.7739970839
 21
13.3656727814
  0
LINE
  5
2F5
100
AcDbEntity
  8
0
100
AcDbLine
 62
7
  6
CONTINUOUS
 10
6.7814970839
 20
12.0336415314
 11
6.7814970839
 21
11.9008290314
  0
LINE
  5
2F6
100
AcDbEntity
  8
0
100
AcDbLine
 62
7
  6
CONTINUOUS
 10
6.7814970839
 20
13.1664540314
 11
6.7814970839
 21
13.2992665314
  0
LINE
  5
2F7
100
AcDbEntity
  8
0
100
AcDbLine
 62
7
  6
CONTINUOUS
 10
6.7864970839
 20
11.9058290314
 11
6.7864970839
 21
12.0286415314
  0
LINE
  5
2F8
100
AcDbEntity
  8
0
100
AcDbLine
 62
7
  6
CONTINUOUS
 10
6.7864970839
 20
13.1714540314
 11
6.7864970839
 21
13.2942665314
  0
LINE
  5
2F9
100
AcDbEntity
  8
0
100
AcDbLine
 62
7
  6
CONTINUOUS
 10
7.0180873692
 20
12.6937977814
 11
6.9774924284
 21
12.6469227814
  0
LINE
  5
2FA
100
AcDbEntity
  8
0
100
AcDbLine
 62
7
  6
CONTINUOUS
 10
4.9530717981
 20
13.2016102814
 11
4.2279033339
 21
13.2016102814
  0
LINE
  5
2FB
100
AcDbEntity
  8
0
100
AcDbLine
 62
7
  6
CONTINUOUS
 10
7.1886723696
 20
13.2016102814
 11
7.9138408339
 21
13.2016102814
  0
LINE
  5
2FC
100
AcDbEntity
  8
0
100
AcDbLine
 62
7
  6
CONTINUOUS
 10
6.0885985413
 20
13.2021571564
 11
6.0531456264
 21
13.2021571564
  0
LINE
  5
2FD
100
AcDbEntity
  8
0
100
AcDbLine
 62
7
  6
CONTINUOUS
 10
6.0531456264
 20
13.2635634064
 11
6.0885985413
 21
13.2635634064
  0
LINE
  5
2FE
100
AcDbEntity
  8
0
100
AcDbLine
 62
7
  6
CONTINUOUS
 10
6.7739970839
 20
13.2992665314
 11
6.7814970839
 21
13.2992665314
  0
LINE
  5
2FF
100
AcDbEntity
  8
0
100
AcDbLine
 62
7
  6
CONTINUOUS
 10
4.9841225704
 20
13.3031727814
 11
4.1302470839
 21
13.3031727814
  0
LINE
  5
300
100
AcDbEntity
  8
0
100
AcDbLine
 62
7
  6
CONTINUOUS
 10
7.1576215973
 20
13.3031727814
 11
8.0114970839
 21
13.3031727814
  0
LINE
  5
301
100
AcDbEntity
  8
0
100
AcDbLine
 62
7
  6
CONTINUOUS
 10
6.9774924284
 20
12.5531727814
 11
7.0180873692
 21
12.5062977814
  0
LINE
  5
302
100
AcDbEntity
  8
0
100
AcDbLine
 62
7
  6
CONTINUOUS
 10
7.0889748352
 20
13.108893135
 11
7.1456677878
 21
13.2943274277
  0
LINE
  5
303
100
AcDbEntity
  8
0
100
AcDbLine
 62
7
  6
CONTINUOUS
 10
6.7739970839
 20
13.3656727814
 11
5.3677470839
 21
13.3656727814
  0
LINE
  5
304
100
AcDbEntity
  8
0
100
AcDbLine
 62
7
  6
CONTINUOUS
 10
7.1456677878
 20
11.9057681351
 11
7.0889748352
 21
12.0912024277
  0
LINE
  5
305
100
AcDbEntity
  8
0
100
AcDbLine
 62
7
  6
CONTINUOUS
 10
6.9774924284
 20
12.6469227814
 11
6.9774924284
 21
12.5531727814
  0
LINE
  5
306
100
AcDbEntity
  8
0
100
AcDbLine
 62
7
  6
CONTINUOUS
 10
7.0557955587
 20
12.6000477814
 11
7.0715824801
 21
12.6547352814
  0
LINE
  5
307
100
AcDbEntity
  8
0
100
AcDbLine
 62
7
  6
CONTINUOUS
 10
7.0693272056
 20
12.6000477814
 11
7.0851141271
 21
12.6547352814
  0
LINE
  5
308
100
AcDbEntity
  8
0
100
AcDbLine
 62
7
  6
CONTINUOUS
 10
7.1767185602
 20
13.1927649277
 11
7.1510763798
 21
13.108893135
  0
LINE
  5
309
100
AcDbEntity
  8
0
100
AcDbLine
 62
7
  6
CONTINUOUS
 10
6.7814970839
 20
11.9008290314
 11
6.7864970839
 21
11.9058290314
  0
LINE
  5
30A
100
AcDbEntity
  8
0
100
AcDbLine
 62
7
  6
CONTINUOUS
 10
6.7864970839
 20
13.2942665314
 11
6.7814970839
 21
13.2992665314
  0
LINE
  5
30B
100
AcDbEntity
  8
0
100
AcDbLine
 62
7
  6
CONTINUOUS
 10
7.1510763799
 20
12.0912024277
 11
7.1767185602
 21
12.0073306351
  0
LINE
  5
30C
100
AcDbEntity
  8
0
100
AcDbLine
 62
7
  6
CONTINUOUS
 10
7.0715824801
 20
12.5453602814
 11
7.0557955587
 21
12.6000477814
  0
LINE
  5
30D
100
AcDbEntity
  8
0
100
AcDbLine
 62
7
  6
CONTINUOUS
 10
7.0851141271
 20
12.5453602814
 11
7.0693272056
 21
12.6000477814
  0
LINE
  5
30E
100
AcDbEntity
  8
0
100
AcDbLine
 62
7
  6
CONTINUOUS
 10
7.1483720839
 20
12.5137196564
 11
7.1483720839
 21
12.1000477814
  0
LINE
  5
30F
100
AcDbEntity
  8
0
100
AcDbLine
 62
7
  6
CONTINUOUS
 10
7.1483720839
 20
12.6863759064
 11
7.1483720839
 21
13.1000477814
  0
LINE
  5
310
100
AcDbEntity
  8
0
100
AcDbLine
 62
7
  6
CONTINUOUS
 10
7.1242994078
 20
12.5717270755
 11
7.1166879699
 21
12.5453602814
  0
LINE
  5
311
100
AcDbEntity
  8
0
100
AcDbLine
 62
7
  6
CONTINUOUS
 10
7.1166879699
 20
12.6547352814
 11
7.1242926062
 21
12.6283920484
  0
LINE
  5
312
100
AcDbEntity
  8
0
100
AcDbLine
 62
7
  6
CONTINUOUS
 10
7.9263408339
 20
13.1891102814
 11
7.9263408339
 21
12.0109852814
  0
LINE
  5
313
100
AcDbEntity
  8
0
100
AcDbLine
 62
7
  6
CONTINUOUS
 10
8.0239970839
 20
13.2906727814
 11
8.0239970839
 21
11.9094227814
  0
LINE
  5
314
100
AcDbEntity
  8
0
100
AcDbLine
 62
7
  6
CONTINUOUS
 10
14.8572302569
 20
4.3590622055
 11
16.2634802569
 21
4.3590622055
  0
LINE
  5
315
100
AcDbEntity
  8
0
100
AcDbLine
 62
7
  6
CONTINUOUS
 10
14.8611365069
 20
6.1790622055
 11
14.8661365069
 21
6.1840622055
  0
LINE
  5
316
100
AcDbEntity
  8
0
100
AcDbLine
 62
7
  6
CONTINUOUS
 10
14.7947302569
 20
6.171550844
 11
14.7947302569
 21
4.7653235671
  0
LINE
  5
317
100
AcDbEntity
  8
0
100
AcDbLine
 62
7
  6
CONTINUOUS
 10
14.8572302569
 20
4.9215622055
 11
14.8572302569
 21
4.3590622055
  0
LINE
  5
318
100
AcDbEntity
  8
0
100
AcDbLine
 62
7
  6
CONTINUOUS
 10
14.8611365069
 20
6.1790622055
 11
14.8611365069
 21
6.1715622055
  0
LINE
  5
319
100
AcDbEntity
  8
0
100
AcDbLine
 62
7
  6
CONTINUOUS
 10
14.8968396319
 20
5.4507107481
 11
14.8968396319
 21
5.486163663
  0
LINE
  5
31A
100
AcDbEntity
  8
0
100
AcDbLine
 62
7
  6
CONTINUOUS
 10
16.3259802569
 20
4.7653122055
 11
16.2634802569
 21
4.7653122055
  0
LINE
  5
31B
100
AcDbEntity
  8
0
100
AcDbLine
 62
7
  6
CONTINUOUS
 10
14.8572302569
 20
4.7653122055
 11
14.7947302569
 21
4.7653122055
  0
LINE
  5
31C
100
AcDbEntity
  8
0
100
AcDbLine
 62
7
  6
CONTINUOUS
 10
14.9582458819
 20
5.486163663
 11
14.9582458819
 21
5.4507107481
  0
LINE
  5
31D
100
AcDbEntity
  8
0
100
AcDbLine
 62
7
  6
CONTINUOUS
 10
14.9587927569
 20
5.0653122055
 11
14.9587927569
 21
4.9465622055
  0
LINE
  5
31E
100
AcDbEntity
  8
0
100
AcDbLine
 62
7
  6
CONTINUOUS
 10
14.9939490069
 20
6.1715622055
 11
14.9939490069
 21
6.1790622055
  0
LINE
  5
31F
100
AcDbEntity
  8
0
100
AcDbLine
 62
7
  6
CONTINUOUS
 10
15.5056677569
 20
6.0904684555
 11
15.528091427
 21
6.1016802906
  0
LINE
  5
320
100
AcDbEntity
  8
0
100
AcDbLine
 62
7
  6
CONTINUOUS
 10
14.8697302569
 20
4.9340622055
 11
16.2509802569
 21
4.9340622055
  0
LINE
  5
321
100
AcDbEntity
  8
0
100
AcDbLine
 62
7
  6
CONTINUOUS
 10
15.0603552569
 20
5.085221039
 11
15.0603552569
 21
6.5621865089
  0
LINE
  5
322
100
AcDbEntity
  8
0
100
AcDbLine
 62
7
  6
CONTINUOUS
 10
15.5603552569
 20
6.0084372055
 11
15.6150427569
 21
6.0357809555
  0
LINE
  5
323
100
AcDbEntity
  8
0
100
AcDbLine
 62
7
  6
CONTINUOUS
 10
15.5603552569
 20
6.0006247055
 11
15.6150427569
 21
6.0279684555
  0
LINE
  5
324
100
AcDbEntity
  8
0
100
AcDbLine
 62
7
  6
CONTINUOUS
 10
14.9275427569
 20
5.5038901205
 11
14.8968396319
 21
5.486163663
  0
LINE
  5
325
100
AcDbEntity
  8
0
100
AcDbLine
 62
7
  6
CONTINUOUS
 10
14.9712927569
 20
5.0778122055
 11
16.1494177569
 21
5.0778122055
  0
LINE
  5
326
100
AcDbEntity
  8
0
100
AcDbLine
 62
7
  6
CONTINUOUS
 10
14.9275427569
 20
5.4329842906
 11
14.9582458819
 21
5.4507107481
  0
LINE
  5
327
100
AcDbEntity
  8
0
100
AcDbLine
 62
7
  6
CONTINUOUS
 10
14.8968396319
 20
5.4507107481
 11
14.9275427569
 21
5.4329842906
  0
LINE
  5
328
100
AcDbEntity
  8
0
100
AcDbLine
 62
7
  6
CONTINUOUS
 10
14.9582458819
 20
5.486163663
 11
14.9275427569
 21
5.5038901205
  0
LINE
  5
329
100
AcDbEntity
  8
0
100
AcDbLine
 62
7
  6
CONTINUOUS
 10
15.6072302569
 20
5.9449997055
 11
15.6541052569
 21
6.0153122055
  0
LINE
  5
32A
100
AcDbEntity
  8
0
100
AcDbLine
 62
7
  6
CONTINUOUS
 10
15.4666052569
 20
6.0153122055
 11
15.4666052569
 21
6.0509407441
  0
LINE
  5
32B
100
AcDbEntity
  8
0
100
AcDbLine
 62
7
  6
CONTINUOUS
 10
16.1267615069
 20
6.1790622055
 11
16.1317615069
 21
6.1840622055
  0
LINE
  5
32C
100
AcDbEntity
  8
0
100
AcDbLine
 62
7
  6
CONTINUOUS
 10
15.4865271319
 20
5.6530678655
 11
15.4865271319
 21
5.0903122053
  0
LINE
  5
32D
100
AcDbEntity
  8
0
100
AcDbLine
 62
7
  6
CONTINUOUS
 10
15.5056677569
 20
6.0904684555
 11
15.5056677569
 21
6.0279684555
  0
LINE
  5
32E
100
AcDbEntity
  8
0
100
AcDbLine
 62
7
  6
CONTINUOUS
 10
15.5134802569
 20
5.9806282441
 11
15.5134802569
 21
5.9449997055
  0
LINE
  5
32F
100
AcDbEntity
  8
0
100
AcDbLine
 62
7
  6
CONTINUOUS
 10
15.5603552569
 20
6.0084372055
 11
15.5603552569
 21
6.0006247055
  0
LINE
  5
330
100
AcDbEntity
  8
0
100
AcDbLine
 62
7
  6
CONTINUOUS
 10
15.6072302569
 20
5.9449997055
 11
15.6072302569
 21
5.9806282441
  0
LINE
  5
331
100
AcDbEntity
  8
0
100
AcDbLine
 62
7
  6
CONTINUOUS
 10
15.6150427569
 20
6.0279684555
 11
15.6150427569
 21
6.0904684555
  0
LINE
  5
332
100
AcDbEntity
  8
0
100
AcDbLine
 62
7
  6
CONTINUOUS
 10
15.6341833819
 20
5.0903122054
 11
15.6341833819
 21
5.6530678655
  0
LINE
  5
333
100
AcDbEntity
  8
0
100
AcDbLine
 62
7
  6
CONTINUOUS
 10
15.6541052569
 20
6.0153122055
 11
15.6541052569
 21
6.0509407441
  0
LINE
  5
334
100
AcDbEntity
  8
0
100
AcDbLine
 62
7
  6
CONTINUOUS
 10
14.9889490069
 20
6.1840622055
 11
14.9939490069
 21
6.1790622055
  0
LINE
  5
335
100
AcDbEntity
  8
0
100
AcDbLine
 62
7
  6
CONTINUOUS
 10
16.1931677569
 20
5.5038901205
 11
16.1624646319
 21
5.486163663
  0
LINE
  5
336
100
AcDbEntity
  8
0
100
AcDbLine
 62
7
  6
CONTINUOUS
 10
15.4666052569
 20
6.0153122055
 11
15.5134802569
 21
5.9449997055
  0
LINE
  5
337
100
AcDbEntity
  8
0
100
AcDbLine
 62
7
  6
CONTINUOUS
 10
16.1931677569
 20
5.4329842906
 11
16.2238708819
 21
5.4507107481
  0
LINE
  5
338
100
AcDbEntity
  8
0
100
AcDbLine
 62
7
  6
CONTINUOUS
 10
16.1624646319
 20
5.4507107481
 11
16.1931677569
 21
5.4329842906
  0
LINE
  5
339
100
AcDbEntity
  8
0
100
AcDbLine
 62
7
  6
CONTINUOUS
 10
16.2238708819
 20
5.486163663
 11
16.1931677569
 21
5.5038901205
  0
LINE
  5
33A
100
AcDbEntity
  8
0
100
AcDbLine
 62
7
  6
CONTINUOUS
 10
16.0603552569
 20
5.0852210383
 11
16.0603552569
 21
6.5621865089
  0
LINE
  5
33B
100
AcDbEntity
  8
0
100
AcDbLine
 62
7
  6
CONTINUOUS
 10
15.5134802569
 20
5.9449997055
 11
15.6072302569
 21
5.9449997055
  0
LINE
  5
33C
100
AcDbEntity
  8
0
100
AcDbLine
 62
7
  6
CONTINUOUS
 10
15.5056677569
 20
6.0279684555
 11
15.5603552569
 21
6.0006247055
  0
LINE
  5
33D
100
AcDbEntity
  8
0
100
AcDbLine
 62
7
  6
CONTINUOUS
 10
15.5056677569
 20
6.0357809555
 11
15.5603552569
 21
6.0084372055
  0
LINE
  5
33E
100
AcDbEntity
  8
0
100
AcDbLine
 62
7
  6
CONTINUOUS
 10
16.1267615069
 20
6.1790622055
 11
16.1267615069
 21
6.1715622055
  0
LINE
  5
33F
100
AcDbEntity
  8
0
100
AcDbLine
 62
7
  6
CONTINUOUS
 10
16.1619177569
 20
4.9465622055
 11
16.1619177569
 21
5.0653122055
  0
LINE
  5
340
100
AcDbEntity
  8
0
100
AcDbLine
 62
7
  6
CONTINUOUS
 10
16.1624646319
 20
5.4507107481
 11
16.1624646319
 21
5.486163663
  0
LINE
  5
341
100
AcDbEntity
  8
0
100
AcDbLine
 62
7
  6
CONTINUOUS
 10
15.6150427569
 20
6.0904684555
 11
15.5925662106
 21
6.1017067287
  0
LINE
  5
342
100
AcDbEntity
  8
0
100
AcDbLine
 62
7
  6
CONTINUOUS
 10
16.2238708819
 20
5.486163663
 11
16.2238708819
 21
5.4507107481
  0
LINE
  5
343
100
AcDbEntity
  8
0
100
AcDbLine
 62
7
  6
CONTINUOUS
 10
16.2595740069
 20
6.1715622055
 11
16.2595740069
 21
6.1790622055
  0
LINE
  5
344
100
AcDbEntity
  8
0
100
AcDbLine
 62
7
  6
CONTINUOUS
 10
16.2634802569
 20
4.9215622055
 11
16.2634802569
 21
4.3590622055
  0
LINE
  5
345
100
AcDbEntity
  8
0
100
AcDbLine
 62
7
  6
CONTINUOUS
 10
16.3259802569
 20
6.1715622055
 11
16.2595740069
 21
6.1715622055
  0
LINE
  5
346
100
AcDbEntity
  8
0
100
AcDbLine
 62
7
  6
CONTINUOUS
 10
16.1267615069
 20
6.1715622055
 11
16.0603552569
 21
6.1715622055
  0
LINE
  5
347
100
AcDbEntity
  8
0
100
AcDbLine
 62
7
  6
CONTINUOUS
 10
15.0603552569
 20
6.1715622055
 11
14.9939490069
 21
6.1715622055
  0
LINE
  5
348
100
AcDbEntity
  8
0
100
AcDbLine
 62
7
  6
CONTINUOUS
 10
14.8611365069
 20
6.1715622055
 11
14.7947302569
 21
6.1715622055
  0
LINE
  5
349
100
AcDbEntity
  8
0
100
AcDbLine
 62
7
  6
CONTINUOUS
 10
14.8611365069
 20
6.1790622055
 11
14.9939490069
 21
6.1790622055
  0
LINE
  5
34A
100
AcDbEntity
  8
0
100
AcDbLine
 62
7
  6
CONTINUOUS
 10
16.1267615069
 20
6.1790622055
 11
16.2595740069
 21
6.1790622055
  0
LINE
  5
34B
100
AcDbEntity
  8
0
100
AcDbLine
 62
7
  6
CONTINUOUS
 10
16.2545740069
 20
6.1840622055
 11
16.1317615069
 21
6.1840622055
  0
LINE
  5
34C
100
AcDbEntity
  8
0
100
AcDbLine
 62
7
  6
CONTINUOUS
 10
14.9889490069
 20
6.1840622055
 11
14.8661365069
 21
6.1840622055
  0
LINE
  5
34D
100
AcDbEntity
  8
0
100
AcDbLine
 62
7
  6
CONTINUOUS
 10
16.3259802569
 20
4.7653235671
 11
16.3259802569
 21
6.171550844
  0
LINE
  5
34E
100
AcDbEntity
  8
0
100
AcDbLine
 62
7
  6
CONTINUOUS
 10
16.2545740069
 20
6.1840622055
 11
16.2595740069
 21
6.1790622055
  0
LINE
  5
34F
100
AcDbEntity
  8
0
100
AcDbLine
 62
7
  6
CONTINUOUS
 10
16.0603552569
 20
6.5621872055
 11
15.0603552569
 21
6.5621872055
  0
LINE
  5
350
100
AcDbEntity
  8
0
100
AcDbLine
 62
7
  6
CONTINUOUS
 10
13.4198419646
 20
11.7087830785
 11
13.5914280146
 21
11.3591274713
  0
LINE
  5
351
100
AcDbEntity
  8
0
100
AcDbLine
 62
7
  6
CONTINUOUS
 10
13.5267481416
 20
11.803879967
 11
13.49052442
 21
11.8776961507
  0
LINE
  5
352
100
AcDbEntity
  8
0
100
AcDbLine
 62
7
  6
CONTINUOUS
 10
13.4191208497
 20
11.7179804545
 11
13.7534749589
 21
12.7999507484
  0
LINE
  5
353
100
AcDbEntity
  8
0
100
AcDbLine
 62
7
  6
CONTINUOUS
 10
13.4898033051
 20
11.8868935267
 11
13.7749876923
 21
12.8097505421
  0
LINE
  5
354
100
AcDbEntity
  8
0
100
AcDbLine
 62
7
  6
CONTINUOUS
 10
14.0292449443
 20
12.3603524593
 11
14.038380291
 21
12.4543138462
  0
LINE
  5
355
100
AcDbEntity
  8
0
100
AcDbLine
 62
7
  6
CONTINUOUS
 10
14.038380291
 20
12.4543138462
 11
14.0528306958
 21
12.5264811577
  0
LINE
  5
356
100
AcDbEntity
  8
0
100
AcDbLine
 62
7
  6
CONTINUOUS
 10
14.2948964989
 20
13.3098082281
 11
14.0528301755
 21
12.5264813185
  0
LINE
  5
357
100
AcDbEntity
  8
0
100
AcDbLine
 62
7
  6
CONTINUOUS
 10
14.0298395839
 20
12.3574866382
 11
14.2207238429
 21
11.9685054158
  0
LINE
  5
358
100
AcDbEntity
  8
0
100
AcDbLine
 62
7
  6
CONTINUOUS
 10
14.2212797523
 20
11.9653435019
 11
14.2211509892
 21
11.9648044323
  0
LINE
  5
359
100
AcDbEntity
  8
0
100
AcDbLine
 62
7
  6
CONTINUOUS
 10
14.3138277529
 20
12.4449350395
 11
14.3146845185
 21
12.4477075339
  0
LINE
  5
35A
100
AcDbEntity
  8
0
100
AcDbLine
 62
7
  6
CONTINUOUS
 10
17.1744918142
 20
11.3548426688
 11
16.3880204098
 21
11.3548426688
  0
LINE
  5
35B
100
AcDbEntity
  8
0
100
AcDbLine
 62
7
  6
CONTINUOUS
 10
14.3860952356
 20
11.3548426688
 11
13.5996238312
 21
11.3548426688
  0
LINE
  5
35C
100
AcDbEntity
  8
0
100
AcDbLine
 62
7
  6
CONTINUOUS
 10
14.4874851714
 20
12.6371781032
 11
14.4880903372
 21
12.6391364205
  0
LINE
  5
35D
100
AcDbEntity
  8
0
100
AcDbLine
 62
7
  6
CONTINUOUS
 10
14.3502408858
 20
12.1880142567
 11
14.3562925439
 21
12.2075974294
  0
LINE
  5
35E
100
AcDbEntity
  8
0
100
AcDbLine
 62
7
  6
CONTINUOUS
 10
14.4320931008
 20
12.4307334867
 11
14.3617425756
 21
12.2030791036
  0
LINE
  5
35F
100
AcDbEntity
  8
0
100
AcDbLine
 62
7
  6
CONTINUOUS
 10
14.5203474015
 20
12.6546766697
 11
14.5197422357
 21
12.6527183524
  0
LINE
  5
360
100
AcDbEntity
  8
0
100
AcDbLine
 62
7
  6
CONTINUOUS
 10
16.3038458127
 20
11.5139559474
 11
14.5095030001
 21
11.5139559474
  0
LINE
  5
361
100
AcDbEntity
  8
0
100
AcDbLine
 62
7
  6
CONTINUOUS
 10
14.5785091891
 20
12.5936415186
 11
14.572457531
 21
12.5740583458
  0
LINE
  5
362
100
AcDbEntity
  8
0
100
AcDbLine
 62
7
  6
CONTINUOUS
 10
14.8708760589
 20
12.7136891045
 11
14.8707348259
 21
12.7132320742
  0
LINE
  5
363
100
AcDbEntity
  8
0
100
AcDbLine
 62
7
  6
CONTINUOUS
 10
14.8664999117
 20
12.6599308291
 11
14.8604482536
 21
12.6403476564
  0
LINE
  5
364
100
AcDbEntity
  8
0
100
AcDbLine
 62
7
  6
CONTINUOUS
 10
14.8384817485
 20
12.5684091183
 11
14.8147224074
 21
12.5443585343
  0
LINE
  5
365
100
AcDbEntity
  8
0
100
AcDbLine
 62
7
  6
CONTINUOUS
 10
14.8185354307
 20
12.5365884097
 11
14.8422947718
 21
12.5606389937
  0
LINE
  5
366
100
AcDbEntity
  8
0
100
AcDbLine
 62
7
  6
CONTINUOUS
 10
14.487423542
 20
12.6382600663
 11
14.4861962785
 21
12.6376134786
  0
LINE
  5
367
100
AcDbEntity
  8
0
100
AcDbLine
 62
7
  6
CONTINUOUS
 10
14.5212481587
 20
12.6528383662
 11
14.519986376
 21
12.6522201006
  0
LINE
  5
368
100
AcDbEntity
  8
0
100
AcDbLine
 62
7
  6
CONTINUOUS
 10
14.4890960049
 20
12.6370840112
 11
14.4878342222
 21
12.6364657455
  0
LINE
  5
369
100
AcDbEntity
  8
0
100
AcDbLine
 62
7
  6
CONTINUOUS
 10
14.5198867154
 20
12.6538864214
 11
14.5185718584
 21
12.653305115
  0
LINE
  5
36A
100
AcDbEntity
  8
0
100
AcDbLine
 62
7
  6
CONTINUOUS
 10
14.5197422357
 20
12.6527183524
 11
14.5208057479
 21
12.6531862496
  0
LINE
  5
36B
100
AcDbEntity
  8
0
100
AcDbLine
 62
7
  6
CONTINUOUS
 10
16.7277256127
 20
11.9362591461
 11
16.5118519422
 21
11.9362591461
  0
LINE
  5
36C
100
AcDbEntity
  8
0
100
AcDbLine
 62
7
  6
CONTINUOUS
 10
13.9069763186
 20
11.9362591461
 11
13.6911026481
 21
11.9362591461
  0
LINE
  5
36D
100
AcDbEntity
  8
0
100
AcDbLine
 62
7
  6
CONTINUOUS
 10
15.7121762985
 20
12.0331126507
 11
15.7202012591
 21
12.0331126507
  0
LINE
  5
36E
100
AcDbEntity
  8
0
100
AcDbLine
 62
7
  6
CONTINUOUS
 10
14.4874851714
 20
12.6371781032
 11
14.572457531
 21
12.5740583458
  0
LINE
  5
36F
100
AcDbEntity
  8
0
100
AcDbLine
 62
7
  6
CONTINUOUS
 10
14.5077329638
 20
12.6462160049
 11
14.5785091891
 21
12.5936415186
  0
LINE
  5
370
100
AcDbEntity
  8
0
100
AcDbLine
 62
7
  6
CONTINUOUS
 10
15.7081582764
 20
11.7699309086
 11
15.6997377694
 21
11.776185888
  0
LINE
  5
371
100
AcDbEntity
  8
0
100
AcDbLine
 62
7
  6
CONTINUOUS
 10
14.6047145953
 20
12.589598595
 11
14.5197422357
 21
12.6527183524
  0
LINE
  5
372
100
AcDbEntity
  8
0
100
AcDbLine
 62
7
  6
CONTINUOUS
 10
14.8147224074
 20
12.5443585343
 11
14.8185354307
 21
12.5365884097
  0
LINE
  5
373
100
AcDbEntity
  8
0
100
AcDbLine
 62
7
  6
CONTINUOUS
 10
14.8422947718
 20
12.5606389937
 11
14.8384817485
 21
12.5684091183
  0
LINE
  5
374
100
AcDbEntity
  8
0
100
AcDbLine
 62
7
  6
CONTINUOUS
 10
14.8246817762
 20
12.7132320742
 11
14.8604482536
 21
12.6403476564
  0
LINE
  5
375
100
AcDbEntity
  8
0
100
AcDbLine
 62
7
  6
CONTINUOUS
 10
14.8401554461
 20
12.7136152057
 11
14.8664999117
 21
12.6599308291
  0
LINE
  5
376
100
AcDbEntity
  8
0
100
AcDbLine
 62
7
  6
CONTINUOUS
 10
14.8147224074
 20
12.5443585343
 11
14.8236173633
 21
12.5203079502
  0
LINE
  5
377
100
AcDbEntity
  8
0
100
AcDbLine
 62
7
  6
CONTINUOUS
 10
14.8244436344
 20
12.5206135414
 11
14.8185354307
 21
12.5365884097
  0
LINE
  5
378
100
AcDbEntity
  8
0
100
AcDbLine
 62
7
  6
CONTINUOUS
 10
14.8800310016
 20
12.5443585343
 11
14.8711360456
 21
12.5684091183
  0
LINE
  5
379
100
AcDbEntity
  8
0
100
AcDbLine
 62
7
  6
CONTINUOUS
 10
14.8562716604
 20
12.5203079502
 11
14.8800310016
 21
12.5443585343
  0
LINE
  5
37A
100
AcDbEntity
  8
0
100
AcDbLine
 62
7
  6
CONTINUOUS
 10
14.5197422357
 20
12.6527183524
 11
14.520891214
 21
12.6531196505
  0
LINE
  5
37B
100
AcDbEntity
  8
0
100
AcDbLine
 62
7
  6
CONTINUOUS
 10
15.7241079251
 20
12.0774810154
 11
15.7356211875
 21
12.0774810154
  0
LINE
  5
37C
100
AcDbEntity
  8
0
100
AcDbLine
 62
7
  6
CONTINUOUS
 10
13.7440546564
 20
12.1076119076
 11
13.9599283268
 21
12.1076119076
  0
LINE
  5
37D
100
AcDbEntity
  8
0
100
AcDbLine
 62
7
  6
CONTINUOUS
 10
16.5648039505
 20
12.1076119076
 11
16.780677621
 21
12.1076119076
  0
LINE
  5
37E
100
AcDbEntity
  8
0
100
AcDbLine
 62
7
  6
CONTINUOUS
 10
15.726132806
 20
12.1125505421
 11
15.7376460684
 21
12.1125505421
  0
LINE
  5
37F
100
AcDbEntity
  8
0
100
AcDbLine
 62
7
  6
CONTINUOUS
 10
15.7121762985
 20
12.1659251507
 11
15.7202012591
 21
12.1659251507
  0
LINE
  5
380
100
AcDbEntity
  8
0
100
AcDbLine
 62
7
  6
CONTINUOUS
 10
14.3593598598
 20
12.1880142567
 11
14.3502408858
 21
12.1880142567
  0
LINE
  5
381
100
AcDbEntity
  8
0
100
AcDbLine
 62
7
  6
CONTINUOUS
 10
15.752659292
 20
12.1880142567
 11
15.8606546553
 21
12.1880142567
  0
LINE
  5
382
100
AcDbEntity
  8
0
100
AcDbLine
 62
7
  6
CONTINUOUS
 10
14.3631388439
 20
12.2075974294
 11
14.3562925439
 21
12.2075974294
  0
LINE
  5
383
100
AcDbEntity
  8
0
100
AcDbLine
 62
7
  6
CONTINUOUS
 10
15.7587109501
 20
12.2075974294
 11
15.8521114382
 21
12.2075974294
  0
LINE
  5
384
100
AcDbEntity
  8
0
100
AcDbLine
 62
7
  6
CONTINUOUS
 10
14.3138277529
 20
12.4449350395
 11
14.4252377196
 21
12.4084928306
  0
LINE
  5
385
100
AcDbEntity
  8
0
100
AcDbLine
 62
7
  6
CONTINUOUS
 10
15.761966092
 20
11.9712488745
 11
15.8719978703
 21
11.9352574712
  0
LINE
  5
386
100
AcDbEntity
  8
0
100
AcDbLine
 62
7
  6
CONTINUOUS
 10
14.4312893777
 20
12.4280760033
 11
14.3204992214
 21
12.4643154722
  0
LINE
  5
387
100
AcDbEntity
  8
0
100
AcDbLine
 62
7
  6
CONTINUOUS
 10
15.7680177501
 20
11.9908320473
 11
15.8780495284
 21
11.9548406439
  0
LINE
  5
388
100
AcDbEntity
  8
0
100
AcDbLine
 62
7
  6
CONTINUOUS
 10
15.8818156949
 20
11.9621739724
 11
15.7704057281
 21
11.9986161813
  0
LINE
  5
389
100
AcDbEntity
  8
0
100
AcDbLine
 62
7
  6
CONTINUOUS
 10
14.4350555442
 20
12.4354093317
 11
14.3236455774
 21
12.4718515406
  0
LINE
  5
38A
100
AcDbEntity
  8
0
100
AcDbLine
 62
7
  6
CONTINUOUS
 10
14.9065013033
 20
12.6403476564
 11
14.8707348259
 21
12.7132320742
  0
LINE
  5
38B
100
AcDbEntity
  8
0
100
AcDbLine
 62
7
  6
CONTINUOUS
 10
15.2350660094
 20
12.6527183524
 11
15.2352419968
 21
12.6532878477
  0
LINE
  5
38C
100
AcDbEntity
  8
0
100
AcDbLine
 62
7
  6
CONTINUOUS
 10
15.2656038215
 20
12.5936415186
 11
15.2595521635
 21
12.5740583458
  0
LINE
  5
38D
100
AcDbEntity
  8
0
100
AcDbLine
 62
7
  6
CONTINUOUS
 10
15.2831803329
 20
12.6391364205
 11
15.2825751671
 21
12.6371781032
  0
LINE
  5
38E
100
AcDbEntity
  8
0
100
AcDbLine
 62
7
  6
CONTINUOUS
 10
15.2350660094
 20
12.6527183524
 11
15.2120430058
 21
12.589598595
  0
LINE
  5
38F
100
AcDbEntity
  8
0
100
AcDbLine
 62
7
  6
CONTINUOUS
 10
15.2656038215
 20
12.5936415186
 11
15.2814581677
 21
12.6371077186
  0
LINE
  5
390
100
AcDbEntity
  8
0
100
AcDbLine
 62
7
  6
CONTINUOUS
 10
15.2595521635
 20
12.5740583458
 11
15.2825751671
 21
12.6371781032
  0
LINE
  5
391
100
AcDbEntity
  8
0
100
AcDbLine
 62
7
  6
CONTINUOUS
 10
14.3992465855
 20
11.3617714724
 11
14.4963516503
 21
11.5070271438
  0
LINE
  5
392
100
AcDbEntity
  8
0
100
AcDbLine
 62
7
  6
CONTINUOUS
 10
15.9229572355
 20
13.0377333666
 11
15.8769863532
 21
13.0155863119
  0
LINE
  5
393
100
AcDbEntity
  8
0
100
AcDbLine
 62
7
  6
CONTINUOUS
 10
15.9664457659
 20
13.0198606488
 11
15.9765260985
 21
13.0247169767
  0
LINE
  5
394
100
AcDbEntity
  8
0
100
AcDbLine
 62
7
  6
CONTINUOUS
 10
15.9303260578
 20
12.994019606
 11
15.9404063904
 21
12.9988759339
  0
LINE
  5
395
100
AcDbEntity
  8
0
100
AcDbLine
 62
7
  6
CONTINUOUS
 10
15.8542926354
 20
12.9421494141
 11
15.9002635177
 21
12.9642964688
  0
LINE
  5
396
100
AcDbEntity
  8
0
100
AcDbLine
 62
7
  6
CONTINUOUS
 10
15.9399697618
 20
12.9341842681
 11
15.9500500944
 21
12.9390405959
  0
LINE
  5
397
100
AcDbEntity
  8
0
100
AcDbLine
 62
7
  6
CONTINUOUS
 10
14.3666917862
 20
12.2190947551
 11
14.3349887924
 21
12.2190947551
  0
LINE
  5
398
100
AcDbEntity
  8
0
100
AcDbLine
 62
7
  6
CONTINUOUS
 10
15.7374071987
 20
12.2190947551
 11
15.8454025619
 21
12.2190947551
  0
LINE
  5
399
100
AcDbEntity
  8
0
100
AcDbLine
 62
7
  6
CONTINUOUS
 10
15.9303260578
 20
12.994019606
 11
15.9664457659
 21
13.0198606488
  0
LINE
  5
39A
100
AcDbEntity
  8
0
100
AcDbLine
 62
7
  6
CONTINUOUS
 10
15.9404063904
 20
12.9988759339
 11
15.9765260985
 21
13.0247169767
  0
LINE
  5
39B
100
AcDbEntity
  8
0
100
AcDbLine
 62
7
  6
CONTINUOUS
 10
15.9958135065
 20
12.9050463008
 11
16.0319332147
 21
12.9308873436
  0
LINE
  5
39C
100
AcDbEntity
  8
0
100
AcDbLine
 62
7
  6
CONTINUOUS
 10
15.9017844492
 20
12.8617240143
 11
15.9477553316
 21
12.8838710691
  0
LINE
  5
39D
100
AcDbEntity
  8
0
100
AcDbLine
 62
7
  6
CONTINUOUS
 10
15.9958135065
 20
12.9050463008
 11
15.9857331739
 21
12.9001899729
  0
LINE
  5
39E
100
AcDbEntity
  8
0
100
AcDbLine
 62
7
  6
CONTINUOUS
 10
16.0179408633
 20
12.8768825671
 11
15.9719699809
 21
12.8547355123
  0
LINE
  5
39F
100
AcDbEntity
  8
0
100
AcDbLine
 62
7
  6
CONTINUOUS
 10
14.8236173633
 20
12.5203079502
 11
14.8562716604
 21
12.5203079502
  0
LINE
  5
3A0
100
AcDbEntity
  8
0
100
AcDbLine
 62
7
  6
CONTINUOUS
 10
15.575319141
 20
12.4280760033
 11
15.569267483
 21
12.4084928306
  0
LINE
  5
3A1
100
AcDbEntity
  8
0
100
AcDbLine
 62
7
  6
CONTINUOUS
 10
15.6086757472
 20
12.4718515406
 11
15.5330322578
 21
12.4354093317
  0
LINE
  5
3A2
100
AcDbEntity
  8
0
100
AcDbLine
 62
7
  6
CONTINUOUS
 10
15.575319141
 20
12.4280760033
 11
15.6311862692
 21
12.4549906997
  0
LINE
  5
3A3
100
AcDbEntity
  8
0
100
AcDbLine
 62
7
  6
CONTINUOUS
 10
15.569267483
 20
12.4084928306
 11
15.6449109723
 21
12.4449350395
  0
LINE
  5
3A4
100
AcDbEntity
  8
0
100
AcDbLine
 62
7
  6
CONTINUOUS
 10
14.8422947718
 20
12.5606389937
 11
14.8740097769
 21
12.5606389937
  0
LINE
  5
3A5
100
AcDbEntity
  8
0
100
AcDbLine
 62
7
  6
CONTINUOUS
 10
14.8384817485
 20
12.5684091183
 11
14.8711360456
 21
12.5684091183
  0
LINE
  5
3A6
100
AcDbEntity
  8
0
100
AcDbLine
 62
7
  6
CONTINUOUS
 10
16.9319690731
 20
12.5971912261
 11
16.7160954026
 21
12.5971912261
  0
LINE
  5
3A7
100
AcDbEntity
  8
0
100
AcDbLine
 62
7
  6
CONTINUOUS
 10
14.0746811896
 20
12.5971912261
 11
13.8953461085
 21
12.5971912261
  0
LINE
  5
3A8
100
AcDbEntity
  8
0
100
AcDbLine
 62
7
  6
CONTINUOUS
 10
15.6082204129
 20
12.4721408663
 11
15.6086757472
 21
12.4718515406
  0
LINE
  5
3A9
100
AcDbEntity
  8
0
100
AcDbLine
 62
7
  6
CONTINUOUS
 10
15.6082479203
 20
12.4721553416
 11
15.6086757472
 21
12.4718515406
  0
LINE
  5
3AA
100
AcDbEntity
  8
0
100
AcDbLine
 62
7
  6
CONTINUOUS
 10
15.6099005442
 20
12.4722256558
 11
15.6093644371
 21
12.4726067668
  0
LINE
  5
3AB
100
AcDbEntity
  8
0
100
AcDbLine
 62
7
  6
CONTINUOUS
 10
15.6449905602
 20
12.4450455103
 11
15.6444601661
 21
12.4454276284
  0
LINE
  5
3AC
100
AcDbEntity
  8
0
100
AcDbLine
 62
7
  6
CONTINUOUS
 10
15.6083706372
 20
12.4714280367
 11
15.6078402431
 21
12.4718101548
  0
LINE
  5
3AD
100
AcDbEntity
  8
0
100
AcDbLine
 62
7
  6
CONTINUOUS
 10
15.6459132372
 20
12.4454497185
 11
15.6454066468
 21
12.4458433318
  0
LINE
  5
3AE
100
AcDbEntity
  8
0
100
AcDbLine
 62
7
  6
CONTINUOUS
 10
15.8446873371
 20
12.2201938111
 11
15.8454025619
 21
12.2190947551
  0
LINE
  5
3AF
100
AcDbEntity
  8
0
100
AcDbLine
 62
7
  6
CONTINUOUS
 10
15.7349155575
 20
12.1551605978
 11
15.7396709493
 21
12.1476200688
  0
LINE
  5
3B0
100
AcDbEntity
  8
0
100
AcDbLine
 62
7
  6
CONTINUOUS
 10
15.8452110924
 20
12.2189786688
 11
15.8445055747
 21
12.2201423301
  0
LINE
  5
3B1
100
AcDbEntity
  8
0
100
AcDbLine
 62
7
  6
CONTINUOUS
 10
15.7227816832
 20
12.064449374
 11
15.7119670599
 21
12.0864872594
  0
LINE
  5
3B2
100
AcDbEntity
  8
0
100
AcDbLine
 62
7
  6
CONTINUOUS
 10
15.7191460597
 20
12.126788034
 11
15.726132806
 21
12.1125505421
  0
LINE
  5
3B3
100
AcDbEntity
  8
0
100
AcDbLine
 62
7
  6
CONTINUOUS
 10
15.726831445
 20
12.1345884274
 11
15.7376460684
 21
12.1125505421
  0
LINE
  5
3B4
100
AcDbEntity
  8
0
100
AcDbLine
 62
7
  6
CONTINUOUS
 10
15.7139919408
 20
12.1215567861
 11
15.7119670599
 21
12.0864872594
  0
LINE
  5
3B5
100
AcDbEntity
  8
0
100
AcDbLine
 62
7
  6
CONTINUOUS
 10
15.726132806
 20
12.1125505421
 11
15.7241079251
 21
12.0774810154
  0
LINE
  5
3B6
100
AcDbEntity
  8
0
100
AcDbLine
 62
7
  6
CONTINUOUS
 10
15.7356211875
 20
12.0774810154
 11
15.7376460684
 21
12.1125505421
  0
LINE
  5
3B7
100
AcDbEntity
  8
0
100
AcDbLine
 62
7
  6
CONTINUOUS
 10
15.6455161381
 20
12.4468933567
 11
15.6449109723
 21
12.4449350395
  0
LINE
  5
3B8
100
AcDbEntity
  8
0
100
AcDbLine
 62
7
  6
CONTINUOUS
 10
15.8769863532
 20
13.0155863119
 11
15.8542926354
 21
12.9421494141
  0
LINE
  5
3B9
100
AcDbEntity
  8
0
100
AcDbLine
 62
7
  6
CONTINUOUS
 10
14.8253828758
 20
12.7129753915
 11
14.8246941853
 21
12.7129455636
  0
LINE
  5
3BA
100
AcDbEntity
  8
0
100
AcDbLine
 62
7
  6
CONTINUOUS
 10
14.8246980586
 20
12.7142476493
 11
14.8239994021
 21
12.714233011
  0
LINE
  5
3BB
100
AcDbEntity
  8
0
100
AcDbLine
 62
7
  6
CONTINUOUS
 10
13.9482981167
 20
12.7685439876
 11
14.1276331978
 21
12.7685439876
  0
LINE
  5
3BC
100
AcDbEntity
  8
0
100
AcDbLine
 62
7
  6
CONTINUOUS
 10
16.7690474109
 20
12.7685439876
 11
16.9849210813
 21
12.7685439876
  0
LINE
  5
3BD
100
AcDbEntity
  8
0
100
AcDbLine
 62
7
  6
CONTINUOUS
 10
13.7654177195
 20
12.8087601563
 11
13.7749876923
 21
12.8087601563
  0
LINE
  5
3BE
100
AcDbEntity
  8
0
100
AcDbLine
 62
7
  6
CONTINUOUS
 10
17.1945026244
 20
12.8087601563
 11
17.3402857025
 21
12.8087601563
  0
LINE
  5
3BF
100
AcDbEntity
  8
0
100
AcDbLine
 62
7
  6
CONTINUOUS
 10
17.1819037105
 20
12.81855995
 11
16.513979324
 21
12.81855995
  0
LINE
  5
3C0
100
AcDbEntity
  8
0
100
AcDbLine
 62
7
  6
CONTINUOUS
 10
14.1430892992
 20
12.81855995
 11
13.7869304529
 21
12.81855995
  0
LINE
  5
3C1
100
AcDbEntity
  8
0
100
AcDbLine
 62
7
  6
CONTINUOUS
 10
15.9111535346
 20
12.4543138462
 11
16.0125079843
 21
12.3603524593
  0
LINE
  5
3C2
100
AcDbEntity
  8
0
100
AcDbLine
 62
7
  6
CONTINUOUS
 10
15.844810327
 20
12.220196552
 11
15.8454025619
 21
12.2190947551
  0
LINE
  5
3C3
100
AcDbEntity
  8
0
100
AcDbLine
 62
7
  6
CONTINUOUS
 10
15.8465736192
 20
12.2189992993
 11
15.845949161
 21
12.2201664669
  0
LINE
  5
3C4
100
AcDbEntity
  8
0
100
AcDbLine
 62
7
  6
CONTINUOUS
 10
16.2082385432
 20
11.7087830785
 11
16.3798245932
 21
11.3591274713
  0
LINE
  5
3C5
100
AcDbEntity
  8
0
100
AcDbLine
 62
7
  6
CONTINUOUS
 10
15.8546808551
 20
12.2031066989
 11
15.8540430597
 21
12.2044114664
  0
LINE
  5
3C6
100
AcDbEntity
  8
0
100
AcDbLine
 62
7
  6
CONTINUOUS
 10
15.8545234588
 20
12.2031078598
 11
15.8540430597
 21
12.2044114664
  0
LINE
  5
3C7
100
AcDbEntity
  8
0
100
AcDbLine
 62
7
  6
CONTINUOUS
 10
15.7587109501
 20
12.2075974294
 11
15.752659292
 21
12.1880142567
  0
LINE
  5
3C8
100
AcDbEntity
  8
0
100
AcDbLine
 62
7
  6
CONTINUOUS
 10
15.7704217039
 20
11.9986112444
 11
15.7053031378
 21
11.7878874875
  0
LINE
  5
3C9
100
AcDbEntity
  8
0
100
AcDbLine
 62
7
  6
CONTINUOUS
 10
15.8454025619
 20
12.2190947551
 11
15.8460077278
 21
12.2210530724
  0
LINE
  5
3CA
100
AcDbEntity
  8
0
100
AcDbLine
 62
7
  6
CONTINUOUS
 10
15.8612598211
 20
12.189972574
 11
15.8606546553
 21
12.1880142567
  0
LINE
  5
3CB
100
AcDbEntity
  8
0
100
AcDbLine
 62
7
  6
CONTINUOUS
 10
15.726831445
 20
12.1345884274
 11
15.7139919408
 21
12.1215567861
  0
LINE
  5
3CC
100
AcDbEntity
  8
0
100
AcDbLine
 62
7
  6
CONTINUOUS
 10
15.7241079251
 20
12.0774810154
 11
15.7189538061
 21
12.0722497675
  0
LINE
  5
3CD
100
AcDbEntity
  8
0
100
AcDbLine
 62
7
  6
CONTINUOUS
 10
15.9017844492
 20
12.8617240143
 11
15.9719699809
 21
12.8547355123
  0
LINE
  5
3CE
100
AcDbEntity
  8
0
100
AcDbLine
 62
7
  6
CONTINUOUS
 10
16.1995618558
 20
11.859326752
 11
16.199559672
 21
11.859331198
  0
LINE
  5
3CF
100
AcDbEntity
  8
0
100
AcDbLine
 62
7
  6
CONTINUOUS
 10
16.2175732911
 20
11.8776961507
 11
16.2537970127
 21
11.803879967
  0
LINE
  5
3D0
100
AcDbEntity
  8
0
100
AcDbLine
 62
7
  6
CONTINUOUS
 10
16.2056093005
 20
11.9685074219
 11
16.014726026
 21
12.3574866382
  0
LINE
  5
3D1
100
AcDbEntity
  8
0
100
AcDbLine
 62
7
  6
CONTINUOUS
 10
15.8821440914
 20
11.9641776512
 11
15.8818156949
 21
11.9621739724
  0
LINE
  5
3D2
100
AcDbEntity
  8
0
100
AcDbLine
 62
7
  6
CONTINUOUS
 10
15.8823964868
 20
11.9641006224
 11
15.8818156949
 21
11.9621739724
  0
LINE
  5
3D3
100
AcDbEntity
  8
0
100
AcDbLine
 62
7
  6
CONTINUOUS
 10
15.8780495284
 20
11.9548406439
 11
15.8719978703
 21
11.9352574712
  0
LINE
  5
3D4
100
AcDbEntity
  8
0
100
AcDbLine
 62
7
  6
CONTINUOUS
 10
15.8818156949
 20
11.9621739724
 11
15.8821692609
 21
11.9633181124
  0
LINE
  5
3D5
100
AcDbEntity
  8
0
100
AcDbLine
 62
7
  6
CONTINUOUS
 10
15.7227816832
 20
12.064449374
 11
15.7356211875
 21
12.0774810154
  0
LINE
  5
3D6
100
AcDbEntity
  8
0
100
AcDbLine
 62
7
  6
CONTINUOUS
 10
15.9857331739
 20
12.9001899729
 11
15.9399697618
 21
12.9341842681
  0
LINE
  5
3D7
100
AcDbEntity
  8
0
100
AcDbLine
 62
7
  6
CONTINUOUS
 10
15.9500500944
 20
12.9390405959
 11
15.9958135065
 21
12.9050463008
  0
LINE
  5
3D8
100
AcDbEntity
  8
0
100
AcDbLine
 62
7
  6
CONTINUOUS
 10
15.8542926354
 20
12.9421494141
 11
15.9017844492
 21
12.8617240143
  0
LWPOLYLINE
  5
3D9
100
AcDbEntity
  8
0
100
AcDbPolyline
 62
7
  6
CONTINUOUS
 90
3
 70
0
 10
16.2129079674
 20
11.948686641
 10
16.2129590994
 20
11.94846451
 10
16.2130049291
 20
11.948092427
  0
LWPOLYLINE
  5
3DA
100
AcDbEntity
  8
0
100
AcDbPolyline
 62
7
  6
CONTINUOUS
 90
3
 70
0
 10
16.1995663074
 20
11.859317661
 10
16.1996215278
 20
11.8590453538
 10
16.1996576362
 20
11.8586910404
  0
LINE
  5
3DB
100
AcDbEntity
  8
0
100
AcDbLine
 62
7
  6
CONTINUOUS
 10
15.9399697618
 20
12.9341842681
 11
15.9303260578
 21
12.994019606
  0
LINE
  5
3DC
100
AcDbEntity
  8
0
100
AcDbLine
 62
7
  6
CONTINUOUS
 10
15.9500500944
 20
12.9390405959
 11
15.9404063904
 21
12.9988759339
  0
LINE
  5
3DD
100
AcDbEntity
  8
0
100
AcDbLine
 62
7
  6
CONTINUOUS
 10
16.0319332147
 20
12.9308873436
 11
16.0292460504
 21
12.9475601265
  0
LINE
  5
3DE
100
AcDbEntity
  8
0
100
AcDbLine
 62
7
  6
CONTINUOUS
 10
16.2069760752
 20
11.7136598565
 11
16.1996578672
 21
11.8586765124
  0
LINE
  5
3DF
100
AcDbEntity
  8
0
100
AcDbLine
 62
7
  6
CONTINUOUS
 10
16.2163108231
 20
11.8825729287
 11
16.2130068364
 21
11.948044299
  0
LINE
  5
3E0
100
AcDbEntity
  8
0
100
AcDbLine
 62
7
  6
CONTINUOUS
 10
16.4604317322
 20
12.7484518649
 11
16.5035875512
 21
12.813006968
  0
LINE
  5
3E1
100
AcDbEntity
  8
0
100
AcDbLine
 62
7
  6
CONTINUOUS
 10
15.9982844849
 20
13.0085542612
 11
15.9765260985
 21
13.0247169767
  0
LINE
  5
3E2
100
AcDbEntity
  8
0
100
AcDbLine
 62
7
  6
CONTINUOUS
 10
16.5713383567
 20
12.4135174866
 11
16.1898349445
 21
12.7671930263
  0
LINE
  5
3E3
100
AcDbEntity
  8
0
100
AcDbLine
 62
7
  6
CONTINUOUS
 10
16.1898349445
 20
12.7671930263
 11
16.1898431718
 21
12.7671853744
  0
LWPOLYLINE
  5
3E4
100
AcDbEntity
  8
0
100
AcDbPolyline
 62
7
  6
CONTINUOUS
 90
11
 70
0
 10
16.1898438663
 20
12.7671840775
 10
16.1862738043
 20
12.7705938858
 10
16.1827196418
 20
12.7741923531
 10
16.1791953944
 20
12.7779731453
 10
16.1757254278
 20
12.7819271655
 10
16.172354408
 20
12.7860294839
 10
16.1691489058
 20
12.790227148
 10
16.1664076169
 20
12.7941078889
 10
16.1641862004
 20
12.7975177142
 10
16.161762082
 20
12.8016356556
 10
16.1602553321
 20
12.8045266886
  0
LINE
  5
3E5
100
AcDbEntity
  8
0
100
AcDbLine
 62
7
  6
CONTINUOUS
 10
16.1602863763
 20
12.8044634365
 11
16.1602552978
 21
12.8045267818
  0
LINE
  5
3E6
100
AcDbEntity
  8
0
100
AcDbLine
 62
7
  6
CONTINUOUS
 10
15.9906046286
 20
12.969172897
 11
15.9922896702
 21
12.9656752379
  0
LINE
  5
3E7
100
AcDbEntity
  8
0
100
AcDbLine
 62
7
  6
CONTINUOUS
 10
16.2545743077
 20
13.1436793689
 11
16.153219858
 21
13.2376407558
  0
LINE
  5
3E8
100
AcDbEntity
  8
0
100
AcDbLine
 62
7
  6
CONTINUOUS
 10
16.2567923494
 20
13.1408135478
 11
16.4476766084
 21
12.7518323254
  0
LINE
  5
3E9
100
AcDbEntity
  8
0
100
AcDbLine
 62
7
  6
CONTINUOUS
 10
17.2293490778
 20
12.7377505501
 11
17.1931253561
 21
12.8115667338
  0
LINE
  5
3EA
100
AcDbEntity
  8
0
100
AcDbLine
 62
7
  6
CONTINUOUS
 10
17.3515073481
 20
12.8017669401
 11
17.5230933981
 21
12.452111333
  0
LINE
  5
3EB
100
AcDbEntity
  8
0
100
AcDbLine
 62
7
  6
CONTINUOUS
 10
17.5233850149
 20
12.4466045491
 11
17.1890309057
 21
11.3646342552
  0
CIRCLE
  5
3EC
100
AcDbEntity
  8
0
100
AcDbCircle
 62
7
  6
CONTINUOUS
 10
5.5273377743
 20
4.924902896
 40
0.025
  0
CIRCLE
  5
3ED
100
AcDbEntity
  8
0
100
AcDbCircle
 62
7
  6
CONTINUOUS
 10
5.3918099865
 20
5.1015261478
 40
0.025
  0
ARC
  5
3EE
100
AcDbEntity
  8
0
100
AcDbCircle
 62
7
  6
CONTINUOUS
 10
5.0396670762
 20
5.150642635
 40
0.0135761704
100
AcDbArc
 50
264.4694080417
 51
272.9157093524
  0
ARC
  5
3EF
100
AcDbEntity
  8
0
100
AcDbCircle
 62
7
  6
CONTINUOUS
 10
5.0402828055
 20
5.1498432481
 40
0.0125942345
100
AcDbArc
 50
325.6314304905
 51
335.9775675302
  0
ARC
  5
3F0
100
AcDbEntity
  8
0
100
AcDbCircle
 62
7
  6
CONTINUOUS
 10
4.2623985262
 20
5.0060573978
 40
0.0125
100
AcDbArc
 50
270.0
 51
360.0
  0
ARC
  5
3F1
100
AcDbEntity
  8
0
100
AcDbCircle
 62
7
  6
CONTINUOUS
 10
4.790169262
 20
5.1498073978
 40
0.0125
100
AcDbArc
 50
270.0
 51
338.3567912072
  0
ARC
  5
3F2
100
AcDbEntity
  8
0
100
AcDbCircle
 62
7
  6
CONTINUOUS
 10
4.2873985262
 20
5.1248073978
 40
0.0125
100
AcDbArc
 50
90.0
 51
180.0
  0
ARC
  5
3F3
100
AcDbEntity
  8
0
100
AcDbCircle
 62
7
  6
CONTINUOUS
 10
4.1897422762
 20
4.9810573978
 40
0.0125
100
AcDbArc
 50
90.0
 51
180.0
  0
CIRCLE
  5
3F4
100
AcDbEntity
  8
0
100
AcDbCircle
 62
7
  6
CONTINUOUS
 10
5.3918099865
 20
5.1015261478
 40
0.01125
  0
CIRCLE
  5
3F5
100
AcDbEntity
  8
0
100
AcDbCircle
 62
7
  6
CONTINUOUS
 10
5.5273377743
 20
4.924902896
 40
0.01125
  0
ARC
  5
3F6
100
AcDbEntity
  8
0
100
AcDbCircle
 62
7
  6
CONTINUOUS
 10
5.0653672762
 20
5.7755669922
 40
0.0125
100
AcDbArc
 50
158.3567914948
 51
180.0
  0
ARC
  5
3F7
100
AcDbEntity
  8
0
100
AcDbCircle
 62
7
  6
CONTINUOUS
 10
6.1303672762
 20
5.5279323978
 40
1.09375
100
AcDbArc
 50
21.6432085052
 51
158.3567914948
  0
CIRCLE
  5
3F8
100
AcDbEntity
  8
0
100
AcDbCircle
 62
7
  6
CONTINUOUS
 10
6.1303672762
 20
5.5279323978
 40
0.8203125
  0
CIRCLE
  5
3F9
100
AcDbEntity
  8
0
100
AcDbCircle
 62
7
  6
CONTINUOUS
 10
6.1303672762
 20
5.5279323978
 40
0.703125
  0
CIRCLE
  5
3FA
100
AcDbEntity
  8
0
100
AcDbCircle
 62
7
  6
CONTINUOUS
 10
6.1303672762
 20
5.5279323978
 40
0.5
  0
ARC
  5
3FB
100
AcDbEntity
  8
0
100
AcDbCircle
 62
7
  6
CONTINUOUS
 10
7.2210674964
 20
5.1506423065
 40
0.013575845
100
AcDbArc
 50
267.084198391
 51
275.5306691286
  0
ARC
  5
3FC
100
AcDbEntity
  8
0
100
AcDbCircle
 62
7
  6
CONTINUOUS
 10
7.2204530008
 20
5.1498435789
 40
0.0125954576
100
AcDbArc
 50
204.0214842533
 51
214.3412095124
  0
ARC
  5
3FD
100
AcDbEntity
  8
0
100
AcDbCircle
 62
7
  6
CONTINUOUS
 10
7.9733360262
 20
5.1248073978
 40
0.0125
100
AcDbArc
 50
0.0
 51
90.0
  0
ARC
  5
3FE
100
AcDbEntity
  8
0
100
AcDbCircle
 62
7
  6
CONTINUOUS
 10
7.9983360262
 20
5.0060573978
 40
0.0125
100
AcDbArc
 50
180.0
 51
270.0
  0
ARC
  5
3FF
100
AcDbEntity
  8
0
100
AcDbCircle
 62
7
  6
CONTINUOUS
 10
8.0709922762
 20
4.9810573978
 40
0.0125
100
AcDbArc
 50
0.0
 51
90.0
  0
ARC
  5
400
100
AcDbEntity
  8
0
100
AcDbCircle
 62
7
  6
CONTINUOUS
 10
7.4705652903
 20
5.1498073978
 40
0.0125
100
AcDbArc
 50
201.6432085052
 51
270.0
  0
ARC
  5
401
100
AcDbEntity
  8
0
100
AcDbCircle
 62
7
  6
CONTINUOUS
 10
7.2167484712
 20
6.0868863829
 40
0.0312521993
100
AcDbArc
 50
111.3703444234
 51
201.8420197355
  0
ARC
  5
402
100
AcDbEntity
  8
0
100
AcDbCircle
 62
7
  6
CONTINUOUS
 10
7.1576261463
 20
6.1892880689
 40
0.0312514288
100
AcDbArc
 50
218.1565556098
 51
308.069213131
  0
ARC
  5
403
100
AcDbEntity
  8
0
100
AcDbCircle
 62
7
  6
CONTINUOUS
 10
7.2114359921
 20
6.1376539553
 40
0.0225
100
AcDbArc
 50
254.3340313161
 51
29.9999999997
  0
ARC
  5
404
100
AcDbEntity
  8
0
100
AcDbCircle
 62
7
  6
CONTINUOUS
 10
7.1989359921
 20
6.1593045904
 40
0.0225
100
AcDbArc
 50
30.0
 51
165.6659686838
  0
ARC
  5
405
100
AcDbEntity
  8
0
100
AcDbCircle
 62
7
  6
CONTINUOUS
 10
7.1953672762
 20
5.7755669922
 40
0.0125
100
AcDbArc
 50
0.0
 51
21.6432085057
  0
ARC
  5
406
100
AcDbEntity
  8
0
100
AcDbCircle
 62
7
  6
CONTINUOUS
 10
4.6568095839
 20
12.1781727814
 40
0.109375
100
AcDbArc
 50
270.0
 51
90.0
  0
ARC
  5
407
100
AcDbEntity
  8
0
100
AcDbCircle
 62
7
  6
CONTINUOUS
 10
4.4224345839
 20
12.1781727814
 40
0.109375
100
AcDbArc
 50
90.0
 51
270.0
  0
ARC
  5
408
100
AcDbEntity
  8
0
100
AcDbCircle
 62
7
  6
CONTINUOUS
 10
4.9808720839
 20
12.5137196564
 40
0.0125
100
AcDbArc
 50
0.0
 51
90.0000000137
  0
ARC
  5
409
100
AcDbEntity
  8
0
100
AcDbCircle
 62
7
  6
CONTINUOUS
 10
5.0026215973
 20
12.0875477814
 40
0.0125
100
AcDbArc
 50
90.0
 51
162.999999837
  0
ARC
  5
40A
100
AcDbEntity
  8
0
100
AcDbCircle
 62
7
  6
CONTINUOUS
 10
4.2279033339
 20
12.0109852814
 40
0.0125
100
AcDbArc
 50
180.0
 51
270.0
  0
ARC
  5
40B
100
AcDbEntity
  8
0
100
AcDbCircle
 62
7
  6
CONTINUOUS
 10
4.9530717981
 20
12.0109852814
 40
0.0125
100
AcDbArc
 50
270.0
 51
343.0
  0
ARC
  5
40C
100
AcDbEntity
  8
0
100
AcDbCircle
 62
7
  6
CONTINUOUS
 10
5.064723142
 20
12.0875477814
 40
0.0125
100
AcDbArc
 50
90.0
 51
162.9999998921
  0
ARC
  5
40D
100
AcDbEntity
  8
0
100
AcDbCircle
 62
7
  6
CONTINUOUS
 10
4.9841225704
 20
11.9094227814
 40
0.0125
100
AcDbArc
 50
270.0
 51
343.0
  0
ARC
  5
40E
100
AcDbEntity
  8
0
100
AcDbCircle
 62
7
  6
CONTINUOUS
 10
4.1302470839
 20
11.9094227814
 40
0.0125
100
AcDbArc
 50
180.0
 51
270.0
  0
ARC
  5
40F
100
AcDbEntity
  8
0
100
AcDbCircle
 62
7
  6
CONTINUOUS
 10
4.6568095839
 20
13.0219227814
 40
0.109375
100
AcDbArc
 50
270.0
 51
90.0
  0
ARC
  5
410
100
AcDbEntity
  8
0
100
AcDbCircle
 62
7
  6
CONTINUOUS
 10
4.4224345839
 20
13.0219227814
 40
0.109375
100
AcDbArc
 50
90.0
 51
270.0
  0
ARC
  5
411
100
AcDbEntity
  8
0
100
AcDbCircle
 62
7
  6
CONTINUOUS
 10
5.064723142
 20
13.1125477814
 40
0.0125
100
AcDbArc
 50
197.0
 51
270.0
  0
ARC
  5
412
100
AcDbEntity
  8
0
100
AcDbCircle
 62
7
  6
CONTINUOUS
 10
4.1302470839
 20
13.2906727814
 40
0.0125
100
AcDbArc
 50
90.0
 51
180.0
  0
ARC
  5
413
100
AcDbEntity
  8
0
100
AcDbCircle
 62
7
  6
CONTINUOUS
 10
4.9841225704
 20
13.2906727814
 40
0.0125
100
AcDbArc
 50
17.0
 51
90.0
  0
ARC
  5
414
100
AcDbEntity
  8
0
100
AcDbCircle
 62
7
  6
CONTINUOUS
 10
4.9530717981
 20
13.1891102814
 40
0.0125
100
AcDbArc
 50
17.0
 51
90.0
  0
ARC
  5
415
100
AcDbEntity
  8
0
100
AcDbCircle
 62
7
  6
CONTINUOUS
 10
4.2279033339
 20
13.1891102814
 40
0.0125
100
AcDbArc
 50
90.0
 51
180.0
  0
ARC
  5
416
100
AcDbEntity
  8
0
100
AcDbCircle
 62
7
  6
CONTINUOUS
 10
4.9808720839
 20
12.6863759064
 40
0.0125
100
AcDbArc
 50
269.9999999725
 51
360.0
  0
ARC
  5
417
100
AcDbEntity
  8
0
100
AcDbCircle
 62
7
  6
CONTINUOUS
 10
5.0026215973
 20
13.1125477814
 40
0.0125
100
AcDbArc
 50
197.0
 51
270.0
  0
ARC
  5
418
100
AcDbEntity
  8
0
100
AcDbCircle
 62
7
  6
CONTINUOUS
 10
7.4740811779
 20
11.9672352814
 40
0.7032265132
100
AcDbArc
 50
174.5814395852
 51
185.4185604148
  0
ARC
  5
419
100
AcDbEntity
  8
0
100
AcDbCircle
 62
7
  6
CONTINUOUS
 10
7.7193095839
 20
12.1781727814
 40
0.109375
100
AcDbArc
 50
270.0
 51
90.0
  0
ARC
  5
41A
100
AcDbEntity
  8
0
100
AcDbCircle
 62
7
  6
CONTINUOUS
 10
7.4849345839
 20
12.1781727814
 40
0.109375
100
AcDbArc
 50
90.0
 51
270.0
  0
ARC
  5
41B
100
AcDbEntity
  8
0
100
AcDbCircle
 62
7
  6
CONTINUOUS
 10
7.0524801076
 20
12.5779917912
 40
0.0723056714
100
AcDbArc
 50
333.0738038502
 51
339.924919808
  0
ARC
  5
41C
100
AcDbEntity
  8
0
100
AcDbCircle
 62
7
  6
CONTINUOUS
 10
6.0708720839
 20
11.9672352814
 40
0.06640625
100
AcDbArc
 50
90.0
 51
89.3839572193
  0
CIRCLE
  5
41D
100
AcDbEntity
  8
0
100
AcDbCircle
 62
7
  6
CONTINUOUS
 10
6.0708720839
 20
11.9672352814
 40
0.06140625
  0
ARC
  5
41E
100
AcDbEntity
  8
0
100
AcDbCircle
 62
7
  6
CONTINUOUS
 10
7.1276899048
 20
12.5559390853
 40
0.016239123
100
AcDbArc
 50
88.6718725657
 51
100.6431444561
  0
ARC
  5
41F
100
AcDbEntity
  8
0
100
AcDbCircle
 62
7
  6
CONTINUOUS
 10
7.1608720839
 20
12.5137196564
 40
0.0125
100
AcDbArc
 50
89.9999999725
 51
180.0
  0
ARC
  5
420
100
AcDbEntity
  8
0
100
AcDbCircle
 62
7
  6
CONTINUOUS
 10
7.9138408339
 20
12.0109852814
 40
0.0125
100
AcDbArc
 50
270.0
 51
360.0
  0
ARC
  5
421
100
AcDbEntity
  8
0
100
AcDbCircle
 62
7
  6
CONTINUOUS
 10
7.0770210257
 20
12.0875477814
 40
0.0125
100
AcDbArc
 50
17.0
 51
65.2485062652
  0
ARC
  5
422
100
AcDbEntity
  8
0
100
AcDbCircle
 62
7
  6
CONTINUOUS
 10
7.1391225704
 20
12.0875477814
 40
0.0125
100
AcDbArc
 50
17.0
 51
65.2936552933
  0
ARC
  5
423
100
AcDbEntity
  8
0
100
AcDbCircle
 62
7
  6
CONTINUOUS
 10
7.1886723696
 20
12.0109852814
 40
0.0125
100
AcDbArc
 50
197.0
 51
270.0
  0
ARC
  5
424
100
AcDbEntity
  8
0
100
AcDbCircle
 62
7
  6
CONTINUOUS
 10
7.1576215973
 20
11.9094227814
 40
0.0125
100
AcDbArc
 50
196.9999999999
 51
270.0
  0
ARC
  5
425
100
AcDbEntity
  8
0
100
AcDbCircle
 62
7
  6
CONTINUOUS
 10
8.0114970839
 20
11.9094227814
 40
0.0125
100
AcDbArc
 50
270.0
 51
360.0
  0
ARC
  5
426
100
AcDbEntity
  8
0
100
AcDbCircle
 62
7
  6
CONTINUOUS
 10
7.4740811779
 20
13.2328602814
 40
0.7032265132
100
AcDbArc
 50
174.5814395852
 51
185.4185604148
  0
ARC
  5
427
100
AcDbEntity
  8
0
100
AcDbCircle
 62
7
  6
CONTINUOUS
 10
7.7193095839
 20
13.0219227814
 40
0.109375
100
AcDbArc
 50
270.0
 51
90.0
  0
ARC
  5
428
100
AcDbEntity
  8
0
100
AcDbCircle
 62
7
  6
CONTINUOUS
 10
7.4849345839
 20
13.0219227814
 40
0.109375
100
AcDbArc
 50
90.0
 51
270.0
  0
ARC
  5
429
100
AcDbEntity
  8
0
100
AcDbCircle
 62
7
  6
CONTINUOUS
 10
7.0532963973
 20
12.6224583222
 40
0.0714172961
100
AcDbArc
 50
20.0327068117
 51
26.9692790423
  0
ARC
  5
42A
100
AcDbEntity
  8
0
100
AcDbCircle
 62
7
  6
CONTINUOUS
 10
6.0708720839
 20
13.2328602814
 40
0.06640625
100
AcDbArc
 50
90.0
 51
89.3839572193
  0
CIRCLE
  5
42B
100
AcDbEntity
  8
0
100
AcDbCircle
 62
7
  6
CONTINUOUS
 10
6.0708720839
 20
13.2328602814
 40
0.06140625
  0
ARC
  5
42C
100
AcDbEntity
  8
0
100
AcDbCircle
 62
7
  6
CONTINUOUS
 10
7.1276846074
 20
12.6440551086
 40
0.0161379452
100
AcDbArc
 50
259.3771266005
 51
271.5278427679
  0
ARC
  5
42D
100
AcDbEntity
  8
0
100
AcDbCircle
 62
7
  6
CONTINUOUS
 10
7.9138408339
 20
13.1891102814
 40
0.0125
100
AcDbArc
 50
0.0
 51
90.0
  0
ARC
  5
42E
100
AcDbEntity
  8
0
100
AcDbCircle
 62
7
  6
CONTINUOUS
 10
7.0770210257
 20
13.1125477814
 40
0.0125
100
AcDbArc
 50
294.3333333333
 51
342.9999998921
  0
ARC
  5
42F
100
AcDbEntity
  8
0
100
AcDbCircle
 62
7
  6
CONTINUOUS
 10
8.0114970839
 20
13.2906727814
 40
0.0125
100
AcDbArc
 50
0.0
 51
90.0
  0
ARC
  5
430
100
AcDbEntity
  8
0
100
AcDbCircle
 62
7
  6
CONTINUOUS
 10
7.1576215973
 20
13.2906727814
 40
0.0125
100
AcDbArc
 50
90.0
 51
163.0
  0
ARC
  5
431
100
AcDbEntity
  8
0
100
AcDbCircle
 62
7
  6
CONTINUOUS
 10
7.1391225704
 20
13.1125477814
 40
0.0125
100
AcDbArc
 50
270.0
 51
343.0
  0
ARC
  5
432
100
AcDbEntity
  8
0
100
AcDbCircle
 62
7
  6
CONTINUOUS
 10
7.1608720839
 20
12.6863759064
 40
0.0125
100
AcDbArc
 50
180.0
 51
270.0000000138
  0
ARC
  5
433
100
AcDbEntity
  8
0
100
AcDbCircle
 62
7
  6
CONTINUOUS
 10
7.1886723696
 20
13.1891102814
 40
0.0125
100
AcDbArc
 50
90.0
 51
163.0
  0
ARC
  5
434
100
AcDbEntity
  8
0
100
AcDbCircle
 62
7
  6
CONTINUOUS
 10
14.9275427569
 20
6.8716471421
 40
0.7032273519
100
AcDbArc
 50
264.5814460669
 51
275.4185539331
  0
ARC
  5
435
100
AcDbEntity
  8
0
100
AcDbCircle
 62
7
  6
CONTINUOUS
 10
16.1931677569
 20
6.8716463007
 40
0.7032265142
100
AcDbArc
 50
264.5814395935
 51
275.4185604065
  0
ARC
  5
436
100
AcDbEntity
  8
0
100
AcDbCircle
 62
7
  6
CONTINUOUS
 10
15.3161813225
 20
5.8804320392
 40
0.3777622731
100
AcDbArc
 50
33.6437686059
 51
39.6052105985
  0
ARC
  5
437
100
AcDbEntity
  8
0
100
AcDbCircle
 62
7
  6
CONTINUOUS
 10
15.9451541914
 20
5.8101195392
 40
0.3777622731
100
AcDbArc
 50
140.3947894013
 51
146.356231394
  0
ARC
  5
438
100
AcDbEntity
  8
0
100
AcDbCircle
 62
7
  6
CONTINUOUS
 10
15.8045211421
 20
5.8804380225
 40
0.3777522571
100
AcDbArc
 50
140.3947102973
 51
146.3563104982
  0
ARC
  5
439
100
AcDbEntity
  8
0
100
AcDbCircle
 62
7
  6
CONTINUOUS
 10
15.1755643718
 20
5.8101255225
 40
0.3777522571
100
AcDbArc
 50
33.6436895018
 51
39.6052897028
  0
ARC
  5
43A
100
AcDbEntity
  8
0
100
AcDbCircle
 62
7
  6
CONTINUOUS
 10
14.9275427569
 20
5.4684372055
 40
0.06640625
100
AcDbArc
 50
0.0
 51
359.3839572193
  0
CIRCLE
  5
43B
100
AcDbEntity
  8
0
100
AcDbCircle
 62
7
  6
CONTINUOUS
 10
16.1931677569
 20
5.4684372055
 40
0.06640625
  0
CIRCLE
  5
43C
100
AcDbEntity
  8
0
100
AcDbCircle
 62
7
  6
CONTINUOUS
 10
16.1931677569
 20
5.4684372055
 40
0.06140625
  0
CIRCLE
  5
43D
100
AcDbEntity
  8
0
100
AcDbCircle
 62
7
  6
CONTINUOUS
 10
14.9275427569
 20
5.4684372055
 40
0.06140625
  0
ARC
  5
43E
100
AcDbEntity
  8
0
100
AcDbCircle
 62
7
  6
CONTINUOUS
 10
14.9712927569
 20
5.0653122055
 40
0.0125
100
AcDbArc
 50
90.0
 51
180.0
  0
ARC
  5
43F
100
AcDbEntity
  8
0
100
AcDbCircle
 62
7
  6
CONTINUOUS
 10
14.9462927569
 20
4.9465622055
 40
0.0125
100
AcDbArc
 50
270.0
 51
360.0
  0
ARC
  5
440
100
AcDbEntity
  8
0
100
AcDbCircle
 62
7
  6
CONTINUOUS
 10
16.1744177569
 20
4.9465622055
 40
0.0125
100
AcDbArc
 50
180.0
 51
270.0
  0
ARC
  5
441
100
AcDbEntity
  8
0
100
AcDbCircle
 62
7
  6
CONTINUOUS
 10
14.8697302569
 20
4.9215622055
 40
0.0125
100
AcDbArc
 50
90.0
 51
180.0
  0
ARC
  5
442
100
AcDbEntity
  8
0
100
AcDbCircle
 62
7
  6
CONTINUOUS
 10
16.2509802569
 20
4.9215622055
 40
0.0125
100
AcDbArc
 50
0.0
 51
90.0
  0
ARC
  5
443
100
AcDbEntity
  8
0
100
AcDbCircle
 62
7
  6
CONTINUOUS
 10
16.1494177569
 20
5.0653122055
 40
0.0125
100
AcDbArc
 50
0.0
 51
90.0
  0
ARC
  5
444
100
AcDbEntity
  8
0
100
AcDbCircle
 62
7
  6
CONTINUOUS
 10
15.4740271319
 20
5.0903122055
 40
0.0125
100
AcDbArc
 50
270.0
 51
359.9999995004
  0
ARC
  5
445
100
AcDbEntity
  8
0
100
AcDbCircle
 62
7
  6
CONTINUOUS
 10
15.6466833819
 20
5.0903122055
 40
0.0125
100
AcDbArc
 50
180.0
 51
270.0
  0
ARC
  5
446
100
AcDbEntity
  8
0
100
AcDbCircle
 62
7
  6
CONTINUOUS
 10
14.8135643878
 20
11.2837401284
 40
1.4333793262
100
AcDbArc
 50
70.8862698706
 51
72.8857853583
  0
ARC
  5
447
100
AcDbEntity
  8
0
100
AcDbCircle
 62
7
  6
CONTINUOUS
 10
14.8139015164
 20
11.2848504895
 40
1.4322189225
100
AcDbArc
 50
72.8856031892
 51
73.2589284866
  0
ARC
  5
448
100
AcDbEntity
  8
0
100
AcDbCircle
 62
7
  6
CONTINUOUS
 10
14.8170663275
 20
11.2939439745
 40
1.4216104967
100
AcDbArc
 50
70.4594106004
 51
70.8858203595
  0
ARC
  5
449
100
AcDbEntity
  8
0
100
AcDbCircle
 62
7
  6
CONTINUOUS
 10
14.8181884305
 20
11.2967496613
 40
1.4195728903
100
AcDbArc
 50
68.4646714985
 51
70.8906782729
  0
ARC
  5
44A
100
AcDbEntity
  8
0
100
AcDbCircle
 62
7
  6
CONTINUOUS
 10
14.8208636737
 20
11.3043521434
 40
1.4105316762
100
AcDbArc
 50
66.1550829535
 51
70.4633657487
  0
ARC
  5
44B
100
AcDbEntity
  8
0
100
AcDbCircle
 62
7
  6
CONTINUOUS
 10
14.8240787981
 20
11.3117903312
 40
1.4034199832
100
AcDbArc
 50
67.8528714278
 51
68.462961619
  0
ARC
  5
44C
100
AcDbEntity
  8
0
100
AcDbCircle
 62
7
  6
CONTINUOUS
 10
14.8380655103
 20
11.344465587
 40
1.3668882233
100
AcDbArc
 50
65.3087094735
 51
66.1348446445
  0
ARC
  5
44D
100
AcDbEntity
  8
0
100
AcDbCircle
 62
7
  6
CONTINUOUS
 10
14.841295404
 20
11.3520803625
 40
1.3596123839
100
AcDbArc
 50
63.2701268444
 51
67.8847958426
  0
ARC
  5
44E
100
AcDbEntity
  8
0
100
AcDbCircle
 62
7
  6
CONTINUOUS
 10
14.8571408889
 20
11.3853169936
 40
1.3218034806
100
AcDbArc
 50
60.8410897347
 51
65.3202627897
  0
ARC
  5
44F
100
AcDbEntity
  8
0
100
AcDbCircle
 62
7
  6
CONTINUOUS
 10
14.8639906587
 20
11.3977716785
 40
1.3085958303
100
AcDbArc
 50
62.5201171349
 51
63.2578110389
  0
ARC
  5
450
100
AcDbEntity
  8
0
100
AcDbCircle
 62
7
  6
CONTINUOUS
 10
14.8918248618
 20
11.4494513706
 40
1.2488979175
100
AcDbArc
 50
59.8910031764
 51
60.7970530038
  0
ARC
  5
451
100
AcDbEntity
  8
0
100
AcDbCircle
 62
7
  6
CONTINUOUS
 10
14.898726949
 20
11.4619399719
 40
1.2356394345
100
AcDbArc
 50
57.7978579496
 51
62.5761063232
  0
ARC
  5
452
100
AcDbEntity
  8
0
100
AcDbCircle
 62
7
  6
CONTINUOUS
 10
14.8606862251
 20
11.4361306869
 40
1.2262909872
100
AcDbArc
 50
70.7192674093
 51
73.0069815433
  0
ARC
  5
453
100
AcDbEntity
  8
0
100
AcDbCircle
 62
7
  6
CONTINUOUS
 10
14.9242860388
 20
11.5046467436
 40
1.184865936
100
AcDbArc
 50
55.1397054464
 51
59.9099930313
  0
ARC
  5
454
100
AcDbEntity
  8
0
100
AcDbCircle
 62
7
  6
CONTINUOUS
 10
14.9371701928
 20
11.5236956815
 40
1.1628967588
100
AcDbArc
 50
56.7987374064
 51
57.7791126334
  0
ARC
  5
455
100
AcDbEntity
  8
0
100
AcDbCircle
 62
7
  6
CONTINUOUS
 10
14.847561846
 20
11.5894735421
 40
1.1250064644
100
AcDbArc
 50
88.8065976451
 51
91.164516615
  0
ARC
  5
456
100
AcDbEntity
  8
0
100
AcDbCircle
 62
7
  6
CONTINUOUS
 10
14.9624752247
 20
11.561876703
 40
1.1170921637
100
AcDbArc
 50
54.6139202045
 51
56.8124223863
  0
ARC
  5
457
100
AcDbEntity
  8
0
100
AcDbCircle
 62
7
  6
CONTINUOUS
 10
14.9759334801
 20
11.5812286416
 40
1.092507179
100
AcDbArc
 50
54.635661471
 51
55.0666365103
  0
ARC
  5
458
100
AcDbEntity
  8
0
100
AcDbCircle
 62
7
  6
CONTINUOUS
 10
14.8470008292
 20
11.6391348134
 40
1.0743291235
100
AcDbArc
 50
91.1903982806
 51
91.6778510059
  0
ARC
  5
459
100
AcDbEntity
  8
0
100
AcDbCircle
 62
7
  6
CONTINUOUS
 10
15.0020510105
 20
11.6170802549
 40
1.0491685814
100
AcDbArc
 50
52.1783771803
 51
54.5942429392
  0
ARC
  5
45A
100
AcDbEntity
  8
0
100
AcDbCircle
 62
7
  6
CONTINUOUS
 10
14.8458484725
 20
11.6735995085
 40
1.040862848
100
AcDbArc
 50
91.2028015759
 51
94.9440916095
  0
ARC
  5
45B
100
AcDbEntity
  8
0
100
AcDbCircle
 62
7
  6
CONTINUOUS
 10
15.0323769708
 20
11.6562108907
 40
0.9996622817
100
AcDbArc
 50
51.0986765335
 51
52.1393197872
  0
ARC
  5
45C
100
AcDbEntity
  8
0
100
AcDbCircle
 62
7
  6
CONTINUOUS
 10
15.0427555088
 20
11.669106414
 40
0.9831090913
100
AcDbArc
 50
50.8520111132
 51
51.0974370018
  0
ARC
  5
45D
100
AcDbEntity
  8
0
100
AcDbCircle
 62
7
  6
CONTINUOUS
 10
14.8399521206
 20
11.7515643483
 40
0.9626802962
100
AcDbArc
 50
94.9943762594
 51
96.0136213277
  0
ARC
  5
45E
100
AcDbEntity
  8
0
100
AcDbCircle
 62
7
  6
CONTINUOUS
 10
14.889433559
 20
11.7085345359
 40
0.9516726637
100
AcDbArc
 50
89.5583284604
 51
91.3808617853
  0
ARC
  5
45F
100
AcDbEntity
  8
0
100
AcDbCircle
 62
7
  6
CONTINUOUS
 10
14.8320531841
 20
11.8193722297
 40
0.8933798762
100
AcDbArc
 50
97.4063954822
 51
98.2738381214
  0
ARC
  5
460
100
AcDbEntity
  8
0
100
AcDbCircle
 62
7
  6
CONTINUOUS
 10
15.0289626565
 20
11.7300991557
 40
0.8863842779
100
AcDbArc
 50
51.9471679145
 51
53.7601727469
  0
ARC
  5
461
100
AcDbEntity
  8
0
100
AcDbCircle
 62
7
  6
CONTINUOUS
 10
15.1750555454
 20
11.8126618663
 40
0.7877568783
100
AcDbArc
 50
43.1467289125
 51
44.2539296519
  0
ARC
  5
462
100
AcDbEntity
  8
0
100
AcDbCircle
 62
7
  6
CONTINUOUS
 10
14.8116772537
 20
11.9329811146
 40
0.7789636691
100
AcDbArc
 50
101.7334107243
 51
103.3502600679
  0
ARC
  5
463
100
AcDbEntity
  8
0
100
AcDbCircle
 62
7
  6
CONTINUOUS
 10
14.7953024669
 20
11.9989936682
 40
0.7099097391
100
AcDbArc
 50
104.7511259444
 51
105.9412029545
  0
ARC
  5
464
100
AcDbEntity
  8
0
100
AcDbCircle
 62
7
  6
CONTINUOUS
 10
15.2750670899
 20
11.8984949459
 40
0.6548688741
100
AcDbArc
 50
37.4643067573
 51
37.6833139116
  0
ARC
  5
465
100
AcDbEntity
  8
0
100
AcDbCircle
 62
7
  6
CONTINUOUS
 10
15.3148462026
 20
11.927947238
 40
0.60640083
100
AcDbArc
 50
34.0368211953
 51
36.3174549643
  0
ARC
  5
466
100
AcDbEntity
  8
0
100
AcDbCircle
 62
7
  6
CONTINUOUS
 10
13.5017440645
 20
11.8832027777
 40
0.0124981344
100
AcDbArc
 50
162.8242327324
 51
206.1419090556
  0
ARC
  5
467
100
AcDbEntity
  8
0
100
AcDbCircle
 62
7
  6
CONTINUOUS
 10
13.4310616091
 20
11.7142897055
 40
0.0124981344
100
AcDbArc
 50
162.8242327323
 51
206.1419090557
  0
ARC
  5
468
100
AcDbEntity
  8
0
100
AcDbCircle
 62
7
  6
CONTINUOUS
 10
14.7639841775
 20
12.0961144328
 40
0.6088687578
100
AcDbArc
 50
109.4799687418
 51
111.9824965323
  0
ARC
  5
469
100
AcDbEntity
  8
0
100
AcDbCircle
 62
7
  6
CONTINUOUS
 10
14.7500387264
 20
12.13120324
 40
0.5711108967
100
AcDbArc
 50
112.0028588362
 51
113.7652347545
  0
ARC
  5
46A
100
AcDbEntity
  8
0
100
AcDbCircle
 62
7
  6
CONTINUOUS
 10
14.7501193854
 20
12.133633463
 40
0.5694569236
100
AcDbArc
 50
112.1334260432
 51
113.796736341
  0
ARC
  5
46B
100
AcDbEntity
  8
0
100
AcDbCircle
 62
7
  6
CONTINUOUS
 10
14.7447667643
 20
12.1426726104
 40
0.5574788899
100
AcDbArc
 50
113.3491173801
 51
113.686937386
  0
ARC
  5
46C
100
AcDbEntity
  8
0
100
AcDbCircle
 62
7
  6
CONTINUOUS
 10
14.733130437
 20
12.1693303407
 40
0.5294024611
100
AcDbArc
 50
113.9089526792
 51
117.6533611443
  0
ARC
  5
46D
100
AcDbEntity
  8
0
100
AcDbCircle
 62
7
  6
CONTINUOUS
 10
14.8016279344
 20
12.4299937
 40
0.5121565372
100
AcDbArc
 50
208.1948565537
 51
209.6406287213
  0
ARC
  5
46E
100
AcDbEntity
  8
0
100
AcDbCircle
 62
7
  6
CONTINUOUS
 10
14.7184197056
 20
12.2005738099
 40
0.4953673196
100
AcDbArc
 50
117.7080748571
 51
117.8980027024
  0
ARC
  5
46F
100
AcDbEntity
  8
0
100
AcDbCircle
 62
7
  6
CONTINUOUS
 10
14.7157454308
 20
12.2025213973
 40
0.4909472457
100
AcDbArc
 50
117.7062397647
 51
118.5017065969
  0
ARC
  5
470
100
AcDbEntity
  8
0
100
AcDbCircle
 62
7
  6
CONTINUOUS
 10
14.7884900477
 20
12.4392877327
 40
0.4903825843
100
AcDbArc
 50
206.6810179193
 51
208.1946491396
  0
ARC
  5
471
100
AcDbEntity
  8
0
100
AcDbCircle
 62
7
  6
CONTINUOUS
 10
14.7440323874
 20
12.4013449653
 40
0.4478077731
100
AcDbArc
 50
203.7930885442
 51
204.0154602464
  0
ARC
  5
472
100
AcDbEntity
  8
0
100
AcDbCircle
 62
7
  6
CONTINUOUS
 10
14.7833874541
 20
12.2088867609
 40
0.4359028872
100
AcDbArc
 50
116.2200921228
 51
118.034878496
  0
ARC
  5
473
100
AcDbEntity
  8
0
100
AcDbCircle
 62
7
  6
CONTINUOUS
 10
14.657358542
 20
12.2921352486
 40
0.3838514645
100
AcDbArc
 50
126.673459102
 51
130.1064486785
  0
ARC
  5
474
100
AcDbEntity
  8
0
100
AcDbCircle
 62
7
  6
CONTINUOUS
 10
14.6039590043
 20
12.3464331342
 40
0.3075502453
100
AcDbArc
 50
138.899690077
 51
143.9345884194
  0
ARC
  5
475
100
AcDbEntity
  8
0
100
AcDbCircle
 62
7
  6
CONTINUOUS
 10
14.5728401076
 20
12.3656772259
 40
0.2708706315
100
AcDbArc
 50
156.5442501546
 51
156.9226006087
  0
ARC
  5
476
100
AcDbEntity
  8
0
100
AcDbCircle
 62
7
  6
CONTINUOUS
 10
14.5730311825
 20
12.3677962696
 40
0.2704266002
100
AcDbArc
 50
157.3530959951
 51
159.9588639428
  0
ARC
  5
477
100
AcDbEntity
  8
0
100
AcDbCircle
 62
7
  6
CONTINUOUS
 10
14.571853657
 20
12.3682321494
 40
0.269171004
100
AcDbArc
 50
159.9601313368
 51
162.8267927072
  0
ARC
  5
478
100
AcDbEntity
  8
0
100
AcDbCircle
 62
7
  6
CONTINUOUS
 10
14.6523639864
 20
12.3626640179
 40
0.2305487255
100
AcDbArc
 50
161.4942553219
 51
162.8274820949
  0
ARC
  5
479
100
AcDbEntity
  8
0
100
AcDbCircle
 62
7
  6
CONTINUOUS
 10
14.8651116087
 20
12.5082110152
 40
0.0845676718
100
AcDbArc
 50
117.0230157722
 51
119.9397904713
  0
ARC
  5
47A
100
AcDbEntity
  8
0
100
AcDbCircle
 62
7
  6
CONTINUOUS
 10
14.8637245934
 20
12.5126840734
 40
0.0798854686
100
AcDbArc
 50
104.3608803678
 51
104.9532410826
  0
ARC
  5
47B
100
AcDbEntity
  8
0
100
AcDbCircle
 62
7
  6
CONTINUOUS
 10
14.8649867791
 20
12.5206962454
 40
0.0725720424
100
AcDbArc
 50
90.008012235
 51
92.1566329506
  0
ARC
  5
47C
100
AcDbEntity
  8
0
100
AcDbCircle
 62
7
  6
CONTINUOUS
 10
14.8622469862
 20
12.5279073515
 40
0.0645523511
100
AcDbArc
 50
87.6239387859
 51
90.0052336916
  0
ARC
  5
47D
100
AcDbEntity
  8
0
100
AcDbCircle
 62
7
  6
CONTINUOUS
 10
14.8738330206
 20
12.5573479283
 40
0.0319324744
100
AcDbArc
 50
21.6364983939
 51
28.6260625481
  0
ARC
  5
47E
100
AcDbEntity
  8
0
100
AcDbCircle
 62
7
  6
CONTINUOUS
 10
14.8208012958
 20
12.5313113247
 40
0.0318002409
100
AcDbArc
 50
208.6374275718
 51
209.918709971
  0
ARC
  5
47F
100
AcDbEntity
  8
0
100
AcDbCircle
 62
7
  6
CONTINUOUS
 10
13.7869452368
 20
12.8059975807
 40
0.0125623779
100
AcDbArc
 50
90.0674280773
 51
119.3369507208
  0
ARC
  5
480
100
AcDbEntity
  8
0
100
AcDbCircle
 62
7
  6
CONTINUOUS
 10
13.7654325034
 20
12.796197787
 40
0.0125623779
100
AcDbArc
 50
90.0674280773
 51
119.3369507208
  0
ARC
  5
481
100
AcDbEntity
  8
0
100
AcDbCircle
 62
7
  6
CONTINUOUS
 10
15.3991698353
 20
11.9799302071
 40
0.5062838772
100
AcDbArc
 50
28.3312542913
 51
28.9507225605
  0
ARC
  5
482
100
AcDbEntity
  8
0
100
AcDbCircle
 62
7
  6
CONTINUOUS
 10
15.4199431063
 20
11.9913445187
 40
0.4835703606
100
AcDbArc
 50
26.1429414664
 51
28.0848763156
  0
ARC
  5
483
100
AcDbEntity
  8
0
100
AcDbCircle
 62
7
  6
CONTINUOUS
 10
15.4426506729
 20
12.0023923917
 40
0.4583176891
100
AcDbArc
 50
24.070014411
 51
25.9723321764
  0
ARC
  5
484
100
AcDbEntity
  8
0
100
AcDbCircle
 62
7
  6
CONTINUOUS
 10
15.4513123357
 20
12.0062908962
 40
0.4488191627
100
AcDbArc
 50
23.8522742311
 51
24.0665882436
  0
ARC
  5
485
100
AcDbEntity
  8
0
100
AcDbCircle
 62
7
  6
CONTINUOUS
 10
15.4521924294
 20
12.007711761
 40
0.4478338251
100
AcDbArc
 50
23.7931016534
 51
24.0154602669
  0
ARC
  5
486
100
AcDbEntity
  8
0
100
AcDbCircle
 62
7
  6
CONTINUOUS
 10
15.4586554246
 20
12.0088678779
 40
0.4401099937
100
AcDbArc
 50
21.8846024326
 51
24.0195984606
  0
ARC
  5
487
100
AcDbEntity
  8
0
100
AcDbCircle
 62
7
  6
CONTINUOUS
 10
15.3982977505
 20
12.0496523046
 40
0.3935026517
100
AcDbArc
 50
23.6646411496
 51
25.5056594189
  0
ARC
  5
488
100
AcDbEntity
  8
0
100
AcDbCircle
 62
7
  6
CONTINUOUS
 10
15.5517316637
 20
12.0382676891
 40
0.3423319426
100
AcDbArc
 50
8.9069747308
 51
12.4186670272
  0
ARC
  5
489
100
AcDbEntity
  8
0
100
AcDbCircle
 62
7
  6
CONTINUOUS
 10
15.6113357999
 20
12.0429149073
 40
0.2823968625
100
AcDbArc
 50
350.8417037801
 51
358.4281297334
  0
ARC
  5
48A
100
AcDbEntity
  8
0
100
AcDbCircle
 62
7
  6
CONTINUOUS
 10
15.6223319497
 20
12.0413243111
 40
0.2712877836
100
AcDbArc
 50
343.4617142984
 51
350.8037182366
  0
ARC
  5
48B
100
AcDbEntity
  8
0
100
AcDbCircle
 62
7
  6
CONTINUOUS
 10
15.6286938155
 20
12.0610868824
 40
0.271047108
100
AcDbArc
 50
336.9219688537
 51
338.6471625178
  0
ARC
  5
48C
100
AcDbEntity
  8
0
100
AcDbCircle
 62
7
  6
CONTINUOUS
 10
15.477978881
 20
11.8591167172
 40
0.23828263
100
AcDbArc
 50
332.3078157196
 51
332.7989035137
  0
ARC
  5
48D
100
AcDbEntity
  8
0
100
AcDbCircle
 62
7
  6
CONTINUOUS
 10
15.4811807717
 20
11.8575277056
 40
0.2347084885
100
AcDbArc
 50
332.786611583
 51
337.2550275712
  0
ARC
  5
48E
100
AcDbEntity
  8
0
100
AcDbCircle
 62
7
  6
CONTINUOUS
 10
15.4835763695
 20
11.8565110451
 40
0.2321061134
100
AcDbArc
 50
337.2578391413
 51
339.1296804207
  0
ARC
  5
48F
100
AcDbEntity
  8
0
100
AcDbCircle
 62
7
  6
CONTINUOUS
 10
15.4843540232
 20
11.8562104379
 40
0.2312723898
100
AcDbArc
 50
339.1306322189
 51
339.6308106351
  0
ARC
  5
490
100
AcDbEntity
  8
0
100
AcDbCircle
 62
7
  6
CONTINUOUS
 10
15.5493093035
 20
12.0640251067
 40
0.2305687674
100
AcDbArc
 50
343.5197328805
 51
347.8510794087
  0
ARC
  5
491
100
AcDbEntity
  8
0
100
AcDbCircle
 62
7
  6
CONTINUOUS
 10
15.4851212385
 20
11.8559300379
 40
0.2304555507
100
AcDbArc
 50
339.6297722352
 51
342.8273441286
  0
ARC
  5
492
100
AcDbEntity
  8
0
100
AcDbCircle
 62
7
  6
CONTINUOUS
 10
16.064878166
 20
11.8611067678
 40
0.1794129118
100
AcDbArc
 50
30.1859764962
 51
30.4238142327
  0
ARC
  5
493
100
AcDbEntity
  8
0
100
AcDbCircle
 62
7
  6
CONTINUOUS
 10
15.4778423212
 20
12.2084679792
 40
0.4953384717
100
AcDbArc
 50
297.7080748731
 51
297.8980139212
  0
ARC
  5
494
100
AcDbEntity
  8
0
100
AcDbCircle
 62
7
  6
CONTINUOUS
 10
15.7572346146
 20
12.8545229177
 40
0.2991530035
100
AcDbArc
 50
18.6765884016
 51
19.1478113317
  0
ARC
  5
495
100
AcDbEntity
  8
0
100
AcDbCircle
 62
7
  6
CONTINUOUS
 10
16.5139793693
 20
12.806059818
 40
0.012500132
100
AcDbArc
 50
90.000207498
 51
146.1636079385
  0
ARC
  5
496
100
AcDbEntity
  8
0
100
AcDbCircle
 62
7
  6
CONTINUOUS
 10
17.3402861137
 20
12.7962606024
 40
0.0124994343
100
AcDbArc
 50
26.1375078115
 51
68.5226254444
  0
ARC
  5
497
100
AcDbEntity
  8
0
100
AcDbCircle
 62
7
  6
CONTINUOUS
 10
17.1819041217
 20
12.8060603961
 40
0.0124994343
100
AcDbArc
 50
26.1375078115
 51
68.5226254444
  0
SPLINE
  5
498
100
AcDbEntity
  8
0
100
AcDbSpline
 62
7
  6
CONTINUOUS
 70
0
 71
3
 72
9
 73
5
 74
0
 42
0.0000001
 43
0.0000001
 44
0.0000000001
 40
0.0
 40
0.0
 40
0.0
 40
0.0
 40
0.4981531173
 40
1.0
 40
1.0
 40
1.0
 40
1.0
 10
7.1658705301
 20
6.0789054803
 30
0.0
 10
7.1624353723
 20
6.0848553482
 30
0.0
 10
7.1543165544
 20
6.0961217424
 30
0.0
 10
7.1444715064
 20
6.1058438894
 30
0.0
 10
7.1392930005
 20
6.1104359364
 30
0.0
  0
SPLINE
  5
499
100
AcDbEntity
  8
0
100
AcDbSpline
 62
7
  6
CONTINUOUS
 70
0
 71
3
 72
9
 73
5
 74
0
 42
0.0000001
 43
0.0000001
 44
0.0000000001
 40
0.0
 40
0.0
 40
0.0
 40
0.0
 40
0.5018467236
 40
1.0
 40
1.0
 40
1.0
 40
1.0
 10
7.1798879413
 20
6.0401234364
 30
0.0
 10
7.1785003656
 20
6.0469041742
 30
0.0
 10
7.1750031798
 20
6.0602912804
 30
0.0
 10
7.1693056885
 20
6.0729556115
 30
0.0
 10
7.1658705301
 20
6.0789054803
 30
0.0
  0
SPLINE
  5
49A
100
AcDbEntity
  8
0
100
AcDbSpline
 62
7
  6
CONTINUOUS
 70
0
 71
3
 72
9
 73
5
 74
0
 42
0.0000001
 43
0.0000001
 44
0.0000000001
 40
0.0
 40
0.0
 40
0.0
 40
0.0
 40
0.4981531173
 40
1.0
 40
1.0
 40
1.0
 40
1.0
 10
7.1252755893
 20
6.1492179803
 30
0.0
 10
7.1218404315
 20
6.1551678482
 30
0.0
 10
7.1137216136
 20
6.1664342424
 30
0.0
 10
7.1038765656
 20
6.1761563894
 30
0.0
 10
7.0986980597
 20
6.1807484364
 30
0.0
  0
SPLINE
  5
49B
100
AcDbEntity
  8
0
100
AcDbSpline
 62
7
  6
CONTINUOUS
 70
0
 71
3
 72
9
 73
5
 74
0
 42
0.0000001
 43
0.0000001
 44
0.0000000001
 40
0.0
 40
0.0
 40
0.0
 40
0.0
 40
0.5018467236
 40
1.0
 40
1.0
 40
1.0
 40
1.0
 10
7.1392930005
 20
6.1104359364
 30
0.0
 10
7.1379054248
 20
6.1172166742
 30
0.0
 10
7.134408239
 20
6.1306037804
 30
0.0
 10
7.1287107477
 20
6.1432681115
 30
0.0
 10
7.1252755893
 20
6.1492179803
 30
0.0
  0
SPLINE
  5
49C
100
AcDbEntity
  8
0
100
AcDbSpline
 62
7
  6
CONTINUOUS
 70
0
 71
3
 72
8
 73
4
 74
0
 42
0.0000001
 43
0.0000001
 44
0.0000000001
 40
0.0
 40
0.0
 40
0.0
 40
0.0
 40
1.0
 40
1.0
 40
1.0
 40
1.0
 10
7.2089484013
 20
5.1447162313
 30
0.0
 10
7.2082432564
 20
5.1462997197
 30
0.0
 10
7.2078670822
 20
5.1480694002
 30
0.0
 10
7.2078672762
 20
5.149802797
 30
0.0
  0
SPLINE
  5
49D
100
AcDbEntity
  8
0
100
AcDbSpline
 62
7
  6
CONTINUOUS
 70
0
 71
3
 72
10
 73
6
 74
0
 42
0.0000001
 43
0.0000001
 44
0.0000000001
 40
0.0
 40
0.0
 40
0.0
 40
0.0
 40
0.3007560941
 40
0.5655567349
 40
1.0
 40
1.0
 40
1.0
 40
1.0
 10
7.2100530226
 20
5.1427382286
 30
0.0
 10
7.2107398913
 20
5.1417330017
 30
0.0
 10
7.2123206611
 20
5.1400219323
 30
0.0
 10
7.2157812183
 20
5.1378633484
 30
0.0
 10
7.2186205057
 20
5.1371730082
 30
0.0
 10
7.2203769152
 20
5.1370840372
 30
0.0
  0
SPLINE
  5
49E
100
AcDbEntity
  8
0
100
AcDbSpline
 62
7
  6
CONTINUOUS
 70
0
 71
3
 72
8
 73
4
 74
0
 42
0.0000001
 43
0.0000001
 44
0.0000000001
 40
0.0
 40
0.0
 40
0.0
 40
0.0
 40
1.0
 40
1.0
 40
1.0
 40
1.0
 10
5.052867278
 20
5.1498028599
 30
0.0
 10
5.0528674807
 20
5.1480694417
 30
0.0
 10
5.0524913136
 20
5.1462997352
 30
0.0
 10
5.05178616
 20
5.1447162274
 30
0.0
  0
SPLINE
  5
49F
100
AcDbEntity
  8
0
100
AcDbSpline
 62
7
  6
CONTINUOUS
 70
0
 71
3
 72
10
 73
6
 74
0
 42
0.0000001
 43
0.0000001
 44
0.0000000001
 40
0.0
 40
0.0
 40
0.0
 40
0.0
 40
0.3007491706
 40
0.5655374699
 40
1.0
 40
1.0
 40
1.0
 40
1.0
 10
5.05067838
 20
5.1427336227
 30
0.0
 10
5.0499913734
 20
5.1417291944
 30
0.0
 10
5.0484108059
 20
5.1400195483
 30
0.0
 10
5.0449513373
 20
5.1378627805
 30
0.0
 10
5.0421133411
 20
5.1371729714
 30
0.0
 10
5.0403576521
 20
5.1370840397
 30
0.0
  0
SPLINE
  5
4A0
100
AcDbEntity
  8
0
100
AcDbSpline
 62
7
  6
CONTINUOUS
 70
0
 71
3
 72
22
 73
18
 74
0
 42
0.0000001
 43
0.0000001
 44
0.0000000001
 40
0.0
 40
0.0
 40
0.0
 40
0.0
 40
0.0077406661
 40
0.0123697216
 40
0.0138958148
 40
0.0154672775
 40
0.0277686521
 40
0.0517878563
 40
0.0680110739
 40
0.0869537989
 40
0.1327309712
 40
0.1883835139
 40
0.2530377232
 40
0.4060653105
 40
0.5855559172
 40
0.7854320443
 40
1.0
 40
1.0
 40
1.0
 40
1.0
 10
7.1188628894
 20
12.5693239498
 30
0.0
 10
7.1188517866
 20
12.5693109597
 30
0.0
 10
7.1188316583
 20
12.5692879988
 30
0.0
 10
7.118816689
 20
12.5692709085
 30
0.0
 10
7.1187981765
 20
12.5692511344
 30
0.0
 10
7.1188353604
 20
12.5692892479
 30
0.0
 10
7.1188781847
 20
12.5693284282
 30
0.0
 10
7.1189747726
 20
12.5694161696
 30
0.0
 10
7.1190723494
 20
12.5694981039
 30
0.0
 10
7.1192120371
 20
12.5696114234
 30
0.0
 10
7.1194236554
 20
12.5697711131
 30
0.0
 10
7.1197253135
 20
12.5699802052
 30
0.0
 10
7.1202349441
 20
12.5703033697
 30
0.0
 10
7.1210069055
 20
12.5707219271
 30
0.0
 10
7.1220863658
 20
12.5711905134
 30
0.0
 10
7.1233323429
 20
12.5716045877
 30
0.0
 10
7.124225112
 20
12.5718115075
 30
0.0
 10
7.1246906774
 20
12.5718988395
 30
0.0
  0
SPLINE
  5
4A1
100
AcDbEntity
  8
0
100
AcDbSpline
 62
7
  6
CONTINUOUS
 70
0
 71
3
 72
9
 73
5
 74
0
 42
0.0000001
 43
0.0000001
 44
0.0000000001
 40
0.0
 40
0.0
 40
0.0
 40
0.0
 40
0.4741694427
 40
1.0
 40
1.0
 40
1.0
 40
1.0
 10
7.1063753378
 20
12.5297352814
 30
0.0
 10
7.1027031241
 20
12.5254949742
 30
0.0
 10
7.0941628771
 20
12.5172416079
 30
0.0
 10
7.0848171568
 20
12.5099721995
 30
0.0
 10
7.0797978082
 20
12.5062977814
 30
0.0
  0
SPLINE
  5
4A2
100
AcDbEntity
  8
0
100
AcDbSpline
 62
7
  6
CONTINUOUS
 70
0
 71
3
 72
15
 73
11
 74
0
 42
0.0000001
 43
0.0000001
 44
0.0000000001
 40
0.0
 40
0.0
 40
0.0
 40
0.0
 40
0.1998809605
 40
0.3878972545
 40
0.5593306932
 40
0.7095412328
 40
0.8334465156
 40
0.9262155982
 40
0.9830489263
 40
1.0
 40
1.0
 40
1.0
 40
1.0
 10
7.1247096782
 20
12.6281937382
 30
0.0
 10
7.1242808701
 20
12.6282741951
 30
0.0
 10
7.1234547922
 20
12.6284630845
 30
0.0
 10
7.1222879008
 20
12.6288318968
 30
0.0
 10
7.1212625476
 20
12.6292540536
 30
0.0
 10
7.1203838004
 20
12.629707791
 30
0.0
 10
7.1197319114
 20
12.6300940655
 30
0.0
 10
7.1191726237
 20
12.6305239447
 30
0.0
 10
7.1190285962
 20
12.6306162776
 30
0.0
 10
7.1187774535
 20
12.6308660917
 30
0.0
 10
7.1188030283
 20
12.6308393535
 30
0.0
  0
SPLINE
  5
4A3
100
AcDbEntity
  8
0
100
AcDbSpline
 62
7
  6
CONTINUOUS
 70
0
 71
3
 72
9
 73
5
 74
0
 42
0.0000001
 43
0.0000001
 44
0.0000000001
 40
0.0
 40
0.0
 40
0.0
 40
0.0
 40
0.5258297667
 40
1.0
 40
1.0
 40
1.0
 40
1.0
 10
7.0797978082
 20
12.6937977814
 30
0.0
 10
7.0848171488
 20
12.690123369
 30
0.0
 10
7.0941628353
 20
12.6828539222
 30
0.0
 10
7.1027031183
 20
12.6746005952
 30
0.0
 10
7.1063753378
 20
12.6703602814
 30
0.0
  0
SPLINE
  5
4A4
100
AcDbEntity
  8
0
100
AcDbSpline
 62
7
  6
CONTINUOUS
 70
0
 71
3
 72
8
 73
4
 74
0
 42
0.0000001
 43
0.0000001
 44
0.0000000001
 40
0.0
 40
0.0
 40
0.0
 40
0.0
 40
1.0
 40
1.0
 40
1.0
 40
1.0
 10
7.1234140242
 20
12.6228166463
 30
0.0
 10
7.1247410795
 20
12.6247608015
 30
0.0
 10
7.1262994077
 20
12.6265691702
 30
0.0
 10
7.1280471186
 20
12.6281459777
 30
0.0
  0
SPLINE
  5
4A5
100
AcDbEntity
  8
0
100
AcDbSpline
 62
7
  6
CONTINUOUS
 70
0
 71
3
 72
15
 73
11
 74
0
 42
0.0000001
 43
0.0000001
 44
0.0000000001
 40
0.0
 40
0.0
 40
0.0
 40
0.0
 40
0.1243684548
 40
0.2494241989
 40
0.3746231139
 40
0.4993954503
 40
0.6232915145
 40
0.7468578316
 40
0.8721671058
 40
1.0
 40
1.0
 40
1.0
 40
1.0
 10
7.1280471186
 20
12.6281459777
 30
0.0
 10
7.1301898064
 20
12.6300791386
 30
0.0
 10
7.1351283893
 20
12.6333163667
 30
0.0
 10
7.1437172809
 20
12.6354765429
 30
0.0
 10
7.152552361
 20
12.6346308517
 30
0.0
 10
7.1605679764
 20
12.6309106283
 30
0.0
 10
7.1669521155
 20
12.6248929799
 30
0.0
 10
7.1713668406
 20
12.6173391686
 30
0.0
 10
7.1738955167
 20
12.6089042511
 30
0.0
 10
7.1744407998
 20
12.6030140367
 30
0.0
 10
7.1744407998
 20
12.6000477814
 30
0.0
  0
SPLINE
  5
4A6
100
AcDbEntity
  8
0
100
AcDbSpline
 62
7
  6
CONTINUOUS
 70
0
 71
3
 72
15
 73
11
 74
0
 42
0.0000001
 43
0.0000001
 44
0.0000000001
 40
0.0
 40
0.0
 40
0.0
 40
0.0
 40
0.1278390864
 40
0.2531383291
 40
0.3766830121
 40
0.5005398226
 40
0.6252810141
 40
0.7504821122
 40
0.875570021
 40
1.0
 40
1.0
 40
1.0
 40
1.0
 10
7.1744407998
 20
12.6000477814
 30
0.0
 10
7.1744407998
 20
12.5970789128
 30
0.0
 10
7.1738946094
 20
12.5911838511
 30
0.0
 10
7.1713616514
 20
12.5827430351
 30
0.0
 10
7.166940033
 20
12.5751865455
 30
0.0
 10
7.1605475185
 20
12.5691699586
 30
0.0
 10
7.1525224046
 20
12.5654558135
 30
0.0
 10
7.1436785858
 20
12.5646212656
 30
0.0
 10
7.1350832829
 20
12.5667974503
 30
0.0
 10
7.1301455237
 20
12.5700491205
 30
0.0
 10
7.1280036204
 20
12.571988863
 30
0.0
  0
SPLINE
  5
4A7
100
AcDbEntity
  8
0
100
AcDbSpline
 62
7
  6
CONTINUOUS
 70
0
 71
3
 72
8
 73
4
 74
0
 42
0.0000001
 43
0.0000001
 44
0.0000000001
 40
0.0
 40
0.0
 40
0.0
 40
0.0
 40
1.0
 40
1.0
 40
1.0
 40
1.0
 10
7.1280036204
 20
12.571988863
 30
0.0
 10
7.12627324
 20
12.5735559236
 30
0.0
 10
7.1247301466
 20
12.5753507781
 30
0.0
 10
7.1234140242
 20
12.5772789164
 30
0.0
  0
SPLINE
  5
4A8
100
AcDbEntity
  8
0
100
AcDbSpline
 62
7
  6
CONTINUOUS
 70
0
 71
3
 72
9
 73
5
 74
0
 42
0.0000001
 43
0.0000001
 44
0.0000000001
 40
0.0
 40
0.0
 40
0.0
 40
0.0
 40
0.467024299
 40
1.0
 40
1.0
 40
1.0
 40
1.0
 10
7.0797978082
 20
12.5062977814
 30
0.0
 10
7.0783301629
 20
12.5103074631
 30
0.0
 10
7.0744277764
 20
12.5186391689
 30
0.0
 10
7.0689704001
 20
12.5260517831
 30
0.0
 10
7.065780397
 20
12.5297352814
 30
0.0
  0
SPLINE
  5
4A9
100
AcDbEntity
  8
0
100
AcDbSpline
 62
7
  6
CONTINUOUS
 70
0
 71
3
 72
9
 73
5
 74
0
 42
0.0000001
 43
0.0000001
 44
0.0000000001
 40
0.0
 40
0.0
 40
0.0
 40
0.0
 40
0.2557799101
 40
1.0
 40
1.0
 40
1.0
 40
1.0
 10
7.1227094724
 20
12.5650594916
 30
0.0
 10
7.1224834498
 20
12.5641128095
 30
0.0
 10
7.1215582476
 20
12.5604217753
 30
0.0
 10
7.1204636132
 20
12.5567725617
 30
0.0
 10
7.1195440438
 20
12.5540941252
 30
0.0
  0
SPLINE
  5
4AA
100
AcDbEntity
  8
0
100
AcDbSpline
 62
7
  6
CONTINUOUS
 70
0
 71
3
 72
9
 73
5
 74
0
 42
0.0000001
 43
0.0000001
 44
0.0000000001
 40
0.0
 40
0.0
 40
0.0
 40
0.0
 40
0.525835277
 40
1.0
 40
1.0
 40
1.0
 40
1.0
 10
7.1159656703
 20
12.5451054725
 30
0.0
 10
7.1146365309
 20
12.5422129908
 30
0.0
 10
7.1118025982
 20
12.5368453085
 30
0.0
 10
7.108254488
 20
12.531905137
 30
0.0
 10
7.1063753378
 20
12.5297352814
 30
0.0
  0
SPLINE
  5
4AB
100
AcDbEntity
  8
0
100
AcDbSpline
 62
7
  6
CONTINUOUS
 70
0
 71
3
 72
11
 73
7
 74
0
 42
0.0000001
 43
0.0000001
 44
0.0000000001
 40
0.0
 40
0.0
 40
0.0
 40
0.0
 40
0.2147186549
 40
0.4584600284
 40
0.7240520883
 40
1.0
 40
1.0
 40
1.0
 40
1.0
 10
7.1234148559
 20
12.6228147653
 30
0.0
 10
7.1224545986
 20
12.621408921
 30
0.0
 10
7.1207649086
 20
12.6181585898
 30
0.0
 10
7.118991132
 20
12.6126792548
 30
0.0
 10
7.1178925641
 20
12.6065335792
 30
0.0
 10
7.1176412506
 20
12.6022357616
 30
0.0
 10
7.1176412506
 20
12.6000477814
 30
0.0
  0
SPLINE
  5
4AC
100
AcDbEntity
  8
0
100
AcDbSpline
 62
7
  6
CONTINUOUS
 70
0
 71
3
 72
10
 73
6
 74
0
 42
0.0000001
 43
0.0000001
 44
0.0000000001
 40
0.0
 40
0.0
 40
0.0
 40
0.0
 40
0.2765804067
 40
0.543555106
 40
1.0
 40
1.0
 40
1.0
 40
1.0
 10
7.117400967
 20
12.6000477814
 30
0.0
 10
7.117400967
 20
12.5978565959
 30
0.0
 10
7.1177821368
 20
12.5935427302
 30
0.0
 10
7.119385921
 20
12.5858047853
 30
0.0
 10
7.1213657568
 20
12.5802676819
 30
0.0
 10
7.1234054116
 20
12.5772816599
 30
0.0
  0
SPLINE
  5
4AD
100
AcDbEntity
  8
0
100
AcDbSpline
 62
7
  6
CONTINUOUS
 70
0
 71
3
 72
15
 73
11
 74
0
 42
0.0000001
 43
0.0000001
 44
0.0000000001
 40
0.0
 40
0.0
 40
0.0
 40
0.0
 40
0.1408863088
 40
0.2691582152
 40
0.3873594375
 40
0.5
 40
0.6126405625
 40
0.7308417848
 40
0.8591136912
 40
1.0
 40
1.0
 40
1.0
 40
1.0
 10
7.1063753378
 20
12.5297352814
 30
0.0
 10
7.1049171431
 20
12.5280515031
 30
0.0
 10
7.1018944738
 20
12.525025383
 30
0.0
 10
7.096830304
 20
12.5215120756
 30
0.0
 10
7.0915219203
 20
12.5193515011
 30
0.0
 10
7.0860778674
 20
12.5186175626
 30
0.0
 10
7.0806338146
 20
12.5193515011
 30
0.0
 10
7.0753254308
 20
12.5215120756
 30
0.0
 10
7.070261261
 20
12.525025383
 30
0.0
 10
7.0672385918
 20
12.5280515031
 30
0.0
 10
7.065780397
 20
12.5297352814
 30
0.0
  0
SPLINE
  5
4AE
100
AcDbEntity
  8
0
100
AcDbSpline
 62
7
  6
CONTINUOUS
 70
0
 71
3
 72
12
 73
8
 74
0
 42
0.0000001
 43
0.0000001
 44
0.0000000001
 40
0.0
 40
0.0
 40
0.0
 40
0.0
 40
0.098843068
 40
0.2071218127
 40
0.4488824866
 40
0.7173135242
 40
1.0
 40
1.0
 40
1.0
 40
1.0
 10
7.065780397
 20
12.5297352814
 30
0.0
 10
7.0641735779
 20
12.5315906763
 30
0.0
 10
7.0611084493
 20
12.5357446543
 30
0.0
 10
7.055622845
 20
12.5454709792
 30
0.0
 10
7.0502606113
 20
12.5599663316
 30
0.0
 10
7.0463617159
 20
12.579322895
 30
0.0
 10
7.0454829266
 20
12.5930281517
 30
0.0
 10
7.0454829266
 20
12.6000477814
 30
0.0
  0
SPLINE
  5
4AF
100
AcDbEntity
  8
0
100
AcDbSpline
 62
7
  6
CONTINUOUS
 70
0
 71
3
 72
12
 73
8
 74
0
 42
0.0000001
 43
0.0000001
 44
0.0000000001
 40
0.0
 40
0.0
 40
0.0
 40
0.0
 40
0.2826864758
 40
0.5511175134
 40
0.7928781873
 40
0.901156932
 40
1.0
 40
1.0
 40
1.0
 40
1.0
 10
7.0454829266
 20
12.6000477814
 30
0.0
 10
7.0454829266
 20
12.607067411
 30
0.0
 10
7.0463617159
 20
12.6207726677
 30
0.0
 10
7.0502606113
 20
12.6401292311
 30
0.0
 10
7.055622845
 20
12.6546245836
 30
0.0
 10
7.0611084493
 20
12.6643509085
 30
0.0
 10
7.0641735779
 20
12.6685048865
 30
0.0
 10
7.065780397
 20
12.6703602814
 30
0.0
  0
SPLINE
  5
4B0
100
AcDbEntity
  8
0
100
AcDbSpline
 62
7
  6
CONTINUOUS
 70
0
 71
3
 72
15
 73
11
 74
0
 42
0.0000001
 43
0.0000001
 44
0.0000000001
 40
0.0
 40
0.0
 40
0.0
 40
0.0
 40
0.1408863088
 40
0.2691582152
 40
0.3873594375
 40
0.5
 40
0.6126405625
 40
0.7308417848
 40
0.8591136912
 40
1.0
 40
1.0
 40
1.0
 40
1.0
 10
7.065780397
 20
12.6703602814
 30
0.0
 10
7.0672385918
 20
12.6720440596
 30
0.0
 10
7.070261261
 20
12.6750701797
 30
0.0
 10
7.0753254308
 20
12.6785834871
 30
0.0
 10
7.0806338146
 20
12.6807440617
 30
0.0
 10
7.0860778674
 20
12.6814780001
 30
0.0
 10
7.0915219203
 20
12.6807440617
 30
0.0
 10
7.096830304
 20
12.6785834871
 30
0.0
 10
7.1018944738
 20
12.6750701797
 30
0.0
 10
7.1049171431
 20
12.6720440596
 30
0.0
 10
7.1063753378
 20
12.6703602814
 30
0.0
  0
SPLINE
  5
4B1
100
AcDbEntity
  8
0
100
AcDbSpline
 62
7
  6
CONTINUOUS
 70
0
 71
3
 72
13
 73
9
 74
0
 42
0.0000001
 43
0.0000001
 44
0.0000000001
 40
0.0
 40
0.0
 40
0.0
 40
0.0
 40
0.0941315538
 40
0.1928353814
 40
0.2995219374
 40
0.4165736247
 40
0.6854956346
 40
1.0
 40
1.0
 40
1.0
 40
1.0
 10
7.1009010485
 20
12.5453602814
 30
0.0
 10
7.1020733436
 20
12.5453602814
 30
0.0
 10
7.1044845795
 20
12.5456791329
 30
0.0
 10
7.1079810717
 20
12.5470674798
 30
0.0
 10
7.1113297233
 20
12.549331854
 30
0.0
 10
7.115735649
 20
12.5536391244
 30
0.0
 10
7.1204943701
 20
12.5610710667
 30
0.0
 10
7.123123131
 20
12.5678830593
 30
0.0
 10
7.1242631541
 20
12.5716302527
 30
0.0
  0
SPLINE
  5
4B2
100
AcDbEntity
  8
0
100
AcDbSpline
 62
7
  6
CONTINUOUS
 70
0
 71
3
 72
9
 73
5
 74
0
 42
0.0000001
 43
0.0000001
 44
0.0000000001
 40
0.0
 40
0.0
 40
0.0
 40
0.0
 40
0.474164723
 40
1.0
 40
1.0
 40
1.0
 40
1.0
 10
7.1063753378
 20
12.6703602814
 30
0.0
 10
7.108254488
 20
12.6681904257
 30
0.0
 10
7.1118025982
 20
12.6632502543
 30
0.0
 10
7.1146365309
 20
12.6578825719
 30
0.0
 10
7.1159656703
 20
12.6549900902
 30
0.0
  0
SPLINE
  5
4B3
100
AcDbEntity
  8
0
100
AcDbSpline
 62
7
  6
CONTINUOUS
 70
0
 71
3
 72
9
 73
5
 74
0
 42
0.0000001
 43
0.0000001
 44
0.0000000001
 40
0.0
 40
0.0
 40
0.0
 40
0.0
 40
0.2440697422
 40
1.0
 40
1.0
 40
1.0
 40
1.0
 10
7.1195440438
 20
12.6460014375
 30
0.0
 10
7.1198456221
 20
12.6451230284
 30
0.0
 10
7.1210346783
 20
12.6415081218
 30
0.0
 10
7.1220414822
 20
12.6378339081
 30
0.0
 10
7.1227094724
 20
12.6350360711
 30
0.0
  0
SPLINE
  5
4B4
100
AcDbEntity
  8
0
100
AcDbSpline
 62
7
  6
CONTINUOUS
 70
0
 71
3
 72
13
 73
9
 74
0
 42
0.0000001
 43
0.0000001
 44
0.0000000001
 40
0.0
 40
0.0
 40
0.0
 40
0.0
 40
0.3144817361
 40
0.5833853175
 40
0.7004369511
 40
0.807131135
 40
0.9058495722
 40
1.0
 40
1.0
 40
1.0
 40
1.0
 10
7.1242540506
 20
12.6284952111
 30
0.0
 10
7.1231135481
 20
12.6322385488
 30
0.0
 10
7.1204845065
 20
12.6390433557
 30
0.0
 10
7.115727096
 20
12.6464667622
 30
0.0
 10
7.1113233761
 20
12.6507687279
 30
0.0
 10
7.107976576
 20
12.6530302849
 30
0.0
 10
7.1044822328
 20
12.6544168496
 30
0.0
 10
7.1020726005
 20
12.6547352814
 30
0.0
 10
7.1009010485
 20
12.6547352814
 30
0.0
  0
SPLINE
  5
4B5
100
AcDbEntity
  8
0
100
AcDbSpline
 62
7
  6
CONTINUOUS
 70
0
 71
3
 72
13
 73
9
 74
0
 42
0.0000001
 43
0.0000001
 44
0.0000000001
 40
0.0
 40
0.0
 40
0.0
 40
0.0
 40
0.0934670741
 40
0.1916592642
 40
0.2980834283
 40
0.4151453621
 40
0.6847284817
 40
1.0
 40
1.0
 40
1.0
 40
1.0
 10
7.1009010485
 20
12.6547352814
 30
0.0
 10
7.0997022366
 20
12.6547352814
 30
0.0
 10
7.0972336874
 20
12.6544012501
 30
0.0
 10
7.0936606461
 20
12.6529485368
 30
0.0
 10
7.0902462769
 20
12.650582613
 30
0.0
 10
7.0857625096
 20
12.6460842499
 30
0.0
 10
7.0809591484
 20
12.6383459611
 30
0.0
 10
7.0783421823
 20
12.6312765765
 30
0.0
 10
7.0772206664
 20
12.6273915314
 30
0.0
  0
SPLINE
  5
4B6
100
AcDbEntity
  8
0
100
AcDbSpline
 62
7
  6
CONTINUOUS
 70
0
 71
3
 72
9
 73
5
 74
0
 42
0.0000001
 43
0.0000001
 44
0.0000000001
 40
0.0
 40
0.0
 40
0.0
 40
0.0
 40
0.4741694427
 40
1.0
 40
1.0
 40
1.0
 40
1.0
 10
7.065780397
 20
12.5297352814
 30
0.0
 10
7.0621081833
 20
12.5339755885
 30
0.0
 10
7.0535679363
 20
12.5422289548
 30
0.0
 10
7.044222216
 20
12.5494983632
 30
0.0
 10
7.0392028674
 20
12.5531727814
 30
0.0
  0
SPLINE
  5
4B7
100
AcDbEntity
  8
0
100
AcDbSpline
 62
7
  6
CONTINUOUS
 70
0
 71
3
 72
9
 73
5
 74
0
 42
0.0000001
 43
0.0000001
 44
0.0000000001
 40
0.0
 40
0.0
 40
0.0
 40
0.0
 40
0.4870662551
 40
1.0
 40
1.0
 40
1.0
 40
1.0
 10
7.0772206664
 20
12.6273915314
 30
0.0
 10
7.0759754132
 20
12.6230778481
 30
0.0
 10
7.0741486242
 20
12.6140036197
 30
0.0
 10
7.0735572985
 20
12.6047760543
 30
0.0
 10
7.0735572985
 20
12.6000477814
 30
0.0
  0
SPLINE
  5
4B8
100
AcDbEntity
  8
0
100
AcDbSpline
 62
7
  6
CONTINUOUS
 70
0
 71
3
 72
9
 73
5
 74
0
 42
0.0000001
 43
0.0000001
 44
0.0000000001
 40
0.0
 40
0.0
 40
0.0
 40
0.0
 40
0.5129337449
 40
1.0
 40
1.0
 40
1.0
 40
1.0
 10
7.0735572985
 20
12.6000477814
 30
0.0
 10
7.0735572985
 20
12.5953195084
 30
0.0
 10
7.0741486242
 20
12.5860919431
 30
0.0
 10
7.0759754132
 20
12.5770177147
 30
0.0
 10
7.0772206664
 20
12.5727040314
 30
0.0
  0
SPLINE
  5
4B9
100
AcDbEntity
  8
0
100
AcDbSpline
 62
7
  6
CONTINUOUS
 70
0
 71
3
 72
9
 73
5
 74
0
 42
0.0000001
 43
0.0000001
 44
0.0000000001
 40
0.0
 40
0.0
 40
0.0
 40
0.0
 40
0.4987302989
 40
1.0
 40
1.0
 40
1.0
 40
1.0
 10
7.0392028674
 20
12.5531727814
 30
0.0
 10
7.041113421
 20
12.5608149955
 30
0.0
 10
7.0442919673
 20
12.5763181981
 30
0.0
 10
7.0454829266
 20
12.5921302577
 30
0.0
 10
7.0454829266
 20
12.6000477814
 30
0.0
  0
SPLINE
  5
4BA
100
AcDbEntity
  8
0
100
AcDbSpline
 62
7
  6
CONTINUOUS
 70
0
 71
3
 72
13
 73
9
 74
0
 42
0.0000001
 43
0.0000001
 44
0.0000000001
 40
0.0
 40
0.0
 40
0.0
 40
0.0
 40
0.3152715183
 40
0.5848546379
 40
0.7019165717
 40
0.8083407358
 40
0.9065329259
 40
1.0
 40
1.0
 40
1.0
 40
1.0
 10
7.0772206664
 20
12.5727040314
 30
0.0
 10
7.0783421823
 20
12.5688189862
 30
0.0
 10
7.0809591484
 20
12.5617496016
 30
0.0
 10
7.0857625096
 20
12.5540113129
 30
0.0
 10
7.0902462769
 20
12.5495129498
 30
0.0
 10
7.0936606461
 20
12.5471470259
 30
0.0
 10
7.0972336874
 20
12.5456943126
 30
0.0
 10
7.0997022366
 20
12.5453602814
 30
0.0
 10
7.1009010485
 20
12.5453602814
 30
0.0
  0
SPLINE
  5
4BB
100
AcDbEntity
  8
0
100
AcDbSpline
 62
7
  6
CONTINUOUS
 70
0
 71
3
 72
9
 73
5
 74
0
 42
0.0000001
 43
0.0000001
 44
0.0000000001
 40
0.0
 40
0.0
 40
0.0
 40
0.0
 40
0.5012696232
 40
1.0
 40
1.0
 40
1.0
 40
1.0
 10
7.0454829266
 20
12.6000477814
 30
0.0
 10
7.0454829266
 20
12.6079653046
 30
0.0
 10
7.0442920443
 20
12.6237773737
 30
0.0
 10
7.0411134214
 20
12.6392805653
 30
0.0
 10
7.0392028674
 20
12.6469227814
 30
0.0
  0
SPLINE
  5
4BC
100
AcDbEntity
  8
0
100
AcDbSpline
 62
7
  6
CONTINUOUS
 70
0
 71
3
 72
9
 73
5
 74
0
 42
0.0000001
 43
0.0000001
 44
0.0000000001
 40
0.0
 40
0.0
 40
0.0
 40
0.0
 40
0.5258297667
 40
1.0
 40
1.0
 40
1.0
 40
1.0
 10
7.0392028674
 20
12.6469227814
 30
0.0
 10
7.044222208
 20
12.6505971937
 30
0.0
 10
7.0535678945
 20
12.6578666405
 30
0.0
 10
7.0621081775
 20
12.6661199675
 30
0.0
 10
7.065780397
 20
12.6703602814
 30
0.0
  0
SPLINE
  5
4BD
100
AcDbEntity
  8
0
100
AcDbSpline
 62
7
  6
CONTINUOUS
 70
0
 71
3
 72
9
 73
5
 74
0
 42
0.0000001
 43
0.0000001
 44
0.0000000001
 40
0.0
 40
0.0
 40
0.0
 40
0.0
 40
0.5329764477
 40
1.0
 40
1.0
 40
1.0
 40
1.0
 10
7.065780397
 20
12.6703602814
 30
0.0
 10
7.0689704053
 20
12.6740437856
 30
0.0
 10
7.0744278387
 20
12.6814563659
 30
0.0
 10
7.0783301649
 20
12.6897881052
 30
0.0
 10
7.0797978082
 20
12.6937977814
 30
0.0
  0
SPLINE
  5
4BE
100
AcDbEntity
  8
0
100
AcDbSpline
 62
7
  6
CONTINUOUS
 70
0
 71
3
 72
9
 73
5
 74
0
 42
0.0000001
 43
0.0000001
 44
0.0000000001
 40
0.0
 40
0.0
 40
0.0
 40
0.0
 40
0.424724418
 40
1.0
 40
1.0
 40
1.0
 40
1.0
 10
7.1494532073
 20
12.1000477813
 30
0.0
 10
7.1498354574
 20
12.1000478519
 30
0.0
 10
7.150728289
 20
12.099833108
 30
0.0
 10
7.1515451085
 20
12.0994530507
 30
0.0
 10
7.1519998602
 20
12.0992055403
 30
0.0
  0
SPLINE
  5
4BF
100
AcDbEntity
  8
0
100
AcDbSpline
 62
7
  6
CONTINUOUS
 70
0
 71
3
 72
11
 73
7
 74
0
 42
0.0000001
 43
0.0000001
 44
0.0000000001
 40
0.0
 40
0.0
 40
0.0
 40
0.0
 40
0.2227645632
 40
0.4747578062
 40
0.7363752247
 40
1.0
 40
1.0
 40
1.0
 40
1.0
 10
7.1519998602
 20
12.0992055403
 30
0.0
 10
7.1530173876
 20
12.0986517248
 30
0.0
 10
7.1550240895
 20
12.0971800485
 30
0.0
 10
7.1577743479
 20
12.0945087065
 30
0.0
 10
7.1604002421
 20
12.0914297854
 30
0.0
 10
7.1620557652
 20
12.089256875
 30
0.0
 10
7.1628807244
 20
12.0881618848
 30
0.0
  0
SPLINE
  5
4C0
100
AcDbEntity
  8
0
100
AcDbSpline
 62
7
  6
CONTINUOUS
 70
0
 71
3
 72
9
 73
5
 74
0
 42
0.0000001
 43
0.0000001
 44
0.0000000001
 40
0.0
 40
0.0
 40
0.0
 40
0.0
 40
0.4245899414
 40
1.0
 40
1.0
 40
1.0
 40
1.0
 10
7.1494531553
 20
13.1000477812
 30
0.0
 10
7.1498369236
 20
13.1000477104
 30
0.0
 10
7.1507335188
 20
13.1002640419
 30
0.0
 10
7.1515534638
 20
13.1006464952
 30
0.0
 10
7.15201003
 20
13.1008955713
 30
0.0
  0
SPLINE
  5
4C1
100
AcDbEntity
  8
0
100
AcDbSpline
 62
7
  6
CONTINUOUS
 70
0
 71
3
 72
11
 73
7
 74
0
 42
0.0000001
 43
0.0000001
 44
0.0000000001
 40
0.0
 40
0.0
 40
0.0
 40
0.0
 40
0.2228720797
 40
0.4748548336
 40
0.7364271007
 40
1.0
 40
1.0
 40
1.0
 40
1.0
 10
7.15201003
 20
13.1008955713
 30
0.0
 10
7.1530267538
 20
13.1014502368
 30
0.0
 10
7.1550315367
 20
13.1029220878
 30
0.0
 10
7.1577792705
 20
13.1055923433
 30
0.0
 10
7.1604025495
 20
13.1086687955
 30
0.0
 10
7.1620565348
 20
13.1108397022
 30
0.0
 10
7.1628807173
 20
13.1119336695
 30
0.0
  0
SPLINE
  5
4C2
100
AcDbEntity
  8
0
100
AcDbSpline
 62
7
  6
CONTINUOUS
 70
0
 71
3
 72
9
 73
5
 74
0
 42
0.0000001
 43
0.0000001
 44
0.0000000001
 40
0.0
 40
0.0
 40
0.0
 40
0.0
 40
0.4245987764
 40
1.0
 40
1.0
 40
1.0
 40
1.0
 10
4.9922910125
 20
12.1000477815
 30
0.0
 10
4.9919073352
 20
12.1000478523
 30
0.0
 10
4.9910109673
 20
12.0998316181
 30
0.0
 10
4.9901912111
 20
12.0994493097
 30
0.0
 10
4.9897347551
 20
12.0992003287
 30
0.0
  0
SPLINE
  5
4C3
100
AcDbEntity
  8
0
100
AcDbSpline
 62
7
  6
CONTINUOUS
 70
0
 71
3
 72
11
 73
7
 74
0
 42
0.0000001
 43
0.0000001
 44
0.0000000001
 40
0.0
 40
0.0
 40
0.0
 40
0.0
 40
0.2228655
 40
0.4748488913
 40
0.7364239234
 40
1.0
 40
1.0
 40
1.0
 40
1.0
 10
4.9897347551
 20
12.0992003287
 30
0.0
 10
4.9887179828
 20
12.0986457146
 30
0.0
 10
4.9867130835
 20
12.0971738749
 30
0.0
 10
4.983965197
 20
12.0945035531
 30
0.0
 10
4.9813417587
 20
12.0914269514
 30
0.0
 10
4.9796876799
 20
12.0892559229
 30
0.0
 10
4.9788634504
 20
12.0881618932
 30
0.0
  0
SPLINE
  5
4C4
100
AcDbEntity
  8
0
100
AcDbSpline
 62
7
  6
CONTINUOUS
 70
0
 71
3
 72
9
 73
5
 74
0
 42
0.0000001
 43
0.0000001
 44
0.0000000001
 40
0.0
 40
0.0
 40
0.0
 40
0.0
 40
0.4247302592
 40
1.0
 40
1.0
 40
1.0
 40
1.0
 10
4.9922909605
 20
13.1000477814
 30
0.0
 10
4.9919087712
 20
13.1000477108
 30
0.0
 10
4.9910160914
 20
13.10026239
 30
0.0
 10
4.9901993979
 20
13.1006423507
 30
0.0
 10
4.9897447197
 20
13.1008897977
 30
0.0
  0
SPLINE
  5
4C5
100
AcDbEntity
  8
0
100
AcDbSpline
 62
7
  6
CONTINUOUS
 70
0
 71
3
 72
11
 73
7
 74
0
 42
0.0000001
 43
0.0000001
 44
0.0000000001
 40
0.0
 40
0.0
 40
0.0
 40
0.0
 40
0.2227602039
 40
0.4747538705
 40
0.7363731182
 40
1.0
 40
1.0
 40
1.0
 40
1.0
 10
4.9897447197
 20
13.1008897977
 30
0.0
 10
4.9887271599
 20
13.1014435787
 30
0.0
 10
4.9867203801
 20
13.1029152477
 30
0.0
 10
4.9839700196
 20
13.1055866337
 30
0.0
 10
4.9813440195
 20
13.1086656548
 30
0.0
 10
4.9796884339
 20
13.1108386461
 30
0.0
 10
4.9788634433
 20
13.111933678
 30
0.0
  0
SPLINE
  5
4C6
100
AcDbEntity
  8
0
100
AcDbSpline
 62
7
  6
CONTINUOUS
 70
0
 71
3
 72
15
 73
11
 74
0
 42
0.0000001
 43
0.0000001
 44
0.0000000001
 40
0.0
 40
0.0
 40
0.0
 40
0.0
 40
0.1259628115
 40
0.2512465913
 40
0.375798172
 40
0.4999761128
 40
0.6241607767
 40
0.7487308755
 40
0.874030554
 40
1.0
 40
1.0
 40
1.0
 40
1.0
 10
15.5603552569
 20
6.1223093981
 30
0.0
 10
15.5648345999
 20
6.1223093981
 30
0.0
 10
15.5738573101
 20
6.1206551748
 30
0.0
 10
15.5854808175
 20
6.1134413341
 30
0.0
 10
15.5934556996
 20
6.1023399227
 30
0.0
 10
15.5963029379
 20
6.0889865078
 30
0.0
 10
15.5934576549
 20
6.0756319095
 30
0.0
 10
15.5854828934
 20
6.0645283957
 30
0.0
 10
15.5738583652
 20
6.0573132125
 30
0.0
 10
15.5648348358
 20
6.055658763
 30
0.0
 10
15.5603552569
 20
6.055658763
 30
0.0
  0
SPLINE
  5
4C7
100
AcDbEntity
  8
0
100
AcDbSpline
 62
7
  6
CONTINUOUS
 70
0
 71
3
 72
9
 73
5
 74
0
 42
0.0000001
 43
0.0000001
 44
0.0000000001
 40
0.0
 40
0.0
 40
0.0
 40
0.0
 40
0.2571277382
 40
1.0
 40
1.0
 40
1.0
 40
1.0
 10
15.4666052569
 20
6.0509407441
 30
0.0
 10
15.4685007577
 20
6.0543311792
 30
0.0
 10
15.4759540482
 20
6.0674700971
 30
0.0
 10
15.4838177622
 20
6.0803852959
 30
0.0
 10
15.4900427569
 20
6.089722788
 30
0.0
  0
SPLINE
  5
4C8
100
AcDbEntity
  8
0
100
AcDbSpline
 62
7
  6
CONTINUOUS
 70
0
 71
3
 72
9
 73
5
 74
0
 42
0.0000001
 43
0.0000001
 44
0.0000000001
 40
0.0
 40
0.0
 40
0.0
 40
0.0
 40
0.4959755139
 40
1.0
 40
1.0
 40
1.0
 40
1.0
 10
15.5134802569
 20
6.1212532441
 30
0.0
 10
15.5211783559
 20
6.122364369
 30
0.0
 10
15.5367632079
 20
6.1242012722
 30
0.0
 10
15.552451159
 20
6.124879038
 30
0.0
 10
15.5603552569
 20
6.124879038
 30
0.0
  0
SPLINE
  5
4C9
100
AcDbEntity
  8
0
100
AcDbSpline
 62
7
  6
CONTINUOUS
 70
0
 71
3
 72
9
 73
5
 74
0
 42
0.0000001
 43
0.0000001
 44
0.0000000001
 40
0.0
 40
0.0
 40
0.0
 40
0.0
 40
0.5040244808
 40
1.0
 40
1.0
 40
1.0
 40
1.0
 10
15.5603552569
 20
6.124879038
 30
0.0
 10
15.5682593551
 20
6.124879038
 30
0.0
 10
15.5839473094
 20
6.1242013172
 30
0.0
 10
15.5995321576
 20
6.122364369
 30
0.0
 10
15.6072302569
 20
6.1212532441
 30
0.0
  0
SPLINE
  5
4CA
100
AcDbEntity
  8
0
100
AcDbSpline
 62
7
  6
CONTINUOUS
 70
0
 71
3
 72
9
 73
5
 74
0
 42
0.0000001
 43
0.0000001
 44
0.0000000001
 40
0.0
 40
0.0
 40
0.0
 40
0.0
 40
0.2409916783
 40
1.0
 40
1.0
 40
1.0
 40
1.0
 10
15.6306677569
 20
6.089722788
 30
0.0
 10
15.632687245
 20
6.0866935559
 30
0.0
 10
15.6408991142
 20
6.0740113528
 30
0.0
 10
15.6485097947
 20
6.0609492082
 30
0.0
 10
15.6541052569
 20
6.0509407441
 30
0.0
  0
SPLINE
  5
4CB
100
AcDbEntity
  8
0
100
AcDbSpline
 62
7
  6
CONTINUOUS
 70
0
 71
3
 72
15
 73
11
 74
0
 42
0.0000001
 43
0.0000001
 44
0.0000000001
 40
0.0
 40
0.0
 40
0.0
 40
0.0
 40
0.1259628115
 40
0.2512465913
 40
0.375798172
 40
0.4999761128
 40
0.6241607767
 40
0.7487308755
 40
0.874030554
 40
1.0
 40
1.0
 40
1.0
 40
1.0
 10
15.5603552569
 20
6.055658763
 30
0.0
 10
15.555875914
 20
6.055658763
 30
0.0
 10
15.5468532038
 20
6.0573129863
 30
0.0
 10
15.5352296963
 20
6.064526827
 30
0.0
 10
15.5272548143
 20
6.0756282384
 30
0.0
 10
15.524407576
 20
6.0889816533
 30
0.0
 10
15.527252859
 20
6.1023362515
 30
0.0
 10
15.5352276205
 20
6.1134397654
 30
0.0
 10
15.5468521487
 20
6.1206549486
 30
0.0
 10
15.5558756781
 20
6.1223093981
 30
0.0
 10
15.5603552569
 20
6.1223093981
 30
0.0
  0
SPLINE
  5
4CC
100
AcDbEntity
  8
0
100
AcDbSpline
 62
7
  6
CONTINUOUS
 70
0
 71
3
 72
9
 73
5
 74
0
 42
0.0000001
 43
0.0000001
 44
0.0000000001
 40
0.0
 40
0.0
 40
0.0
 40
0.0
 40
0.2409916783
 40
1.0
 40
1.0
 40
1.0
 40
1.0
 10
15.6306677569
 20
6.019410288
 30
0.0
 10
15.6286482689
 20
6.0163810559
 30
0.0
 10
15.6204363997
 20
6.0036988528
 30
0.0
 10
15.6128257191
 20
5.9906367082
 30
0.0
 10
15.6072302569
 20
5.9806282441
 30
0.0
  0
SPLINE
  5
4CD
100
AcDbEntity
  8
0
100
AcDbSpline
 62
7
  6
CONTINUOUS
 70
0
 71
3
 72
9
 73
5
 74
0
 42
0.0000001
 43
0.0000001
 44
0.0000000001
 40
0.0
 40
0.0
 40
0.0
 40
0.0
 40
0.4959755139
 40
1.0
 40
1.0
 40
1.0
 40
1.0
 10
15.6072302569
 20
5.9806282441
 30
0.0
 10
15.5995321579
 20
5.981739369
 30
0.0
 10
15.583947306
 20
5.9835762722
 30
0.0
 10
15.5682593549
 20
5.984254038
 30
0.0
 10
15.5603552569
 20
5.984254038
 30
0.0
  0
SPLINE
  5
4CE
100
AcDbEntity
  8
0
100
AcDbSpline
 62
7
  6
CONTINUOUS
 70
0
 71
3
 72
11
 73
7
 74
0
 42
0.0000001
 43
0.0000001
 44
0.0000000001
 40
0.0
 40
0.0
 40
0.0
 40
0.0
 40
0.2591929482
 40
0.5141405849
 40
0.7615629564
 40
1.0
 40
1.0
 40
1.0
 40
1.0
 10
15.5603552569
 20
5.984254038
 30
0.0
 10
15.5533054027
 20
5.984254038
 30
0.0
 10
15.5392685655
 20
5.985837486
 30
0.0
 10
15.5195793659
 20
5.9928425123
 30
0.0
 10
15.5025778059
 20
6.004023347
 30
0.0
 10
15.4936401592
 20
6.0140141846
 30
0.0
 10
15.4900427569
 20
6.019410288
 30
0.0
  0
SPLINE
  5
4CF
100
AcDbEntity
  8
0
100
AcDbSpline
 62
7
  6
CONTINUOUS
 70
0
 71
3
 72
9
 73
5
 74
0
 42
0.0000001
 43
0.0000001
 44
0.0000000001
 40
0.0
 40
0.0
 40
0.0
 40
0.0
 40
0.4958711164
 40
1.0
 40
1.0
 40
1.0
 40
1.0
 10
15.5330115069
 20
6.0221090805
 30
0.0
 10
15.537189236
 20
6.020020216
 30
0.0
 10
15.5461562726
 20
6.0168279957
 30
0.0
 10
15.55560663
 20
6.0157639413
 30
0.0
 10
15.5603552569
 20
6.0157639413
 30
0.0
  0
SPLINE
  5
4D0
100
AcDbEntity
  8
0
100
AcDbSpline
 62
7
  6
CONTINUOUS
 70
0
 71
3
 72
9
 73
5
 74
0
 42
0.0000001
 43
0.0000001
 44
0.0000000001
 40
0.0
 40
0.0
 40
0.0
 40
0.0
 40
0.5041288836
 40
1.0
 40
1.0
 40
1.0
 40
1.0
 10
15.5603552569
 20
6.0157639413
 30
0.0
 10
15.5651038838
 20
6.0157639413
 30
0.0
 10
15.5745542412
 20
6.0168279957
 30
0.0
 10
15.5835212779
 20
6.020020216
 30
0.0
 10
15.5876990069
 20
6.0221090805
 30
0.0
  0
SPLINE
  5
4D1
100
AcDbEntity
  8
0
100
AcDbSpline
 62
7
  6
CONTINUOUS
 70
0
 71
3
 72
11
 73
7
 74
0
 42
0.0000001
 43
0.0000001
 44
0.0000000001
 40
0.0
 40
0.0
 40
0.0
 40
0.0
 40
0.2526246064
 40
0.5
 40
0.7473753936
 40
1.0
 40
1.0
 40
1.0
 40
1.0
 10
15.4900427569
 20
6.019410288
 30
0.0
 10
15.4865670336
 20
6.024623873
 30
0.0
 10
15.4810752278
 20
6.0359694346
 30
0.0
 10
15.4782209951
 20
6.054566538
 30
0.0
 10
15.4810752278
 20
6.0731636414
 30
0.0
 10
15.4865670336
 20
6.084509203
 30
0.0
 10
15.4900427569
 20
6.089722788
 30
0.0
  0
SPLINE
  5
4D2
100
AcDbEntity
  8
0
100
AcDbSpline
 62
7
  6
CONTINUOUS
 70
0
 71
3
 72
11
 73
7
 74
0
 42
0.0000001
 43
0.0000001
 44
0.0000000001
 40
0.0
 40
0.0
 40
0.0
 40
0.0
 40
0.2384370436
 40
0.4858594151
 40
0.7408070518
 40
1.0
 40
1.0
 40
1.0
 40
1.0
 10
15.4900427569
 20
6.089722788
 30
0.0
 10
15.4936401592
 20
6.0951188914
 30
0.0
 10
15.5025778059
 20
6.1051097289
 30
0.0
 10
15.5195793659
 20
6.1162905637
 30
0.0
 10
15.5392685655
 20
6.12329559
 30
0.0
 10
15.5533054027
 20
6.124879038
 30
0.0
 10
15.5603552569
 20
6.124879038
 30
0.0
  0
SPLINE
  5
4D3
100
AcDbEntity
  8
0
100
AcDbSpline
 62
7
  6
CONTINUOUS
 70
0
 71
3
 72
11
 73
7
 74
0
 42
0.0000001
 43
0.0000001
 44
0.0000000001
 40
0.0
 40
0.0
 40
0.0
 40
0.0
 40
0.2591929482
 40
0.5141405849
 40
0.7615629564
 40
1.0
 40
1.0
 40
1.0
 40
1.0
 10
15.5603552569
 20
6.124879038
 30
0.0
 10
15.5674051112
 20
6.124879038
 30
0.0
 10
15.5814419484
 20
6.12329559
 30
0.0
 10
15.601131148
 20
6.1162905637
 30
0.0
 10
15.618132708
 20
6.1051097289
 30
0.0
 10
15.6270703547
 20
6.0951188914
 30
0.0
 10
15.6306677569
 20
6.089722788
 30
0.0
  0
SPLINE
  5
4D4
100
AcDbEntity
  8
0
100
AcDbSpline
 62
7
  6
CONTINUOUS
 70
0
 71
3
 72
11
 73
7
 74
0
 42
0.0000001
 43
0.0000001
 44
0.0000000001
 40
0.0
 40
0.0
 40
0.0
 40
0.0
 40
0.2526246064
 40
0.5
 40
0.7473753936
 40
1.0
 40
1.0
 40
1.0
 40
1.0
 10
15.6306677569
 20
6.089722788
 30
0.0
 10
15.6341434803
 20
6.084509203
 30
0.0
 10
15.639635286
 20
6.0731636414
 30
0.0
 10
15.6424895188
 20
6.054566538
 30
0.0
 10
15.639635286
 20
6.0359694346
 30
0.0
 10
15.6341434803
 20
6.024623873
 30
0.0
 10
15.6306677569
 20
6.019410288
 30
0.0
  0
SPLINE
  5
4D5
100
AcDbEntity
  8
0
100
AcDbSpline
 62
7
  6
CONTINUOUS
 70
0
 71
3
 72
11
 73
7
 74
0
 42
0.0000001
 43
0.0000001
 44
0.0000000001
 40
0.0
 40
0.0
 40
0.0
 40
0.0
 40
0.2384370436
 40
0.4858594151
 40
0.7408070518
 40
1.0
 40
1.0
 40
1.0
 40
1.0
 10
15.6306677569
 20
6.019410288
 30
0.0
 10
15.6270703547
 20
6.0140141846
 30
0.0
 10
15.618132708
 20
6.004023347
 30
0.0
 10
15.601131148
 20
5.9928425123
 30
0.0
 10
15.5814419484
 20
5.985837486
 30
0.0
 10
15.5674051112
 20
5.984254038
 30
0.0
 10
15.5603552569
 20
5.984254038
 30
0.0
  0
SPLINE
  5
4D6
100
AcDbEntity
  8
0
100
AcDbSpline
 62
7
  6
CONTINUOUS
 70
0
 71
3
 72
11
 73
7
 74
0
 42
0.0000001
 43
0.0000001
 44
0.0000000001
 40
0.0
 40
0.0
 40
0.0
 40
0.0
 40
0.2395214742
 40
0.4841262248
 40
0.7372931271
 40
1.0
 40
1.0
 40
1.0
 40
1.0
 10
15.5056677569
 20
6.0631247055
 30
0.0
 10
15.5056677569
 20
6.0589918161
 30
0.0
 10
15.506957309
 20
6.0505863768
 30
0.0
 10
15.5125767248
 20
6.0389815737
 30
0.0
 10
15.521430169
 20
6.0290875836
 30
0.0
 10
15.5289571147
 20
6.0241362766
 30
0.0
 10
15.5330115069
 20
6.0221090805
 30
0.0
  0
SPLINE
  5
4D7
100
AcDbEntity
  8
0
100
AcDbSpline
 62
7
  6
CONTINUOUS
 70
0
 71
3
 72
11
 73
7
 74
0
 42
0.0000001
 43
0.0000001
 44
0.0000000001
 40
0.0
 40
0.0
 40
0.0
 40
0.0
 40
0.2627068729
 40
0.5158737752
 40
0.7604785258
 40
1.0
 40
1.0
 40
1.0
 40
1.0
 10
15.5876990069
 20
6.0221090805
 30
0.0
 10
15.5917533991
 20
6.0241362766
 30
0.0
 10
15.5992803449
 20
6.0290875836
 30
0.0
 10
15.608133789
 20
6.0389815737
 30
0.0
 10
15.6137532049
 20
6.0505863768
 30
0.0
 10
15.6150427569
 20
6.0589918161
 30
0.0
 10
15.6150427569
 20
6.0631247055
 30
0.0
  0
SPLINE
  5
4D8
100
AcDbEntity
  8
0
100
AcDbSpline
 62
7
  6
CONTINUOUS
 70
0
 71
3
 72
11
 73
7
 74
0
 42
0.0000001
 43
0.0000001
 44
0.0000000001
 40
0.0
 40
0.0
 40
0.0
 40
0.0
 40
0.2412410426
 40
0.4866089013
 40
0.7389510349
 40
1.0
 40
1.0
 40
1.0
 40
1.0
 10
15.6150427569
 20
6.0631247055
 30
0.0
 10
15.6150427569
 20
6.0667696625
 30
0.0
 10
15.6140458631
 20
6.0741578965
 30
0.0
 10
15.6096694971
 20
6.0845590589
 30
0.0
 10
15.6026784134
 20
6.0937837352
 30
0.0
 10
15.5966205958
 20
6.098752563
 30
0.0
 10
15.593320232
 20
6.1009123355
 30
0.0
  0
SPLINE
  5
4D9
100
AcDbEntity
  8
0
100
AcDbSpline
 62
7
  6
CONTINUOUS
 70
0
 71
3
 72
9
 73
5
 74
0
 42
0.0000001
 43
0.0000001
 44
0.0000000001
 40
0.0
 40
0.0
 40
0.0
 40
0.0
 40
0.5040244808
 40
1.0
 40
1.0
 40
1.0
 40
1.0
 10
15.5603552569
 20
5.984254038
 30
0.0
 10
15.5524511588
 20
5.984254038
 30
0.0
 10
15.5367632045
 20
5.9835763172
 30
0.0
 10
15.5211783563
 20
5.981739369
 30
0.0
 10
15.5134802569
 20
5.9806282441
 30
0.0
  0
SPLINE
  5
4DA
100
AcDbEntity
  8
0
100
AcDbSpline
 62
7
  6
CONTINUOUS
 70
0
 71
3
 72
9
 73
5
 74
0
 42
0.0000001
 43
0.0000001
 44
0.0000000001
 40
0.0
 40
0.0
 40
0.0
 40
0.0
 40
0.2571277382
 40
1.0
 40
1.0
 40
1.0
 40
1.0
 10
15.5134802569
 20
5.9806282441
 30
0.0
 10
15.5115847562
 20
5.9840186792
 30
0.0
 10
15.5041314657
 20
5.9971575971
 30
0.0
 10
15.4962677516
 20
6.0100727959
 30
0.0
 10
15.4900427569
 20
6.019410288
 30
0.0
  0
SPLINE
  5
4DB
100
AcDbEntity
  8
0
100
AcDbSpline
 62
7
  6
CONTINUOUS
 70
0
 71
3
 72
11
 73
7
 74
0
 42
0.0000001
 43
0.0000001
 44
0.0000000001
 40
0.0
 40
0.0
 40
0.0
 40
0.0
 40
0.2610576181
 40
0.5134029299
 40
0.7587668933
 40
1.0
 40
1.0
 40
1.0
 40
1.0
 10
15.5274145081
 20
6.1009281802
 30
0.0
 10
15.5241108052
 20
6.0987687034
 30
0.0
 10
15.5180465496
 20
6.0937994937
 30
0.0
 10
15.5110474884
 20
6.0845713586
 30
0.0
 10
15.5066658739
 20
6.0741646376
 30
0.0
 10
15.5056677569
 20
6.0667718545
 30
0.0
 10
15.5056677569
 20
6.0631247055
 30
0.0
  0
SPLINE
  5
4DC
100
AcDbEntity
  8
0
100
AcDbSpline
 62
7
  6
CONTINUOUS
 70
0
 71
3
 72
10
 73
6
 74
0
 42
0.0000001
 43
0.0000001
 44
0.0000000001
 40
0.0
 40
0.0
 40
0.0
 40
0.0
 40
0.5332857324
 40
0.7723260654
 40
1.0
 40
1.0
 40
1.0
 40
1.0
 10
15.0603552569
 20
5.0852210383
 30
0.0
 10
15.0603553403
 20
5.0842064769
 30
0.0
 10
15.0601446666
 20
5.0827057377
 30
0.0
 10
15.0592759558
 20
5.080997392
 30
0.0
 10
15.0586980673
 20
5.0803117186
 30
0.0
 10
15.0583852545
 20
5.0800121165
 30
0.0
  0
SPLINE
  5
4DD
100
AcDbEntity
  8
0
100
AcDbSpline
 62
7
  6
CONTINUOUS
 70
0
 71
3
 72
9
 73
5
 74
0
 42
0.0000001
 43
0.0000001
 44
0.0000000001
 40
0.0
 40
0.0
 40
0.0
 40
0.0
 40
0.2443709016
 40
1.0
 40
1.0
 40
1.0
 40
1.0
 10
15.0583852545
 20
5.0800121165
 30
0.0
 10
15.0580375811
 20
5.0796791261
 30
0.0
 10
15.0564475728
 20
5.0784865261
 30
0.0
 10
15.0544639454
 20
5.0779623731
 30
0.0
 10
15.0529896623
 20
5.0777564159
 30
0.0
  0
SPLINE
  5
4DE
100
AcDbEntity
  8
0
100
AcDbSpline
 62
7
  6
CONTINUOUS
 70
0
 71
3
 72
10
 73
6
 74
0
 42
0.0000001
 43
0.0000001
 44
0.0000000001
 40
0.0
 40
0.0
 40
0.0
 40
0.0
 40
0.5333137843
 40
0.7723313221
 40
1.0
 40
1.0
 40
1.0
 40
1.0
 10
16.0603552568
 20
5.0852210149
 30
0.0
 10
16.0603551732
 20
5.0842044187
 30
0.0
 10
16.0605667503
 20
5.0827005635
 30
0.0
 10
16.0614392771
 20
5.0809898715
 30
0.0
 10
16.0620194783
 20
5.0803038904
 30
0.0
 10
16.0623334495
 20
5.0800042906
 30
0.0
  0
SPLINE
  5
4DF
100
AcDbEntity
  8
0
100
AcDbSpline
 62
7
  6
CONTINUOUS
 70
0
 71
3
 72
9
 73
5
 74
0
 42
0.0000001
 43
0.0000001
 44
0.0000000001
 40
0.0
 40
0.0
 40
0.0
 40
0.0
 40
0.2443523508
 40
1.0
 40
1.0
 40
1.0
 40
1.0
 10
16.0623334495
 20
5.0800042906
 30
0.0
 10
16.0626810009
 20
5.0796726478
 30
0.0
 10
16.0642693915
 20
5.0784848768
 30
0.0
 10
16.0662485636
 20
5.0779621865
 30
0.0
 10
16.0677198599
 20
5.0777565551
 30
0.0
  0
SPLINE
  5
4E0
100
AcDbEntity
  8
0
100
AcDbSpline
 62
7
  6
CONTINUOUS
 70
0
 71
3
 72
9
 73
5
 74
0
 42
0.0000001
 43
0.0000001
 44
0.0000000001
 40
0.0
 40
0.0
 40
0.0
 40
0.0
 40
0.4838371302
 40
1.0
 40
1.0
 40
1.0
 40
1.0
 10
16.0339660208
 20
12.9158548456
 30
0.0
 10
16.0319579943
 20
12.9093568693
 30
0.0
 10
16.0270424414
 20
12.8961607754
 30
0.0
 10
16.0211364812
 20
12.8833964895
 30
0.0
 10
16.0179408633
 20
12.8768825671
 30
0.0
  0
SPLINE
  5
4E1
100
AcDbEntity
  8
0
100
AcDbSpline
 62
7
  6
CONTINUOUS
 70
0
 71
3
 72
9
 73
5
 74
0
 42
0.0000001
 43
0.0000001
 44
0.0000000001
 40
0.0
 40
0.0
 40
0.0
 40
0.0
 40
0.5218423427
 40
1.0
 40
1.0
 40
1.0
 40
1.0
 10
15.9229572355
 20
13.0377333666
 30
0.0
 10
15.9298805636
 20
13.0378457657
 30
0.0
 10
15.9431527093
 20
13.0378512858
 30
0.0
 10
15.9564149245
 20
13.0371215796
 30
0.0
 10
15.9627283
 20
13.0364929452
 30
0.0
  0
SPLINE
  5
4E2
100
AcDbEntity
  8
0
100
AcDbSpline
 62
7
  6
CONTINUOUS
 70
0
 71
3
 72
9
 73
5
 74
0
 42
0.0000001
 43
0.0000001
 44
0.0000000001
 40
0.0
 40
0.0
 40
0.0
 40
0.0
 40
0.5371792929
 40
1.0
 40
1.0
 40
1.0
 40
1.0
 10
15.9627283
 20
13.0364929452
 30
0.0
 10
15.9682495573
 20
13.0359431835
 30
0.0
 10
15.9784966346
 20
13.0345137056
 30
0.0
 10
15.9885539859
 20
13.0320851326
 30
0.0
 10
15.9931427672
 20
13.0307448646
 30
0.0
  0
SPLINE
  5
4E3
100
AcDbEntity
  8
0
100
AcDbSpline
 62
7
  6
CONTINUOUS
 70
0
 71
3
 72
9
 73
5
 74
0
 42
0.0000001
 43
0.0000001
 44
0.0000000001
 40
0.0
 40
0.0
 40
0.0
 40
0.0
 40
0.2494269915
 40
1.0
 40
1.0
 40
1.0
 40
1.0
 10
15.9931427672
 20
13.0307448646
 30
0.0
 10
15.9943772528
 20
13.0293761466
 30
0.0
 10
15.999281563
 20
13.0238486007
 30
0.0
 10
16.0039860099
 20
13.0181413164
 30
0.0
 10
16.0073613183
 20
13.0137400681
 30
0.0
  0
SPLINE
  5
4E4
100
AcDbEntity
  8
0
100
AcDbSpline
 62
7
  6
CONTINUOUS
 70
0
 71
3
 72
9
 73
5
 74
0
 42
0.0000001
 43
0.0000001
 44
0.0000000001
 40
0.0
 40
0.0
 40
0.0
 40
0.0
 40
0.4738180192
 40
1.0
 40
1.0
 40
1.0
 40
1.0
 10
16.0406345811
 20
12.9503194648
 30
0.0
 10
16.040189049
 20
12.9447843944
 30
0.0
 10
16.038662631
 20
12.9331393806
 30
0.0
 10
16.0357867106
 20
12.9217466
 30
0.0
 10
16.0339660208
 20
12.9158548456
 30
0.0
  0
SPLINE
  5
4E5
100
AcDbEntity
  8
0
100
AcDbSpline
 62
7
  6
CONTINUOUS
 70
0
 71
3
 72
20
 73
16
 74
0
 42
0.0000001
 43
0.0000001
 44
0.0000000001
 40
0.0
 40
0.0
 40
0.0
 40
0.0
 40
0.0621581501
 40
0.1242652901
 40
0.1863777937
 40
0.2485052368
 40
0.3106371825
 40
0.3727560511
 40
0.434878762
 40
0.4971236205
 40
0.6220547923
 40
0.748631845
 40
0.8749273163
 40
0.9376450265
 40
1.0
 40
1.0
 40
1.0
 40
1.0
 10
15.9889799281
 20
12.9943282752
 30
0.0
 10
15.9896159747
 20
12.9963865225
 30
0.0
 10
15.9913058306
 20
13.0003869713
 30
0.0
 10
15.9950440996
 20
13.0057145673
 30
0.0
 10
15.999860503
 20
13.0100988129
 30
0.0
 10
16.0055371126
 20
13.0132954194
 30
0.0
 10
16.0117868977
 20
13.0151345414
 30
0.0
 10
16.0182862774
 20
13.0155402353
 30
0.0
 10
16.0247212269
 20
13.0145337433
 30
0.0
 10
16.0328511483
 20
13.0114568033
 30
0.0
 10
16.0416897428
 20
13.0046718825
 30
0.0
 10
16.0489230281
 20
12.9934948396
 30
0.0
 10
16.0516981701
 20
12.9826808912
 30
0.0
 10
16.0515946146
 20
12.973930284
 30
0.0
 10
16.0507295392
 20
12.9696486576
 30
0.0
 10
16.0500914787
 20
12.9675838928
 30
0.0
  0
SPLINE
  5
4E6
100
AcDbEntity
  8
0
100
AcDbSpline
 62
7
  6
CONTINUOUS
 70
0
 71
3
 72
9
 73
5
 74
0
 42
0.0000001
 43
0.0000001
 44
0.0000000001
 40
0.0
 40
0.0
 40
0.0
 40
0.0
 40
0.5034644181
 40
1.0
 40
1.0
 40
1.0
 40
1.0
 10
15.9906046286
 20
12.969172897
 30
0.0
 10
15.9889284882
 20
12.9731277688
 30
0.0
 10
15.9868261436
 20
12.9815718304
 30
0.0
 10
15.9877291761
 20
12.9902808403
 30
0.0
 10
15.9889799281
 20
12.9943282752
 30
0.0
  0
SPLINE
  5
4E7
100
AcDbEntity
  8
0
100
AcDbSpline
 62
7
  6
CONTINUOUS
 70
0
 71
3
 72
15
 73
11
 74
0
 42
0.0000001
 43
0.0000001
 44
0.0000000001
 40
0.0
 40
0.0
 40
0.0
 40
0.0
 40
0.1244539219
 40
0.2488008712
 40
0.3731890097
 40
0.4975682471
 40
0.6219884406
 40
0.7468492713
 40
0.872805135
 40
1.0
 40
1.0
 40
1.0
 40
1.0
 10
16.0500914787
 20
12.9675838928
 30
0.0
 10
16.0491800868
 20
12.9646346276
 30
0.0
 10
16.0464869543
 20
12.9589614761
 30
0.0
 10
16.0400416442
 20
12.9521066312
 30
0.0
 10
16.0317405679
 20
12.9476502088
 30
0.0
 10
16.0224540027
 20
12.9460839373
 30
0.0
 10
16.0131432209
 20
12.9474753326
 30
0.0
 10
16.0046239584
 20
12.951523077
 30
0.0
 10
15.9974498752
 20
12.9577111572
 30
0.0
 10
15.9937939758
 20
12.9629021156
 30
0.0
 10
15.9922896702
 20
12.9656752379
 30
0.0
  0
SPLINE
  5
4E8
100
AcDbEntity
  8
0
100
AcDbSpline
 62
7
  6
CONTINUOUS
 70
0
 71
3
 72
9
 73
5
 74
0
 42
0.0000001
 43
0.0000001
 44
0.0000000001
 40
0.0
 40
0.0
 40
0.0
 40
0.0
 40
0.4781569687
 40
1.0
 40
1.0
 40
1.0
 40
1.0
 10
15.9875263961
 20
12.8826306477
 30
0.0
 10
15.9812130295
 20
12.8832592811
 30
0.0
 10
15.9679508155
 20
12.8839890179
 30
0.0
 10
15.9546786689
 20
12.8839834683
 30
0.0
 10
15.9477553316
 20
12.8838710691
 30
0.0
  0
SPLINE
  5
4E9
100
AcDbEntity
  8
0
100
AcDbSpline
 62
7
  6
CONTINUOUS
 70
0
 71
3
 72
9
 73
5
 74
0
 42
0.0000001
 43
0.0000001
 44
0.0000000001
 40
0.0
 40
0.0
 40
0.0
 40
0.0
 40
0.4952890895
 40
1.0
 40
1.0
 40
1.0
 40
1.0
 10
15.9477553316
 20
12.8838710691
 30
0.0
 10
15.945290653
 20
12.8911617247
 30
0.0
 10
15.9397545418
 20
12.9057047552
 30
0.0
 10
15.9326753687
 20
12.9195846879
 30
0.0
 10
15.9286877233
 20
12.9263375986
 30
0.0
  0
SPLINE
  5
4EA
100
AcDbEntity
  8
0
100
AcDbSpline
 62
7
  6
CONTINUOUS
 70
0
 71
3
 72
13
 73
9
 74
0
 42
0.0000001
 43
0.0000001
 44
0.0000000001
 40
0.0
 40
0.0
 40
0.0
 40
0.0
 40
0.2667647374
 40
0.3921246059
 40
0.5135957433
 40
0.633125363
 40
0.7528861676
 40
1.0
 40
1.0
 40
1.0
 40
1.0
 10
16.0339660208
 20
12.9158548456
 30
0.0
 10
16.0323356955
 20
12.910579111
 30
0.0
 10
16.0288932176
 20
12.9030476634
 30
0.0
 10
16.0221841579
 20
12.8947456626
 30
0.0
 10
16.0164257237
 20
12.8897452771
 30
0.0
 10
16.009936733
 20
12.885957829
 30
0.0
 10
16.0004026083
 20
12.8825772409
 30
0.0
 10
15.9926163581
 20
12.8821238308
 30
0.0
 10
15.9875263961
 20
12.8826306477
 30
0.0
  0
SPLINE
  5
4EB
100
AcDbEntity
  8
0
100
AcDbSpline
 62
7
  6
CONTINUOUS
 70
0
 71
3
 72
11
 73
7
 74
0
 42
0.0000001
 43
0.0000001
 44
0.0000000001
 40
0.0
 40
0.0
 40
0.0
 40
0.0
 40
0.2203788744
 40
0.4625832659
 40
0.7245923279
 40
1.0
 40
1.0
 40
1.0
 40
1.0
 10
15.9875263961
 20
12.8826306477
 30
0.0
 10
15.9819910527
 20
12.883181812
 30
0.0
 10
15.9705332032
 20
12.8863186055
 30
0.0
 10
15.9546455481
 20
12.8957042791
 30
0.0
 10
15.9401935119
 20
12.9092610971
 30
0.0
 10
15.9322224913
 20
12.9203516168
 30
0.0
 10
15.9286877233
 20
12.9263375986
 30
0.0
  0
SPLINE
  5
4EC
100
AcDbEntity
  8
0
100
AcDbSpline
 62
7
  6
CONTINUOUS
 70
0
 71
3
 72
9
 73
5
 74
0
 42
0.0000001
 43
0.0000001
 44
0.0000000001
 40
0.0
 40
0.0
 40
0.0
 40
0.0
 40
0.4796274314
 40
1.0
 40
1.0
 40
1.0
 40
1.0
 10
16.0138733606
 20
12.9179668222
 30
0.0
 10
16.016661506
 20
12.9199615389
 30
0.0
 10
16.0216975626
 20
12.9252749685
 30
0.0
 10
16.0247039233
 20
12.9318880792
 30
0.0
 10
16.02580208
 20
12.9354417156
 30
0.0
  0
SPLINE
  5
4ED
100
AcDbEntity
  8
0
100
AcDbSpline
 62
7
  6
CONTINUOUS
 70
0
 71
3
 72
9
 73
5
 74
0
 42
0.0000001
 43
0.0000001
 44
0.0000000001
 40
0.0
 40
0.0
 40
0.0
 40
0.0
 40
0.2417611576
 40
1.0
 40
1.0
 40
1.0
 40
1.0
 10
16.02580208
 20
12.9354417156
 30
0.0
 10
16.0260862754
 20
12.9363613723
 30
0.0
 10
16.0271339671
 20
12.9402044068
 30
0.0
 10
16.0276853813
 20
12.9441768408
 30
0.0
 10
16.0278592946
 20
12.9471907399
 30
0.0
  0
SPLINE
  5
4EE
100
AcDbEntity
  8
0
100
AcDbSpline
 62
7
  6
CONTINUOUS
 70
0
 71
3
 72
11
 73
7
 74
0
 42
0.0000001
 43
0.0000001
 44
0.0000000001
 40
0.0
 40
0.0
 40
0.0
 40
0.0
 40
0.2651155388
 40
0.5252854855
 40
0.7721839304
 40
1.0
 40
1.0
 40
1.0
 40
1.0
 10
15.9286877233
 20
12.9263375986
 30
0.0
 10
15.9250954986
 20
12.9324208808
 30
0.0
 10
15.9190681642
 20
12.9451547541
 30
0.0
 10
15.9137502736
 20
12.9651544911
 30
0.0
 10
15.9124673527
 20
12.9848254691
 30
0.0
 10
15.9144962926
 20
12.9974685949
 30
0.0
 10
15.9162886753
 20
13.0032687473
 30
0.0
  0
SPLINE
  5
4EF
100
AcDbEntity
  8
0
100
AcDbSpline
 62
7
  6
CONTINUOUS
 70
0
 71
3
 72
13
 73
9
 74
0
 42
0.0000001
 43
0.0000001
 44
0.0000000001
 40
0.0
 40
0.0
 40
0.0
 40
0.0
 40
0.2667647374
 40
0.3921246059
 40
0.5135957433
 40
0.633125363
 40
0.7528861676
 40
1.0
 40
1.0
 40
1.0
 40
1.0
 10
15.9162886753
 20
13.0032687473
 30
0.0
 10
15.9179190006
 20
13.0085444819
 30
0.0
 10
15.9213614785
 20
13.0160759295
 30
0.0
 10
15.9280705382
 20
13.0243779303
 30
0.0
 10
15.9338289723
 20
13.0293783158
 30
0.0
 10
15.9403179631
 20
13.0331657639
 30
0.0
 10
15.9498520878
 20
13.036546352
 30
0.0
 10
15.9576383379
 20
13.0369997621
 30
0.0
 10
15.9627283
 20
13.0364929452
 30
0.0
  0
SPLINE
  5
4F0
100
AcDbEntity
  8
0
100
AcDbSpline
 62
7
  6
CONTINUOUS
 70
0
 71
3
 72
11
 73
7
 74
0
 42
0.0000001
 43
0.0000001
 44
0.0000000001
 40
0.0
 40
0.0
 40
0.0
 40
0.0
 40
0.2269677265
 40
0.4695907627
 40
0.7277305072
 40
1.0
 40
1.0
 40
1.0
 40
1.0
 10
15.9627283
 20
13.0364929452
 30
0.0
 10
15.9664903375
 20
13.0361183523
 30
0.0
 10
15.9742005953
 20
13.034442647
 30
0.0
 10
15.9853798121
 20
13.0295958244
 30
0.0
 10
15.9961969423
 20
13.0225100735
 30
0.0
 10
16.0027968433
 20
13.0165827855
 30
0.0
 10
16.0059589901
 20
13.01333175
 30
0.0
  0
SPLINE
  5
4F1
100
AcDbEntity
  8
0
100
AcDbSpline
 62
7
  6
CONTINUOUS
 70
0
 71
3
 72
9
 73
5
 74
0
 42
0.0000001
 43
0.0000001
 44
0.0000000001
 40
0.0
 40
0.0
 40
0.0
 40
0.0
 40
0.2643354717
 40
1.0
 40
1.0
 40
1.0
 40
1.0
 10
16.0363986789
 20
12.9501100832
 30
0.0
 10
16.0367800861
 20
12.9470959941
 30
0.0
 10
16.0377069151
 20
12.9356455142
 30
0.0
 10
16.0364624317
 20
12.9239332342
 30
0.0
 10
16.0339660208
 20
12.9158548456
 30
0.0
  0
SPLINE
  5
4F2
100
AcDbEntity
  8
0
100
AcDbSpline
 62
7
  6
CONTINUOUS
 70
0
 71
3
 72
11
 73
7
 74
0
 42
0.0000001
 43
0.0000001
 44
0.0000000001
 40
0.0
 40
0.0
 40
0.0
 40
0.0
 40
0.2814343667
 40
0.5375085163
 40
0.7729808934
 40
1.0
 40
1.0
 40
1.0
 40
1.0
 10
15.9729318004
 20
12.9220434484
 30
0.0
 10
15.9762375169
 20
12.9195878731
 30
0.0
 10
15.983086321
 20
12.9155447857
 30
0.0
 10
15.9941471889
 20
12.912508639
 30
0.0
 10
16.0048574784
 20
12.9131077829
 30
0.0
 10
16.0111717973
 20
12.9160340488
 30
0.0
 10
16.0138733606
 20
12.9179668222
 30
0.0
  0
SPLINE
  5
4F3
100
AcDbEntity
  8
0
100
AcDbSpline
 62
7
  6
CONTINUOUS
 70
0
 71
3
 72
11
 73
7
 74
0
 42
0.0000001
 43
0.0000001
 44
0.0000000001
 40
0.0
 40
0.0
 40
0.0
 40
0.0
 40
0.2803410154
 40
0.5359035361
 40
0.7718768346
 40
1.0
 40
1.0
 40
1.0
 40
1.0
 10
15.9982054456
 20
13.0085887587
 30
0.0
 10
15.9949617847
 20
13.0108683518
 30
0.0
 10
15.9882686429
 20
13.0145979206
 30
0.0
 10
15.9775349818
 20
13.01728899
 30
0.0
 10
15.9671881801
 20
13.0165416238
 30
0.0
 10
15.9610900235
 20
13.0136735797
 30
0.0
 10
15.9584662444
 20
13.0117964553
 30
0.0
  0
SPLINE
  5
4F4
100
AcDbEntity
  8
0
100
AcDbSpline
 62
7
  6
CONTINUOUS
 70
0
 71
3
 72
9
 73
5
 74
0
 42
0.0000001
 43
0.0000001
 44
0.0000000001
 40
0.0
 40
0.0
 40
0.0
 40
0.0
 40
0.4628215751
 40
1.0
 40
1.0
 40
1.0
 40
1.0
 10
16.0179408633
 20
12.8768825671
 30
0.0
 10
16.0133520736
 20
12.8782228375
 30
0.0
 10
16.0032947142
 20
12.8806513715
 30
0.0
 10
15.9930476441
 20
12.8820808869
 30
0.0
 10
15.9875263961
 20
12.8826306477
 30
0.0
  0
SPLINE
  5
4F5
100
AcDbEntity
  8
0
100
AcDbSpline
 62
7
  6
CONTINUOUS
 70
0
 71
3
 72
9
 73
5
 74
0
 42
0.0000001
 43
0.0000001
 44
0.0000000001
 40
0.0
 40
0.0
 40
0.0
 40
0.0
 40
0.5004584894
 40
1.0
 40
1.0
 40
1.0
 40
1.0
 10
15.9286877233
 20
12.9263375986
 30
0.0
 10
15.9246601063
 20
12.9331581994
 30
0.0
 10
15.9157566219
 20
12.9462944278
 30
0.0
 10
15.9055589327
 20
12.9584252542
 30
0.0
 10
15.9002635177
 20
12.9642964688
 30
0.0
  0
SPLINE
  5
4F6
100
AcDbEntity
  8
0
100
AcDbSpline
 62
7
  6
CONTINUOUS
 70
0
 71
3
 72
9
 73
5
 74
0
 42
0.0000001
 43
0.0000001
 44
0.0000000001
 40
0.0
 40
0.0
 40
0.0
 40
0.0
 40
0.4796274314
 40
1.0
 40
1.0
 40
1.0
 40
1.0
 10
15.9584662444
 20
13.0117964553
 30
0.0
 10
15.9556780991
 20
13.0098017386
 30
0.0
 10
15.9506420424
 20
13.0044883089
 30
0.0
 10
15.9476356817
 20
12.9978751982
 30
0.0
 10
15.946537525
 20
12.9943215619
 30
0.0
  0
SPLINE
  5
4F7
100
AcDbEntity
  8
0
100
AcDbSpline
 62
7
  6
CONTINUOUS
 70
0
 71
3
 72
9
 73
5
 74
0
 42
0.0000001
 43
0.0000001
 44
0.0000000001
 40
0.0
 40
0.0
 40
0.0
 40
0.0
 40
0.2352661891
 40
1.0
 40
1.0
 40
1.0
 40
1.0
 10
15.946537525
 20
12.9943215619
 30
0.0
 10
15.9459464942
 20
12.9924089855
 30
0.0
 10
15.9439999831
 20
12.9841058975
 30
0.0
 10
15.94419288
 20
12.9753822757
 30
0.0
 10
15.9452282424
 20
12.9689582649
 30
0.0
  0
SPLINE
  5
4F8
100
AcDbEntity
  8
0
100
AcDbSpline
 62
7
  6
CONTINUOUS
 70
0
 71
3
 72
9
 73
5
 74
0
 42
0.0000001
 43
0.0000001
 44
0.0000000001
 40
0.0
 40
0.0
 40
0.0
 40
0.0
 40
0.516162332
 40
1.0
 40
1.0
 40
1.0
 40
1.0
 10
15.9002635177
 20
12.9642964688
 30
0.0
 10
15.9034591322
 20
12.9708103842
 30
0.0
 10
15.9093650528
 20
12.9835746865
 30
0.0
 10
15.9142806466
 20
12.9967707641
 30
0.0
 10
15.9162886753
 20
13.0032687473
 30
0.0
  0
SPLINE
  5
4F9
100
AcDbEntity
  8
0
100
AcDbSpline
 62
7
  6
CONTINUOUS
 70
0
 71
3
 72
10
 73
6
 74
0
 42
0.0000001
 43
0.0000001
 44
0.0000000001
 40
0.0
 40
0.0
 40
0.0
 40
0.0
 40
0.2518962502
 40
0.6352234367
 40
1.0
 40
1.0
 40
1.0
 40
1.0
 10
15.9452282424
 20
12.9689582649
 30
0.0
 10
15.9459712986
 20
12.964347897
 30
0.0
 10
15.9490212122
 20
12.9528926636
 30
0.0
 10
15.9577747522
 20
12.9363095575
 30
0.0
 10
15.96750314
 20
12.9260760035
 30
0.0
 10
15.9729318004
 20
12.9220434484
 30
0.0
  0
SPLINE
  5
4FA
100
AcDbEntity
  8
0
100
AcDbSpline
 62
7
  6
CONTINUOUS
 70
0
 71
3
 72
9
 73
5
 74
0
 42
0.0000001
 43
0.0000001
 44
0.0000000001
 40
0.0
 40
0.0
 40
0.0
 40
0.0
 40
0.5261825579
 40
1.0
 40
1.0
 40
1.0
 40
1.0
 10
15.9162886753
 20
13.0032687473
 30
0.0
 10
15.9181093672
 20
13.0091605087
 30
0.0
 10
15.9209853381
 20
13.0205532795
 30
0.0
 10
15.9225117039
 20
13.0321983024
 30
0.0
 10
15.9229572355
 20
13.0377333666
 30
0.0
  0
SPLINE
  5
4FB
100
AcDbEntity
  8
0
100
AcDbSpline
 62
7
  6
CONTINUOUS
 70
0
 71
3
 72
11
 73
7
 74
0
 42
0.0000001
 43
0.0000001
 44
0.0000000001
 40
0.0
 40
0.0
 40
0.0
 40
0.0
 40
0.2336936203
 40
0.4744482201
 40
0.7284827705
 40
1.0
 40
1.0
 40
1.0
 40
1.0
 10
15.5112316952
 20
11.8478600972
 30
0.0
 10
15.5147279434
 20
11.8591778744
 30
0.0
 10
15.5193236098
 20
11.8830079345
 30
0.0
 10
15.5185143305
 20
11.9201695114
 30
0.0
 10
15.5101737701
 20
11.9583215213
 30
0.0
 10
15.5001164141
 20
11.9831280775
 30
0.0
 10
15.4940533537
 20
11.9954832955
 30
0.0
  0
SPLINE
  5
4FC
100
AcDbEntity
  8
0
100
AcDbSpline
 62
7
  6
CONTINUOUS
 70
0
 71
3
 72
13
 73
9
 74
0
 42
0.0000001
 43
0.0000001
 44
0.0000000001
 40
0.0
 40
0.0
 40
0.0
 40
0.0
 40
0.1129017898
 40
0.2273186867
 40
0.3445889646
 40
0.4658020271
 40
0.7225116722
 40
1.0
 40
1.0
 40
1.0
 40
1.0
 10
14.9085160764
 20
12.5705048664
 30
0.0
 10
14.9076592019
 20
12.5722515347
 30
0.0
 10
14.905632047
 20
12.5756292186
 30
0.0
 10
14.901749727
 20
12.5801557454
 30
0.0
 10
14.897087882
 20
12.5840998269
 30
0.0
 10
14.8897919345
 20
12.588579748
 30
0.0
 10
14.8790005529
 20
12.5923539487
 30
0.0
 10
14.869758323
 20
12.593268287
 30
0.0
 10
14.8649766306
 20
12.593268287
 30
0.0
  0
SPLINE
  5
4FD
100
AcDbEntity
  8
0
100
AcDbSpline
 62
7
  6
CONTINUOUS
 70
0
 71
3
 72
28
 73
24
 74
0
 42
0.0000001
 43
0.0000001
 44
0.0000000001
 40
0.0
 40
0.0
 40
0.0
 40
0.0
 40
0.0215947767
 40
0.0437917475
 40
0.066800746
 40
0.0907929524
 40
0.1158942242
 40
0.1421910496
 40
0.1984737378
 40
0.2596648877
 40
0.3253011155
 40
0.3946021841
 40
0.46656378
 40
0.5400350744
 40
0.6137870894
 40
0.686576768
 40
0.7572092554
 40
0.8246049457
 40
0.8568161246
 40
0.8879036584
 40
0.9177991074
 40
0.9464660637
 40
1.0
 40
1.0
 40
1.0
 40
1.0
 10
15.6889679101
 20
11.748381712
 30
0.0
 10
15.6839122763
 20
11.7387489062
 30
0.0
 10
15.6723041767
 20
11.7198973752
 30
0.0
 10
15.6510324786
 20
11.6937118297
 30
0.0
 10
15.6258737649
 20
11.6694642662
 30
0.0
 10
15.5969963384
 20
11.6473162027
 30
0.0
 10
15.5645955069
 20
11.6273821664
 30
0.0
 10
15.5158691826
 20
11.6033881257
 30
0.0
 10
15.4469712229
 20
11.5799994727
 30
0.0
 10
15.356063129
 20
11.5629516718
 30
0.0
 10
15.2572432352
 20
11.5566307131
 30
0.0
 10
15.1529316483
 20
11.5611765369
 30
0.0
 10
15.0456758177
 20
11.5764671337
 30
0.0
 10
14.9381211414
 20
11.6021249637
 30
0.0
 10
14.8329269964
 20
11.6375147992
 30
0.0
 10
14.7326931523
 20
11.6817630141
 30
0.0
 10
14.6399062387
 20
11.7337714827
 30
0.0
 10
14.5696303484
 20
11.7832573491
 30
0.0
 10
14.5192909227
 20
11.8257491377
 30
0.0
 10
14.4853250567
 20
11.8582055241
 30
0.0
 10
14.4547908172
 20
11.8915407133
 30
0.0
 10
14.4197305898
 20
11.935838524
 30
0.0
 10
14.3977828538
 20
11.9712723457
 30
0.0
 10
14.3859018453
 20
11.9954832955
 30
0.0
  0
SPLINE
  5
4FE
100
AcDbEntity
  8
0
100
AcDbSpline
 62
7
  6
CONTINUOUS
 70
0
 71
3
 72
9
 73
5
 74
0
 42
0.0000001
 43
0.0000001
 44
0.0000000001
 40
0.0
 40
0.0
 40
0.0
 40
0.0
 40
0.2448424869
 40
1.0
 40
1.0
 40
1.0
 40
1.0
 10
15.845949161
 20
12.2201664669
 30
0.0
 10
15.8438187621
 20
12.2241357424
 30
0.0
 10
15.8348993147
 20
12.2402295466
 30
0.0
 10
15.8251329411
 20
12.25585069
 30
0.0
 10
15.8173572511
 20
12.2673652881
 30
0.0
  0
SPLINE
  5
4FF
100
AcDbEntity
  8
0
100
AcDbSpline
 62
7
  6
CONTINUOUS
 70
0
 71
3
 72
9
 73
5
 74
0
 42
0.0000001
 43
0.0000001
 44
0.0000000001
 40
0.0
 40
0.0
 40
0.0
 40
0.0
 40
0.2435038447
 40
1.0
 40
1.0
 40
1.0
 40
1.0
 10
15.8034523919
 20
12.2870933899
 30
0.0
 10
15.7994275042
 20
12.2925727202
 30
0.0
 10
15.7825345038
 20
12.3148062969
 30
0.0
 10
15.7642507934
 20
12.3359735318
 30
0.0
 10
15.7498067245
 20
12.3513844121
 30
0.0
  0
SPLINE
  5
500
100
AcDbEntity
  8
0
100
AcDbSpline
 62
7
  6
CONTINUOUS
 70
0
 71
3
 72
9
 73
5
 74
0
 42
0.0000001
 43
0.0000001
 44
0.0000000001
 40
0.0
 40
0.0
 40
0.0
 40
0.0
 40
0.2437350115
 40
1.0
 40
1.0
 40
1.0
 40
1.0
 10
15.7392896263
 20
12.3623898001
 30
0.0
 10
15.733468628
 20
12.3683653531
 30
0.0
 10
15.7092048707
 20
12.3925090294
 30
0.0
 10
15.6834909805
 20
12.4151837603
 30
0.0
 10
15.6634174209
 20
12.4315251154
 30
0.0
  0
SPLINE
  5
501
100
AcDbEntity
  8
0
100
AcDbSpline
 62
7
  6
CONTINUOUS
 70
0
 71
3
 72
11
 73
7
 74
0
 42
0.0000001
 43
0.0000001
 44
0.0000000001
 40
0.0
 40
0.0
 40
0.0
 40
0.0
 40
0.2557410685
 40
0.5090464162
 40
0.7577994797
 40
1.0
 40
1.0
 40
1.0
 40
1.0
 10
15.2264479446
 20
12.6563666164
 30
0.0
 10
15.1969652367
 20
12.6652348764
 30
0.0
 10
15.1376952545
 20
12.6810051495
 30
0.0
 10
15.0481346088
 20
12.6987006131
 30
0.0
 10
14.9592075011
 20
12.7101743841
 30
0.0
 10
14.9001439304
 20
12.7136316707
 30
0.0
 10
14.8709926868
 20
12.7142359795
 30
0.0
  0
SPLINE
  5
502
100
AcDbEntity
  8
0
100
AcDbSpline
 62
7
  6
CONTINUOUS
 70
0
 71
3
 72
9
 73
5
 74
0
 42
0.0000001
 43
0.0000001
 44
0.0000000001
 40
0.0
 40
0.0
 40
0.0
 40
0.0
 40
0.255440482
 40
1.0
 40
1.0
 40
1.0
 40
1.0
 10
14.7390970204
 20
12.7089470311
 30
0.0
 10
14.7317411063
 20
12.7081716125
 30
0.0
 10
14.7029813461
 20
12.7047982486
 30
0.0
 10
14.6743776392
 20
12.7000535239
 30
0.0
 10
14.6532685478
 20
12.6956678653
 30
0.0
  0
SPLINE
  5
503
100
AcDbEntity
  8
0
100
AcDbSpline
 62
7
  6
CONTINUOUS
 70
0
 71
3
 72
9
 73
5
 74
0
 42
0.0000001
 43
0.0000001
 44
0.0000000001
 40
0.0
 40
0.0
 40
0.0
 40
0.0
 40
0.2558930083
 40
1.0
 40
1.0
 40
1.0
 40
1.0
 10
14.6318119527
 20
12.6908946131
 30
0.0
 10
14.6256815269
 20
12.6894385823
 30
0.0
 10
14.6017972042
 20
12.6834495375
 30
0.0
 10
14.578213089
 20
12.6762429263
 30
0.0
 10
14.5609402799
 20
12.6701304081
 30
0.0
  0
SPLINE
  5
504
100
AcDbEntity
  8
0
100
AcDbSpline
 62
7
  6
CONTINUOUS
 70
0
 71
3
 72
12
 73
8
 74
0
 42
0.0000001
 43
0.0000001
 44
0.0000000001
 40
0.0
 40
0.0
 40
0.0
 40
0.0
 40
0.2720723669
 40
0.5268839147
 40
0.7678162274
 40
0.8846998111
 40
1.0
 40
1.0
 40
1.0
 40
1.0
 10
14.4861962785
 20
12.6376134786
 30
0.0
 10
14.4673661444
 20
12.627659139
 30
0.0
 10
14.432074373
 20
12.6059927946
 30
0.0
 10
14.3860189909
 20
12.5669856668
 30
0.0
 10
14.355112693
 20
12.5299242892
 30
0.0
 10
14.3357017424
 20
12.4983238736
 30
0.0
 10
14.3277311281
 20
12.4819477472
 30
0.0
 10
14.324192453
 20
12.4736439663
 30
0.0
  0
SPLINE
  5
505
100
AcDbEntity
  8
0
100
AcDbSpline
 62
7
  6
CONTINUOUS
 70
0
 71
3
 72
9
 73
5
 74
0
 42
0.0000001
 43
0.0000001
 44
0.0000000001
 40
0.0
 40
0.0
 40
0.0
 40
0.0
 40
0.4887017242
 40
1.0
 40
1.0
 40
1.0
 40
1.0
 10
15.7202012591
 20
12.0331141001
 30
0.0
 10
15.7210074463
 20
12.0331144198
 30
0.0
 10
15.7226624724
 20
12.0333164293
 30
0.0
 10
15.724224058
 20
12.0338911563
 30
0.0
 10
15.7249835405
 20
12.0342580587
 30
0.0
  0
SPLINE
  5
506
100
AcDbEntity
  8
0
100
AcDbSpline
 62
7
  6
CONTINUOUS
 70
0
 71
3
 72
9
 73
5
 74
0
 42
0.0000001
 43
0.0000001
 44
0.0000000001
 40
0.0
 40
0.0
 40
0.0
 40
0.0
 40
0.226831143
 40
1.0
 40
1.0
 40
1.0
 40
1.0
 10
15.7249835405
 20
12.0342580587
 30
0.0
 10
15.7255291808
 20
12.0345216549
 30
0.0
 10
15.7278535449
 20
12.0358532121
 30
0.0
 10
15.7298107228
 20
12.0377545069
 30
0.0
 10
15.7311345835
 20
12.0393399764
 30
0.0
  0
LINE
  5
507
100
AcDbEntity
  8
0
100
AcDbLine
 62
7
  6
CONTINUOUS
 10
15.7311344019
 20
12.1596968268
 11
15.7299178689
 21
12.161059195
  0
SPLINE
  5
508
100
AcDbEntity
  8
0
100
AcDbSpline
 62
7
  6
CONTINUOUS
 70
0
 71
3
 72
11
 73
7
 74
0
 42
0.0000001
 43
0.0000001
 44
0.0000000001
 40
0.0
 40
0.0
 40
0.0
 40
0.0
 40
0.2834842076
 40
0.539683185
 40
0.7753954924
 40
1.0
 40
1.0
 40
1.0
 40
1.0
 10
15.7299178689
 20
12.161059195
 30
0.0
 10
15.7291880985
 20
12.161819564
 30
0.0
 10
15.7277007596
 20
12.1631795076
 30
0.0
 10
15.7252619814
 20
12.164747165
 30
0.0
 10
15.7227545447
 20
12.1657076705
 30
0.0
 10
15.7210362718
 20
12.1659240324
 30
0.0
 10
15.7202012592
 20
12.1659237013
 30
0.0
  0
SPLINE
  5
509
100
AcDbEntity
  8
0
100
AcDbSpline
 62
7
  6
CONTINUOUS
 70
0
 71
3
 72
11
 73
7
 74
0
 42
0.0000001
 43
0.0000001
 44
0.0000000001
 40
0.0
 40
0.0
 40
0.0
 40
0.0
 40
0.2354785867
 40
0.4772738846
 40
0.7307525128
 40
1.0
 40
1.0
 40
1.0
 40
1.0
 10
15.8824208607
 20
11.9641322896
 30
0.0
 10
15.8876917775
 20
11.9813825909
 30
0.0
 10
15.8948332023
 20
12.0175315779
 30
0.0
 10
15.894720274
 20
12.073830867
 30
0.0
 10
15.8839419461
 20
12.1316828718
 30
0.0
 10
15.8702846109
 20
12.1695122389
 30
0.0
 10
15.8619640729
 20
12.1883836599
 30
0.0
  0
SPLINE
  5
50A
100
AcDbEntity
  8
0
100
AcDbSpline
 62
7
  6
CONTINUOUS
 70
0
 71
3
 72
11
 73
7
 74
0
 42
0.0000001
 43
0.0000001
 44
0.0000000001
 40
0.0
 40
0.0
 40
0.0
 40
0.0
 40
0.235084661
 40
0.476710885
 40
0.730256956
 40
1.0
 40
1.0
 40
1.0
 40
1.0
 10
15.8824208461
 20
11.9641322941
 30
0.0
 10
15.8876690782
 20
11.9813105605
 30
0.0
 10
15.8947738458
 20
12.0173290538
 30
0.0
 10
15.8946277173
 20
12.0734493253
 30
0.0
 10
15.8838178438
 20
12.1311767493
 30
0.0
 10
15.8701326818
 20
12.1689344056
 30
0.0
 10
15.8617983517
 20
12.1877843437
 30
0.0
  0
SPLINE
  5
50B
100
AcDbEntity
  8
0
100
AcDbSpline
 62
7
  6
CONTINUOUS
 70
0
 71
3
 72
11
 73
7
 74
0
 42
0.0000001
 43
0.0000001
 44
0.0000000001
 40
0.0
 40
0.0
 40
0.0
 40
0.0
 40
0.246052674
 40
0.5028866665
 40
0.7581670481
 40
1.0
 40
1.0
 40
1.0
 40
1.0
 10
14.3860952356
 20
11.3548426688
 30
0.0
 10
14.3873576993
 20
11.3548426688
 30
0.0
 10
14.3899446285
 20
11.3552050845
 30
0.0
 10
14.3936002155
 20
11.3566259648
 30
0.0
 10
14.3968232046
 20
11.3588231271
 30
0.0
 10
14.3985569896
 20
11.3607399328
 30
0.0
 10
14.3992465855
 20
11.3617714724
 30
0.0
  0
SPLINE
  5
50C
100
AcDbEntity
  8
0
100
AcDbSpline
 62
7
  6
CONTINUOUS
 70
0
 71
3
 72
11
 73
7
 74
0
 42
0.0000001
 43
0.0000001
 44
0.0000000001
 40
0.0
 40
0.0
 40
0.0
 40
0.0
 40
0.2418321917
 40
0.4971117481
 40
0.7539465645
 40
1.0
 40
1.0
 40
1.0
 40
1.0
 10
14.4963516503
 20
11.5070271438
 30
0.0
 10
14.497041244
 20
11.5080586801
 30
0.0
 10
14.4987750189
 20
11.5099754836
 30
0.0
 10
14.5019980056
 20
11.5121726437
 30
0.0
 10
14.5056535958
 20
11.5135935248
 30
0.0
 10
14.5082405325
 20
11.5139559474
 30
0.0
 10
14.5095030001
 20
11.5139559474
 30
0.0
  0
SPLINE
  5
50D
100
AcDbEntity
  8
0
100
AcDbSpline
 62
7
  6
CONTINUOUS
 70
0
 71
3
 72
11
 73
7
 74
0
 42
0.0000001
 43
0.0000001
 44
0.0000000001
 40
0.0
 40
0.0
 40
0.0
 40
0.0
 40
0.2547472159
 40
0.3873727583
 40
0.5199485984
 40
1.0
 40
1.0
 40
1.0
 40
1.0
 10
17.1744918142
 20
11.3548426688
 30
0.0
 10
17.1760572178
 20
11.3548426688
 30
0.0
 10
17.1784501273
 20
11.3552520299
 30
0.0
 10
17.1814259665
 20
11.3564445407
 30
0.0
 10
17.1853903487
 20
11.3587072005
 30
0.0
 10
17.1881599608
 20
11.3618158767
 30
0.0
 10
17.1890309057
 20
11.3646342552
 30
0.0
  0
SPLINE
  5
50E
100
AcDbEntity
  8
0
100
AcDbSpline
 62
7
  6
CONTINUOUS
 70
0
 71
3
 72
9
 73
5
 74
0
 42
0.0000001
 43
0.0000001
 44
0.0000000001
 40
0.0
 40
0.0
 40
0.0
 40
0.0
 40
0.5170007535
 40
1.0
 40
1.0
 40
1.0
 40
1.0
 10
17.5233850149
 20
12.4466045491
 30
0.0
 10
17.5236707587
 20
12.4475292164
 30
0.0
 10
17.5239545586
 20
12.4494236149
 30
0.0
 10
17.5234913783
 20
12.4512994694
 30
0.0
 10
17.523092894
 20
12.4521110841
 30
0.0
  0
SPLINE
  5
50F
100
AcDbEntity
  8
0
100
AcDbSpline
 62
7
  6
CONTINUOUS
 70
0
 71
3
 72
8
 73
4
 74
0
 42
0.0000001
 43
0.0000001
 44
0.0000000001
 40
0.0
 40
0.0
 40
0.0
 40
0.0
 40
1.0
 40
1.0
 40
1.0
 40
1.0
 10
13.7807903656
 20
12.8169488774
 30
0.0
 10
13.7795409155
 20
12.8162449672
 30
0.0
 10
13.7783979586
 20
12.8153090373
 30
0.0
 10
13.7774628662
 20
12.8142217391
 30
0.0
  0
SPLINE
  5
510
100
AcDbEntity
  8
0
100
AcDbSpline
 62
7
  6
CONTINUOUS
 70
0
 71
3
 72
9
 73
5
 74
0
 42
0.0000001
 43
0.0000001
 44
0.0000000001
 40
0.0
 40
0.0
 40
0.0
 40
0.0
 40
0.2512685984
 40
1.0
 40
1.0
 40
1.0
 40
1.0
 10
13.7774628662
 20
12.8142217391
 30
0.0
 10
13.7771826676
 20
12.8138959324
 30
0.0
 10
13.7761357877
 20
12.8125421584
 30
0.0
 10
13.7753657533
 20
12.8109739477
 30
0.0
 10
13.7749876923
 20
12.8097505421
 30
0.0
  0
SPLINE
  5
511
100
AcDbEntity
  8
0
100
AcDbSpline
 62
7
  6
CONTINUOUS
 70
0
 71
3
 72
11
 73
7
 74
0
 42
0.0000001
 43
0.0000001
 44
0.0000000001
 40
0.0
 40
0.0
 40
0.0
 40
0.0
 40
0.2267238773
 40
0.4648685926
 40
0.7223840338
 40
1.0
 40
1.0
 40
1.0
 40
1.0
 10
13.5914285188
 20
11.3591277202
 30
0.0
 10
13.5917521444
 20
11.3584685745
 30
0.0
 10
13.5926563306
 20
11.3572233508
 30
0.0
 10
13.5945932066
 20
11.3558495455
 30
0.0
 10
13.5969842975
 20
11.3550174944
 30
0.0
 10
13.5987246964
 20
11.3548426688
 30
0.0
 10
13.5996238312
 20
11.3548426688
 30
0.0
  0
SPLINE
  5
512
100
AcDbEntity
  8
0
100
AcDbSpline
 62
7
  6
CONTINUOUS
 70
0
 71
3
 72
9
 73
5
 74
0
 42
0.0000001
 43
0.0000001
 44
0.0000000001
 40
0.0
 40
0.0
 40
0.0
 40
0.0
 40
0.2310305532
 40
1.0
 40
1.0
 40
1.0
 40
1.0
 10
16.2567923494
 20
13.1408135478
 30
0.0
 10
16.2566690016
 20
13.1410649043
 30
0.0
 10
16.2560718825
 20
13.1421218838
 30
0.0
 10
16.2552577355
 20
13.1430457921
 30
0.0
 10
16.2545743077
 20
13.1436793689
 30
0.0
  0
SPLINE
  5
513
100
AcDbEntity
  8
0
100
AcDbSpline
 62
7
  6
CONTINUOUS
 70
0
 71
3
 72
27
 73
23
 74
0
 42
0.0000001
 43
0.0000001
 44
0.0000000001
 40
0.0
 40
0.0
 40
0.0
 40
0.0
 40
0.0647208438
 40
0.1329377634
 40
0.2038959625
 40
0.2767229526
 40
0.3504644032
 40
0.4241294644
 40
0.4967296077
 40
0.5673202926
 40
0.6350427011
 40
0.6991701251
 40
0.7591610555
 40
0.8147227565
 40
0.8408592291
 40
0.8659324474
 40
0.8900122277
 40
0.9131969984
 40
0.9356163031
 40
0.9574278482
 40
0.9788192088
 40
1.0
 40
1.0
 40
1.0
 40
1.0
 10
16.153219858
 20
13.2376407558
 30
0.0
 10
16.1200116583
 20
13.2684266611
 30
0.0
 10
16.0481171934
 20
13.3277647158
 30
0.0
 10
15.929478924
 20
13.4073431479
 30
0.0
 10
15.7991611323
 20
13.4785937199
 30
0.0
 10
15.6597567293
 20
13.5400997494
 30
0.0
 10
15.5140149174
 20
13.5906484365
 30
0.0
 10
15.3648246217
 20
13.6292385502
 30
0.0
 10
15.2151398957
 20
13.6551055238
 30
0.0
 10
15.0679197717
 20
13.6677372316
 30
0.0
 10
14.9260662085
 20
13.6668821668
 30
0.0
 10
14.7923489874
 20
13.652542155
 30
0.0
 10
14.6693910717
 20
13.6249776491
 30
0.0
 10
14.5759750176
 20
13.5906710586
 30
0.0
 10
14.5093157028
 20
13.5567822719
 30
0.0
 10
14.4644824791
 20
13.5289936368
 30
0.0
 10
14.4240227548
 20
13.4984588227
 30
0.0
 10
14.3881499718
 20
13.4653122674
 30
0.0
 10
14.3570518878
 20
13.4297205355
 30
0.0
 10
14.3309010217
 20
13.3918533159
 30
0.0
 10
14.3098488427
 20
13.3519088251
 30
0.0
 10
14.2992724111
 20
13.3239669464
 30
0.0
 10
14.2948983805
 20
13.3098076467
 30
0.0
  0
SPLINE
  5
514
100
AcDbEntity
  8
0
100
AcDbSpline
 62
7
  6
CONTINUOUS
 70
0
 71
3
 72
18
 73
14
 74
0
 42
0.0000001
 43
0.0000001
 44
0.0000000001
 40
0.0
 40
0.0
 40
0.0
 40
0.0
 40
0.1325621026
 40
0.2707074716
 40
0.4098465935
 40
0.5451807588
 40
0.6726777358
 40
0.7327950522
 40
0.7902878489
 40
0.8453003913
 40
0.8981853894
 40
0.9495089664
 40
1.0
 40
1.0
 40
1.0
 40
1.0
 10
13.9069763186
 20
11.9362591461
 30
0.0
 10
13.9163467021
 20
11.9362591461
 30
0.0
 10
13.9355267013
 20
11.9385222336
 30
0.0
 10
13.9631875692
 20
11.9476999163
 30
0.0
 10
13.9887621454
 20
11.9621104308
 30
0.0
 10
14.0104522073
 20
11.9807541314
 30
0.0
 10
14.0243245454
 20
11.99917497
 30
0.0
 10
14.0319411093
 20
12.014787492
 30
0.0
 10
14.0357508283
 20
12.0264249076
 30
0.0
 10
14.037685789
 20
12.038003268
 30
0.0
 10
14.0376984039
 20
12.0493137319
 30
0.0
 10
14.0357774466
 20
12.0601371888
 30
0.0
 10
14.0332132794
 20
12.0669154638
 30
0.0
 10
14.0316405016
 20
12.0701192842
 30
0.0
  0
SPLINE
  5
515
100
AcDbEntity
  8
0
100
AcDbSpline
 62
7
  6
CONTINUOUS
 70
0
 71
3
 72
9
 73
5
 74
0
 42
0.0000001
 43
0.0000001
 44
0.0000000001
 40
0.0
 40
0.0
 40
0.0
 40
0.0
 40
0.2696960544
 40
1.0
 40
1.0
 40
1.0
 40
1.0
 10
14.0298395839
 20
12.3574866382
 30
0.0
 10
14.0297228641
 20
12.3577244883
 30
0.0
 10
14.0293377885
 20
12.3586271677
 30
0.0
 10
14.0291755189
 20
12.359638386
 30
0.0
 10
14.0292449443
 20
12.3603524593
 30
0.0
  0
SPLINE
  5
516
100
AcDbEntity
  8
0
100
AcDbSpline
 62
7
  6
CONTINUOUS
 70
0
 71
3
 72
9
 73
5
 74
0
 42
0.0000001
 43
0.0000001
 44
0.0000000001
 40
0.0
 40
0.0
 40
0.0
 40
0.0
 40
0.2654424796
 40
1.0
 40
1.0
 40
1.0
 40
1.0
 10
14.2207238446
 20
11.9685054158
 30
0.0
 10
14.2208135094
 20
11.9683227627
 30
0.0
 10
14.2211222754
 20
11.9676214916
 30
0.0
 10
14.221304219
 20
11.9668591058
 30
0.0
 10
14.2213331856
 20
11.9662967772
 30
0.0
  0
LINE
  5
517
100
AcDbEntity
  8
0
100
AcDbLine
 62
7
  6
CONTINUOUS
 10
14.2213331856
 20
11.9662967772
 11
14.2212797048
 21
11.9653435143
  0
SPLINE
  5
518
100
AcDbEntity
  8
0
100
AcDbSpline
 62
7
  6
CONTINUOUS
 70
0
 71
3
 72
9
 73
5
 74
0
 42
0.0000001
 43
0.0000001
 44
0.0000000001
 40
0.0
 40
0.0
 40
0.0
 40
0.0
 40
0.2510344242
 40
1.0
 40
1.0
 40
1.0
 40
1.0
 10
17.3448625789
 20
12.8078921038
 30
0.0
 10
17.3444985247
 20
12.8080349652
 30
0.0
 10
17.3430222273
 20
12.8085351417
 30
0.0
 10
17.3414525014
 20
12.8087601563
 30
0.0
 10
17.3402857025
 20
12.8087601563
 30
0.0
  0
SPLINE
  5
519
100
AcDbEntity
  8
0
100
AcDbSpline
 62
7
  6
CONTINUOUS
 70
0
 71
3
 72
8
 73
4
 74
0
 42
0.0000001
 43
0.0000001
 44
0.0000000001
 40
0.0
 40
0.0
 40
0.0
 40
0.0
 40
1.0
 40
1.0
 40
1.0
 40
1.0
 10
16.2069760752
 20
11.7136598565
 30
0.0
 10
16.2070607067
 20
11.7119828113
 30
0.0
 10
16.207498793
 20
11.7102905309
 30
0.0
 10
16.2082385432
 20
11.7087830785
 30
0.0
  0
SPLINE
  5
51A
100
AcDbEntity
  8
0
100
AcDbSpline
 62
7
  6
CONTINUOUS
 70
0
 71
3
 72
18
 73
14
 74
0
 42
0.0000001
 43
0.0000001
 44
0.0000000001
 40
0.0
 40
0.0
 40
0.0
 40
0.0
 40
0.1325621026
 40
0.2707074716
 40
0.4098465935
 40
0.5451807588
 40
0.6726777358
 40
0.7327950522
 40
0.7902878489
 40
0.8453003913
 40
0.8981853894
 40
0.9495089664
 40
1.0
 40
1.0
 40
1.0
 40
1.0
 10
16.9319690731
 20
12.5971912261
 30
0.0
 10
16.9413394566
 20
12.5971912261
 30
0.0
 10
16.9605194558
 20
12.5994543136
 30
0.0
 10
16.9881803237
 20
12.6086319963
 30
0.0
 10
17.0137548999
 20
12.6230425108
 30
0.0
 10
17.0354449618
 20
12.6416862114
 30
0.0
 10
17.0493172999
 20
12.66010705
 30
0.0
 10
17.0569338638
 20
12.675719572
 30
0.0
 10
17.0607435828
 20
12.6873569876
 30
0.0
 10
17.0626785435
 20
12.698935348
 30
0.0
 10
17.0626911584
 20
12.7102458119
 30
0.0
 10
17.0607702011
 20
12.7210692688
 30
0.0
 10
17.0582060339
 20
12.7278475438
 30
0.0
 10
17.0566332561
 20
12.7310513642
 30
0.0
  0
SPLINE
  5
51B
100
AcDbEntity
  8
0
100
AcDbSpline
 62
7
  6
CONTINUOUS
 70
0
 71
3
 72
13
 73
9
 74
0
 42
0.0000001
 43
0.0000001
 44
0.0000000001
 40
0.0
 40
0.0
 40
0.0
 40
0.0
 40
0.2528579971
 40
0.3844124576
 40
0.516098934
 40
0.6454926838
 40
0.7704086362
 40
1.0
 40
1.0
 40
1.0
 40
1.0
 10
16.7277256127
 20
11.9362591461
 30
0.0
 10
16.7414228528
 20
11.9362591461
 30
0.0
 10
16.7623689011
 20
11.9398524247
 30
0.0
 10
16.7883732802
 20
11.9502493924
 30
0.0
 10
16.8068942562
 20
11.9608600068
 30
0.0
 10
16.8234299042
 20
11.9737988481
 30
0.0
 10
16.8414635079
 20
11.9928748029
 30
0.0
 10
16.8512707029
 20
12.0100530594
 30
0.0
 10
16.8549426631
 20
12.0219355269
 30
0.0
  0
SPLINE
  5
51C
100
AcDbEntity
  8
0
100
AcDbSpline
 62
7
  6
CONTINUOUS
 70
0
 71
3
 72
11
 73
7
 74
0
 42
0.0000001
 43
0.0000001
 44
0.0000000001
 40
0.0
 40
0.0
 40
0.0
 40
0.0
 40
0.2642342289
 40
0.517126198
 40
0.760959885
 40
1.0
 40
1.0
 40
1.0
 40
1.0
 10
16.8549426631
 20
12.0219355269
 30
0.0
 10
16.8562263928
 20
12.0260896779
 30
0.0
 10
16.8581033845
 20
12.0344369483
 30
0.0
 10
16.8586771967
 20
12.0470152265
 30
0.0
 10
16.856885548
 20
12.0590670793
 30
0.0
 10
16.8541230252
 20
12.0665883273
 30
0.0
 10
16.8523894343
 20
12.0701191036
 30
0.0
  0
SPLINE
  5
51D
100
AcDbEntity
  8
0
100
AcDbSpline
 62
7
  6
CONTINUOUS
 70
0
 71
3
 72
11
 73
7
 74
0
 42
0.0000001
 43
0.0000001
 44
0.0000000001
 40
0.0
 40
0.0
 40
0.0
 40
0.0
 40
0.2270618831
 40
0.4651234635
 40
0.7226539257
 40
1.0
 40
1.0
 40
1.0
 40
1.0
 10
16.379826796
 20
11.3591285256
 30
0.0
 10
16.38014982
 20
11.35846788
 30
0.0
 10
16.38105318
 20
11.3572206053
 30
0.0
 10
16.3829921725
 20
11.355847721
 30
0.0
 10
16.3853829038
 20
11.3550190212
 30
0.0
 10
16.3871221644
 20
11.3548426688
 30
0.0
 10
16.3880204098
 20
11.3548426688
 30
0.0
  0
SPLINE
  5
51E
100
AcDbEntity
  8
0
100
AcDbSpline
 62
7
  6
CONTINUOUS
 70
0
 71
3
 72
9
 73
5
 74
0
 42
0.0000001
 43
0.0000001
 44
0.0000000001
 40
0.0
 40
0.0
 40
0.0
 40
0.0
 40
0.2510344242
 40
1.0
 40
1.0
 40
1.0
 40
1.0
 10
17.1864805869
 20
12.8176918974
 30
0.0
 10
17.1861165327
 20
12.8178347589
 30
0.0
 10
17.1846402353
 20
12.8183349354
 30
0.0
 10
17.1830705094
 20
12.81855995
 30
0.0
 10
17.1819037105
 20
12.81855995
 30
0.0
  0
SPLINE
  5
51F
100
AcDbEntity
  8
0
100
AcDbSpline
 62
7
  6
CONTINUOUS
 70
0
 71
3
 72
8
 73
4
 74
0
 42
0.0000001
 43
0.0000001
 44
0.0000000001
 40
0.0
 40
0.0
 40
0.0
 40
0.0
 40
1.0
 40
1.0
 40
1.0
 40
1.0
 10
16.2163108231
 20
11.8825729287
 30
0.0
 10
16.2163954545
 20
11.8808958835
 30
0.0
 10
16.2168335408
 20
11.8792036031
 30
0.0
 10
16.2175732911
 20
11.8776961507
 30
0.0
  0
LINE
  5
520
100
AcDbEntity
  8
0
100
AcDbLine
 62
7
  6
CONTINUOUS
 10
16.4476766067
 20
12.7518323254
 11
16.4491742974
 21
12.749689411
  0
LINE
  5
521
100
AcDbEntity
  8
0
100
AcDbLine
 62
7
  6
CONTINUOUS
 10
16.4491742974
 20
12.749689411
 11
16.4502240239
 21
12.748670426
  0
LINE
  5
522
100
AcDbEntity
  8
0
100
AcDbLine
 62
7
  6
CONTINUOUS
 10
16.4502239831
 20
12.7486704113
 11
16.4518992271
 21
12.747599192
  0
SPLINE
  5
523
100
AcDbEntity
  8
0
100
AcDbSpline
 62
7
  6
CONTINUOUS
 70
0
 71
3
 72
9
 73
5
 74
0
 42
0.0000001
 43
0.0000001
 44
0.0000000001
 40
0.0
 40
0.0
 40
0.0
 40
0.0
 40
0.4935006226
 40
1.0
 40
1.0
 40
1.0
 40
1.0
 10
16.4518992271
 20
12.747599192
 30
0.0
 10
16.4525658126
 20
12.7472973275
 30
0.0
 10
16.4540186165
 20
12.7468952444
 30
0.0
 10
16.455517001
 20
12.7468976683
 30
0.0
 10
16.4562638009
 20
12.7469772151
 30
0.0
  0
LINE
  5
524
100
AcDbEntity
  8
0
100
AcDbLine
 62
7
  6
CONTINUOUS
 10
16.4562638009
 20
12.7469772151
 11
16.4588803013
 21
12.7475622595
  0
LINE
  5
525
100
AcDbEntity
  8
0
100
AcDbLine
 62
7
  6
CONTINUOUS
 10
16.4588803013
 20
12.7475622595
 11
16.4604654505
 21
12.7481876439
  0
SPLINE
  5
526
100
AcDbEntity
  8
0
100
AcDbSpline
 62
7
  6
CONTINUOUS
 70
0
 71
3
 72
13
 73
9
 74
0
 42
0.0000001
 43
0.0000001
 44
0.0000000001
 40
0.0
 40
0.0
 40
0.0
 40
0.0
 40
0.2775228864
 40
0.5341827192
 40
0.6554070485
 40
0.7726886258
 40
0.8870978377
 40
1.0
 40
1.0
 40
1.0
 40
1.0
 10
16.7160954026
 20
12.5971912261
 30
0.0
 10
16.7082186543
 20
12.5971912261
 30
0.0
 10
16.692996528
 20
12.5986960111
 30
0.0
 10
16.6752220173
 20
12.6049127322
 30
0.0
 10
16.6632078179
 20
12.612293636
 30
0.0
 10
16.6555253868
 20
12.6187859212
 30
0.0
 10
16.6491348691
 20
12.62624517
 30
0.0
 10
16.6457948555
 20
12.6318071089
 30
0.0
 10
16.6443826926
 20
12.6346835912
 30
0.0
  0
SPLINE
  5
527
100
AcDbEntity
  8
0
100
AcDbSpline
 62
7
  6
CONTINUOUS
 70
0
 71
3
 72
8
 73
4
 74
0
 42
0.0000001
 43
0.0000001
 44
0.0000000001
 40
0.0
 40
0.0
 40
0.0
 40
0.0
 40
1.0
 40
1.0
 40
1.0
 40
1.0
 10
13.7592776322
 20
12.8071490838
 30
0.0
 10
13.7580281821
 20
12.8064451735
 30
0.0
 10
13.7568852252
 20
12.8055092436
 30
0.0
 10
13.7559501328
 20
12.8044219454
 30
0.0
  0
SPLINE
  5
528
100
AcDbEntity
  8
0
100
AcDbSpline
 62
7
  6
CONTINUOUS
 70
0
 71
3
 72
9
 73
5
 74
0
 42
0.0000001
 43
0.0000001
 44
0.0000000001
 40
0.0
 40
0.0
 40
0.0
 40
0.0
 40
0.2512685984
 40
1.0
 40
1.0
 40
1.0
 40
1.0
 10
13.7559501328
 20
12.8044219454
 30
0.0
 10
13.7556699342
 20
12.8040961387
 30
0.0
 10
13.7546230543
 20
12.8027423647
 30
0.0
 10
13.7538530199
 20
12.801174154
 30
0.0
 10
13.7534749589
 20
12.7999507484
 30
0.0
  0
SPLINE
  5
529
100
AcDbEntity
  8
0
100
AcDbSpline
 62
7
  6
CONTINUOUS
 70
0
 71
3
 72
13
 73
9
 74
0
 42
0.0000001
 43
0.0000001
 44
0.0000000001
 40
0.0
 40
0.0
 40
0.0
 40
0.0
 40
0.2775228864
 40
0.5341827192
 40
0.6554070485
 40
0.7726886258
 40
0.8870978377
 40
1.0
 40
1.0
 40
1.0
 40
1.0
 10
16.5118519422
 20
11.9362591461
 30
0.0
 10
16.5039751939
 20
11.9362591461
 30
0.0
 10
16.4887530677
 20
11.9377639311
 30
0.0
 10
16.470978557
 20
11.9439806522
 30
0.0
 10
16.4589643576
 20
11.951361556
 30
0.0
 10
16.4512819264
 20
11.9578538412
 30
0.0
 10
16.4448914087
 20
11.96531309
 30
0.0
 10
16.4415513951
 20
11.9708750289
 30
0.0
 10
16.4401392322
 20
11.9737515112
 30
0.0
  0
SPLINE
  5
52A
100
AcDbEntity
  8
0
100
AcDbSpline
 62
7
  6
CONTINUOUS
 70
0
 71
3
 72
13
 73
9
 74
0
 42
0.0000001
 43
0.0000001
 44
0.0000000001
 40
0.0
 40
0.0
 40
0.0
 40
0.0
 40
0.2775228864
 40
0.5341827192
 40
0.6554070485
 40
0.7726886258
 40
0.8870978377
 40
1.0
 40
1.0
 40
1.0
 40
1.0
 10
13.6911026481
 20
11.9362591461
 30
0.0
 10
13.6832258998
 20
11.9362591461
 30
0.0
 10
13.6680037735
 20
11.9377639311
 30
0.0
 10
13.6502292628
 20
11.9439806522
 30
0.0
 10
13.6382150634
 20
11.951361556
 30
0.0
 10
13.6305326323
 20
11.9578538412
 30
0.0
 10
13.6241421146
 20
11.96531309
 30
0.0
 10
13.620802101
 20
11.9708750289
 30
0.0
 10
13.6193899381
 20
11.9737515112
 30
0.0
  0
SPLINE
  5
52B
100
AcDbEntity
  8
0
100
AcDbSpline
 62
7
  6
CONTINUOUS
 70
0
 71
3
 72
11
 73
7
 74
0
 42
0.0000001
 43
0.0000001
 44
0.0000000001
 40
0.0
 40
0.0
 40
0.0
 40
0.0
 40
0.271717631
 40
0.5265331333
 40
0.7677369349
 40
1.0
 40
1.0
 40
1.0
 40
1.0
 10
14.4866378289
 20
12.6383705013
 30
0.0
 10
14.4677879915
 20
12.6283908367
 30
0.0
 10
14.4324407414
 20
12.606662476
 30
0.0
 10
14.3862784909
 20
12.5675178687
 30
0.0
 10
14.3494879043
 20
12.5233702477
 30
0.0
 10
14.331397048
 20
12.4905825163
 30
0.0
 10
14.3242507432
 20
12.4738098579
 30
0.0
  0
SPLINE
  5
52C
100
AcDbEntity
  8
0
100
AcDbSpline
 62
7
  6
CONTINUOUS
 70
0
 71
3
 72
9
 73
5
 74
0
 42
0.0000001
 43
0.0000001
 44
0.0000000001
 40
0.0
 40
0.0
 40
0.0
 40
0.0
 40
0.2449348107
 40
1.0
 40
1.0
 40
1.0
 40
1.0
 10
15.8460077278
 20
12.2210530724
 30
0.0
 10
15.8439181847
 20
12.2249521477
 30
0.0
 10
15.8351759791
 20
12.2407572796
 30
0.0
 10
15.8256153329
 20
12.2561065466
 30
0.0
 10
15.8180095131
 20
12.2674254937
 30
0.0
  0
SPLINE
  5
52D
100
AcDbEntity
  8
0
100
AcDbSpline
 62
7
  6
CONTINUOUS
 70
0
 71
3
 72
11
 73
7
 74
0
 42
0.0000001
 43
0.0000001
 44
0.0000000001
 40
0.0
 40
0.0
 40
0.0
 40
0.0
 40
0.2322632301
 40
0.4734672836
 40
0.7282826561
 40
1.0
 40
1.0
 40
1.0
 40
1.0
 10
15.8719978703
 20
11.9352574712
 30
0.0
 10
15.8648515642
 20
11.9184848097
 30
0.0
 10
15.8467604935
 20
11.8856971662
 30
0.0
 10
15.8099697864
 20
11.8415496882
 30
0.0
 10
15.7638077099
 20
11.8024049693
 30
0.0
 10
15.7284605913
 20
11.7806764811
 30
0.0
 10
15.7096107856
 20
11.7706968285
 30
0.0
  0
SPLINE
  5
52E
100
AcDbEntity
  8
0
100
AcDbSpline
 62
7
  6
CONTINUOUS
 70
0
 71
3
 72
11
 73
7
 74
0
 42
0.0000001
 43
0.0000001
 44
0.0000000001
 40
0.0
 40
0.0
 40
0.0
 40
0.0
 40
0.2692472268
 40
0.52272576
 40
0.764521289
 40
1.0
 40
1.0
 40
1.0
 40
1.0
 10
14.3342845403
 20
12.2206836704
 30
0.0
 10
14.3259640194
 20
12.2395550641
 30
0.0
 10
14.3123068718
 20
12.2773844561
 30
0.0
 10
14.3015287537
 20
12.3352364376
 30
0.0
 10
14.3014156328
 20
12.3915356879
 30
0.0
 10
14.3085568363
 20
12.4276847391
 30
0.0
 10
14.3138277529
 20
12.4449350395
 30
0.0
  0
SPLINE
  5
52F
100
AcDbEntity
  8
0
100
AcDbSpline
 62
7
  6
CONTINUOUS
 70
0
 71
3
 72
13
 73
9
 74
0
 42
0.0000001
 43
0.0000001
 44
0.0000000001
 40
0.0
 40
0.0
 40
0.0
 40
0.0
 40
0.2775228864
 40
0.5341827192
 40
0.6554070485
 40
0.7726886258
 40
0.8870978377
 40
1.0
 40
1.0
 40
1.0
 40
1.0
 10
13.8953461085
 20
12.5971912261
 30
0.0
 10
13.8874693601
 20
12.5971912261
 30
0.0
 10
13.8722472339
 20
12.5986960111
 30
0.0
 10
13.8544727232
 20
12.6049127322
 30
0.0
 10
13.8424585238
 20
12.612293636
 30
0.0
 10
13.8347760927
 20
12.6187859212
 30
0.0
 10
13.8283855749
 20
12.62624517
 30
0.0
 10
13.8250455613
 20
12.6318071089
 30
0.0
 10
13.8236333985
 20
12.6346835912
 30
0.0
  0
SPLINE
  5
530
100
AcDbEntity
  8
0
100
AcDbSpline
 62
7
  6
CONTINUOUS
 70
0
 71
3
 72
17
 73
13
 74
0
 42
0.0000001
 43
0.0000001
 44
0.0000000001
 40
0.0
 40
0.0
 40
0.0
 40
0.0
 40
0.0528779776
 40
0.1109877497
 40
0.2399003109
 40
0.3804390586
 40
0.5252476821
 40
0.6664247618
 40
0.7964468763
 40
0.9089403884
 40
0.9572851226
 40
1.0
 40
1.0
 40
1.0
 40
1.0
 10
15.7396709493
 20
12.1476200688
 30
0.0
 10
15.740505901
 20
12.1459186161
 30
0.0
 10
15.7420652769
 20
12.1422513376
 30
0.0
 10
15.7447686376
 20
12.1340814321
 30
0.0
 10
15.7472383859
 20
12.1225674551
 30
0.0
 10
15.7487529848
 20
12.107773223
 30
0.0
 10
15.7488118448
 20
12.0924613722
 30
0.0
 10
15.7474088341
 20
12.077589407
 30
0.0
 10
15.7446387602
 20
12.0640916303
 30
0.0
 10
15.7411888755
 20
12.0541960414
 30
0.0
 10
15.7377763161
 20
12.0477333837
 30
0.0
 10
15.7358974312
 20
12.0450481188
 30
0.0
 10
15.734916375
 20
12.0438727395
 30
0.0
  0
SPLINE
  5
531
100
AcDbEntity
  8
0
100
AcDbSpline
 62
7
  6
CONTINUOUS
 70
0
 71
3
 72
13
 73
9
 74
0
 42
0.0000001
 43
0.0000001
 44
0.0000000001
 40
0.0
 40
0.0
 40
0.0
 40
0.0
 40
0.2713733575
 40
0.5252048259
 40
0.6469509183
 40
0.7661143403
 40
0.8835092798
 40
1.0
 40
1.0
 40
1.0
 40
1.0
 10
14.3859018453
 20
11.9954832955
 30
0.0
 10
14.3773747007
 20
12.0128597893
 30
0.0
 10
14.3632283435
 20
12.0477348617
 30
0.0
 10
14.3533254228
 20
12.0930865389
 30
0.0
 10
14.3509142796
 20
12.1283445725
 30
0.0
 10
14.3517578958
 20
12.1539341489
 30
0.0
 10
14.3552278627
 20
12.1789208546
 30
0.0
 10
14.3592898149
 20
12.1951405537
 30
0.0
 10
14.3617427759
 20
12.2030790419
 30
0.0
  0
SPLINE
  5
532
100
AcDbEntity
  8
0
100
AcDbSpline
 62
7
  6
CONTINUOUS
 70
0
 71
3
 72
27
 73
23
 74
0
 42
0.0000001
 43
0.0000001
 44
0.0000000001
 40
0.0
 40
0.0
 40
0.0
 40
0.0
 40
0.0543342448
 40
0.1139362819
 40
0.1784986547
 40
0.2473146627
 40
0.319365695
 40
0.3934377661
 40
0.4681996996
 40
0.5422827953
 40
0.6143554952
 40
0.6832010481
 40
0.747802428
 40
0.7782913425
 40
0.8074827062
 40
0.8618608804
 40
0.8871687783
 40
0.9113192665
 40
0.9344606177
 40
0.9567871714
 40
0.9785415903
 40
1.0
 40
1.0
 40
1.0
 40
1.0
 10
15.4940533537
 20
11.9954832955
 30
0.0
 10
15.4852365473
 20
12.0134500579
 30
0.0
 10
15.4628411855
 20
12.0492620479
 30
0.0
 10
15.4193302908
 20
12.0988391631
 30
0.0
 10
15.3655150609
 20
12.1455731412
 30
0.0
 10
15.3028400914
 20
12.1882416152
 30
0.0
 10
15.2329559842
 20
12.2257342574
 30
0.0
 10
15.1577300802
 20
12.2570536273
 30
0.0
 10
15.0791741959
 20
12.2813615322
 30
0.0
 10
14.9993952825
 20
12.2980065611
 30
0.0
 10
14.9205252722
 20
12.3065427155
 30
0.0
 10
14.844677231
 20
12.3067393468
 30
0.0
 10
14.7845122389
 20
12.2998132802
 30
0.0
 10
14.7397827871
 20
12.2898822963
 30
0.0
 10
14.6995363266
 20
12.2777541837
 30
0.0
 10
14.6625372764
 20
12.2616235839
 30
0.0
 10
14.6301109515
 20
12.2412265221
 30
0.0
 10
14.6091076565
 20
12.2245797936
 30
0.0
 10
14.5909900861
 20
12.2063405081
 30
0.0
 10
14.5759034307
 20
12.1866127613
 30
0.0
 10
14.5639596724
 20
12.1655465769
 30
0.0
 10
14.5581469181
 20
12.1506583722
 30
0.0
 10
14.5558140182
 20
12.1431064939
 30
0.0
  0
SPLINE
  5
533
100
AcDbEntity
  8
0
100
AcDbSpline
 62
7
  6
CONTINUOUS
 70
0
 71
3
 72
21
 73
17
 74
0
 42
0.0000001
 43
0.0000001
 44
0.0000000001
 40
0.0
 40
0.0
 40
0.0
 40
0.0
 40
0.0313775965
 40
0.0665049873
 40
0.1078358975
 40
0.1564637183
 40
0.2124786617
 40
0.2753950513
 40
0.3442772813
 40
0.4179417377
 40
0.5738126838
 40
0.7307820788
 40
0.805754101
 40
0.8764373683
 40
0.9415749616
 40
1.0
 40
1.0
 40
1.0
 40
1.0
 10
15.7202012592
 20
12.1659237013
 30
0.0
 10
15.7188494975
 20
12.1659231653
 30
0.0
 10
15.715963232
 20
12.1653139347
 30
0.0
 10
15.7119936583
 20
12.162769145
 30
0.0
 10
15.7083089641
 20
12.1587818433
 30
0.0
 10
15.704938527
 20
12.1534432503
 30
0.0
 10
15.7019245662
 20
12.1468662203
 30
0.0
 10
15.6993373908
 20
12.1391874662
 30
0.0
 10
15.6972298167
 20
12.1305811665
 30
0.0
 10
15.6950949272
 20
12.11789429
 30
0.0
 10
15.6939587503
 20
12.1012377157
 30
0.0
 10
15.694760088
 20
12.0845066721
 30
0.0
 10
15.6966270607
 20
12.0715953281
 30
0.0
 10
15.6985545916
 20
12.0627118856
 30
0.0
 10
15.7009869404
 20
12.0546953301
 30
0.0
 10
15.7030177058
 20
12.0497606694
 30
0.0
 10
15.7041265424
 20
12.0475010981
 30
0.0
  0
SPLINE
  5
534
100
AcDbEntity
  8
0
100
AcDbSpline
 62
7
  6
CONTINUOUS
 70
0
 71
3
 72
13
 73
9
 74
0
 42
0.0000001
 43
0.0000001
 44
0.0000000001
 40
0.0
 40
0.0
 40
0.0
 40
0.0
 40
0.1129017898
 40
0.2273186867
 40
0.3445889646
 40
0.4658020271
 40
0.7225116722
 40
1.0
 40
1.0
 40
1.0
 40
1.0
 10
14.7892877512
 20
12.5119961024
 30
0.0
 10
14.7901446257
 20
12.5102494342
 30
0.0
 10
14.7921717806
 20
12.5068717503
 30
0.0
 10
14.7960541006
 20
12.5023452235
 30
0.0
 10
14.8007159456
 20
12.4984011419
 30
0.0
 10
14.8080118931
 20
12.4939212209
 30
0.0
 10
14.8188032747
 20
12.4901470202
 30
0.0
 10
14.8280455046
 20
12.4892326818
 30
0.0
 10
14.832827197
 20
12.4892326818
 30
0.0
  0
SPLINE
  5
535
100
AcDbEntity
  8
0
100
AcDbSpline
 62
7
  6
CONTINUOUS
 70
0
 71
3
 72
9
 73
5
 74
0
 42
0.0000001
 43
0.0000001
 44
0.0000000001
 40
0.0
 40
0.0
 40
0.0
 40
0.0
 40
0.2716170286
 40
1.0
 40
1.0
 40
1.0
 40
1.0
 10
16.2081577018
 20
11.9653435168
 30
0.0
 10
16.2078792743
 20
11.9655855095
 30
0.0
 10
16.2068906581
 20
11.9665147494
 30
0.0
 10
16.2060459901
 20
11.9676172422
 30
0.0
 10
16.2056103042
 20
11.9685053767
 30
0.0
  0
SPLINE
  5
536
100
AcDbEntity
  8
0
100
AcDbSpline
 62
7
  6
CONTINUOUS
 70
0
 71
3
 72
13
 73
9
 74
0
 42
0.0000001
 43
0.0000001
 44
0.0000000001
 40
0.0
 40
0.0
 40
0.0
 40
0.0
 40
0.1106238252
 40
0.2227778369
 40
0.3382707363
 40
0.4585684419
 40
0.7167666313
 40
1.0
 40
1.0
 40
1.0
 40
1.0
 10
14.7922304132
 20
12.5059993253
 30
0.0
 10
14.7930495913
 20
12.5043295632
 30
0.0
 10
14.795000949
 20
12.501105393
 30
0.0
 10
14.7987721134
 20
12.4968127843
 30
0.0
 10
14.8033258281
 20
12.4930998502
 30
0.0
 10
14.8105187178
 20
12.4888909555
 30
0.0
 10
14.8212186446
 20
12.4853982755
 30
0.0
 10
14.8303531035
 20
12.4845706071
 30
0.0
 10
14.835115011
 20
12.4845706071
 30
0.0
  0
SPLINE
  5
537
100
AcDbEntity
  8
0
100
AcDbSpline
 62
7
  6
CONTINUOUS
 70
0
 71
3
 72
13
 73
9
 74
0
 42
0.0000001
 43
0.0000001
 44
0.0000000001
 40
0.0
 40
0.0
 40
0.0
 40
0.0
 40
0.0897077224
 40
0.1844164515
 40
0.2879137621
 40
0.4029083856
 40
0.6732971175
 40
1.0
 40
1.0
 40
1.0
 40
1.0
 10
15.7121762433
 20
12.0331141124
 30
0.0
 10
15.7115269473
 20
12.0331138214
 30
0.0
 10
15.7101871908
 20
12.0332789618
 30
0.0
 10
15.7082187096
 20
12.0340077129
 30
0.0
 10
15.7062758342
 20
12.0351985924
 30
0.0
 10
15.7035806379
 20
12.0375092253
 30
0.0
 10
15.7003703009
 20
12.0415945278
 30
0.0
 10
15.698260312
 20
12.0453782816
 30
0.0
 10
15.6972185849
 20
12.0475010981
 30
0.0
  0
SPLINE
  5
538
100
AcDbEntity
  8
0
100
AcDbSpline
 62
7
  6
CONTINUOUS
 70
0
 71
3
 72
11
 73
7
 74
0
 42
0.0000001
 43
0.0000001
 44
0.0000000001
 40
0.0
 40
0.0
 40
0.0
 40
0.0
 40
0.271363784
 40
0.545246355
 40
0.7877340579
 40
1.0
 40
1.0
 40
1.0
 40
1.0
 10
16.2081577005
 20
11.9653435163
 30
0.0
 10
16.2093654791
 20
11.9642939248
 30
0.0
 10
16.2117605155
 20
11.9621463688
 30
0.0
 10
16.2149548313
 20
11.9587625547
 30
0.0
 10
16.2175480717
 20
11.9553261932
 30
0.0
 10
16.2189523229
 20
11.9530391511
 30
0.0
 10
16.2195865062
 20
11.9519600692
 30
0.0
  0
SPLINE
  5
539
100
AcDbEntity
  8
0
100
AcDbSpline
 62
7
  6
CONTINUOUS
 70
0
 71
3
 72
27
 73
23
 74
0
 42
0.0000001
 43
0.0000001
 44
0.0000000001
 40
0.0
 40
0.0
 40
0.0
 40
0.0
 40
0.021180608
 40
0.042571826
 40
0.064383287
 40
0.0868024963
 40
0.1099871888
 40
0.134066903
 40
0.1591401187
 40
0.185276622
 40
0.2408385112
 40
0.3008296873
 40
0.3649572722
 40
0.43267968
 40
0.5032701775
 40
0.5758699741
 40
0.6495346819
 40
0.7232759522
 40
0.7961030507
 40
0.8670614807
 40
0.9352788608
 40
1.0
 40
1.0
 40
1.0
 40
1.0
 10
14.0528320107
 20
12.5264807514
 30
0.0
 10
14.0572060081
 20
12.5406399272
 30
0.0
 10
14.0677824108
 20
12.5685815676
 30
0.0
 10
14.0888343232
 20
12.6085258742
 30
0.0
 10
14.1149850687
 20
12.6463928984
 30
0.0
 10
14.1460828174
 20
12.6819846849
 30
0.0
 10
14.1819555174
 20
12.7151310861
 30
0.0
 10
14.2224149982
 20
12.7456660462
 30
0.0
 10
14.2672482052
 20
12.7734546659
 30
0.0
 10
14.3339075381
 20
12.8073437426
 30
0.0
 10
14.4273238956
 20
12.8416504945
 30
0.0
 10
14.5502821939
 20
12.8692151822
 30
0.0
 10
14.6839996995
 20
12.8835552498
 30
0.0
 10
14.8258532431
 20
12.884410325
 30
0.0
 10
14.9730729959
 20
12.8717786756
 30
0.0
 10
15.1227571189
 20
12.8459118671
 30
0.0
 10
15.2719468411
 20
12.8073220057
 30
0.0
 10
15.4176884286
 20
12.7567735799
 30
0.0
 10
15.5570929926
 20
12.6952676426
 30
0.0
 10
15.6874113902
 20
12.6240170065
 30
0.0
 10
15.8060502684
 20
12.5444382355
 30
0.0
 10
15.8779451833
 20
12.4850998921
 30
0.0
 10
15.9111535346
 20
12.4543138462
 30
0.0
  0
LINE
  5
53A
100
AcDbEntity
  8
0
100
AcDbLine
 62
7
  6
CONTINUOUS
 10
14.2211500841
 20
11.9648023119
 11
14.2208143068
 21
11.9639498168
  0
LINE
  5
53B
100
AcDbEntity
  8
0
100
AcDbLine
 62
7
  6
CONTINUOUS
 10
14.2208143068
 20
11.9639498168
 11
14.219860026
 21
11.962356833
  0
SPLINE
  5
53C
100
AcDbEntity
  8
0
100
AcDbSpline
 62
7
  6
CONTINUOUS
 70
0
 71
3
 72
11
 73
7
 74
0
 42
0.0000001
 43
0.0000001
 44
0.0000000001
 40
0.0
 40
0.0
 40
0.0
 40
0.0
 40
0.2375804668
 40
0.4930751879
 40
0.74903692
 40
1.0
 40
1.0
 40
1.0
 40
1.0
 10
14.219860026
 20
11.962356833
 30
0.0
 10
14.2191302366
 20
11.9613223111
 30
0.0
 10
14.2173860984
 20
11.9593420697
 30
0.0
 10
14.2145244411
 20
11.9565607247
 30
0.0
 10
14.2114919573
 20
11.9538548548
 30
0.0
 10
14.2094087418
 20
11.9521330797
 30
0.0
 10
14.2083491889
 20
11.9513170945
 30
0.0
  0
SPLINE
  5
53D
100
AcDbEntity
  8
0
100
AcDbSpline
 62
7
  6
CONTINUOUS
 70
0
 71
3
 72
11
 73
7
 74
0
 42
0.0000001
 43
0.0000001
 44
0.0000000001
 40
0.0
 40
0.0
 40
0.0
 40
0.0
 40
0.2914573025
 40
0.5484157581
 40
0.7800249638
 40
1.0
 40
1.0
 40
1.0
 40
1.0
 10
15.734916375
 20
12.0438727395
 30
0.0
 10
15.7341184506
 20
12.0429167659
 30
0.0
 10
15.7324880209
 20
12.0412163199
 30
0.0
 10
15.7297385978
 20
12.0392862161
 30
0.0
 10
15.7268752848
 20
12.0381966237
 30
0.0
 10
15.7249149358
 20
12.0380670109
 30
0.0
 10
15.7239787766
 20
12.0381498654
 30
0.0
  0
SPLINE
  5
53E
100
AcDbEntity
  8
0
100
AcDbSpline
 62
7
  6
CONTINUOUS
 70
0
 71
3
 72
12
 73
8
 74
0
 42
0.0000001
 43
0.0000001
 44
0.0000000001
 40
0.0
 40
0.0
 40
0.0
 40
0.0
 40
0.0961297461
 40
0.1968492206
 40
0.5479000183
 40
0.7610924551
 40
1.0
 40
1.0
 40
1.0
 40
1.0
 10
15.7239787766
 20
12.0381498654
 30
0.0
 10
15.7233381365
 20
12.0382065651
 30
0.0
 10
15.7220352461
 20
12.0384601546
 30
0.0
 10
15.7186199411
 20
12.0398448554
 30
0.0
 10
15.7152233678
 20
12.0429537523
 30
0.0
 10
15.7121083591
 20
12.0473221563
 30
0.0
 10
15.7106463344
 20
12.0499828148
 30
0.0
 10
15.7099421789
 20
12.0514177327
 30
0.0
  0
SPLINE
  5
53F
100
AcDbEntity
  8
0
100
AcDbSpline
 62
7
  6
CONTINUOUS
 70
0
 71
3
 72
11
 73
7
 74
0
 42
0.0000001
 43
0.0000001
 44
0.0000000001
 40
0.0
 40
0.0
 40
0.0
 40
0.0
 40
0.2336936203
 40
0.4744482201
 40
0.7284827705
 40
1.0
 40
1.0
 40
1.0
 40
1.0
 10
14.5558140182
 20
12.1431064939
 30
0.0
 10
14.55231777
 20
12.1317887167
 30
0.0
 10
14.5477221036
 20
12.1079586566
 30
0.0
 10
14.5485313829
 20
12.0707970797
 30
0.0
 10
14.5568719433
 20
12.0326450698
 30
0.0
 10
14.5669292993
 20
12.0078385136
 30
0.0
 10
14.5729923597
 20
11.9954832955
 30
0.0
  0
SPLINE
  5
540
100
AcDbEntity
  8
0
100
AcDbSpline
 62
7
  6
CONTINUOUS
 70
0
 71
3
 72
17
 73
13
 74
0
 42
0.0000001
 43
0.0000001
 44
0.0000000001
 40
0.0
 40
0.0
 40
0.0
 40
0.0
 40
0.132585815
 40
0.2707806417
 40
0.4099519596
 40
0.5453302236
 40
0.6728625474
 40
0.7902276568
 40
0.845255682
 40
0.8981568864
 40
0.9494937589
 40
1.0
 40
1.0
 40
1.0
 40
1.0
 10
14.832827197
 20
12.4892326818
 30
0.0
 10
14.8385157918
 20
12.4892326818
 30
0.0
 10
14.8501604989
 20
12.4906070434
 30
0.0
 10
14.8669550242
 20
12.4961782515
 30
0.0
 10
14.882481413
 20
12.5049263789
 30
0.0
 10
14.8956542427
 20
12.5162531875
 30
0.0
 10
14.9055575306
 20
12.5293913792
 30
0.0
 10
14.9105868637
 20
12.5414349072
 30
0.0
 10
14.9121872487
 20
12.551005458
 30
0.0
 10
14.9121934316
 20
12.5578729075
 30
0.0
 10
14.9110293355
 20
12.5644447574
 30
0.0
 10
14.9094704808
 20
12.5685593914
 30
0.0
 10
14.9085160764
 20
12.5705048664
 30
0.0
  0
SPLINE
  5
541
100
AcDbEntity
  8
0
100
AcDbSpline
 62
7
  6
CONTINUOUS
 70
0
 71
3
 72
11
 73
7
 74
0
 42
0.0000001
 43
0.0000001
 44
0.0000000001
 40
0.0
 40
0.0
 40
0.0
 40
0.0
 40
0.2759563927
 40
0.5325438577
 40
0.7716889391
 40
1.0
 40
1.0
 40
1.0
 40
1.0
 10
14.8649232109
 20
12.592404203
 30
0.0
 10
14.8689387733
 20
12.5922371962
 30
0.0
 10
14.876688175
 20
12.5911895489
 30
0.0
 10
14.8873181357
 20
12.587223451
 30
0.0
 10
14.896028737
 20
12.5810515301
 30
0.0
 10
14.9002686401
 20
12.5755648725
 30
0.0
 10
14.9018622334
 20
12.5726464953
 30
0.0
  0
SPLINE
  5
542
100
AcDbEntity
  8
0
100
AcDbSpline
 62
7
  6
CONTINUOUS
 70
0
 71
3
 72
16
 73
12
 74
0
 42
0.0000001
 43
0.0000001
 44
0.0000000001
 40
0.0
 40
0.0
 40
0.0
 40
0.0
 40
0.0504918419
 40
0.1020799793
 40
0.2106135071
 40
0.3289132384
 40
0.4568995358
 40
0.5921493214
 40
0.730713942
 40
0.8681641652
 40
1.0
 40
1.0
 40
1.0
 40
1.0
 10
14.9035155902
 20
12.5691219669
 30
0.0
 10
14.9042387037
 20
12.5672993903
 30
0.0
 10
14.905364378
 20
12.5634713758
 30
0.0
 10
14.9062507498
 20
12.5553042834
 30
0.0
 10
14.9046190686
 20
12.5444166218
 30
0.0
 10
14.8987550512
 20
12.5317846792
 30
0.0
 10
14.88945924
 20
12.5200912902
 30
0.0
 10
14.8773642038
 20
12.5100743952
 30
0.0
 10
14.8632704554
 20
12.502358851
 30
0.0
 10
14.8481122687
 20
12.4974637347
 30
0.0
 10
14.8376319929
 20
12.4962573662
 30
0.0
 10
14.8325123193
 20
12.4962573662
 30
0.0
  0
SPLINE
  5
543
100
AcDbEntity
  8
0
100
AcDbSpline
 62
7
  6
CONTINUOUS
 70
0
 71
3
 72
11
 73
7
 74
0
 42
0.0000001
 43
0.0000001
 44
0.0000000001
 40
0.0
 40
0.0
 40
0.0
 40
0.0
 40
0.2768692357
 40
0.5342695811
 40
0.7731351422
 40
1.0
 40
1.0
 40
1.0
 40
1.0
 10
14.8325123193
 20
12.4962573662
 30
0.0
 10
14.8282989576
 20
12.4962573662
 30
0.0
 10
14.820137142
 20
12.4970322338
 30
0.0
 10
14.8088539951
 20
12.5007469387
 30
0.0
 10
14.7995368285
 20
12.5068650075
 30
0.0
 10
14.7949608825
 20
12.5124579667
 30
0.0
 10
14.7932389484
 20
12.5154502932
 30
0.0
  0
SPLINE
  5
544
100
AcDbEntity
  8
0
100
AcDbSpline
 62
7
  6
CONTINUOUS
 70
0
 71
3
 72
14
 73
10
 74
0
 42
0.0000001
 43
0.0000001
 44
0.0000000001
 40
0.0
 40
0.0
 40
0.0
 40
0.0
 40
0.1091583532
 40
0.2202194774
 40
0.3352989549
 40
0.4559027369
 40
0.582889128
 40
0.7163755933
 40
1.0
 40
1.0
 40
1.0
 40
1.0
 10
14.7928911755
 20
12.5160705733
 30
0.0
 10
14.7917871189
 20
12.5180924528
 30
0.0
 10
14.7900018804
 20
12.522429863
 30
0.0
 10
14.7887515621
 20
12.5294450355
 30
0.0
 10
14.7889552039
 20
12.5368070089
 30
0.0
 10
14.7905772433
 20
12.5443270371
 30
0.0
 10
14.7935823591
 20
12.5518250221
 30
0.0
 10
14.7994150916
 20
12.5617520926
 30
0.0
 10
14.8054384834
 20
12.5683468296
 30
0.0
 10
14.8099506926
 20
12.5722797078
 30
0.0
  0
SPLINE
  5
545
100
AcDbEntity
  8
0
100
AcDbSpline
 62
7
  6
CONTINUOUS
 70
0
 71
3
 72
9
 73
5
 74
0
 42
0.0000001
 43
0.0000001
 44
0.0000000001
 40
0.0
 40
0.0
 40
0.0
 40
0.0
 40
0.2472995858
 40
1.0
 40
1.0
 40
1.0
 40
1.0
 10
14.8099506926
 20
12.5722797078
 30
0.0
 10
14.8109393983
 20
12.5731414718
 30
0.0
 10
14.8150257434
 20
12.5765238018
 30
0.0
 10
14.8194455318
 20
12.5795008192
 30
0.0
 10
14.8229047583
 20
12.5814931611
 30
0.0
  0
SPLINE
  5
546
100
AcDbEntity
  8
0
100
AcDbSpline
 62
7
  6
CONTINUOUS
 70
0
 71
3
 72
9
 73
5
 74
0
 42
0.0000001
 43
0.0000001
 44
0.0000000001
 40
0.0
 40
0.0
 40
0.0
 40
0.0
 40
0.2513590031
 40
1.0
 40
1.0
 40
1.0
 40
1.0
 10
14.8266884239
 20
12.583545934
 30
0.0
 10
14.8280031836
 20
12.5842164894
 30
0.0
 10
14.8333024412
 20
12.5867469518
 30
0.0
 10
14.8388648018
 20
12.5887301484
 30
0.0
 10
14.8431116924
 20
12.5898643586
 30
0.0
  0
SPLINE
  5
547
100
AcDbEntity
  8
0
100
AcDbSpline
 62
7
  6
CONTINUOUS
 70
0
 71
3
 72
9
 73
5
 74
0
 42
0.0000001
 43
0.0000001
 44
0.0000000001
 40
0.0
 40
0.0
 40
0.0
 40
0.0
 40
0.2562433216
 40
1.0
 40
1.0
 40
1.0
 40
1.0
 10
14.8439107194
 20
12.5900733395
 30
0.0
 10
14.8454424699
 20
12.5904655018
 30
0.0
 10
14.8514634823
 20
12.5918172982
 30
0.0
 10
14.8576517231
 20
12.5924597023
 30
0.0
 10
14.8622410896
 20
12.5924597023
 30
0.0
  0
SPLINE
  5
548
100
AcDbEntity
  8
0
100
AcDbSpline
 62
7
  6
CONTINUOUS
 70
0
 71
3
 72
17
 73
13
 74
0
 42
0.0000001
 43
0.0000001
 44
0.0000000001
 40
0.0
 40
0.0
 40
0.0
 40
0.0
 40
0.1326655315
 40
0.2709384355
 40
0.4094511192
 40
0.5433448392
 40
0.66920886
 40
0.7858108114
 40
0.8411569283
 40
0.894936779
 40
0.9476788292
 40
1.0
 40
1.0
 40
1.0
 40
1.0
 10
14.835115011
 20
12.4845706071
 30
0.0
 10
14.8408235581
 20
12.4845706071
 30
0.0
 10
14.8525042831
 20
12.4858439688
 30
0.0
 10
14.8694469536
 20
12.4910030138
 30
0.0
 10
14.8852197479
 20
12.4992061522
 30
0.0
 10
14.8986737446
 20
12.510025611
 30
0.0
 10
14.9088019289
 20
12.5228614638
 30
0.0
 10
14.9138649413
 20
12.5348561532
 30
0.0
 10
14.9154087596
 20
12.5444859093
 30
0.0
 10
14.9153429369
 20
12.5514861928
 30
0.0
 10
14.914080645
 20
12.5582388818
 30
0.0
 10
14.9124505717
 20
12.5624869671
 30
0.0
 10
14.9114589506
 20
12.5645081819
 30
0.0
  0
SPLINE
  5
549
100
AcDbEntity
  8
0
100
AcDbSpline
 62
7
  6
CONTINUOUS
 70
0
 71
3
 72
18
 73
14
 74
0
 42
0.0000001
 43
0.0000001
 44
0.0000000001
 40
0.0
 40
0.0
 40
0.0
 40
0.0
 40
0.0504910348
 40
0.101814567
 40
0.1547002781
 40
0.209713737
 40
0.2672078643
 40
0.3273260033
 40
0.4548238972
 40
0.5901622401
 40
0.7293010262
 40
0.8674421352
 40
1.0
 40
1.0
 40
1.0
 40
1.0
 10
13.8236333985
 20
12.6346835912
 30
0.0
 10
13.8220605451
 20
12.6378873893
 30
0.0
 10
13.8194967187
 20
12.6446658043
 30
0.0
 10
13.8175751558
 20
12.6554892389
 30
0.0
 10
13.8175883044
 20
12.6667998757
 30
0.0
 10
13.8195229097
 20
12.6783785314
 30
0.0
 10
13.8233330838
 20
12.6900160994
 30
0.0
 10
13.8309496464
 20
12.7056289096
 30
0.0
 10
13.8448225682
 20
12.7240499973
 30
0.0
 10
13.8665132109
 20
12.7426936899
 30
0.0
 10
13.8920880609
 20
12.7571038802
 30
0.0
 10
13.9197485291
 20
12.7662810881
 30
0.0
 10
13.9389279982
 20
12.7685439876
 30
0.0
 10
13.9482981167
 20
12.7685439876
 30
0.0
  0
SPLINE
  5
54A
100
AcDbEntity
  8
0
100
AcDbSpline
 62
7
  6
CONTINUOUS
 70
0
 71
3
 72
9
 73
5
 74
0
 42
0.0000001
 43
0.0000001
 44
0.0000000001
 40
0.0
 40
0.0
 40
0.0
 40
0.0
 40
0.269822754
 40
1.0
 40
1.0
 40
1.0
 40
1.0
 10
16.0125079843
 20
12.3603524593
 30
0.0
 10
16.0127477139
 20
12.3601302162
 30
0.0
 10
16.0136048984
 20
12.3592752878
 30
0.0
 10
16.0143363085
 20
12.358280799
 30
0.0
 10
16.014726026
 20
12.3574866382
 30
0.0
  0
SPLINE
  5
54B
100
AcDbEntity
  8
0
100
AcDbSpline
 62
7
  6
CONTINUOUS
 70
0
 71
3
 72
9
 73
5
 74
0
 42
0.0000001
 43
0.0000001
 44
0.0000000001
 40
0.0
 40
0.0
 40
0.0
 40
0.0
 40
0.256297552
 40
1.0
 40
1.0
 40
1.0
 40
1.0
 10
15.8670495326
 20
12.1729137833
 30
0.0
 10
15.869085047
 20
12.167843062
 30
0.0
 10
15.8766474283
 20
12.1479097337
 30
0.0
 10
15.8826464984
 20
12.1273719597
 30
0.0
 10
15.8860538143
 20
12.1118873772
 30
0.0
  0
SPLINE
  5
54C
100
AcDbEntity
  8
0
100
AcDbSpline
 62
7
  6
CONTINUOUS
 70
0
 71
3
 72
9
 73
5
 74
0
 42
0.0000001
 43
0.0000001
 44
0.0000000001
 40
0.0
 40
0.0
 40
0.0
 40
0.0
 40
0.2544791446
 40
1.0
 40
1.0
 40
1.0
 40
1.0
 10
15.889935434
 20
12.0912711668
 30
0.0
 10
15.8906723141
 20
12.086555421
 30
0.0
 10
15.8931676464
 20
12.0679650472
 30
0.0
 10
15.8940142019
 20
12.0491460089
 30
0.0
 10
15.8936263973
 20
12.0351685156
 30
0.0
  0
SPLINE
  5
54D
100
AcDbEntity
  8
0
100
AcDbSpline
 62
7
  6
CONTINUOUS
 70
0
 71
3
 72
11
 73
7
 74
0
 42
0.0000001
 43
0.0000001
 44
0.0000000001
 40
0.0
 40
0.0
 40
0.0
 40
0.0
 40
0.2355232697
 40
0.4781379581
 40
0.7319754
 40
1.0
 40
1.0
 40
1.0
 40
1.0
 10
15.7747142303
 20
12.0155011389
 30
0.0
 10
15.777634336
 20
12.0290576636
 30
0.0
 10
15.7810911712
 20
12.0571696558
 30
0.0
 10
15.7789416611
 20
12.1004032625
 30
0.0
 10
15.7695959939
 20
12.1446054016
 30
0.0
 10
15.7589908654
 20
12.173558989
 30
0.0
 10
15.752659292
 20
12.1880142567
 30
0.0
  0
SPLINE
  5
54E
100
AcDbEntity
  8
0
100
AcDbSpline
 62
7
  6
CONTINUOUS
 70
0
 71
3
 72
18
 73
14
 74
0
 42
0.0000001
 43
0.0000001
 44
0.0000000001
 40
0.0
 40
0.0
 40
0.0
 40
0.0
 40
0.0504910348
 40
0.101814567
 40
0.1547002781
 40
0.209713737
 40
0.2672078643
 40
0.3273260033
 40
0.4548238972
 40
0.5901622401
 40
0.7293010262
 40
0.8674421352
 40
1.0
 40
1.0
 40
1.0
 40
1.0
 10
13.6193899381
 20
11.9737515112
 30
0.0
 10
13.6178170847
 20
11.9769553093
 30
0.0
 10
13.6152532583
 20
11.9837337243
 30
0.0
 10
13.6133316954
 20
11.9945571589
 30
0.0
 10
13.6133448441
 20
12.0058677957
 30
0.0
 10
13.6152794493
 20
12.0174464514
 30
0.0
 10
13.6190896234
 20
12.0290840194
 30
0.0
 10
13.626706186
 20
12.0446968296
 30
0.0
 10
13.6405791079
 20
12.0631179173
 30
0.0
 10
13.6622697505
 20
12.0817616099
 30
0.0
 10
13.6878446006
 20
12.0961718002
 30
0.0
 10
13.7155050687
 20
12.1053490081
 30
0.0
 10
13.7346845378
 20
12.1076119076
 30
0.0
 10
13.7440546564
 20
12.1076119076
 30
0.0
  0
SPLINE
  5
54F
100
AcDbEntity
  8
0
100
AcDbSpline
 62
7
  6
CONTINUOUS
 70
0
 71
3
 72
13
 73
9
 74
0
 42
0.0000001
 43
0.0000001
 44
0.0000000001
 40
0.0
 40
0.0
 40
0.0
 40
0.0
 40
0.1129032044
 40
0.2273143421
 40
0.3445937904
 40
0.4658156304
 40
0.722474735
 40
1.0
 40
1.0
 40
1.0
 40
1.0
 10
16.8523894343
 20
12.0701191036
 30
0.0
 10
16.8509771261
 20
12.0729955285
 30
0.0
 10
16.8476373202
 20
12.0785575962
 30
0.0
 10
16.8412472633
 20
12.0860172434
 30
0.0
 10
16.833564833
 20
12.0925093675
 30
0.0
 10
16.821550738
 20
12.0998899672
 30
0.0
 10
16.803776514
 20
12.106107031
 30
0.0
 10
16.7885543948
 20
12.1076119076
 30
0.0
 10
16.780677621
 20
12.1076119076
 30
0.0
  0
SPLINE
  5
550
100
AcDbEntity
  8
0
100
AcDbSpline
 62
7
  6
CONTINUOUS
 70
0
 71
3
 72
13
 73
9
 74
0
 42
0.0000001
 43
0.0000001
 44
0.0000000001
 40
0.0
 40
0.0
 40
0.0
 40
0.0
 40
0.1128967677
 40
0.2273042264
 40
0.3445858868
 40
0.4658116048
 40
0.7224803088
 40
1.0
 40
1.0
 40
1.0
 40
1.0
 10
14.0316405016
 20
12.0701192842
 30
0.0
 10
14.0302284742
 20
12.0729956487
 30
0.0
 10
14.0268888944
 20
12.0785576153
 30
0.0
 10
14.0204981044
 20
12.0860163079
 30
0.0
 10
14.0128161945
 20
12.0925090913
 30
0.0
 10
14.0008017388
 20
12.0998901193
 30
0.0
 10
13.9830271958
 20
12.1061070544
 30
0.0
 10
13.9678049543
 20
12.1076119076
 30
0.0
 10
13.9599283268
 20
12.1076119076
 30
0.0
  0
SPLINE
  5
551
100
AcDbEntity
  8
0
100
AcDbSpline
 62
7
  6
CONTINUOUS
 70
0
 71
3
 72
9
 73
5
 74
0
 42
0.0000001
 43
0.0000001
 44
0.0000000001
 40
0.0
 40
0.0
 40
0.0
 40
0.0
 40
0.4957610749
 40
1.0
 40
1.0
 40
1.0
 40
1.0
 10
14.3243521234
 20
12.4734947602
 30
0.0
 10
14.3284537684
 20
12.4829478842
 30
0.0
 10
14.3378235674
 20
12.5015569337
 30
0.0
 10
14.3491838943
 20
12.5190170761
 30
0.0
 10
14.3553521709
 20
12.527490572
 30
0.0
  0
SPLINE
  5
552
100
AcDbEntity
  8
0
100
AcDbSpline
 62
7
  6
CONTINUOUS
 70
0
 71
3
 72
9
 73
5
 74
0
 42
0.0000001
 43
0.0000001
 44
0.0000000001
 40
0.0
 40
0.0
 40
0.0
 40
0.0
 40
0.2454082286
 40
1.0
 40
1.0
 40
1.0
 40
1.0
 10
14.3722014917
 20
12.5486103059
 30
0.0
 10
14.3750523294
 20
12.5518830725
 30
0.0
 10
14.3869392946
 20
12.5649822653
 30
0.0
 10
14.3998717375
 20
12.5771243251
 30
0.0
 10
14.4100776982
 20
12.5857236188
 30
0.0
  0
SPLINE
  5
553
100
AcDbEntity
  8
0
100
AcDbSpline
 62
7
  6
CONTINUOUS
 70
0
 71
3
 72
9
 73
5
 74
0
 42
0.0000001
 43
0.0000001
 44
0.0000000001
 40
0.0
 40
0.0
 40
0.0
 40
0.0
 40
0.244032263
 40
1.0
 40
1.0
 40
1.0
 40
1.0
 10
14.4281018424
 20
12.6000042346
 30
0.0
 10
14.4322294308
 20
12.6030814359
 30
0.0
 10
14.4493854701
 20
12.6153650758
 30
0.0
 10
14.46745699
 20
12.6263565529
 30
0.0
 10
14.4814728006
 20
12.6339672604
 30
0.0
  0
SPLINE
  5
554
100
AcDbEntity
  8
0
100
AcDbSpline
 62
7
  6
CONTINUOUS
 70
0
 71
3
 72
18
 73
14
 74
0
 42
0.0000001
 43
0.0000001
 44
0.0000000001
 40
0.0
 40
0.0
 40
0.0
 40
0.0
 40
0.0504910348
 40
0.101814567
 40
0.1547002781
 40
0.209713737
 40
0.2672078643
 40
0.3273260033
 40
0.4548238972
 40
0.5901622401
 40
0.7293010262
 40
0.8674421352
 40
1.0
 40
1.0
 40
1.0
 40
1.0
 10
16.4401392322
 20
11.9737515112
 30
0.0
 10
16.4385663789
 20
11.9769553093
 30
0.0
 10
16.4360025525
 20
11.9837337243
 30
0.0
 10
16.4340809895
 20
11.9945571589
 30
0.0
 10
16.4340941382
 20
12.0058677957
 30
0.0
 10
16.4360287434
 20
12.0174464514
 30
0.0
 10
16.4398389176
 20
12.0290840194
 30
0.0
 10
16.4474554801
 20
12.0446968296
 30
0.0
 10
16.461328402
 20
12.0631179173
 30
0.0
 10
16.4830190447
 20
12.0817616099
 30
0.0
 10
16.5085938947
 20
12.0961718002
 30
0.0
 10
16.5362543629
 20
12.1053490081
 30
0.0
 10
16.5554338319
 20
12.1076119076
 30
0.0
 10
16.5648039505
 20
12.1076119076
 30
0.0
  0
SPLINE
  5
555
100
AcDbEntity
  8
0
100
AcDbSpline
 62
7
  6
CONTINUOUS
 70
0
 71
3
 72
11
 73
7
 74
0
 42
0.0000001
 43
0.0000001
 44
0.0000000001
 40
0.0
 40
0.0
 40
0.0
 40
0.0
 40
0.2714170248
 40
0.5262216485
 40
0.7675817778
 40
1.0
 40
1.0
 40
1.0
 40
1.0
 10
14.572457531
 20
12.5740583458
 30
0.0
 10
14.5565916015
 20
12.5656059026
 30
0.0
 10
14.5268197562
 20
12.547231085
 30
0.0
 10
14.4878634029
 20
12.5142344501
 30
0.0
 10
14.4566800554
 20
12.4770858785
 30
0.0
 10
14.4412140552
 20
12.4495176963
 30
0.0
 10
14.4350555442
 20
12.4354093317
 30
0.0
  0
SPLINE
  5
556
100
AcDbEntity
  8
0
100
AcDbSpline
 62
7
  6
CONTINUOUS
 70
0
 71
3
 72
9
 73
5
 74
0
 42
0.0000001
 43
0.0000001
 44
0.0000000001
 40
0.0
 40
0.0
 40
0.0
 40
0.0
 40
0.2430771193
 40
1.0
 40
1.0
 40
1.0
 40
1.0
 10
14.5238196481
 20
12.6544978585
 30
0.0
 10
14.5298599416
 20
12.6571053971
 30
0.0
 10
14.5548972925
 20
12.6673944851
 30
0.0
 10
14.5806264604
 20
12.6759758673
 30
0.0
 10
14.600325216
 20
12.6816031534
 30
0.0
  0
SPLINE
  5
557
100
AcDbEntity
  8
0
100
AcDbSpline
 62
7
  6
CONTINUOUS
 70
0
 71
3
 72
9
 73
5
 74
0
 42
0.0000001
 43
0.0000001
 44
0.0000000001
 40
0.0
 40
0.0
 40
0.0
 40
0.0
 40
0.2438237444
 40
1.0
 40
1.0
 40
1.0
 40
1.0
 10
14.6145445733
 20
12.6855054464
 30
0.0
 10
14.6216783689
 20
12.6873844487
 30
0.0
 10
14.6510532049
 20
12.6946437188
 30
0.0
 10
14.6808513216
 20
12.7001607297
 30
0.0
 10
14.7034919268
 20
12.7034534512
 30
0.0
  0
SPLINE
  5
558
100
AcDbEntity
  8
0
100
AcDbSpline
 62
7
  6
CONTINUOUS
 70
0
 71
3
 72
9
 73
5
 74
0
 42
0.0000001
 43
0.0000001
 44
0.0000000001
 40
0.0
 40
0.0
 40
0.0
 40
0.0
 40
0.2448906372
 40
1.0
 40
1.0
 40
1.0
 40
1.0
 10
14.7168909002
 20
12.7052984408
 30
0.0
 10
14.7249030034
 20
12.7063403395
 30
0.0
 10
14.7576760482
 20
12.7101575846
 30
0.0
 10
14.7906423579
 20
12.7122736737
 30
0.0
 10
14.8155446452
 20
12.7130033222
 30
0.0
  0
SPLINE
  5
559
100
AcDbEntity
  8
0
100
AcDbSpline
 62
7
  6
CONTINUOUS
 70
0
 71
3
 72
13
 73
9
 74
0
 42
0.0000001
 43
0.0000001
 44
0.0000000001
 40
0.0
 40
0.0
 40
0.0
 40
0.0
 40
0.1128967677
 40
0.2273042264
 40
0.3445858868
 40
0.4658116048
 40
0.7224803088
 40
1.0
 40
1.0
 40
1.0
 40
1.0
 10
17.0566332561
 20
12.7310513642
 30
0.0
 10
17.0552212287
 20
12.7339277287
 30
0.0
 10
17.0518816489
 20
12.7394896953
 30
0.0
 10
17.0454908589
 20
12.7469483879
 30
0.0
 10
17.0378089491
 20
12.7534411713
 30
0.0
 10
17.0257944933
 20
12.7608221992
 30
0.0
 10
17.0080199503
 20
12.7670391344
 30
0.0
 10
16.9927977088
 20
12.7685439876
 30
0.0
 10
16.9849210813
 20
12.7685439876
 30
0.0
  0
SPLINE
  5
55A
100
AcDbEntity
  8
0
100
AcDbSpline
 62
7
  6
CONTINUOUS
 70
0
 71
3
 72
11
 73
7
 74
0
 42
0.0000001
 43
0.0000001
 44
0.0000000001
 40
0.0
 40
0.0
 40
0.0
 40
0.0
 40
0.2700793095
 40
0.5275223432
 40
0.771055018
 40
1.0
 40
1.0
 40
1.0
 40
1.0
 10
14.8604482536
 20
12.6403476564
 30
0.0
 10
14.8368497846
 20
12.6397742755
 30
0.0
 10
14.7907746182
 20
12.6368920419
 30
0.0
 10
14.7240258465
 20
12.6269832433
 30
0.0
 10
14.6619893235
 20
12.6116846135
 30
0.0
 10
14.6230659083
 20
12.597575944
 30
0.0
 10
14.6047145953
 20
12.589598595
 30
0.0
  0
SPLINE
  5
55B
100
AcDbEntity
  8
0
100
AcDbSpline
 62
7
  6
CONTINUOUS
 70
0
 71
3
 72
18
 73
14
 74
0
 42
0.0000001
 43
0.0000001
 44
0.0000000001
 40
0.0
 40
0.0
 40
0.0
 40
0.0
 40
0.0504910348
 40
0.101814567
 40
0.1547002781
 40
0.209713737
 40
0.2672078643
 40
0.3273260033
 40
0.4548238972
 40
0.5901622401
 40
0.7293010262
 40
0.8674421352
 40
1.0
 40
1.0
 40
1.0
 40
1.0
 10
16.6443826926
 20
12.6346835912
 30
0.0
 10
16.6428098392
 20
12.6378873893
 30
0.0
 10
16.6402460129
 20
12.6446658043
 30
0.0
 10
16.6383244499
 20
12.6554892389
 30
0.0
 10
16.6383375986
 20
12.6667998757
 30
0.0
 10
16.6402722038
 20
12.6783785314
 30
0.0
 10
16.6440823779
 20
12.6900160994
 30
0.0
 10
16.6516989405
 20
12.7056289096
 30
0.0
 10
16.6655718624
 20
12.7240499973
 30
0.0
 10
16.687262505
 20
12.7426936899
 30
0.0
 10
16.7128373551
 20
12.7571038802
 30
0.0
 10
16.7404978232
 20
12.7662810881
 30
0.0
 10
16.7596772923
 20
12.7685439876
 30
0.0
 10
16.7690474109
 20
12.7685439876
 30
0.0
  0
SPLINE
  5
55C
100
AcDbEntity
  8
0
100
AcDbSpline
 62
7
  6
CONTINUOUS
 70
0
 71
3
 72
11
 73
7
 74
0
 42
0.0000001
 43
0.0000001
 44
0.0000000001
 40
0.0
 40
0.0
 40
0.0
 40
0.0
 40
0.2421325889
 40
0.4909610941
 40
0.7443439734
 40
1.0
 40
1.0
 40
1.0
 40
1.0
 10
14.8707348259
 20
12.7132320742
 30
0.0
 10
14.9006258292
 20
12.7126231419
 30
0.0
 10
14.9612062738
 20
12.7090329528
 30
0.0
 10
15.0524010486
 20
12.6970505786
 30
0.0
 10
15.1441959089
 20
12.6785226173
 30
0.0
 10
15.2048965691
 20
12.6620070917
 30
0.0
 10
15.2350660094
 20
12.6527183524
 30
0.0
  0
SPLINE
  5
55D
100
AcDbEntity
  8
0
100
AcDbSpline
 62
7
  6
CONTINUOUS
 70
0
 71
3
 72
11
 73
7
 74
0
 42
0.0000001
 43
0.0000001
 44
0.0000000001
 40
0.0
 40
0.0
 40
0.0
 40
0.0
 40
0.2555570466
 40
0.5088414702
 40
0.7576724648
 40
1.0
 40
1.0
 40
1.0
 40
1.0
 10
15.2120430058
 20
12.589598595
 30
0.0
 10
15.1867323367
 20
12.5973108304
 30
0.0
 10
15.1358246874
 20
12.611042705
 30
0.0
 10
15.0588625443
 20
12.6265158221
 30
0.0
 10
14.9823929964
 20
12.6366205387
 30
0.0
 10
14.931584064
 20
12.6397524059
 30
0.0
 10
14.9065013033
 20
12.6403476564
 30
0.0
  0
SPLINE
  5
55E
100
AcDbEntity
  8
0
100
AcDbSpline
 62
7
  6
CONTINUOUS
 70
0
 71
3
 72
34
 73
30
 74
0
 42
0.0000001
 43
0.0000001
 44
0.0000000001
 40
0.0
 40
0.0
 40
0.0
 40
0.0
 40
0.0214521432
 40
0.0432000824
 40
0.0655214099
 40
0.0886562558
 40
0.1128013126
 40
0.1381020316
 40
0.164658002
 40
0.1925208524
 40
0.2217047566
 40
0.2521855817
 40
0.2839115575
 40
0.3168021009
 40
0.3507570866
 40
0.3856555277
 40
0.4577081713
 40
0.5317707276
 40
0.6065122445
 40
0.6805644177
 40
0.7525965382
 40
0.7874805046
 40
0.8214192431
 40
0.8542925906
 40
0.8859988793
 40
0.9164571585
 40
0.9456228101
 40
0.9734739964
 40
1.0
 40
1.0
 40
1.0
 40
1.0
 10
14.3617427759
 20
12.2030790419
 30
0.0
 10
14.3650241128
 20
12.2136983931
 30
0.0
 10
14.373202439
 20
12.2346323089
 30
0.0
 10
14.3899914646
 20
12.2642605625
 30
0.0
 10
14.4112139862
 20
12.2919971948
 30
0.0
 10
14.4366858434
 20
12.3176537926
 30
0.0
 10
14.4662261207
 20
12.3410553922
 30
0.0
 10
14.4996127309
 20
12.3620664446
 30
0.0
 10
14.5366206361
 20
12.380544763
 30
0.0
 10
14.5769916721
 20
12.3963873308
 30
0.0
 10
14.6204571115
 20
12.4094821045
 30
0.0
 10
14.6667208055
 20
12.4197572697
 30
0.0
 10
14.7154728603
 20
12.4271350401
 30
0.0
 10
14.7663825236
 20
12.4315782916
 30
0.0
 10
14.8191072955
 20
12.4330480596
 30
0.0
 10
14.8921162124
 20
12.4310192117
 30
0.0
 10
14.9855361725
 20
12.4209050549
 30
0.0
 10
15.0977186348
 20
12.3975004793
 30
0.0
 10
15.2081906862
 20
12.3633168386
 30
0.0
 10
15.3139710731
 20
12.3192766701
 30
0.0
 10
15.3967537867
 20
12.2748669881
 30
0.0
 10
15.458122576
 20
12.2353142636
 30
0.0
 10
15.5007775793
 20
12.2043303866
 30
0.0
 10
15.5402515624
 20
12.1719184883
 30
0.0
 10
15.5762844306
 20
12.1383059794
 30
0.0
 10
15.6086261329
 20
12.1037092257
 30
0.0
 10
15.6370650332
 20
12.0683597052
 30
0.0
 10
15.6613894731
 20
12.0324968854
 30
0.0
 10
15.6750892176
 20
12.007821376
 30
0.0
 10
15.6811438681
 20
11.9954832955
 30
0.0
  0
SPLINE
  5
55F
100
AcDbEntity
  8
0
100
AcDbSpline
 62
7
  6
CONTINUOUS
 70
0
 71
3
 72
11
 73
7
 74
0
 42
0.0000001
 43
0.0000001
 44
0.0000000001
 40
0.0
 40
0.0
 40
0.0
 40
0.0
 40
0.2407289775
 40
0.4889895601
 40
0.7427969464
 40
1.0
 40
1.0
 40
1.0
 40
1.0
 10
15.5330322578
 20
12.4354093317
 30
0.0
 10
15.512865748
 20
12.4496314075
 30
0.0
 10
15.4707505761
 20
12.4769165659
 30
0.0
 10
15.4039872284
 20
12.5136523725
 30
0.0
 10
15.3333403024
 20
12.5464507033
 30
0.0
 10
15.2844390476
 20
12.5653521922
 30
0.0
 10
15.2595521635
 20
12.5740583458
 30
0.0
  0
SPLINE
  5
560
100
AcDbEntity
  8
0
100
AcDbSpline
 62
7
  6
CONTINUOUS
 70
0
 71
3
 72
9
 73
5
 74
0
 42
0.0000001
 43
0.0000001
 44
0.0000000001
 40
0.0
 40
0.0
 40
0.0
 40
0.0
 40
0.4961241248
 40
1.0
 40
1.0
 40
1.0
 40
1.0
 10
16.4604654505
 20
12.7481876439
 30
0.0
 10
16.4618104073
 20
12.7487985048
 30
0.0
 10
16.4643745975
 20
12.7503549482
 30
0.0
 10
16.4666716804
 20
12.7522572032
 30
0.0
 10
16.4677829735
 20
12.7532650761
 30
0.0
  0
SPLINE
  5
561
100
AcDbEntity
  8
0
100
AcDbSpline
 62
7
  6
CONTINUOUS
 70
0
 71
3
 72
10
 73
6
 74
0
 42
0.0000001
 43
0.0000001
 44
0.0000000001
 40
0.0
 40
0.0
 40
0.0
 40
0.0
 40
0.2633975742
 40
0.5183603582
 40
1.0
 40
1.0
 40
1.0
 40
1.0
 10
15.6449109723
 20
12.4449350395
 30
0.0
 10
15.6593827319
 20
12.4336905803
 30
0.0
 10
15.6872743869
 20
12.4107827277
 30
0.0
 10
15.7383995456
 20
12.3635624522
 30
0.0
 10
15.772845857
 20
12.3253352743
 30
0.0
 10
15.7933313598
 20
12.2988140545
 30
0.0
  0
SPLINE
  5
562
100
AcDbEntity
  8
0
100
AcDbSpline
 62
7
  6
CONTINUOUS
 70
0
 71
3
 72
9
 73
5
 74
0
 42
0.0000001
 43
0.0000001
 44
0.0000000001
 40
0.0
 40
0.0
 40
0.0
 40
0.0
 40
0.257799849
 40
1.0
 40
1.0
 40
1.0
 40
1.0
 10
15.7948577481
 20
12.2968301237
 30
0.0
 10
15.7993563275
 20
12.2909598666
 30
0.0
 10
15.8164167658
 20
12.2678958248
 30
0.0
 10
15.8318802841
 20
12.243632195
 30
0.0
 10
15.8421866292
 20
12.2250005738
 30
0.0
  0
SPLINE
  5
563
100
AcDbEntity
  8
0
100
AcDbSpline
 62
7
  6
CONTINUOUS
 70
0
 71
3
 72
11
 73
7
 74
0
 42
0.0000001
 43
0.0000001
 44
0.0000000001
 40
0.0
 40
0.0
 40
0.0
 40
0.0
 40
0.2278982204
 40
0.4708810957
 40
0.7285941086
 40
1.0
 40
1.0
 40
1.0
 40
1.0
 10
15.7374071987
 20
12.2190947551
 30
0.0
 10
15.7281617409
 20
12.2361074088
 30
0.0
 10
15.7066959243
 20
12.2700066605
 30
0.0
 10
15.6678260208
 20
12.3183225646
 30
0.0
 10
15.621740147
 20
12.3651407706
 30
0.0
 10
15.5874241933
 20
12.3942782911
 30
0.0
 10
15.569267483
 20
12.4084928306
 30
0.0
  0
SPLINE
  5
564
100
AcDbEntity
  8
0
100
AcDbSpline
 62
7
  6
CONTINUOUS
 70
0
 71
3
 72
21
 73
17
 74
0
 42
0.0000001
 43
0.0000001
 44
0.0000000001
 40
0.0
 40
0.0
 40
0.0
 40
0.0
 40
0.0588750638
 40
0.1246229157
 40
0.1960041486
 40
0.2716807026
 40
0.4299129183
 40
0.586486162
 40
0.6601611484
 40
0.7288051012
 40
0.7911833268
 40
0.8464281301
 40
0.8940697307
 40
0.9343988638
 40
0.968748375
 40
1.0
 40
1.0
 40
1.0
 40
1.0
 10
15.7099421789
 20
12.0514177327
 30
0.0
 10
15.7089018524
 20
12.0535376953
 30
0.0
 10
15.7070000353
 20
12.0581739306
 30
0.0
 10
15.7047284561
 20
12.0657094652
 30
0.0
 10
15.7029394252
 20
12.0740643972
 30
0.0
 10
15.7012253973
 20
12.0861970807
 30
0.0
 10
15.7005406114
 20
12.1018853445
 30
0.0
 10
15.7016912342
 20
12.1174683393
 30
0.0
 10
15.7037819105
 20
12.1292822772
 30
0.0
 10
15.7058170488
 20
12.13724596
 30
0.0
 10
15.7083076515
 20
12.1443020241
 30
0.0
 10
15.7111863509
 20
12.1502919012
 30
0.0
 10
15.7144033777
 20
12.155081424
 30
0.0
 10
15.7179056346
 20
12.1585796562
 30
0.0
 10
15.7216906007
 20
12.1606702014
 30
0.0
 10
15.7243857366
 20
12.1609984443
 30
0.0
 10
15.7256343517
 20
12.160887936
 30
0.0
  0
SPLINE
  5
565
100
AcDbEntity
  8
0
100
AcDbSpline
 62
7
  6
CONTINUOUS
 70
0
 71
3
 72
11
 73
7
 74
0
 42
0.0000001
 43
0.0000001
 44
0.0000000001
 40
0.0
 40
0.0
 40
0.0
 40
0.0
 40
0.2190573712
 40
0.4533824433
 40
0.7117040003
 40
1.0
 40
1.0
 40
1.0
 40
1.0
 10
15.7256343517
 20
12.160887936
 30
0.0
 10
15.7264470896
 20
12.1608160049
 30
0.0
 10
15.728115132
 20
12.1604412926
 30
0.0
 10
15.7305101916
 20
12.1592600687
 30
0.0
 10
15.7328284284
 20
12.1574780875
 30
0.0
 10
15.7342286461
 20
12.1559891281
 30
0.0
 10
15.7349162382
 20
12.1551643402
 30
0.0
  0
SPLINE
  5
566
100
AcDbEntity
  8
0
100
AcDbSpline
 62
7
  6
CONTINUOUS
 70
0
 71
3
 72
13
 73
9
 74
0
 42
0.0000001
 43
0.0000001
 44
0.0000000001
 40
0.0
 40
0.0
 40
0.0
 40
0.0
 40
0.2713733575
 40
0.5252048259
 40
0.6469509183
 40
0.7661143403
 40
0.8835092798
 40
1.0
 40
1.0
 40
1.0
 40
1.0
 10
15.6811438681
 20
11.9954832955
 30
0.0
 10
15.6896710127
 20
11.9781068017
 30
0.0
 10
15.7038173699
 20
11.9432317293
 30
0.0
 10
15.7137202906
 20
11.8978800521
 30
0.0
 10
15.7161314338
 20
11.8626220186
 30
0.0
 10
15.7152878176
 20
11.8370324421
 30
0.0
 10
15.7118178507
 20
11.8120457365
 30
0.0
 10
15.7077558985
 20
11.7958260374
 30
0.0
 10
15.7053029376
 20
11.7878875492
 30
0.0
  0
SPLINE
  5
567
100
AcDbEntity
  8
0
100
AcDbSpline
 62
7
  6
CONTINUOUS
 70
0
 71
3
 72
27
 73
23
 74
0
 42
0.0000001
 43
0.0000001
 44
0.0000000001
 40
0.0
 40
0.0
 40
0.0
 40
0.0
 40
0.0543342448
 40
0.1139362819
 40
0.1784986547
 40
0.2473146627
 40
0.319365695
 40
0.3934377661
 40
0.4681996996
 40
0.5422827953
 40
0.6143554952
 40
0.6832010481
 40
0.747802428
 40
0.7782913425
 40
0.8074827062
 40
0.8618608804
 40
0.8871687783
 40
0.9113192665
 40
0.9344606177
 40
0.9567871714
 40
0.9785415903
 40
1.0
 40
1.0
 40
1.0
 40
1.0
 10
14.5729923597
 20
11.9954832955
 30
0.0
 10
14.5818091661
 20
11.9775165332
 30
0.0
 10
14.6042045279
 20
11.9417045432
 30
0.0
 10
14.6477154226
 20
11.8921274279
 30
0.0
 10
14.7015306525
 20
11.8453934499
 30
0.0
 10
14.764205622
 20
11.8027249759
 30
0.0
 10
14.8340897293
 20
11.7652323337
 30
0.0
 10
14.9093156332
 20
11.7339129638
 30
0.0
 10
14.9878715175
 20
11.7096050589
 30
0.0
 10
15.0676504309
 20
11.69296003
 30
0.0
 10
15.1465204412
 20
11.6844238755
 30
0.0
 10
15.2223684824
 20
11.6842272443
 30
0.0
 10
15.2825334745
 20
11.6911533109
 30
0.0
 10
15.3272629263
 20
11.7010842948
 30
0.0
 10
15.3675093868
 20
11.7132124074
 30
0.0
 10
15.404508437
 20
11.7293430072
 30
0.0
 10
15.4369347619
 20
11.749740069
 30
0.0
 10
15.4579380569
 20
11.7663867975
 30
0.0
 10
15.4760556273
 20
11.784626083
 30
0.0
 10
15.4911422827
 20
11.8043538298
 30
0.0
 10
15.503086041
 20
11.8254200142
 30
0.0
 10
15.5088987953
 20
11.8403082189
 30
0.0
 10
15.5112316952
 20
11.8478600972
 30
0.0
  0
SPLINE
  5
568
100
AcDbEntity
  8
0
100
AcDbSpline
 62
7
  6
CONTINUOUS
 70
0
 71
3
 72
12
 73
8
 74
0
 42
0.0000001
 43
0.0000001
 44
0.0000000001
 40
0.0
 40
0.0
 40
0.0
 40
0.0
 40
0.3153282231
 40
0.5815300387
 40
0.8037541555
 40
0.9036985825
 40
1.0
 40
1.0
 40
1.0
 40
1.0
 10
15.7041265424
 20
12.0475010981
 30
0.0
 10
15.7051738195
 20
12.0453669716
 30
0.0
 10
15.7073557409
 20
12.0415408441
 30
0.0
 10
15.7112679362
 20
12.0368614967
 30
0.0
 10
15.7149770207
 20
12.0342728617
 30
0.0
 10
15.7179910191
 20
12.0332753552
 30
0.0
 10
15.7194752477
 20
12.0331138123
 30
0.0
 10
15.7202012591
 20
12.0331141001
 30
0.0
  0
SPLINE
  5
569
100
AcDbEntity
  8
0
100
AcDbSpline
 62
7
  6
CONTINUOUS
 70
0
 71
3
 72
20
 73
16
 74
0
 42
0.0000001
 43
0.0000001
 44
0.0000000001
 40
0.0
 40
0.0
 40
0.0
 40
0.0
 40
0.0579854151
 40
0.1228553554
 40
0.2677722157
 40
0.423320569
 40
0.5770550289
 40
0.6496262184
 40
0.7175784231
 40
0.7799059171
 40
0.8358771384
 40
0.8851959518
 40
0.9281003751
 40
0.965668773
 40
1.0
 40
1.0
 40
1.0
 40
1.0
 10
15.6972185849
 20
12.0475010981
 30
0.0
 10
15.6961051426
 20
12.049770055
 30
0.0
 10
15.6940175702
 20
12.0547119568
 30
0.0
 10
15.6903730084
 20
12.0658090218
 30
0.0
 10
15.6870374542
 20
12.0814305617
 30
0.0
 10
15.6851802744
 20
12.1011804531
 30
0.0
 10
15.6856741205
 20
12.1178761338
 30
0.0
 10
15.6875050151
 20
12.1305833738
 30
0.0
 10
15.689520377
 20
12.1392054844
 30
0.0
 10
15.692153944
 20
12.1469019557
 30
0.0
 10
15.6953539129
 20
12.1534942105
 30
0.0
 10
15.699030963
 20
12.1588426615
 30
0.0
 10
15.7031165824
 20
12.1628231905
 30
0.0
 10
15.7075248735
 20
12.165332272
 30
0.0
 10
15.7106798344
 20
12.1659231365
 30
0.0
 10
15.7121762431
 20
12.1659236761
 30
0.0
  0
ENDSEC
  0
SECTION
  2
OBJECTS
  0
DICTIONARY
  5
C
100
AcDbDictionary
280
0
281
1
  3
ACAD_GROUP
350
D
  3
ACAD_MLINESTYLE
350
17
  3
ACAD_LAYOUT
350
1A
  3
ACAD_PLOTSETTINGS
350
19
  3
ACAD_PLOTSTYLENAME
350
E
  0
DICTIONARY
  5
D
102
{ACAD_REACTORS
330
C
102
}
100
AcDbDictionary
280
0
281
1
  0
ACDBDICTIONARYWDFLT
  5
E
102
{ACAD_REACTORS
330
C
102
}
100
AcDbDictionary
281
1
  3
Normal
350
F
100
AcDbDictionaryWithDefault
340
F
  0
DICTIONARY
  5
17
102
{ACAD_REACTORS
330
C
102
}
100
AcDbDictionary
280
0
281
1
  3
Standard
350
18
  0
DICTIONARY
  5
19
102
{ACAD_REACTORS
330
C
102
}
100
AcDbDictionary
281
1
  0
DICTIONARY
  5
1A
102
{ACAD_REACTORS
330
C
102
}
100
AcDbDictionary
281
1
  3
Model
350
56A
  3
Layout1
350
56B
  0
ACDBPLACEHOLDER
  5
F
102
{ACAD_REACTORS
330
E
102
}
  0
MLINESTYLE
  5
18
102
{ACAD_REACTORS
330
17
102
}
100
AcDbMlineStyle
  2
STANDARD
 70
0
  3

 62
256
 51
90.0
 52
90.0
 71
2
 49
0.5
 62
256
  6
BYLAYER
 49
-0.5
 62
256
  6
BYLAYER
  0
LAYOUT
  5
56A
102
{ACAD_REACTORS
330
1A
102
}
100
AcDbPlotSettings
  1

  2
none_device
  4
ANSI_C_(22.00_x_17.00_Inches)
  6

 40
0.0
 41
0.0
 42
0.0
 43
0.0
 44
558.8
 45
431.8
 46
0.0
 47
0.0
 48
0.0
 49
0.0
140
0.0
141
0.0
142
1.0
143
1.0
 70
1024
 72
0
 73
0
 74
0
  7

 75
0
147
1.0
148
0.0
149
0.0
100
AcDbLayout
  1
Model
 70
0
 71
0
 10
0.0
 20
0.0
 11
22.0
 21
17.0
 12
0.0
 22
0.0
 32
0.0
 14
0.0
 24
0.0
 34
0.0
 15
0.0
 25
0.0
 35
0.0
146
0.0
 13
0.0
 23
0.0
 33
0.0
 16
1.0
 26
0.0
 36
0.0
 17
0.0
 27
1.0
 37
0.0
 76
0
330
268
345
0
346
0
  0
LAYOUT
  5
56B
102
{ACAD_REACTORS
330
1A
102
}
100
AcDbPlotSettings
  1

  2
none_device
  4
ANSI_C_(22.00_x_17.00_Inches)
  6

 40
0.0
 41
0.0
 42
0.0
 43
0.0
 44
558.8
 45
431.8
 46
0.0
 47
0.0
 48
0.0
 49
0.0
140
0.0
141
0.0
142
1.0
143
1.0
 70
0
 72
0
 73
0
 74
0
  7

 75
0
147
1.0
148
0.0
149
0.0
100
AcDbLayout
  1
Layout1
 70
0
 71
1
 10
0.0
 20
0.0
 11
22.0
 21
17.0
 12
0.0
 22
0.0
 32
0.0
 14
0.0
 24
0.0
 34
0.0
 15
0.0
 25
0.0
 35
0.0
146
0.0
 13
0.0
 23
0.0
 33
0.0
 16
1.0
 26
0.0
 36
0.0
 17
0.0
 27
1.0
 37
0.0
 76
0
330
269
345
0
346
0
  0
ENDSEC
  0
EOF