999
DXF file: _cgs_temp_output.dxf
999
Pro/ENGINEER 2016360 by Parametric Technology Corporation
  0
SECTION
  2
HEADER
  9
$ACADVER
  1
AC1021
  9
$DWGCODEPAGE
  3
ANSI_1252
  9
$EXTMAX
 10
22.0
 20
17.0
 30
0.0
  9
$EXTMIN
 10
0.0
 20
0.0
 30
0.0
  9
$LIMMIN
 10
0.0
 20
0.0
  9
$LIMMAX
 10
22.0
 20
17.0
  9
$VIEWCTR
 10
11.0
 20
8.5
  9
$VIEWSIZE
 40
17.0
  9
$CLAYER
  8
0
  9
$LTSCALE
 40
1.21
  9
$CELTYPE
  6
BYLAYER
  9
$DIMSCALE
 40
1.0
  9
$DIMASZ
 40
0.1875
  9
$DIMEXO
 40
0.0625
  9
$DIMDLI
 40
0.836
  9
$DIMEXE
 40
0.125
  9
$DIMCEN
 40
0.198
  9
$DIMLFAC
 40
1.0
  9
$DIMBLK
  1
_CLOSED
  9
$DIMALT
 70
0
  9
$DIMALTF
 40
25.4
  9
$DIMTXT
 40
0.15625
  9
$DIMTOL
 70
0
  9
$DIMLIM
 70
0
  9
$DIMTFAC
 40
1.0
  9
$DIMGAP
 40
0.09
  9
$DIMDSEP
 70
46
  9
$AUNITS
 70
0
  9
$PDMODE
 70
3
  9
$PDSIZE
 40
0.3125
  9
$HANDSEED
  5
5A4
  9
$TILEMODE
 70
1
  9
$MEASUREMENT
 70
0
  9
$INSUNITS
 70
1
  0
ENDSEC
  0
SECTION
  2
CLASSES
  0
CLASS
  1
ACDBDICTIONARYWDFLT
  2
AcDbDictionaryWithDefault
  3
AutoCAD 2000
 90
0
 91
1
280
0
281
0
  0
CLASS
  1
ACDBPLACEHOLDER
  2
AcDbPlaceHolder
  3
AutoCAD 2000
 90
0
 91
1
280
0
281
0
  0
CLASS
  1
LAYOUT
  2
AcDbLayout
  3
AutoCAD 2000
 90
0
 91
0
280
0
281
0
  0
ENDSEC
  0
SECTION
  2
TABLES
  0
TABLE
  2
VPORT
  5
8
100
AcDbSymbolTable
 70
2
  0
VPORT
  5
1F4
100
AcDbSymbolTableRecord
100
AcDbViewportTableRecord
  2
*ACTIVE
 70
0
 10
0.0
 20
0.0
 11
1.0
 21
1.0
 12
11.0
 22
8.5
 13
0.0
 23
0.0
 14
1.0
 24
1.0
 15
0.0
 25
0.0
 16
0.0
 26
0.0
 36
1.0
 17
0.0
 27
0.0
 37
0.0
 40
17.0
 41
1.2941176471
 42
50.0
 43
0.0
 44
0.0
 50
0.0
 51
0.0
 71
0
 72
100
 73
1
 74
1
 75
0
 76
0
 77
0
 78
0
  0
ENDTAB
  0
TABLE
  2
LTYPE
  5
5
100
AcDbSymbolTable
 70
6
  0
LTYPE
  5
14
100
AcDbSymbolTableRecord
100
AcDbLinetypeTableRecord
  2
BYBLOCK
 70
0
  3

 72
65
 73
0
 40
0.0
  0
LTYPE
  5
15
100
AcDbSymbolTableRecord
100
AcDbLinetypeTableRecord
  2
BYLAYER
 70
0
  3

 72
65
 73
0
 40
0.0
  0
LTYPE
  5
16
100
AcDbSymbolTableRecord
100
AcDbLinetypeTableRecord
  2
CONTINUOUS
 70
64
  3
Solid line
 72
65
 73
0
 40
0.0
  0
LTYPE
  5
1F5
100
AcDbSymbolTableRecord
100
AcDbLinetypeTableRecord
  2
CENTER
 70
64
  3
____ _ ____ _ ____ _ ____ _ ____ _ ____ _ ____
 72
65
 73
4
 40
0.6
 49
0.375
 74
0
 49
-0.075
 74
0
 49
0.075
 74
0
 49
-0.075
 74
0
  0
LTYPE
  5
1F6
100
AcDbSymbolTableRecord
100
AcDbLinetypeTableRecord
  2
HIDDEN
 70
64
  3
- - - - - - - - - - - - - - - - - - - -
 72
65
 73
2
 40
0.2
 49
0.1
 74
0
 49
-0.1
 74
0
  0
LTYPE
  5
1F7
100
AcDbSymbolTableRecord
100
AcDbLinetypeTableRecord
  2
PHANTOM
 70
64
  3
_____ _ _ _____ _ _ _____ _ _ _____
 72
65
 73
6
 40
0.8
 49
0.45
 74
0
 49
-0.05
 74
0
 49
0.1
 74
0
 49
-0.05
 74
0
 49
0.1
 74
0
 49
-0.05
 74
0
  0
LTYPE
  5
1F8
100
AcDbSymbolTableRecord
100
AcDbLinetypeTableRecord
  2
DOT
 70
64
  3
. . . . . . . . . . . . . . . . . . . .
 72
65
 73
2
 40
0.2
 49
0.1
 74
0
 49
-0.1
 74
0
  0
LTYPE
  5
1F9
100
AcDbSymbolTableRecord
100
AcDbLinetypeTableRecord
  2
DASHED
 70
64
  3
- - - - - - - - - - - - - - - - - - - -
 72
65
 73
2
 40
0.2
 49
0.1
 74
0
 49
-0.1
 74
0
  0
ENDTAB
  0
TABLE
  2
LAYER
  5
2
100
AcDbSymbolTable
 70
36
  0
LAYER
  5
10
100
AcDbSymbolTableRecord
100
AcDbLayerTableRecord
  2
0
 70
0
 62
7
  6
CONTINUOUS
370
-3
390
F
  0
LAYER
  5
1FA
100
AcDbSymbolTableRecord
100
AcDbLayerTableRecord
  2
DEFAULT_1
 70
0
 62
7
  6
CENTER
370
-3
390
F
  0
LAYER
  5
1FB
100
AcDbSymbolTableRecord
100
AcDbLayerTableRecord
  2
DEFAULT_2
 70
0
 62
8
  6
HIDDEN
370
-3
390
F
  0
LAYER
  5
1FC
100
AcDbSymbolTableRecord
100
AcDbLayerTableRecord
  2
DEFAULT_3
 70
0
 62
7
  6
PHANTOM
370
-3
390
F
  0
LAYER
  5
1FD
100
AcDbSymbolTableRecord
100
AcDbLayerTableRecord
  2
01_ALL_DTM_PLN
 70
0
 62
7
  6
CONTINUOUS
370
-3
390
F
  0
LAYER
  5
1FE
100
AcDbSymbolTableRecord
100
AcDbLayerTableRecord
  2
01__ASM_ALL_DTM_PLN
 70
0
 62
7
  6
CONTINUOUS
370
-3
390
F
  0
LAYER
  5
1FF
100
AcDbSymbolTableRecord
100
AcDbLayerTableRecord
  2
01__ASM_DEF_DTM_PLN
 70
0
 62
7
  6
CONTINUOUS
370
-3
390
F
  0
LAYER
  5
200
100
AcDbSymbolTableRecord
100
AcDbLayerTableRecord
  2
01___PRT_ALL_DTM_PLN
 70
0
 62
7
  6
CONTINUOUS
370
-3
390
F
  0
LAYER
  5
201
100
AcDbSymbolTableRecord
100
AcDbLayerTableRecord
  2
01___PRT_DEF_DTM_PLN
 70
0
 62
7
  6
CONTINUOUS
370
-3
390
F
  0
LAYER
  5
202
100
AcDbSymbolTableRecord
100
AcDbLayerTableRecord
  2
02_ALL_AXES
 70
0
 62
7
  6
CONTINUOUS
370
-3
390
F
  0
LAYER
  5
203
100
AcDbSymbolTableRecord
100
AcDbLayerTableRecord
  2
02__ASM_ALL_AXES
 70
0
 62
7
  6
CONTINUOUS
370
-3
390
F
  0
LAYER
  5
204
100
AcDbSymbolTableRecord
100
AcDbLayerTableRecord
  2
02___PRT_ALL_AXES
 70
0
 62
7
  6
CONTINUOUS
370
-3
390
F
  0
LAYER
  5
205
100
AcDbSymbolTableRecord
100
AcDbLayerTableRecord
  2
03_ALL_CURVES
 70
0
 62
7
  6
CONTINUOUS
370
-3
390
F
  0
LAYER
  5
206
100
AcDbSymbolTableRecord
100
AcDbLayerTableRecord
  2
03__ASM_ALL_CURVES
 70
0
 62
7
  6
CONTINUOUS
370
-3
390
F
  0
LAYER
  5
207
100
AcDbSymbolTableRecord
100
AcDbLayerTableRecord
  2
03___PRT_ALL_CURVES
 70
0
 62
7
  6
CONTINUOUS
370
-3
390
F
  0
LAYER
  5
208
100
AcDbSymbolTableRecord
100
AcDbLayerTableRecord
  2
04_ALL_DTM_PNT
 70
0
 62
7
  6
CONTINUOUS
370
-3
390
F
  0
LAYER
  5
209
100
AcDbSymbolTableRecord
100
AcDbLayerTableRecord
  2
04__ASM_ALL_DTM_PNT
 70
0
 62
7
  6
CONTINUOUS
370
-3
390
F
  0
LAYER
  5
20A
100
AcDbSymbolTableRecord
100
AcDbLayerTableRecord
  2
04___PRT_ALL_DTM_PNT
 70
0
 62
7
  6
CONTINUOUS
370
-3
390
F
  0
LAYER
  5
20B
100
AcDbSymbolTableRecord
100
AcDbLayerTableRecord
  2
05_ALL_DTM_CSYS
 70
0
 62
7
  6
CONTINUOUS
370
-3
390
F
  0
LAYER
  5
20C
100
AcDbSymbolTableRecord
100
AcDbLayerTableRecord
  2
05__ASM_ALL_DTM_CSYS
 70
0
 62
7
  6
CONTINUOUS
370
-3
390
F
  0
LAYER
  5
20D
100
AcDbSymbolTableRecord
100
AcDbLayerTableRecord
  2
05__ASM_DEF_DTM_CSYS
 70
0
 62
7
  6
CONTINUOUS
370
-3
390
F
  0
LAYER
  5
20E
100
AcDbSymbolTableRecord
100
AcDbLayerTableRecord
  2
05___PRT_ALL_DTM_CSYS
 70
0
 62
7
  6
CONTINUOUS
370
-3
390
F
  0
LAYER
  5
20F
100
AcDbSymbolTableRecord
100
AcDbLayerTableRecord
  2
05___PRT_DEF_DTM_CSYS
 70
0
 62
7
  6
CONTINUOUS
370
-3
390
F
  0
LAYER
  5
210
100
AcDbSymbolTableRecord
100
AcDbLayerTableRecord
  2
06_ALL_SURFS
 70
0
 62
7
  6
CONTINUOUS
370
-3
390
F
  0
LAYER
  5
211
100
AcDbSymbolTableRecord
100
AcDbLayerTableRecord
  2
06__ASM_ALL_SURFS
 70
0
 62
7
  6
CONTINUOUS
370
-3
390
F
  0
LAYER
  5
212
100
AcDbSymbolTableRecord
100
AcDbLayerTableRecord
  2
06___PRT_ALL_SURFS
 70
0
 62
7
  6
CONTINUOUS
370
-3
390
F
  0
LAYER
  5
213
100
AcDbSymbolTableRecord
100
AcDbLayerTableRecord
  2
07__ASM_ALL_SKELETONS
 70
0
 62
7
  6
CONTINUOUS
370
-3
390
F
  0
LAYER
  5
214
100
AcDbSymbolTableRecord
100
AcDbLayerTableRecord
  2
SHELL
 70
0
 62
7
  6
CONTINUOUS
370
-3
390
F
  0
ENDTAB
  0
TABLE
  2
STYLE
  5
3
100
AcDbSymbolTable
 70
1
  0
STYLE
  5
11
100
AcDbSymbolTableRecord
100
AcDbTextStyleTableRecord
  2
STANDARD
 70
0
 40
0.0
 41
0.8
 50
0.0
 71
0
 42
0.2
  3
txt
  4

  0
STYLE
  5
215
100
AcDbSymbolTableRecord
100
AcDbTextStyleTableRecord
  2
TEXTSTYLE_1
 70
0
 40
0.0
 41
0.8
 50
0.0
 71
0
 42
0.2
  3
gdt
  4

  0
ENDTAB
  0
TABLE
  2
VIEW
  5
6
100
AcDbSymbolTable
 70
0
  0
ENDTAB
  0
TABLE
  2
UCS
  5
7
100
AcDbSymbolTable
 70
0
  0
ENDTAB
  0
TABLE
  2
APPID
  5
9
100
AcDbSymbolTable
 70
1
  0
APPID
  5
216
100
AcDbSymbolTableRecord
100
AcDbRegAppTableRecord
  2
ACAD
 70
0
  0
ENDTAB
  0
TABLE
  2
BLOCK_RECORD
  5
1
100
AcDbSymbolTable
 70
0
  0
BLOCK_RECORD
  5
217
100
AcDbSymbolTableRecord
100
AcDbBlockTableRecord
  2
*Model_Space
  0
BLOCK_RECORD
  5
218
100
AcDbSymbolTableRecord
100
AcDbBlockTableRecord
  2
*Paper_Space
  0
BLOCK_RECORD
  5
219
100
AcDbSymbolTableRecord
100
AcDbBlockTableRecord
  2
_NONE
  0
ENDTAB
  0
TABLE
  2
DIMSTYLE
  5
A
100
AcDbSymbolTable
 70
1
100
AcDbDimStyleTable
 71
0
  0
DIMSTYLE
105
21A
100
AcDbSymbolTableRecord
100
AcDbDimStyleTableRecord
  2
STANDARD
 70
0
  3

  4

 40
1.0
 41
0.1875
 42
0.0625
 43
0.38
 44
0.125
 45
0.0
 46
0.0
 47
0.0001
 48
0.0001
140
0.15625
141
0.09
142
0.0
143
25.4
144
1.0
145
0.0
146
1.0
147
0.09
 71
0.0
 72
0.0
 73
1
 74
1
 75
0
 76
0
 77
0
 78
4
 79
1
170
0
171
3
172
0
173
0
174
0
175
0
176
0
177
0
178
0
270
2
179
4
271
4
272
4
273
2
274
2
275
0
280
0
281
0
282
0
283
1
284
4
285
0
286
0
287
3
288
0
340
11
278
46
  0
ENDTAB
  0
ENDSEC
  0
SECTION
  2
BLOCKS
  0
BLOCK
  5
20
100
AcDbEntity
  8
0
100
AcDbBlockBegin
  2
*Model_Space
 70
0
 10
0.0
 20
0.0
 30
0.0
  3
*Model_Space
  1

  0
ENDBLK
  5
21
100
AcDbEntity
  8
0
100
AcDbBlockEnd
  0
BLOCK
  5
1C
100
AcDbEntity
  8
0
100
AcDbBlockBegin
  2
*Paper_Space
 70
0
 10
0.0
 20
0.0
 30
0.0
  3
*Paper_Space
  1

  0
ENDBLK
  5
1D
100
AcDbEntity
  8
0
100
AcDbBlockEnd
  0
BLOCK
  5
21B
100
AcDbEntity
  8
0
100
AcDbBlockBegin
  2
_NONE
 70
64
 10
0.0
 20
0.0
  3
_NONE
  1

  0
ENDBLK
  5
21C
100
AcDbEntity
  8
0
  6
BYBLOCK
 62
0
100
AcDbBlockEnd
  0
ENDSEC
  0
SECTION
  2
ENTITIES
  0
MTEXT
  5
21D
100
AcDbEntity
  8
0
100
AcDbMText
 62
7
  6
CONTINUOUS
  7
STANDARD
 71
1
 72
1
 10
15.9560215477
 20
0.9479130325
 30
0.0
 11
1.0
 21
0.0
 31
0.0
 44
0.9
  1
SCALE: 1:0.167
 40
0.3
 41
3.36
  0
LEADER
  5
21E
100
AcDbEntity
  8
0
100
AcDbLeader
 62
2
  6
CONTINUOUS
  3
STANDARD
 71
1
 72
0
 73
0
 75
0
 40
0.15625
 41
1.5
 76
3
 10
4.2693583777
 20
4.6692957444
 30
0.0
 10
6.9008769895
 20
4.095307927
 30
0.0
 10
7.1508769895
 20
4.095307927
 30
0.0
340
21F
1001
ACAD
1000
DSTYLE
1002
{
1070
77
1070
0
1070
341
1005
219
1002
}
  0
MTEXT
  5
21F
102
{ACAD_REACTORS
330
21E
102
}
100
AcDbEntity
  8
0
100
AcDbMText
 62
2
  6
CONTINUOUS
  7
STANDARD
 71
1
 72
1
 10
7.1508769895
 20
4.173432927
 30
0.0
 11
1.0
 21
0.0
 31
0.0
 44
0.9
  1
 0.375 BOLTS
 40
0.15625
 41
1.5
  0
LEADER
  5
220
100
AcDbEntity
  8
0
100
AcDbLeader
 62
2
  6
CONTINUOUS
  3
STANDARD
 71
1
 72
0
 73
0
 75
0
 40
0.15625
 41
1.5
 76
3
 10
5.6158021293
 20
4.4203555975
 30
0.0
 10
5.7754668531
 20
4.2430733603
 30
0.0
 10
6.0254668531
 20
4.2430733603
 30
0.0
340
221
1001
ACAD
1000
DSTYLE
1002
{
1070
77
1070
0
1070
341
1005
219
1002
}
  0
MTEXT
  5
221
102
{ACAD_REACTORS
330
220
102
}
100
AcDbEntity
  8
0
100
AcDbMText
 62
2
  6
CONTINUOUS
  7
STANDARD
 71
2
 72
1
 10
6.7754668531
 20
4.3211983603
 30
0.0
 11
1.0
 21
0.0
 31
0.0
 44
0.9
  1
 Drain Plug 
 40
0.15625
 41
1.5
  0
LINE
  5
222
100
AcDbEntity
  8
0
100
AcDbLine
 62
7
  6
CONTINUOUS
 10
0.0
 20
0.0
 11
0.0
 21
17.0
  0
LINE
  5
223
100
AcDbEntity
  8
0
100
AcDbLine
 62
7
  6
CONTINUOUS
 10
0.0
 20
0.0
 11
22.0
 21
0.0
  0
LINE
  5
224
100
AcDbEntity
  8
0
100
AcDbLine
 62
7
  6
CONTINUOUS
 10
0.0
 20
17.0
 11
22.0
 21
17.0
  0
LINE
  5
225
100
AcDbEntity
  8
0
100
AcDbLine
 62
7
  6
CONTINUOUS
 10
22.0
 20
0.0
 11
22.0
 21
17.0
  0
LINE
  5
226
100
AcDbEntity
  8
0
100
AcDbLine
 62
7
  6
CONTINUOUS
 10
4.0678672762
 20
4.6526290777
 11
4.0678672762
 21
4.3151290777
  0
LINE
  5
227
100
AcDbEntity
  8
0
100
AcDbLine
 62
7
  6
CONTINUOUS
 10
4.6544097756
 20
4.833863947
 11
4.6539766424
 21
4.6692957444
  0
LINE
  5
228
100
AcDbEntity
  8
0
100
AcDbLine
 62
7
  6
CONTINUOUS
 10
4.7657839428
 20
5.9786707444
 11
4.7657839428
 21
4.9814098806
  0
LINE
  5
229
100
AcDbEntity
  8
0
100
AcDbLine
 62
7
  6
CONTINUOUS
 10
4.8730756095
 20
6.1209897469
 11
4.8730756095
 21
5.9870040777
  0
LINE
  5
22A
100
AcDbEntity
  8
0
100
AcDbLine
 62
7
  6
CONTINUOUS
 10
4.896381607
 20
6.1442957444
 11
4.8730756095
 21
6.1209897469
  0
LINE
  5
22B
100
AcDbEntity
  8
0
100
AcDbLine
 62
7
  6
CONTINUOUS
 10
4.9600547762
 20
6.1209897469
 11
4.9600547762
 21
6.0036707444
  0
LINE
  5
22C
100
AcDbEntity
  8
0
100
AcDbLine
 62
7
  6
CONTINUOUS
 10
8.1928672762
 20
4.3151290777
 11
4.0678672762
 21
4.3151290777
  0
LINE
  5
22D
100
AcDbEntity
  8
0
100
AcDbLine
 62
7
  6
CONTINUOUS
 10
5.1074506095
 20
4.3317957444
 11
7.1532839428
 21
4.3317957444
  0
LINE
  5
22E
100
AcDbEntity
  8
0
100
AcDbLine
 62
7
  6
CONTINUOUS
 10
5.1074506095
 20
4.348462411
 11
7.1532839428
 21
4.348462411
  0
LINE
  5
22F
100
AcDbEntity
  8
0
100
AcDbLine
 62
7
  6
CONTINUOUS
 10
5.6355756095
 20
4.3992957444
 11
5.5947422762
 21
4.4401290777
  0
LINE
  5
230
100
AcDbEntity
  8
0
100
AcDbLine
 62
7
  6
CONTINUOUS
 10
5.596028649
 20
4.4401290777
 11
5.6355756095
 21
4.4005821172
  0
LINE
  5
231
100
AcDbEntity
  8
0
100
AcDbLine
 62
7
  6
CONTINUOUS
 10
5.0741172762
 20
5.492212411
 11
5.0741172762
 21
4.3651290777
  0
LINE
  5
232
100
AcDbEntity
  8
0
100
AcDbLine
 62
7
  6
CONTINUOUS
 10
5.0907839428
 20
5.492212411
 11
5.0907839428
 21
4.3651290777
  0
LINE
  5
233
100
AcDbEntity
  8
0
100
AcDbLine
 62
7
  6
CONTINUOUS
 10
5.5947422762
 20
4.4401290777
 11
5.596028649
 21
4.4401290777
  0
LINE
  5
234
100
AcDbEntity
  8
0
100
AcDbLine
 62
7
  6
CONTINUOUS
 10
5.67512257
 20
4.4401290777
 11
5.6764089428
 21
4.4401290777
  0
LINE
  5
235
100
AcDbEntity
  8
0
100
AcDbLine
 62
7
  6
CONTINUOUS
 10
5.67512257
 20
4.4401290777
 11
5.6355756095
 21
4.4796760382
  0
LINE
  5
236
100
AcDbEntity
  8
0
100
AcDbLine
 62
7
  6
CONTINUOUS
 10
5.6355756095
 20
4.480962411
 11
5.6764089428
 21
4.4401290777
  0
LINE
  5
237
100
AcDbEntity
  8
0
100
AcDbLine
 62
7
  6
CONTINUOUS
 10
4.0845339428
 20
4.6692957444
 11
5.0741172762
 21
4.6692957444
  0
LINE
  5
238
100
AcDbEntity
  8
0
100
AcDbLine
 62
7
  6
CONTINUOUS
 10
7.1866172762
 20
4.6692957444
 11
8.1762006095
 21
4.6692957444
  0
LINE
  5
239
100
AcDbEntity
  8
0
100
AcDbLine
 62
7
  6
CONTINUOUS
 10
5.6355756095
 20
4.3992957444
 11
5.6355756095
 21
4.4005821172
  0
LINE
  5
23A
100
AcDbEntity
  8
0
100
AcDbLine
 62
7
  6
CONTINUOUS
 10
5.6355756095
 20
4.4796760382
 11
5.6355756095
 21
4.480962411
  0
LINE
  5
23B
100
AcDbEntity
  8
0
100
AcDbLine
 62
7
  6
CONTINUOUS
 10
7.2027227104
 20
5.4922124605
 11
7.2032803431
 21
5.4922124769
  0
LINE
  5
23C
100
AcDbEntity
  8
0
100
AcDbLine
 62
7
  6
CONTINUOUS
 10
5.058573032
 20
5.492212411
 11
5.0741172762
 21
5.492212411
  0
LINE
  5
23D
100
AcDbEntity
  8
0
100
AcDbLine
 62
7
  6
CONTINUOUS
 10
7.1866172762
 20
5.492212411
 11
7.2021615202
 21
5.492212411
  0
LINE
  5
23E
100
AcDbEntity
  8
0
100
AcDbLine
 62
7
  6
CONTINUOUS
 10
4.9325070088
 20
5.4922124131
 11
4.9491147844
 21
5.4922126169
  0
LINE
  5
23F
100
AcDbEntity
  8
0
100
AcDbLine
 62
7
  6
CONTINUOUS
 10
7.3116197679
 20
5.4922126172
 11
7.3282275436
 21
5.4922124131
  0
LINE
  5
240
100
AcDbEntity
  8
0
100
AcDbLine
 62
7
  6
CONTINUOUS
 10
5.7715949347
 20
6.6500579254
 11
5.7750458553
 21
6.6371789144
  0
LINE
  5
241
100
AcDbEntity
  8
0
100
AcDbLine
 62
7
  6
CONTINUOUS
 10
5.7768569662
 20
6.6376642001
 11
5.7770758018
 21
6.6368474946
  0
LINE
  5
242
100
AcDbEntity
  8
0
100
AcDbLine
 62
7
  6
CONTINUOUS
 10
5.8562811738
 20
6.5148410807
 11
5.8549719639
 21
6.5197271113
  0
LINE
  5
243
100
AcDbEntity
  8
0
100
AcDbLine
 62
7
  6
CONTINUOUS
 10
5.8168727078
 20
6.6621900681
 11
5.8203236284
 21
6.6493110571
  0
LINE
  5
244
100
AcDbEntity
  8
0
100
AcDbLine
 62
7
  6
CONTINUOUS
 10
5.8187255456
 20
6.5133314598
 11
5.8216691408
 21
6.5023458298
  0
LINE
  5
245
100
AcDbEntity
  8
0
100
AcDbLine
 62
7
  6
CONTINUOUS
 10
5.8925024236
 20
6.521330662
 11
5.889560099
 21
6.5323115501
  0
LINE
  5
246
100
AcDbEntity
  8
0
100
AcDbLine
 62
7
  6
CONTINUOUS
 10
5.8637902906
 20
6.6609579141
 11
5.8640091262
 21
6.6601412086
  0
LINE
  5
247
100
AcDbEntity
  8
0
100
AcDbLine
 62
7
  6
CONTINUOUS
 10
5.8656014015
 20
6.6614431999
 11
5.8621504809
 21
6.6743222109
  0
LINE
  5
248
100
AcDbEntity
  8
0
100
AcDbLine
 62
7
  6
CONTINUOUS
 10
5.5947422762
 20
4.4401290777
 11
5.6355756095
 21
4.480962411
  0
LINE
  5
249
100
AcDbEntity
  8
0
100
AcDbLine
 62
7
  6
CONTINUOUS
 10
5.6355756095
 20
4.4796760382
 11
5.596028649
 21
4.4401290777
  0
LINE
  5
24A
100
AcDbEntity
  8
0
100
AcDbLine
 62
7
  6
CONTINUOUS
 10
5.6355756095
 20
4.4005821172
 11
5.67512257
 21
4.4401290777
  0
LINE
  5
24B
100
AcDbEntity
  8
0
100
AcDbLine
 62
7
  6
CONTINUOUS
 10
5.6764089428
 20
4.4401290777
 11
5.6355756095
 21
4.3992957444
  0
LINE
  5
24C
100
AcDbEntity
  8
0
100
AcDbLine
 62
7
  6
CONTINUOUS
 10
4.7741172762
 20
5.9870040777
 11
5.0394110227
 21
5.9870040777
  0
LINE
  5
24D
100
AcDbEntity
  8
0
100
AcDbLine
 62
7
  6
CONTINUOUS
 10
7.2213235296
 20
5.9870040777
 11
7.4866172762
 21
5.9870040777
  0
LINE
  5
24E
100
AcDbEntity
  8
0
100
AcDbLine
 62
7
  6
CONTINUOUS
 10
4.8730756095
 20
6.0036707444
 11
5.0470339428
 21
6.0036707444
  0
LINE
  5
24F
100
AcDbEntity
  8
0
100
AcDbLine
 62
7
  6
CONTINUOUS
 10
7.2137006095
 20
6.0036707444
 11
7.3876589428
 21
6.0036707444
  0
LINE
  5
250
100
AcDbEntity
  8
0
100
AcDbLine
 62
7
  6
CONTINUOUS
 10
4.89638346
 20
6.1442957444
 11
5.1265807089
 21
6.1442957444
  0
LINE
  5
251
100
AcDbEntity
  8
0
100
AcDbLine
 62
7
  6
CONTINUOUS
 10
7.1341555537
 20
6.1442957444
 11
7.3643510923
 21
6.1442957444
  0
LINE
  5
252
100
AcDbEntity
  8
0
100
AcDbLine
 62
7
  6
CONTINUOUS
 10
7.1699506095
 20
4.3651290777
 11
7.1699506095
 21
5.492212411
  0
LINE
  5
253
100
AcDbEntity
  8
0
100
AcDbLine
 62
7
  6
CONTINUOUS
 10
7.1866172762
 20
4.3651290777
 11
7.1866172762
 21
5.492212411
  0
LINE
  5
254
100
AcDbEntity
  8
0
100
AcDbLine
 62
7
  6
CONTINUOUS
 10
5.891707688
 20
6.5242966508
 11
5.8208731347
 21
6.5053165605
  0
LINE
  5
255
100
AcDbEntity
  8
0
100
AcDbLine
 62
7
  6
CONTINUOUS
 10
7.3006797762
 20
6.0036707444
 11
7.3006797762
 21
6.1209897469
  0
LINE
  5
256
100
AcDbEntity
  8
0
100
AcDbLine
 62
7
  6
CONTINUOUS
 10
7.3876589428
 20
6.1209897469
 11
7.3876589428
 21
5.9870040777
  0
LINE
  5
257
100
AcDbEntity
  8
0
100
AcDbLine
 62
7
  6
CONTINUOUS
 10
5.8656014015
 20
6.6614431999
 11
5.7750458553
 21
6.6371789144
  0
LINE
  5
258
100
AcDbEntity
  8
0
100
AcDbLine
 62
7
  6
CONTINUOUS
 10
5.7715949347
 20
6.6500579254
 11
5.8621504809
 21
6.6743222109
  0
LINE
  5
259
100
AcDbEntity
  8
0
100
AcDbLine
 62
7
  6
CONTINUOUS
 10
5.7857812528
 20
6.683191963
 11
5.8332977502
 21
6.6959239701
  0
LINE
  5
25A
100
AcDbEntity
  8
0
100
AcDbLine
 62
7
  6
CONTINUOUS
 10
5.7927280165
 20
6.7201017551
 11
5.8088267803
 21
6.7244154058
  0
LINE
  5
25B
100
AcDbEntity
  8
0
100
AcDbLine
 62
7
  6
CONTINUOUS
 10
7.4949506095
 20
5.9786707444
 11
7.4949506095
 21
4.9814098806
  0
LINE
  5
25C
100
AcDbEntity
  8
0
100
AcDbLine
 62
7
  6
CONTINUOUS
 10
7.3643529454
 20
6.1442957444
 11
7.3876589428
 21
6.1209897469
  0
LINE
  5
25D
100
AcDbEntity
  8
0
100
AcDbLine
 62
7
  6
CONTINUOUS
 10
7.6067579099
 20
4.6692957444
 11
7.6063247768
 21
4.833863947
  0
LINE
  5
25E
100
AcDbEntity
  8
0
100
AcDbLine
 62
7
  6
CONTINUOUS
 10
8.1928672762
 20
4.3151290777
 11
8.1928672762
 21
4.6526290777
  0
LINE
  5
25F
100
AcDbEntity
  8
0
100
AcDbLine
 62
7
  6
CONTINUOUS
 10
4.0083720839
 20
13.129214448
 11
4.0083720839
 21
12.0708811147
  0
LINE
  5
260
100
AcDbEntity
  8
0
100
AcDbLine
 62
7
  6
CONTINUOUS
 10
4.7062887505
 20
13.0625477814
 11
4.7062887505
 21
12.1375477814
  0
LINE
  5
261
100
AcDbEntity
  8
0
100
AcDbLine
 62
7
  6
CONTINUOUS
 10
4.9005595839
 20
13.0169038209
 11
4.8135804172
 21
12.8662514851
  0
LINE
  5
262
100
AcDbEntity
  8
0
100
AcDbLine
 62
7
  6
CONTINUOUS
 10
5.0312887505
 20
13.3708811147
 11
5.0146220839
 21
13.354214448
  0
LINE
  5
263
100
AcDbEntity
  8
0
100
AcDbLine
 62
7
  6
CONTINUOUS
 10
5.0312887505
 20
11.829214448
 11
5.0146220839
 21
11.8458811147
  0
LINE
  5
264
100
AcDbEntity
  8
0
100
AcDbLine
 62
7
  6
CONTINUOUS
 10
4.8135804172
 20
12.3338440777
 11
4.9005595839
 21
12.1831917418
  0
LINE
  5
265
100
AcDbEntity
  8
0
100
AcDbLine
 62
7
  6
CONTINUOUS
 10
4.9799158304
 20
13.1375477814
 11
4.9799158304
 21
13.0734030212
  0
LINE
  5
266
100
AcDbEntity
  8
0
100
AcDbLine
 62
7
  6
CONTINUOUS
 10
4.9799158304
 20
12.6590999753
 11
4.9799158304
 21
12.5409956138
  0
LINE
  5
267
100
AcDbEntity
  8
0
100
AcDbLine
 62
7
  6
CONTINUOUS
 10
4.9799158304
 20
12.1266925415
 11
4.9799158304
 21
12.0625477814
  0
LINE
  5
268
100
AcDbEntity
  8
0
100
AcDbLine
 62
7
  6
CONTINUOUS
 10
5.0146220839
 20
13.354214448
 11
5.0146220839
 21
13.177370983
  0
LINE
  5
269
100
AcDbEntity
  8
0
100
AcDbLine
 62
7
  6
CONTINUOUS
 10
5.0146220839
 20
11.8458811147
 11
5.0146220839
 21
12.0227044978
  0
LINE
  5
26A
100
AcDbEntity
  8
0
100
AcDbLine
 62
7
  6
CONTINUOUS
 10
4.9005595839
 20
12.4844964135
 11
4.8135804172
 21
12.3338440777
  0
LINE
  5
26B
100
AcDbEntity
  8
0
100
AcDbLine
 62
7
  6
CONTINUOUS
 10
5.0745179172
 20
12.7155991492
 11
5.1614970839
 21
12.8662514851
  0
LINE
  5
26C
100
AcDbEntity
  8
0
100
AcDbLine
 62
7
  6
CONTINUOUS
 10
4.8135804172
 20
12.8662514851
 11
4.9005595839
 21
12.7155991492
  0
LINE
  5
26D
100
AcDbEntity
  8
0
100
AcDbLine
 62
7
  6
CONTINUOUS
 10
5.1614970839
 20
12.3338440777
 11
5.0745179172
 21
12.4844964135
  0
LINE
  5
26E
100
AcDbEntity
  8
0
100
AcDbLine
 62
7
  6
CONTINUOUS
 10
5.6156273777
 20
11.8000477814
 11
5.5365334567
 21
11.8000477814
  0
LINE
  5
26F
100
AcDbEntity
  8
0
100
AcDbLine
 62
7
  6
CONTINUOUS
 10
5.6169137505
 20
11.8208811147
 11
5.5352470839
 21
11.8208811147
  0
LINE
  5
270
100
AcDbEntity
  8
0
100
AcDbLine
 62
7
  6
CONTINUOUS
 10
7.1104554172
 20
11.829214448
 11
5.0312887505
 21
11.829214448
  0
LINE
  5
271
100
AcDbEntity
  8
0
100
AcDbLine
 62
7
  6
CONTINUOUS
 10
7.1271220839
 20
11.8458811147
 11
5.0146220839
 21
11.8458811147
  0
LINE
  5
272
100
AcDbEntity
  8
0
100
AcDbLine
 62
7
  6
CONTINUOUS
 10
5.5352470839
 20
11.8208811147
 11
5.5365334567
 21
11.8000477814
  0
LINE
  5
273
100
AcDbEntity
  8
0
100
AcDbLine
 62
7
  6
CONTINUOUS
 10
5.5352470839
 20
13.379214448
 11
5.5365334567
 21
13.4000477814
  0
LINE
  5
274
100
AcDbEntity
  8
0
100
AcDbLine
 62
7
  6
CONTINUOUS
 10
5.0745179172
 20
12.1831917418
 11
5.1614970839
 21
12.3338440777
  0
LINE
  5
275
100
AcDbEntity
  8
0
100
AcDbLine
 62
7
  6
CONTINUOUS
 10
5.8062642391
 20
12.0241295977
 11
6.0708720839
 21
12.0241899459
  0
LINE
  5
276
100
AcDbEntity
  8
0
100
AcDbLine
 62
7
  6
CONTINUOUS
 10
5.8322130897
 20
11.9662662095
 11
5.8309027885
 21
11.9662740262
  0
LINE
  5
277
100
AcDbEntity
  8
0
100
AcDbLine
 62
7
  6
CONTINUOUS
 10
5.8309222559
 20
12.0086129867
 11
5.8322303747
 21
12.0086051691
  0
LINE
  5
278
100
AcDbEntity
  8
0
100
AcDbLine
 62
7
  6
CONTINUOUS
 10
5.7967859815
 20
11.9450963744
 11
5.7954767716
 21
11.9451049022
  0
LINE
  5
279
100
AcDbEntity
  8
0
100
AcDbLine
 62
7
  6
CONTINUOUS
 10
5.7955137193
 20
12.0297828213
 11
5.7968229293
 21
12.0297742936
  0
LINE
  5
27A
100
AcDbEntity
  8
0
100
AcDbLine
 62
7
  6
CONTINUOUS
 10
5.7968229293
 20
12.0297742936
 11
5.8322309696
 21
12.0086062351
  0
LINE
  5
27B
100
AcDbEntity
  8
0
100
AcDbLine
 62
7
  6
CONTINUOUS
 10
5.1614970839
 20
12.8662514851
 11
5.0745179172
 21
13.0169038209
  0
LINE
  5
27C
100
AcDbEntity
  8
0
100
AcDbLine
 62
7
  6
CONTINUOUS
 10
5.5352470839
 20
11.829214448
 11
5.5352470839
 21
11.8208811147
  0
LINE
  5
27D
100
AcDbEntity
  8
0
100
AcDbLine
 62
7
  6
CONTINUOUS
 10
5.5352470839
 20
13.3708811147
 11
5.5352470839
 21
13.379214448
  0
LINE
  5
27E
100
AcDbEntity
  8
0
100
AcDbLine
 62
7
  6
CONTINUOUS
 10
5.5760804172
 20
13.4000477814
 11
5.5760804172
 21
13.379214448
  0
LINE
  5
27F
100
AcDbEntity
  8
0
100
AcDbLine
 62
7
  6
CONTINUOUS
 10
5.5760804172
 20
11.8000477814
 11
5.5760804172
 21
11.8208811147
  0
LINE
  5
280
100
AcDbEntity
  8
0
100
AcDbLine
 62
7
  6
CONTINUOUS
 10
5.6169137505
 20
13.379214448
 11
5.6169137505
 21
13.3708811147
  0
LINE
  5
281
100
AcDbEntity
  8
0
100
AcDbLine
 62
7
  6
CONTINUOUS
 10
5.6169137505
 20
11.8208811147
 11
5.6169137505
 21
11.829214448
  0
LINE
  5
282
100
AcDbEntity
  8
0
100
AcDbLine
 62
7
  6
CONTINUOUS
 10
5.0146220839
 20
12.0223173497
 11
5.0146377897
 21
12.0223179879
  0
LINE
  5
283
100
AcDbEntity
  8
0
100
AcDbLine
 62
7
  6
CONTINUOUS
 10
4.0417054172
 20
12.0375477814
 11
5.0045957319
 21
12.0375477814
  0
LINE
  5
284
100
AcDbEntity
  8
0
100
AcDbLine
 62
7
  6
CONTINUOUS
 10
7.1371472462
 20
12.0375477814
 11
8.1000387505
 21
12.0375477814
  0
LINE
  5
285
100
AcDbEntity
  8
0
100
AcDbLine
 62
7
  6
CONTINUOUS
 10
7.1432275181
 20
12.0389840434
 11
7.1437851508
 21
12.0389840435
  0
LINE
  5
286
100
AcDbEntity
  8
0
100
AcDbLine
 62
7
  6
CONTINUOUS
 10
4.7896220839
 20
12.054214448
 11
4.976348503
 21
12.054214448
  0
LINE
  5
287
100
AcDbEntity
  8
0
100
AcDbLine
 62
7
  6
CONTINUOUS
 10
7.1653956638
 20
12.054214448
 11
7.3521220839
 21
12.054214448
  0
LINE
  5
288
100
AcDbEntity
  8
0
100
AcDbLine
 62
7
  6
CONTINUOUS
 10
4.2687887505
 20
12.1625477814
 11
4.4562887505
 21
12.1625477814
  0
LINE
  5
289
100
AcDbEntity
  8
0
100
AcDbLine
 62
7
  6
CONTINUOUS
 10
7.6854554172
 20
12.1625477814
 11
7.8729554172
 21
12.1625477814
  0
LINE
  5
28A
100
AcDbEntity
  8
0
100
AcDbLine
 62
7
  6
CONTINUOUS
 10
7.1271220839
 20
12.0223173488
 11
7.1271133937
 21
12.0223177016
  0
LINE
  5
28B
100
AcDbEntity
  8
0
100
AcDbLine
 62
7
  6
CONTINUOUS
 10
5.6169137505
 20
13.379214448
 11
5.6156273777
 21
13.4000477814
  0
LINE
  5
28C
100
AcDbEntity
  8
0
100
AcDbLine
 62
7
  6
CONTINUOUS
 10
5.7120997424
 20
12.5729844875
 11
5.7120997424
 21
12.6271110752
  0
LINE
  5
28D
100
AcDbEntity
  8
0
100
AcDbLine
 62
7
  6
CONTINUOUS
 10
5.6156273777
 20
11.8000477814
 11
5.6169137505
 21
11.8208811147
  0
LINE
  5
28E
100
AcDbEntity
  8
0
100
AcDbLine
 62
7
  6
CONTINUOUS
 10
4.5949145833
 20
12.0378350074
 11
4.5944814501
 21
12.0375477814
  0
LINE
  5
28F
100
AcDbEntity
  8
0
100
AcDbLine
 62
7
  6
CONTINUOUS
 10
4.9005595839
 20
12.1831917418
 11
5.0745179172
 21
12.1831917418
  0
LINE
  5
290
100
AcDbEntity
  8
0
100
AcDbLine
 62
7
  6
CONTINUOUS
 10
7.0672262505
 20
12.1831917418
 11
7.2411845839
 21
12.1831917418
  0
LINE
  5
291
100
AcDbEntity
  8
0
100
AcDbLine
 62
7
  6
CONTINUOUS
 10
4.5944814501
 20
13.1625477814
 11
4.5949145833
 21
13.1622605554
  0
LINE
  5
292
100
AcDbEntity
  8
0
100
AcDbLine
 62
7
  6
CONTINUOUS
 10
5.8026552886
 20
12.5729844875
 11
5.8026552886
 21
12.6271110752
  0
LINE
  5
293
100
AcDbEntity
  8
0
100
AcDbLine
 62
7
  6
CONTINUOUS
 10
5.8061062092
 20
12.6271110752
 11
5.8061062092
 21
12.5729844875
  0
LINE
  5
294
100
AcDbEntity
  8
0
100
AcDbLine
 62
7
  6
CONTINUOUS
 10
5.8322309696
 20
12.0086062351
 11
5.8322124957
 21
11.9662672755
  0
LINE
  5
295
100
AcDbEntity
  8
0
100
AcDbLine
 62
7
  6
CONTINUOUS
 10
5.7120997424
 20
12.6271110752
 11
5.7573775155
 21
12.6541743691
  0
LINE
  5
296
100
AcDbEntity
  8
0
100
AcDbLine
 62
7
  6
CONTINUOUS
 10
7.8729554172
 20
12.329214448
 11
7.6854554172
 21
12.329214448
  0
LINE
  5
297
100
AcDbEntity
  8
0
100
AcDbLine
 62
7
  6
CONTINUOUS
 10
4.4562887505
 20
12.329214448
 11
4.2687887505
 21
12.329214448
  0
LINE
  5
298
100
AcDbEntity
  8
0
100
AcDbLine
 62
7
  6
CONTINUOUS
 10
5.7573775155
 20
12.5459211936
 11
5.7120997424
 21
12.5729844875
  0
LINE
  5
299
100
AcDbEntity
  8
0
100
AcDbLine
 62
7
  6
CONTINUOUS
 10
5.7573775155
 20
12.5459211936
 11
5.8026552886
 21
12.5729844875
  0
LINE
  5
29A
100
AcDbEntity
  8
0
100
AcDbLine
 62
7
  6
CONTINUOUS
 10
5.8061062092
 20
12.5729844875
 11
5.7608284361
 21
12.5459211936
  0
LINE
  5
29B
100
AcDbEntity
  8
0
100
AcDbLine
 62
7
  6
CONTINUOUS
 10
7.2411845839
 20
12.4844964135
 11
7.0672262505
 21
12.4844964135
  0
LINE
  5
29C
100
AcDbEntity
  8
0
100
AcDbLine
 62
7
  6
CONTINUOUS
 10
5.0745179172
 20
12.4844964135
 11
4.9005595839
 21
12.4844964135
  0
LINE
  5
29D
100
AcDbEntity
  8
0
100
AcDbLine
 62
7
  6
CONTINUOUS
 10
7.8729554172
 20
12.4958811147
 11
7.6854554172
 21
12.4958811147
  0
LINE
  5
29E
100
AcDbEntity
  8
0
100
AcDbLine
 62
7
  6
CONTINUOUS
 10
4.4562887505
 20
12.4958811147
 11
4.2687887505
 21
12.4958811147
  0
LINE
  5
29F
100
AcDbEntity
  8
0
100
AcDbLine
 62
7
  6
CONTINUOUS
 10
5.7573775155
 20
12.5459211936
 11
5.7608284361
 21
12.5459211936
  0
LINE
  5
2A0
100
AcDbEntity
  8
0
100
AcDbLine
 62
7
  6
CONTINUOUS
 10
5.8061062092
 20
12.5729844875
 11
5.8026552886
 21
12.5729844875
  0
LINE
  5
2A1
100
AcDbEntity
  8
0
100
AcDbLine
 62
7
  6
CONTINUOUS
 10
5.8026552886
 20
12.6271110752
 11
5.7573775155
 21
12.6541743691
  0
LINE
  5
2A2
100
AcDbEntity
  8
0
100
AcDbLine
 62
7
  6
CONTINUOUS
 10
5.7608284361
 20
12.6541743691
 11
5.8061062092
 21
12.6271110752
  0
LINE
  5
2A3
100
AcDbEntity
  8
0
100
AcDbLine
 62
7
  6
CONTINUOUS
 10
5.8026552886
 20
12.6271110752
 11
5.8061062092
 21
12.6271110752
  0
LINE
  5
2A4
100
AcDbEntity
  8
0
100
AcDbLine
 62
7
  6
CONTINUOUS
 10
5.7573775155
 20
12.6541743691
 11
5.7608284361
 21
12.6541743691
  0
LINE
  5
2A5
100
AcDbEntity
  8
0
100
AcDbLine
 62
7
  6
CONTINUOUS
 10
4.2687887505
 20
12.704214448
 11
4.4562887505
 21
12.704214448
  0
LINE
  5
2A6
100
AcDbEntity
  8
0
100
AcDbLine
 62
7
  6
CONTINUOUS
 10
7.6854554172
 20
12.704214448
 11
7.8729554172
 21
12.704214448
  0
LINE
  5
2A7
100
AcDbEntity
  8
0
100
AcDbLine
 62
7
  6
CONTINUOUS
 10
4.9005595839
 20
12.7155991492
 11
5.0745179172
 21
12.7155991492
  0
LINE
  5
2A8
100
AcDbEntity
  8
0
100
AcDbLine
 62
7
  6
CONTINUOUS
 10
7.0672262505
 20
12.7155991492
 11
7.2411845839
 21
12.7155991492
  0
LINE
  5
2A9
100
AcDbEntity
  8
0
100
AcDbLine
 62
7
  6
CONTINUOUS
 10
4.2687887505
 20
12.8708811147
 11
4.4562887505
 21
12.8708811147
  0
LINE
  5
2AA
100
AcDbEntity
  8
0
100
AcDbLine
 62
7
  6
CONTINUOUS
 10
7.6854554172
 20
12.8708811147
 11
7.8729554172
 21
12.8708811147
  0
LINE
  5
2AB
100
AcDbEntity
  8
0
100
AcDbLine
 62
7
  6
CONTINUOUS
 10
7.5468295845
 20
13.1622605554
 11
7.5472627176
 21
13.1625477814
  0
LINE
  5
2AC
100
AcDbEntity
  8
0
100
AcDbLine
 62
7
  6
CONTINUOUS
 10
5.8322124957
 20
11.9662672755
 11
5.7967859815
 21
11.9450963744
  0
LINE
  5
2AD
100
AcDbEntity
  8
0
100
AcDbLine
 62
7
  6
CONTINUOUS
 10
7.2411845839
 20
13.0169038209
 11
7.0672262505
 21
13.0169038209
  0
LINE
  5
2AE
100
AcDbEntity
  8
0
100
AcDbLine
 62
7
  6
CONTINUOUS
 10
5.0745179172
 20
13.0169038209
 11
4.9005595839
 21
13.0169038209
  0
LINE
  5
2AF
100
AcDbEntity
  8
0
100
AcDbLine
 62
7
  6
CONTINUOUS
 10
7.8729554172
 20
13.0375477814
 11
7.6854554172
 21
13.0375477814
  0
LINE
  5
2B0
100
AcDbEntity
  8
0
100
AcDbLine
 62
7
  6
CONTINUOUS
 10
4.4562887505
 20
13.0375477814
 11
4.2687887505
 21
13.0375477814
  0
LINE
  5
2B1
100
AcDbEntity
  8
0
100
AcDbLine
 62
7
  6
CONTINUOUS
 10
7.5472627176
 20
12.0375477814
 11
7.5468295845
 21
12.0378350074
  0
LINE
  5
2B2
100
AcDbEntity
  8
0
100
AcDbLine
 62
7
  6
CONTINUOUS
 10
7.1271057868
 20
13.1777775598
 11
7.1271220839
 21
13.1777782131
  0
LINE
  5
2B3
100
AcDbEntity
  8
0
100
AcDbLine
 62
7
  6
CONTINUOUS
 10
7.3521220839
 20
13.1458811147
 11
7.1653970191
 21
13.1458811147
  0
LINE
  5
2B4
100
AcDbEntity
  8
0
100
AcDbLine
 62
7
  6
CONTINUOUS
 10
4.9763471478
 20
13.1458811147
 11
4.7896220839
 21
13.1458811147
  0
LINE
  5
2B5
100
AcDbEntity
  8
0
100
AcDbLine
 62
7
  6
CONTINUOUS
 10
4.9985128667
 20
13.1611115193
 11
4.9979592546
 21
13.1611115193
  0
LINE
  5
2B6
100
AcDbEntity
  8
0
100
AcDbLine
 62
7
  6
CONTINUOUS
 10
4.0417054172
 20
13.1625477814
 11
5.0045983855
 21
13.1625477814
  0
LINE
  5
2B7
100
AcDbEntity
  8
0
100
AcDbLine
 62
7
  6
CONTINUOUS
 10
7.1371470398
 20
13.1625477814
 11
8.1000387505
 21
13.1625477814
  0
LINE
  5
2B8
100
AcDbEntity
  8
0
100
AcDbLine
 62
7
  6
CONTINUOUS
 10
5.0157906591
 20
13.17769007
 11
5.0146220839
 21
13.1777417989
  0
LINE
  5
2B9
100
AcDbEntity
  8
0
100
AcDbLine
 62
7
  6
CONTINUOUS
 10
7.0672262505
 20
13.0169038209
 11
6.9802470839
 21
12.8662514851
  0
LINE
  5
2BA
100
AcDbEntity
  8
0
100
AcDbLine
 62
7
  6
CONTINUOUS
 10
5.0146220839
 20
13.354214448
 11
7.1271220839
 21
13.354214448
  0
LINE
  5
2BB
100
AcDbEntity
  8
0
100
AcDbLine
 62
7
  6
CONTINUOUS
 10
6.9802470839
 20
12.3338440777
 11
7.0672262505
 21
12.1831917418
  0
LINE
  5
2BC
100
AcDbEntity
  8
0
100
AcDbLine
 62
7
  6
CONTINUOUS
 10
5.0312887505
 20
13.3708811147
 11
7.1104554172
 21
13.3708811147
  0
LINE
  5
2BD
100
AcDbEntity
  8
0
100
AcDbLine
 62
7
  6
CONTINUOUS
 10
5.5352470839
 20
13.379214448
 11
5.6169137505
 21
13.379214448
  0
LINE
  5
2BE
100
AcDbEntity
  8
0
100
AcDbLine
 62
7
  6
CONTINUOUS
 10
5.5365334567
 20
13.4000477814
 11
5.6156273777
 21
13.4000477814
  0
LINE
  5
2BF
100
AcDbEntity
  8
0
100
AcDbLine
 62
7
  6
CONTINUOUS
 10
7.0672262505
 20
12.4844964135
 11
6.9802470839
 21
12.3338440777
  0
LINE
  5
2C0
100
AcDbEntity
  8
0
100
AcDbLine
 62
7
  6
CONTINUOUS
 10
7.2411845839
 20
12.7155991492
 11
7.3281637505
 21
12.8662514851
  0
LINE
  5
2C1
100
AcDbEntity
  8
0
100
AcDbLine
 62
7
  6
CONTINUOUS
 10
6.9802470839
 20
12.8662514851
 11
7.0672262505
 21
12.7155991492
  0
LINE
  5
2C2
100
AcDbEntity
  8
0
100
AcDbLine
 62
7
  6
CONTINUOUS
 10
7.3281637505
 20
12.3338440777
 11
7.2411845839
 21
12.4844964135
  0
LINE
  5
2C3
100
AcDbEntity
  8
0
100
AcDbLine
 62
7
  6
CONTINUOUS
 10
7.1271220839
 20
11.8458811147
 11
7.1271220839
 21
12.0227044979
  0
LINE
  5
2C4
100
AcDbEntity
  8
0
100
AcDbLine
 62
7
  6
CONTINUOUS
 10
7.1271220839
 20
13.177370983
 11
7.1271220839
 21
13.354214448
  0
LINE
  5
2C5
100
AcDbEntity
  8
0
100
AcDbLine
 62
7
  6
CONTINUOUS
 10
7.1618283373
 20
12.0625477814
 11
7.1618283373
 21
12.1266925415
  0
LINE
  5
2C6
100
AcDbEntity
  8
0
100
AcDbLine
 62
7
  6
CONTINUOUS
 10
7.1618283373
 20
12.5409956138
 11
7.1618283373
 21
12.6590999489
  0
LINE
  5
2C7
100
AcDbEntity
  8
0
100
AcDbLine
 62
7
  6
CONTINUOUS
 10
7.1618283373
 20
13.0734029949
 11
7.1618283373
 21
13.1375477814
  0
LINE
  5
2C8
100
AcDbEntity
  8
0
100
AcDbLine
 62
7
  6
CONTINUOUS
 10
7.2411845839
 20
12.1831917418
 11
7.3281637505
 21
12.3338440777
  0
LINE
  5
2C9
100
AcDbEntity
  8
0
100
AcDbLine
 62
7
  6
CONTINUOUS
 10
7.1104554172
 20
11.829214448
 11
7.1271220839
 21
11.8458811147
  0
LINE
  5
2CA
100
AcDbEntity
  8
0
100
AcDbLine
 62
7
  6
CONTINUOUS
 10
7.1104554172
 20
13.3708811147
 11
7.1271220839
 21
13.354214448
  0
LINE
  5
2CB
100
AcDbEntity
  8
0
100
AcDbLine
 62
7
  6
CONTINUOUS
 10
7.3281637505
 20
12.8662514851
 11
7.2411845839
 21
13.0169038209
  0
LINE
  5
2CC
100
AcDbEntity
  8
0
100
AcDbLine
 62
7
  6
CONTINUOUS
 10
7.4354554172
 20
12.1375477814
 11
7.4354554172
 21
13.0625477814
  0
LINE
  5
2CD
100
AcDbEntity
  8
0
100
AcDbLine
 62
7
  6
CONTINUOUS
 10
8.1333720839
 20
12.0708811147
 11
8.1333720839
 21
13.129214448
  0
LINE
  5
2CE
100
AcDbEntity
  8
0
100
AcDbLine
 62
7
  6
CONTINUOUS
 10
14.7895219236
 20
4.2889672187
 11
14.8061885903
 21
4.2723005521
  0
LINE
  5
2CF
100
AcDbEntity
  8
0
100
AcDbLine
 62
7
  6
CONTINUOUS
 10
14.7895219236
 20
6.4723005521
 11
14.8061885903
 21
6.4889672187
  0
LINE
  5
2D0
100
AcDbEntity
  8
0
100
AcDbLine
 62
7
  6
CONTINUOUS
 10
16.3603552569
 20
4.3410869249
 11
16.3395219236
 21
4.3398005521
  0
LINE
  5
2D1
100
AcDbEntity
  8
0
100
AcDbLine
 62
7
  6
CONTINUOUS
 10
14.9978552569
 20
4.2556338854
 11
16.1228552569
 21
4.2556338854
  0
LINE
  5
2D2
100
AcDbEntity
  8
0
100
AcDbLine
 62
7
  6
CONTINUOUS
 10
14.8061885903
 20
4.2723005521
 11
14.9978552569
 21
4.2723005521
  0
LINE
  5
2D3
100
AcDbEntity
  8
0
100
AcDbLine
 62
7
  6
CONTINUOUS
 10
16.1228552569
 20
4.2723005521
 11
16.3145219236
 21
4.2723005521
  0
LINE
  5
2D4
100
AcDbEntity
  8
0
100
AcDbLine
 62
7
  6
CONTINUOUS
 10
14.7811885903
 20
4.3398005521
 11
14.7603552569
 21
4.3410869249
  0
LINE
  5
2D5
100
AcDbEntity
  8
0
100
AcDbLine
 62
7
  6
CONTINUOUS
 10
16.3395219236
 20
4.3398005521
 11
16.3311885903
 21
4.3398005521
  0
LINE
  5
2D6
100
AcDbEntity
  8
0
100
AcDbLine
 62
7
  6
CONTINUOUS
 10
14.7811885903
 20
4.3398005521
 11
14.7895219236
 21
4.3398005521
  0
LINE
  5
2D7
100
AcDbEntity
  8
0
100
AcDbLine
 62
7
  6
CONTINUOUS
 10
14.7603552569
 20
4.3806338854
 11
14.7811885903
 21
4.3806338854
  0
LINE
  5
2D8
100
AcDbEntity
  8
0
100
AcDbLine
 62
7
  6
CONTINUOUS
 10
16.3395219236
 20
4.3806338854
 11
16.3603552569
 21
4.3806338854
  0
LINE
  5
2D9
100
AcDbEntity
  8
0
100
AcDbLine
 62
7
  6
CONTINUOUS
 10
14.7603552569
 20
4.4201808459
 11
14.7811885903
 21
4.4214672187
  0
LINE
  5
2DA
100
AcDbEntity
  8
0
100
AcDbLine
 62
7
  6
CONTINUOUS
 10
16.3395219236
 20
4.4214672187
 11
16.3311885903
 21
4.4214672187
  0
LINE
  5
2DB
100
AcDbEntity
  8
0
100
AcDbLine
 62
7
  6
CONTINUOUS
 10
14.7811885903
 20
4.4214672187
 11
14.7895219236
 21
4.4214672187
  0
LINE
  5
2DC
100
AcDbEntity
  8
0
100
AcDbLine
 62
7
  6
CONTINUOUS
 10
16.3603552569
 20
4.4201808459
 11
16.3395219236
 21
4.4214672187
  0
LINE
  5
2DD
100
AcDbEntity
  8
0
100
AcDbLine
 62
7
  6
CONTINUOUS
 10
14.7603552569
 20
4.3410869249
 11
14.7603552569
 21
4.4201808459
  0
LINE
  5
2DE
100
AcDbEntity
  8
0
100
AcDbLine
 62
7
  6
CONTINUOUS
 10
14.7811885903
 20
4.3398005521
 11
14.7811885903
 21
4.4214672187
  0
LINE
  5
2DF
100
AcDbEntity
  8
0
100
AcDbLine
 62
7
  6
CONTINUOUS
 10
14.7895219236
 20
4.2889672187
 11
14.7895219236
 21
6.4723005517
  0
LINE
  5
2E0
100
AcDbEntity
  8
0
100
AcDbLine
 62
7
  6
CONTINUOUS
 10
14.9978552569
 20
4.6098005521
 11
16.1228552569
 21
4.6098005521
  0
LINE
  5
2E1
100
AcDbEntity
  8
0
100
AcDbLine
 62
7
  6
CONTINUOUS
 10
14.8061885903
 20
4.2723005521
 11
14.8061885903
 21
6.4889672187
  0
LINE
  5
2E2
100
AcDbEntity
  8
0
100
AcDbLine
 62
7
  6
CONTINUOUS
 10
14.9826248244
 20
5.4327172187
 11
14.9844974215
 21
6.4889672187
  0
LINE
  5
2E3
100
AcDbEntity
  8
0
100
AcDbLine
 62
7
  6
CONTINUOUS
 10
15.0870000962
 20
5.9275088854
 11
15.0868598919
 21
5.9439611876
  0
LINE
  5
2E4
100
AcDbEntity
  8
0
100
AcDbLine
 62
7
  6
CONTINUOUS
 10
14.9978552569
 20
4.2556338854
 11
14.9978552569
 21
4.6098005521
  0
LINE
  5
2E5
100
AcDbEntity
  8
0
100
AcDbLine
 62
7
  6
CONTINUOUS
 10
15.0145219236
 20
5.0619948929
 11
15.0145219236
 21
5.9191755521
  0
LINE
  5
2E6
100
AcDbEntity
  8
0
100
AcDbLine
 62
7
  6
CONTINUOUS
 10
15.0012593567
 20
6.6139916912
 11
14.9993853976
 21
5.4327172193
  0
LINE
  5
2E7
100
AcDbEntity
  8
0
100
AcDbLine
 62
7
  6
CONTINUOUS
 10
14.9978552569
 20
4.6098005521
 11
15.0013532383
 21
6.6139941906
  0
LINE
  5
2E8
100
AcDbEntity
  8
0
100
AcDbLine
 62
7
  6
CONTINUOUS
 10
15.0180198736
 20
6.6306338854
 11
15.0168052928
 21
5.9249063325
  0
LINE
  5
2E9
100
AcDbEntity
  8
0
100
AcDbLine
 62
7
  6
CONTINUOUS
 10
15.0148650916
 20
4.8182311806
 11
15.0152587725
 21
5.0395350184
  0
LINE
  5
2EA
100
AcDbEntity
  8
0
100
AcDbLine
 62
7
  6
CONTINUOUS
 10
16.0228552569
 20
4.9219146883
 11
15.0978552569
 21
4.9219146883
  0
LINE
  5
2EB
100
AcDbEntity
  8
0
100
AcDbLine
 62
7
  6
CONTINUOUS
 10
15.1201932199
 20
5.9441755521
 11
15.1201932199
 21
5.9275088854
  0
LINE
  5
2EC
100
AcDbEntity
  8
0
100
AcDbLine
 62
7
  6
CONTINUOUS
 10
15.1434992174
 20
5.9441755521
 11
15.1434992174
 21
6.0848005521
  0
LINE
  5
2ED
100
AcDbEntity
  8
0
100
AcDbLine
 62
7
  6
CONTINUOUS
 10
15.2941515532
 20
6.0614945546
 11
15.2941515532
 21
5.9441755521
  0
LINE
  5
2EE
100
AcDbEntity
  8
0
100
AcDbLine
 62
7
  6
CONTINUOUS
 10
15.4448038891
 20
5.9441755521
 11
15.4448038891
 21
6.0848005521
  0
LINE
  5
2EF
100
AcDbEntity
  8
0
100
AcDbLine
 62
7
  6
CONTINUOUS
 10
15.4561885903
 20
4.6098005521
 11
15.4561885903
 21
4.6923582543
  0
LINE
  5
2F0
100
AcDbEntity
  8
0
100
AcDbLine
 62
7
  6
CONTINUOUS
 10
15.4681098866
 20
5.9275088854
 11
15.4681098866
 21
5.9441755521
  0
LINE
  5
2F1
100
AcDbEntity
  8
0
100
AcDbLine
 62
7
  6
CONTINUOUS
 10
15.501443219
 20
5.9439924047
 11
15.5013030537
 21
5.9275088854
  0
LINE
  5
2F2
100
AcDbEntity
  8
0
100
AcDbLine
 62
7
  6
CONTINUOUS
 10
14.9830119734
 20
5.4327172187
 11
15.0145212931
 21
5.4327172208
  0
LINE
  5
2F3
100
AcDbEntity
  8
0
100
AcDbLine
 62
7
  6
CONTINUOUS
 10
16.1061889935
 20
5.43271722
 11
16.1376784585
 21
5.4327172187
  0
LINE
  5
2F4
100
AcDbEntity
  8
0
100
AcDbLine
 62
7
  6
CONTINUOUS
 10
15.6194075036
 20
5.9275088854
 11
15.6192672993
 21
5.9439611873
  0
LINE
  5
2F5
100
AcDbEntity
  8
0
100
AcDbLine
 62
7
  6
CONTINUOUS
 10
15.6526006273
 20
5.9441755521
 11
15.6526006273
 21
5.9275088854
  0
LINE
  5
2F6
100
AcDbEntity
  8
0
100
AcDbLine
 62
7
  6
CONTINUOUS
 10
15.6645219236
 20
4.6923582543
 11
15.6645219236
 21
4.6098005521
  0
LINE
  5
2F7
100
AcDbEntity
  8
0
100
AcDbLine
 62
7
  6
CONTINUOUS
 10
15.6759066248
 20
6.0848005521
 11
15.6759066248
 21
5.9441755521
  0
LINE
  5
2F8
100
AcDbEntity
  8
0
100
AcDbLine
 62
7
  6
CONTINUOUS
 10
15.8265589606
 20
5.9441755521
 11
15.8265589606
 21
6.0614945546
  0
LINE
  5
2F9
100
AcDbEntity
  8
0
100
AcDbLine
 62
7
  6
CONTINUOUS
 10
15.9772112965
 20
5.9441755521
 11
15.9772112965
 21
6.0848005521
  0
LINE
  5
2FA
100
AcDbEntity
  8
0
100
AcDbLine
 62
7
  6
CONTINUOUS
 10
16.000517294
 20
5.9275088854
 11
16.000517294
 21
5.9441755521
  0
LINE
  5
2FB
100
AcDbEntity
  8
0
100
AcDbLine
 62
7
  6
CONTINUOUS
 10
16.0338506265
 20
5.9439924037
 11
16.0337104611
 21
5.9275088854
  0
LINE
  5
2FC
100
AcDbEntity
  8
0
100
AcDbLine
 62
7
  6
CONTINUOUS
 10
15.0228552569
 20
5.9275088854
 11
16.0978552569
 21
5.9275088854
  0
LINE
  5
2FD
100
AcDbEntity
  8
0
100
AcDbLine
 62
7
  6
CONTINUOUS
 10
15.1201932199
 20
5.9441755521
 11
15.4681098866
 21
5.9441755521
  0
LINE
  5
2FE
100
AcDbEntity
  8
0
100
AcDbLine
 62
7
  6
CONTINUOUS
 10
15.6526006273
 20
5.9441755521
 11
16.000517294
 21
5.9441755521
  0
LINE
  5
2FF
100
AcDbEntity
  8
0
100
AcDbLine
 62
7
  6
CONTINUOUS
 10
16.1054517417
 20
5.0395350184
 11
16.1058454213
 21
4.8182311806
  0
LINE
  5
300
100
AcDbEntity
  8
0
100
AcDbLine
 62
7
  6
CONTINUOUS
 10
16.1039052219
 20
5.924906332
 11
16.1026906353
 21
6.6306338854
  0
LINE
  5
301
100
AcDbEntity
  8
0
100
AcDbLine
 62
7
  6
CONTINUOUS
 10
16.1362130995
 20
6.4889671324
 11
16.1380856886
 21
5.4327172187
  0
LINE
  5
302
100
AcDbEntity
  8
0
100
AcDbLine
 62
7
  6
CONTINUOUS
 10
16.1061885903
 20
5.9191755521
 11
16.1061885903
 21
5.061994718
  0
LINE
  5
303
100
AcDbEntity
  8
0
100
AcDbLine
 62
7
  6
CONTINUOUS
 10
16.1228552569
 20
4.2556338854
 11
16.1228552569
 21
4.6007634874
  0
LINE
  5
304
100
AcDbEntity
  8
0
100
AcDbLine
 62
7
  6
CONTINUOUS
 10
16.1228552569
 20
4.6007634874
 11
16.1194006696
 21
6.6139908309
  0
LINE
  5
305
100
AcDbEntity
  8
0
100
AcDbLine
 62
7
  6
CONTINUOUS
 10
15.1434992174
 20
6.0848005521
 11
15.4448038891
 21
6.0848005521
  0
LINE
  5
306
100
AcDbEntity
  8
0
100
AcDbLine
 62
7
  6
CONTINUOUS
 10
15.6759066248
 20
6.0848005521
 11
15.9772112965
 21
6.0848005521
  0
LINE
  5
307
100
AcDbEntity
  8
0
100
AcDbLine
 62
7
  6
CONTINUOUS
 10
16.3145219236
 20
4.2723005521
 11
16.3145219236
 21
6.4889672187
  0
LINE
  5
308
100
AcDbEntity
  8
0
100
AcDbLine
 62
7
  6
CONTINUOUS
 10
16.3311885903
 20
6.4723005517
 11
16.3311885903
 21
4.2889672187
  0
LINE
  5
309
100
AcDbEntity
  8
0
100
AcDbLine
 62
7
  6
CONTINUOUS
 10
16.3395219236
 20
4.4214672187
 11
16.3395219236
 21
4.3398005521
  0
LINE
  5
30A
100
AcDbEntity
  8
0
100
AcDbLine
 62
7
  6
CONTINUOUS
 10
16.3603552569
 20
4.4201808459
 11
16.3603552569
 21
4.3410869249
  0
LINE
  5
30B
100
AcDbEntity
  8
0
100
AcDbLine
 62
7
  6
CONTINUOUS
 10
14.8061885903
 20
6.4889672187
 11
14.9844974215
 21
6.4889672187
  0
LINE
  5
30C
100
AcDbEntity
  8
0
100
AcDbLine
 62
7
  6
CONTINUOUS
 10
16.1362131008
 20
6.4889672187
 11
16.3145219236
 21
6.4889672187
  0
LINE
  5
30D
100
AcDbEntity
  8
0
100
AcDbLine
 62
7
  6
CONTINUOUS
 10
15.0180198736
 20
6.6306338854
 11
16.1026906353
 21
6.6306338854
  0
LINE
  5
30E
100
AcDbEntity
  8
0
100
AcDbLine
 62
7
  6
CONTINUOUS
 10
16.3311885903
 20
6.4723005521
 11
16.3145219236
 21
6.4889672187
  0
LINE
  5
30F
100
AcDbEntity
  8
0
100
AcDbLine
 62
7
  6
CONTINUOUS
 10
16.3145219236
 20
4.2723005521
 11
16.3311885903
 21
4.2889672187
  0
LINE
  5
310
100
AcDbEntity
  8
0
100
AcDbLine
 62
7
  6
CONTINUOUS
 10
13.4960102019
 20
11.3822985325
 11
13.3930585719
 21
11.5920918968
  0
LINE
  5
311
100
AcDbEntity
  8
0
100
AcDbLine
 62
7
  6
CONTINUOUS
 10
13.8692387722
 20
11.6935481499
 11
13.9189704942
 21
11.5910259229
  0
LINE
  5
312
100
AcDbEntity
  8
0
100
AcDbLine
 62
7
  6
CONTINUOUS
 10
13.6464579435
 20
12.4857395608
 11
13.8703692927
 21
13.2103169522
  0
LINE
  5
313
100
AcDbEntity
  8
0
100
AcDbLine
 62
7
  6
CONTINUOUS
 10
13.3917082631
 20
11.6116974432
 11
13.647895122
 21
12.4407184226
  0
LINE
  5
314
100
AcDbEntity
  8
0
100
AcDbLine
 62
7
  6
CONTINUOUS
 10
14.3656354768
 20
11.2359153839
 11
14.3563046315
 21
11.2461264317
  0
LINE
  5
315
100
AcDbEntity
  8
0
100
AcDbLine
 62
7
  6
CONTINUOUS
 10
13.9466824285
 20
11.8393192636
 11
13.6486883873
 21
12.4465672736
  0
LINE
  5
316
100
AcDbEntity
  8
0
100
AcDbLine
 62
7
  6
CONTINUOUS
 10
13.8733267725
 20
12.4048679313
 11
13.8753135861
 21
12.4180019236
  0
LINE
  5
317
100
AcDbEntity
  8
0
100
AcDbLine
 62
7
  6
CONTINUOUS
 10
13.8879600078
 20
12.4711732872
 11
13.8881946291
 21
12.4721467802
  0
LINE
  5
318
100
AcDbEntity
  8
0
100
AcDbLine
 62
7
  6
CONTINUOUS
 10
13.8878968952
 20
12.471188498
 11
13.9053219025
 21
12.5275758422
  0
LINE
  5
319
100
AcDbEntity
  8
0
100
AcDbLine
 62
7
  6
CONTINUOUS
 10
14.0047303595
 20
12.849261727
 11
14.0341998061
 21
12.9446248913
  0
LINE
  5
31A
100
AcDbEntity
  8
0
100
AcDbLine
 62
7
  6
CONTINUOUS
 10
14.1336082631
 20
13.2663107761
 11
14.1509831784
 21
13.3225360226
  0
LINE
  5
31B
100
AcDbEntity
  8
0
100
AcDbLine
 62
7
  6
CONTINUOUS
 10
14.0085255625
 20
11.9524214683
 11
14.3523331663
 21
11.2518152332
  0
LINE
  5
31C
100
AcDbEntity
  8
0
100
AcDbLine
 62
7
  6
CONTINUOUS
 10
14.0198421403
 20
11.9393660198
 11
14.3636497442
 21
11.2387597847
  0
LINE
  5
31D
100
AcDbEntity
  8
0
100
AcDbLine
 62
7
  6
CONTINUOUS
 10
13.789515454
 20
12.575947511
 11
13.7945994852
 21
12.5655873449
  0
LINE
  5
31E
100
AcDbEntity
  8
0
100
AcDbLine
 62
7
  6
CONTINUOUS
 10
13.793315174
 20
12.6075002192
 11
13.8291023815
 21
12.5345735577
  0
LINE
  5
31F
100
AcDbEntity
  8
0
100
AcDbLine
 62
7
  6
CONTINUOUS
 10
13.929162091
 20
12.1094488089
 11
13.9291935239
 21
12.1093838524
  0
LINE
  5
320
100
AcDbEntity
  8
0
100
AcDbLine
 62
7
  6
CONTINUOUS
 10
13.9722329707
 20
12.2642765044
 11
14.0155278982
 21
12.4043713676
  0
LINE
  5
321
100
AcDbEntity
  8
0
100
AcDbLine
 62
7
  6
CONTINUOUS
 10
16.2727684693
 20
11.2288709771
 11
16.286233333
 21
11.232037618
  0
LINE
  5
322
100
AcDbEntity
  8
0
100
AcDbLine
 62
7
  6
CONTINUOUS
 10
14.3840847919
 20
11.2283996185
 11
16.2684220754
 21
11.2283996185
  0
LINE
  5
323
100
AcDbEntity
  8
0
100
AcDbLine
 62
7
  6
CONTINUOUS
 10
14.7990725277
 20
11.2625334974
 11
14.8475611691
 21
11.2379507126
  0
LINE
  5
324
100
AcDbEntity
  8
0
100
AcDbLine
 62
7
  6
CONTINUOUS
 10
14.8719228532
 20
11.2625334974
 11
14.8234342118
 21
11.2871162823
  0
LINE
  5
325
100
AcDbEntity
  8
0
100
AcDbLine
 62
7
  6
CONTINUOUS
 10
14.8280848626
 20
11.3042352151
 11
14.8781507294
 21
11.2788528081
  0
LINE
  5
326
100
AcDbEntity
  8
0
100
AcDbLine
 62
7
  6
CONTINUOUS
 10
13.9585195221
 20
11.8608413626
 11
13.958829434
 21
11.8619451189
  0
LINE
  5
327
100
AcDbEntity
  8
0
100
AcDbLine
 62
7
  6
CONTINUOUS
 10
13.9588543618
 20
11.8619385566
 11
13.9584016881
 21
11.8604552999
  0
LINE
  5
328
100
AcDbEntity
  8
0
100
AcDbLine
 62
7
  6
CONTINUOUS
 10
14.4737609111
 20
13.2417094197
 11
14.4825375727
 21
13.2701107069
  0
LINE
  5
329
100
AcDbEntity
  8
0
100
AcDbLine
 62
7
  6
CONTINUOUS
 10
14.5225107606
 20
13.3071038369
 11
14.5314170265
 21
13.3128490996
  0
LINE
  5
32A
100
AcDbEntity
  8
0
100
AcDbLine
 62
7
  6
CONTINUOUS
 10
14.5052125783
 20
13.2280514742
 11
14.5497664696
 21
13.2567923414
  0
LINE
  5
32B
100
AcDbEntity
  8
0
100
AcDbLine
 62
7
  6
CONTINUOUS
 10
17.2558382469
 20
11.3708723924
 11
16.3390525673
 21
11.3708723924
  0
LINE
  5
32C
100
AcDbEntity
  8
0
100
AcDbLine
 62
7
  6
CONTINUOUS
 10
14.2939083985
 20
11.3708723924
 11
13.5178657129
 21
11.3708723924
  0
LINE
  5
32D
100
AcDbEntity
  8
0
100
AcDbLine
 62
7
  6
CONTINUOUS
 10
13.9183933577
 20
12.9929965601
 11
13.9234773888
 21
12.982636394
  0
LINE
  5
32E
100
AcDbEntity
  8
0
100
AcDbLine
 62
7
  6
CONTINUOUS
 10
13.9579802852
 20
12.9516226068
 11
13.9221930776
 21
13.0245492683
  0
LINE
  5
32F
100
AcDbEntity
  8
0
100
AcDbLine
 62
7
  6
CONTINUOUS
 10
14.0264771235
 20
12.8435202765
 11
14.0366650141
 21
12.8227595383
  0
LINE
  5
330
100
AcDbEntity
  8
0
100
AcDbLine
 62
7
  6
CONTINUOUS
 10
14.5231530159
 20
13.2914196166
 11
14.5237897423
 21
13.2940754065
  0
LINE
  5
331
100
AcDbEntity
  8
0
100
AcDbLine
 62
7
  6
CONTINUOUS
 10
14.5497664696
 20
13.2567923414
 11
14.5628686937
 21
13.2991911541
  0
LINE
  5
332
100
AcDbEntity
  8
0
100
AcDbLine
 62
7
  6
CONTINUOUS
 10
14.5699758396
 20
13.2911854325
 11
14.5568736155
 21
13.2487866198
  0
LINE
  5
333
100
AcDbEntity
  8
0
100
AcDbLine
 62
7
  6
CONTINUOUS
 10
14.4861756154
 20
12.7213994283
 11
14.4758887322
 21
12.6882770391
  0
LINE
  5
334
100
AcDbEntity
  8
0
100
AcDbLine
 62
7
  6
CONTINUOUS
 10
14.5568736155
 20
13.2487866198
 11
14.5123197243
 21
13.2200457526
  0
LINE
  5
335
100
AcDbEntity
  8
0
100
AcDbLine
 62
7
  6
CONTINUOUS
 10
14.4568564846
 20
12.1002143273
 11
14.4609713544
 21
12.1135285813
  0
LINE
  5
336
100
AcDbEntity
  8
0
100
AcDbLine
 62
7
  6
CONTINUOUS
 10
14.4608941553
 20
12.1132687772
 11
14.4609846414
 21
12.1135244681
  0
LINE
  5
337
100
AcDbEntity
  8
0
100
AcDbLine
 62
7
  6
CONTINUOUS
 10
13.6719335018
 20
11.5910259229
 11
14.1858727374
 21
11.5910259229
  0
LINE
  5
338
100
AcDbEntity
  8
0
100
AcDbLine
 62
7
  6
CONTINUOUS
 10
16.2516869937
 20
11.5910259229
 11
16.8856991358
 21
11.5910259229
  0
LINE
  5
339
100
AcDbEntity
  8
0
100
AcDbLine
 62
7
  6
CONTINUOUS
 10
13.649245943
 20
11.6889417866
 11
13.8219448793
 21
11.6889417866
  0
LINE
  5
33A
100
AcDbEntity
  8
0
100
AcDbLine
 62
7
  6
CONTINUOUS
 10
16.7962043391
 20
11.6889417866
 11
16.9689032755
 21
11.6889417866
  0
LINE
  5
33B
100
AcDbEntity
  8
0
100
AcDbLine
 62
7
  6
CONTINUOUS
 10
14.1655424352
 20
13.2398095706
 11
14.1553550272
 21
13.2605693256
  0
LINE
  5
33C
100
AcDbEntity
  8
0
100
AcDbLine
 62
7
  6
CONTINUOUS
 10
14.4707627984
 20
12.1383511032
 11
14.4710741264
 21
12.1389929597
  0
LINE
  5
33D
100
AcDbEntity
  8
0
100
AcDbLine
 62
7
  6
CONTINUOUS
 10
14.4691776767
 20
12.1392694038
 11
14.4695041566
 21
12.1399049044
  0
LINE
  5
33E
100
AcDbEntity
  8
0
100
AcDbLine
 62
7
  6
CONTINUOUS
 10
14.4714590238
 20
12.1380975936
 11
14.4717853682
 21
12.1387329302
  0
LINE
  5
33F
100
AcDbEntity
  8
0
100
AcDbLine
 62
7
  6
CONTINUOUS
 10
14.468656265
 20
12.139474507
 11
14.4690184098
 21
12.140096709
  0
LINE
  5
340
100
AcDbEntity
  8
0
100
AcDbLine
 62
7
  6
CONTINUOUS
 10
14.4758887322
 20
12.6882770391
 11
14.4410183344
 21
12.665815626
  0
LINE
  5
341
100
AcDbEntity
  8
0
100
AcDbLine
 62
7
  6
CONTINUOUS
 10
17.0092476627
 20
11.8194962715
 11
16.8365487264
 21
11.8194962715
  0
LINE
  5
342
100
AcDbEntity
  8
0
100
AcDbLine
 62
7
  6
CONTINUOUS
 10
13.8622892666
 20
11.8194962715
 11
13.6895903302
 21
11.8194962715
  0
LINE
  5
343
100
AcDbEntity
  8
0
100
AcDbLine
 62
7
  6
CONTINUOUS
 10
14.4137415366
 20
12.6795211932
 11
14.4164347523
 21
12.6764778928
  0
LINE
  5
344
100
AcDbEntity
  8
0
100
AcDbLine
 62
7
  6
CONTINUOUS
 10
14.4410183344
 20
12.665815626
 11
14.4383240926
 21
12.6688595113
  0
LINE
  5
345
100
AcDbEntity
  8
0
100
AcDbLine
 62
7
  6
CONTINUOUS
 10
13.8923433043
 20
11.9500507565
 11
13.7299347174
 21
11.9500507565
  0
LINE
  5
346
100
AcDbEntity
  8
0
100
AcDbLine
 62
7
  6
CONTINUOUS
 10
16.8768931136
 20
11.9500507565
 11
17.04959205
 21
11.9500507565
  0
LINE
  5
347
100
AcDbEntity
  8
0
100
AcDbLine
 62
7
  6
CONTINUOUS
 10
14.4758889722
 20
12.6882763042
 11
14.4731937611
 21
12.6913192086
  0
LINE
  5
348
100
AcDbEntity
  8
0
100
AcDbLine
 62
7
  6
CONTINUOUS
 10
14.4834812398
 20
12.72444225
 11
14.4861748574
 21
12.7213984954
  0
LINE
  5
349
100
AcDbEntity
  8
0
100
AcDbLine
 62
7
  6
CONTINUOUS
 10
14.8029307483
 20
11.2788528081
 11
14.7990725277
 21
11.2625334974
  0
LINE
  5
34A
100
AcDbEntity
  8
0
100
AcDbLine
 62
7
  6
CONTINUOUS
 10
14.8234342118
 20
11.2871162823
 11
14.8280848626
 21
11.3042352151
  0
LINE
  5
34B
100
AcDbEntity
  8
0
100
AcDbLine
 62
7
  6
CONTINUOUS
 10
16.0158447005
 20
12.1036842194
 11
16.0163583093
 21
12.1036842296
  0
LINE
  5
34C
100
AcDbEntity
  8
0
100
AcDbLine
 62
7
  6
CONTINUOUS
 10
14.801527721
 20
11.2909087424
 11
14.8035449404
 21
11.2974364666
  0
LINE
  5
34D
100
AcDbEntity
  8
0
100
AcDbLine
 62
7
  6
CONTINUOUS
 10
14.8795537567
 20
11.2667968737
 11
14.881570976
 21
11.273324598
  0
LINE
  5
34E
100
AcDbEntity
  8
0
100
AcDbLine
 62
7
  6
CONTINUOUS
 10
16.9676679849
 20
12.2437983476
 11
17.1403669213
 21
12.2437983476
  0
LINE
  5
34F
100
AcDbEntity
  8
0
100
AcDbLine
 62
7
  6
CONTINUOUS
 10
14.4410183344
 20
12.665815626
 11
14.4164355103
 21
12.6764788258
  0
LINE
  5
350
100
AcDbEntity
  8
0
100
AcDbLine
 62
7
  6
CONTINUOUS
 10
14.4737609112
 20
13.2417094197
 11
14.4808680571
 21
13.2337036981
  0
LINE
  5
351
100
AcDbEntity
  8
0
100
AcDbLine
 62
7
  6
CONTINUOUS
 10
14.5052125783
 20
13.2280514742
 11
14.5123197243
 21
13.2200457526
  0
LINE
  5
352
100
AcDbEntity
  8
0
100
AcDbLine
 62
7
  6
CONTINUOUS
 10
14.5568736155
 20
13.2487866198
 11
14.5497664696
 21
13.2567923414
  0
LINE
  5
353
100
AcDbEntity
  8
0
100
AcDbLine
 62
7
  6
CONTINUOUS
 10
14.5628686937
 20
13.2991911541
 11
14.5699758396
 21
13.2911854325
  0
LINE
  5
354
100
AcDbEntity
  8
0
100
AcDbLine
 62
7
  6
CONTINUOUS
 10
14.8719228532
 20
11.2625334974
 11
14.8781507294
 21
11.2788528081
  0
LINE
  5
355
100
AcDbEntity
  8
0
100
AcDbLine
 62
7
  6
CONTINUOUS
 10
17.1807113085
 20
12.3743528325
 11
17.0080123721
 21
12.3743528325
  0
LINE
  5
356
100
AcDbEntity
  8
0
100
AcDbLine
 62
7
  6
CONTINUOUS
 10
17.421176792
 20
12.4655197482
 11
17.2120191913
 21
12.4655197482
  0
LINE
  5
357
100
AcDbEntity
  8
0
100
AcDbLine
 62
7
  6
CONTINUOUS
 10
16.9109867573
 20
12.4722686962
 11
17.1580237496
 21
12.4722686962
  0
LINE
  5
358
100
AcDbEntity
  8
0
100
AcDbLine
 62
7
  6
CONTINUOUS
 10
15.5103297136
 20
11.8183615988
 11
15.5102718149
 21
11.8175616428
  0
LINE
  5
359
100
AcDbEntity
  8
0
100
AcDbLine
 62
7
  6
CONTINUOUS
 10
15.5074376237
 20
11.8187386326
 11
15.507358663
 21
11.8179443855
  0
LINE
  5
35A
100
AcDbEntity
  8
0
100
AcDbLine
 62
7
  6
CONTINUOUS
 10
15.5096295429
 20
11.8185205677
 11
15.5095505566
 21
11.8177264997
  0
LINE
  5
35B
100
AcDbEntity
  8
0
100
AcDbLine
 62
7
  6
CONTINUOUS
 10
15.5080113764
 20
11.8185928279
 11
15.50789441
 21
11.8178074095
  0
LINE
  5
35C
100
AcDbEntity
  8
0
100
AcDbLine
 62
7
  6
CONTINUOUS
 10
16.230419649
 20
13.0696326355
 11
16.1138386743
 21
12.9516226068
  0
LINE
  5
35D
100
AcDbEntity
  8
0
100
AcDbLine
 62
7
  6
CONTINUOUS
 10
13.8291023815
 20
12.5345735577
 11
13.907608278
 21
12.5345735577
  0
LINE
  5
35E
100
AcDbEntity
  8
0
100
AcDbLine
 62
7
  6
CONTINUOUS
 10
15.839521822
 20
12.5345735577
 11
15.9849607706
 21
12.5345735577
  0
LINE
  5
35F
100
AcDbEntity
  8
0
100
AcDbLine
 62
7
  6
CONTINUOUS
 10
16.2786890609
 20
11.2387597847
 11
15.934881457
 21
11.9393660198
  0
LINE
  5
360
100
AcDbEntity
  8
0
100
AcDbLine
 62
7
  6
CONTINUOUS
 10
15.5013942385
 20
11.7916945726
 11
15.5014638217
 21
11.79200198
  0
LINE
  5
361
100
AcDbEntity
  8
0
100
AcDbLine
 62
7
  6
CONTINUOUS
 10
15.5019751784
 20
11.791880392
 11
15.5018983195
 21
11.7915741593
  0
LINE
  5
362
100
AcDbEntity
  8
0
100
AcDbLine
 62
7
  6
CONTINUOUS
 10
15.5011891671
 20
11.7917523627
 11
15.5012658798
 21
11.7920576374
  0
LINE
  5
363
100
AcDbEntity
  8
0
100
AcDbLine
 62
7
  6
CONTINUOUS
 10
15.5019941508
 20
11.7918745411
 11
15.4978671128
 21
11.7785177122
  0
LINE
  5
364
100
AcDbEntity
  8
0
100
AcDbLine
 62
7
  6
CONTINUOUS
 10
17.1927159485
 20
12.4677758831
 11
17.1826674996
 21
12.46988693
  0
LINE
  5
365
100
AcDbEntity
  8
0
100
AcDbLine
 62
7
  6
CONTINUOUS
 10
14.5123197243
 20
13.2200457526
 11
14.4808680571
 21
13.2337036981
  0
LINE
  5
366
100
AcDbEntity
  8
0
100
AcDbLine
 62
7
  6
CONTINUOUS
 10
14.4737609112
 20
13.2417094197
 11
14.5052125783
 21
13.2280514742
  0
LINE
  5
367
100
AcDbEntity
  8
0
100
AcDbLine
 62
7
  6
CONTINUOUS
 10
15.9969761828
 20
12.0906287182
 11
15.9968696687
 21
12.090821155
  0
LINE
  5
368
100
AcDbEntity
  8
0
100
AcDbLine
 62
7
  6
CONTINUOUS
 10
16.2980745162
 20
11.2518152332
 11
15.9542669123
 21
11.9524214683
  0
LINE
  5
369
100
AcDbEntity
  8
0
100
AcDbLine
 62
7
  6
CONTINUOUS
 10
16.3444705615
 20
11.4019528909
 11
16.2516869937
 21
11.5910259229
  0
LINE
  5
36A
100
AcDbEntity
  8
0
100
AcDbLine
 62
7
  6
CONTINUOUS
 10
15.7889473276
 20
12.6075002192
 11
15.8133607051
 21
12.5577509866
  0
LINE
  5
36B
100
AcDbEntity
  8
0
100
AcDbLine
 62
7
  6
CONTINUOUS
 10
15.9969761828
 20
12.0906287182
 11
15.9968820491
 21
12.0908211585
  0
LINE
  5
36C
100
AcDbEntity
  8
0
100
AcDbLine
 62
7
  6
CONTINUOUS
 10
16.2516869937
 20
11.5910259229
 11
16.0032673687
 21
12.0990689285
  0
LINE
  5
36D
100
AcDbEntity
  8
0
100
AcDbLine
 62
7
  6
CONTINUOUS
 10
15.8877490184
 20
12.4297097309
 11
15.9032763047
 21
12.4799560476
  0
LINE
  5
36E
100
AcDbEntity
  8
0
100
AcDbLine
 62
7
  6
CONTINUOUS
 10
16.0161213771
 20
12.8451228357
 11
16.0321542083
 21
12.8970050967
  0
LINE
  5
36F
100
AcDbEntity
  8
0
100
AcDbLine
 62
7
  6
CONTINUOUS
 10
16.1449992807
 20
13.2621718848
 11
16.1479703161
 21
13.2717861587
  0
LINE
  5
370
100
AcDbEntity
  8
0
100
AcDbLine
 62
7
  6
CONTINUOUS
 10
15.9849607706
 20
12.5345735577
 11
16.1015417454
 21
12.6525835864
  0
LINE
  5
371
100
AcDbEntity
  8
0
100
AcDbLine
 62
7
  6
CONTINUOUS
 10
14.8029307483
 20
11.2788528081
 11
14.8280848626
 21
11.3042352151
  0
LINE
  5
372
100
AcDbEntity
  8
0
100
AcDbLine
 62
7
  6
CONTINUOUS
 10
14.8234342118
 20
11.2871162823
 11
14.7990725277
 21
11.2625334974
  0
LINE
  5
373
100
AcDbEntity
  8
0
100
AcDbLine
 62
7
  6
CONTINUOUS
 10
14.8475611691
 20
11.2379507126
 11
14.8719228532
 21
11.2625334974
  0
LINE
  5
374
100
AcDbEntity
  8
0
100
AcDbLine
 62
7
  6
CONTINUOUS
 10
16.1138386743
 20
12.9516226068
 11
15.9683997271
 21
12.9516226068
  0
LINE
  5
375
100
AcDbEntity
  8
0
100
AcDbLine
 62
7
  6
CONTINUOUS
 10
14.0364863388
 20
12.9516226068
 11
13.9579802852
 21
12.9516226068
  0
LINE
  5
376
100
AcDbEntity
  8
0
100
AcDbLine
 62
7
  6
CONTINUOUS
 10
17.1826679797
 20
12.4698877438
 11
17.192404507
 21
12.4669821575
  0
LINE
  5
377
100
AcDbEntity
  8
0
100
AcDbLine
 62
7
  6
CONTINUOUS
 10
14.5314170265
 20
13.3128490996
 11
14.5628686937
 21
13.2991911541
  0
LINE
  5
378
100
AcDbEntity
  8
0
100
AcDbLine
 62
7
  6
CONTINUOUS
 10
15.9849607706
 20
12.5345735577
 11
15.9491735631
 21
12.6075002192
  0
LINE
  5
379
100
AcDbEntity
  8
0
100
AcDbLine
 62
7
  6
CONTINUOUS
 10
16.6386621435
 20
11.5910259229
 11
16.5881325374
 21
11.69354815
  0
LINE
  5
37A
100
AcDbEntity
  8
0
100
AcDbLine
 62
7
  6
CONTINUOUS
 10
15.9422386225
 20
12.9748000076
 11
15.9178252313
 21
13.0245492683
  0
LINE
  5
37B
100
AcDbEntity
  8
0
100
AcDbLine
 62
7
  6
CONTINUOUS
 10
16.0657545378
 20
12.7255102478
 11
16.1015417454
 21
12.6525835864
  0
LINE
  5
37C
100
AcDbEntity
  8
0
100
AcDbLine
 62
7
  6
CONTINUOUS
 10
16.0578964847
 20
12.7705936151
 11
16.0221092772
 21
12.8435202765
  0
LINE
  5
37D
100
AcDbEntity
  8
0
100
AcDbLine
 62
7
  6
CONTINUOUS
 10
16.0974834122
 20
12.7292196618
 11
16.1025674433
 21
12.7188594957
  0
LINE
  5
37E
100
AcDbEntity
  8
0
100
AcDbLine
 62
7
  6
CONTINUOUS
 10
16.1015417454
 20
12.6525835864
 11
16.0578964847
 21
12.7705936151
  0
LINE
  5
37F
100
AcDbEntity
  8
0
100
AcDbLine
 62
7
  6
CONTINUOUS
 10
16.1518150833
 20
13.274939409
 11
16.1513121281
 21
13.2749075287
  0
LINE
  5
380
100
AcDbEntity
  8
0
100
AcDbLine
 62
7
  6
CONTINUOUS
 10
13.9655656819
 20
13.274939409
 11
14.06490648
 21
13.274939409
  0
LINE
  5
381
100
AcDbEntity
  8
0
100
AcDbLine
 62
7
  6
CONTINUOUS
 10
14.0714506336
 20
13.274939409
 11
14.1362747124
 21
13.274939409
  0
LINE
  5
382
100
AcDbEntity
  8
0
100
AcDbLine
 62
7
  6
CONTINUOUS
 10
16.1518161273
 20
13.274939409
 11
16.325784479
 21
13.274939409
  0
LINE
  5
383
100
AcDbEntity
  8
0
100
AcDbLine
 62
7
  6
CONTINUOUS
 10
16.0780514667
 20
13.0245492683
 11
16.1138386743
 21
12.9516226068
  0
LINE
  5
384
100
AcDbEntity
  8
0
100
AcDbLine
 62
7
  6
CONTINUOUS
 10
16.230419649
 20
13.0696326355
 11
16.1946324415
 21
13.1425592969
  0
LINE
  5
385
100
AcDbEntity
  8
0
100
AcDbLine
 62
7
  6
CONTINUOUS
 10
16.1867743884
 20
13.1876426642
 11
16.1509871808
 21
13.2605693256
  0
LINE
  5
386
100
AcDbEntity
  8
0
100
AcDbLine
 62
7
  6
CONTINUOUS
 10
16.2263613158
 20
13.1462687109
 11
16.2314453469
 21
13.1359085448
  0
LINE
  5
387
100
AcDbEntity
  8
0
100
AcDbLine
 62
7
  6
CONTINUOUS
 10
16.1867743884
 20
13.1876426642
 11
16.230419649
 21
13.0696326355
  0
LINE
  5
388
100
AcDbEntity
  8
0
100
AcDbLine
 62
7
  6
CONTINUOUS
 10
16.688590903
 20
12.5879492635
 11
16.4646795538
 21
11.8633718721
  0
LINE
  5
389
100
AcDbEntity
  8
0
100
AcDbLine
 62
7
  6
CONTINUOUS
 10
16.680434517
 20
12.6373204399
 11
16.3824404759
 21
13.2445684499
  0
LINE
  5
38A
100
AcDbEntity
  8
0
100
AcDbLine
 62
7
  6
CONTINUOUS
 10
16.2992198445
 20
11.2419736541
 11
16.3456158898
 21
11.3921113118
  0
LINE
  5
38B
100
AcDbEntity
  8
0
100
AcDbLine
 62
7
  6
CONTINUOUS
 10
16.8603180958
 20
12.5743409396
 11
16.9109867573
 21
12.4722686962
  0
LINE
  5
38C
100
AcDbEntity
  8
0
100
AcDbLine
 62
7
  6
CONTINUOUS
 10
17.5500183717
 20
12.2406890258
 11
17.4470667417
 21
12.45048239
  0
LINE
  5
38D
100
AcDbEntity
  8
0
100
AcDbLine
 62
7
  6
CONTINUOUS
 10
17.2946091575
 20
11.3969832894
 11
17.5507960164
 21
12.2260042688
  0
ARC
  5
38E
100
AcDbEntity
  8
0
100
AcDbCircle
 62
7
  6
CONTINUOUS
 10
6.1303483819
 20
5.4919864159
 40
1.1978324814
100
AcDbArc
 50
156.0271166784
 51
179.9891899885
  0
ARC
  5
38F
100
AcDbEntity
  8
0
100
AcDbCircle
 62
7
  6
CONTINUOUS
 10
4.0660768961
 20
5.492379367
 40
0.8664361028
100
AcDbArc
 50
334.6552931674
 51
359.9889595691
  0
ARC
  5
390
100
AcDbEntity
  8
0
100
AcDbCircle
 62
7
  6
CONTINUOUS
 10
4.0663596007
 20
5.492212411
 40
0.8660910088
100
AcDbArc
 50
288.7203816037
 51
314.7265758609
  0
ARC
  5
391
100
AcDbEntity
  8
0
100
AcDbCircle
 62
7
  6
CONTINUOUS
 10
4.0663596007
 20
5.492212411
 40
0.8660910088
100
AcDbArc
 50
314.8062708626
 51
333.0011055013
  0
ARC
  5
392
100
AcDbEntity
  8
0
100
AcDbCircle
 62
7
  6
CONTINUOUS
 10
4.0845613876
 20
5.4839616338
 40
0.8461274042
100
AcDbArc
 50
332.9393793287
 51
334.6346176516
  0
ARC
  5
393
100
AcDbEntity
  8
0
100
AcDbCircle
 62
7
  6
CONTINUOUS
 10
4.3282839428
 20
4.7192957444
 40
0.05
100
AcDbArc
 50
270.0
 51
288.7203816016
  0
CIRCLE
  5
394
100
AcDbEntity
  8
0
100
AcDbCircle
 62
7
  6
CONTINUOUS
 10
5.6355756095
 20
4.4401290777
 40
0.0408333333
  0
ARC
  5
395
100
AcDbEntity
  8
0
100
AcDbCircle
 62
7
  6
CONTINUOUS
 10
5.1074506095
 20
4.3651290777
 40
0.0333333333
100
AcDbArc
 50
180.0
 51
270.0
  0
ARC
  5
396
100
AcDbEntity
  8
0
100
AcDbCircle
 62
7
  6
CONTINUOUS
 10
4.0845339428
 20
4.6526290777
 40
0.0166666667
100
AcDbArc
 50
90.0
 51
180.0
  0
ARC
  5
397
100
AcDbEntity
  8
0
100
AcDbCircle
 62
7
  6
CONTINUOUS
 10
5.1074506095
 20
4.3651290777
 40
0.0166666667
100
AcDbArc
 50
180.0
 51
270.0
  0
ARC
  5
398
100
AcDbEntity
  8
0
100
AcDbCircle
 62
7
  6
CONTINUOUS
 10
5.86302501
 20
6.7055599717
 40
0.03125
100
AcDbArc
 50
197.9599454081
 51
268.3963722284
  0
ARC
  5
399
100
AcDbEntity
  8
0
100
AcDbCircle
 62
7
  6
CONTINUOUS
 10
5.7552186899
 20
6.6766733553
 40
0.03125
100
AcDbArc
 50
301.6036277715
 51
12.0400545919
  0
ARC
  5
39A
100
AcDbEntity
  8
0
100
AcDbCircle
 62
7
  6
CONTINUOUS
 10
5.8142188437
 20
6.7042919511
 40
0.0208333333
100
AcDbArc
 50
336.3178125439
 51
105.0000000008
  0
ARC
  5
39B
100
AcDbEntity
  8
0
100
AcDbCircle
 62
7
  6
CONTINUOUS
 10
5.79812008
 20
6.6999783004
 40
0.0208333333
100
AcDbArc
 50
104.9999999992
 51
233.6821874561
  0
ARC
  5
39C
100
AcDbEntity
  8
0
100
AcDbCircle
 62
7
  6
CONTINUOUS
 10
4.7741172762
 20
5.9786707444
 40
0.0083333333
100
AcDbArc
 50
90.0
 51
180.0
  0
ARC
  5
39D
100
AcDbEntity
  8
0
100
AcDbCircle
 62
7
  6
CONTINUOUS
 10
6.1303672762
 20
5.492212411
 40
1.1979166667
100
AcDbArc
 50
24.2595559026
 51
155.7404440973
  0
ARC
  5
39E
100
AcDbEntity
  8
0
100
AcDbCircle
 62
7
  6
CONTINUOUS
 10
6.1303861835
 20
5.4919864165
 40
1.1978324672
100
AcDbArc
 50
0.0108099831
 51
23.9728835676
  0
ARC
  5
39F
100
AcDbEntity
  8
0
100
AcDbCircle
 62
7
  6
CONTINUOUS
 10
6.1303672762
 20
5.492212411
 40
1.05625
100
AcDbArc
 50
0.0
 51
180.0
  0
ARC
  5
3A0
100
AcDbEntity
  8
0
100
AcDbCircle
 62
7
  6
CONTINUOUS
 10
6.1303672762
 20
5.492212411
 40
1.0395833333
100
AcDbArc
 50
0.0
 51
180.0
  0
ARC
  5
3A1
100
AcDbEntity
  8
0
100
AcDbCircle
 62
7
  6
CONTINUOUS
 10
8.1946576395
 20
5.4923793624
 40
0.8664360866
100
AcDbArc
 50
180.0110401263
 51
205.3447070326
  0
ARC
  5
3A2
100
AcDbEntity
  8
0
100
AcDbCircle
 62
7
  6
CONTINUOUS
 10
8.1943749516
 20
5.492212411
 40
0.8660910088
100
AcDbArc
 50
225.2747219844
 51
251.2796183963
  0
ARC
  5
3A3
100
AcDbEntity
  8
0
100
AcDbCircle
 62
7
  6
CONTINUOUS
 10
8.1943749516
 20
5.492212411
 40
0.8660910088
100
AcDbArc
 50
206.9988944987
 51
225.1937291373
  0
ARC
  5
3A4
100
AcDbEntity
  8
0
100
AcDbCircle
 62
7
  6
CONTINUOUS
 10
8.1890080534
 20
5.4902900438
 40
0.8604362285
100
AcDbArc
 50
205.3800649497
 51
207.0470762807
  0
CIRCLE
  5
3A5
100
AcDbEntity
  8
0
100
AcDbCircle
 62
7
  6
CONTINUOUS
 10
6.1303672762
 20
5.492212411
 40
0.5497916667
  0
CIRCLE
  5
3A6
100
AcDbEntity
  8
0
100
AcDbCircle
 62
7
  6
CONTINUOUS
 10
6.1303672762
 20
5.492212411
 40
0.5447916667
  0
CIRCLE
  5
3A7
100
AcDbEntity
  8
0
100
AcDbCircle
 62
7
  6
CONTINUOUS
 10
6.1303672762
 20
5.492212411
 40
0.5
  0
ARC
  5
3A8
100
AcDbEntity
  8
0
100
AcDbCircle
 62
7
  6
CONTINUOUS
 10
7.9324506095
 20
4.7192957444
 40
0.05
100
AcDbArc
 50
251.2796183982
 51
270.0
  0
ARC
  5
3A9
100
AcDbEntity
  8
0
100
AcDbCircle
 62
7
  6
CONTINUOUS
 10
7.1532839428
 20
4.3651290777
 40
0.0333333333
100
AcDbArc
 50
270.0
 51
360.0
  0
ARC
  5
3AA
100
AcDbEntity
  8
0
100
AcDbCircle
 62
7
  6
CONTINUOUS
 10
8.1762006095
 20
4.6526290777
 40
0.0166666667
100
AcDbArc
 50
0.0
 51
90.0
  0
ARC
  5
3AB
100
AcDbEntity
  8
0
100
AcDbCircle
 62
7
  6
CONTINUOUS
 10
7.1532839428
 20
4.3651290777
 40
0.0166666667
100
AcDbArc
 50
270.0
 51
360.0
  0
ARC
  5
3AC
100
AcDbEntity
  8
0
100
AcDbCircle
 62
7
  6
CONTINUOUS
 10
7.4866172762
 20
5.9786707444
 40
0.0083333333
100
AcDbArc
 50
0.0
 51
90.0
  0
ARC
  5
3AD
100
AcDbEntity
  8
0
100
AcDbCircle
 62
7
  6
CONTINUOUS
 10
4.4562887505
 20
12.2458811147
 40
0.25
100
AcDbArc
 50
303.6775089886
 51
90.0
  0
ARC
  5
3AE
100
AcDbEntity
  8
0
100
AcDbCircle
 62
7
  6
CONTINUOUS
 10
4.9875387505
 20
12.3338440777
 40
0.2072916667
100
AcDbArc
 50
267.8928628699
 51
92.1074636309
  0
CIRCLE
  5
3AF
100
AcDbEntity
  8
0
100
AcDbCircle
 62
7
  6
CONTINUOUS
 10
4.9875387505
 20
12.3338440777
 40
0.1739583333
  0
CIRCLE
  5
3B0
100
AcDbEntity
  8
0
100
AcDbCircle
 62
7
  6
CONTINUOUS
 10
4.9875387505
 20
12.3338440777
 40
0.1506523359
  0
ARC
  5
3B1
100
AcDbEntity
  8
0
100
AcDbCircle
 62
7
  6
CONTINUOUS
 10
4.2687887505
 20
12.2458811147
 40
0.0833333333
100
AcDbArc
 50
90.0
 51
270.0
  0
ARC
  5
3B2
100
AcDbEntity
  8
0
100
AcDbCircle
 62
7
  6
CONTINUOUS
 10
4.4562887505
 20
12.2458811147
 40
0.0833333333
100
AcDbArc
 50
270.0
 51
90.0
  0
ARC
  5
3B3
100
AcDbEntity
  8
0
100
AcDbCircle
 62
7
  6
CONTINUOUS
 10
4.7896220839
 20
12.1375477814
 40
0.0833333333
100
AcDbArc
 50
180.0
 51
270.0
  0
ARC
  5
3B4
100
AcDbEntity
  8
0
100
AcDbCircle
 62
7
  6
CONTINUOUS
 10
4.0417054172
 20
12.0708811147
 40
0.0333333333
100
AcDbArc
 50
180.0
 51
270.0
  0
ARC
  5
3B5
100
AcDbEntity
  8
0
100
AcDbCircle
 62
7
  6
CONTINUOUS
 10
4.9979568453
 20
12.0223528312
 40
0.0166689675
100
AcDbArc
 50
1.2088650903
 51
86.1439220895
  0
ARC
  5
3B6
100
AcDbEntity
  8
0
100
AcDbCircle
 62
7
  6
CONTINUOUS
 10
4.8896193927
 20
12.0556203476
 40
0.0166670517
100
AcDbArc
 50
184.840946142
 51
270.0006854858
  0
ARC
  5
3B7
100
AcDbEntity
  8
0
100
AcDbCircle
 62
7
  6
CONTINUOUS
 10
6.0198604398
 20
11.6136296631
 40
0.4727518577
100
AcDbArc
 50
120.9183651224
 51
123.3322506912
  0
ARC
  5
3B8
100
AcDbEntity
  8
0
100
AcDbCircle
 62
7
  6
CONTINUOUS
 10
6.0551482396
 20
11.5502870481
 40
0.4725573078
100
AcDbArc
 50
120.9181102739
 51
123.3328957545
  0
ARC
  5
3B9
100
AcDbEntity
  8
0
100
AcDbCircle
 62
7
  6
CONTINUOUS
 10
5.7953262634
 20
11.9874388315
 40
0.0376809689
100
AcDbArc
 50
348.5078530686
 51
11.4446413385
  0
ARC
  5
3BA
100
AcDbEntity
  8
0
100
AcDbCircle
 62
7
  6
CONTINUOUS
 10
5.7968425628
 20
11.9884221118
 40
0.0358125825
100
AcDbArc
 50
52.8273727621
 51
55.1760696872
  0
ARC
  5
3BB
100
AcDbEntity
  8
0
100
AcDbCircle
 62
7
  6
CONTINUOUS
 10
5.7969102644
 20
11.9863567334
 40
0.035705731
100
AcDbArc
 50
304.5552682561
 51
307.2834235559
  0
ARC
  5
3BC
100
AcDbEntity
  8
0
100
AcDbCircle
 62
7
  6
CONTINUOUS
 10
5.7970055778
 20
11.9862204141
 40
0.0355393995
100
AcDbArc
 50
299.7918076839
 51
304.5533696099
  0
ARC
  5
3BD
100
AcDbEntity
  8
0
100
AcDbCircle
 62
7
  6
CONTINUOUS
 10
5.7971166998
 20
11.9888290778
 40
0.0353219529
100
AcDbArc
 50
55.1641334122
 51
66.528288567
  0
ARC
  5
3BE
100
AcDbEntity
  8
0
100
AcDbCircle
 62
7
  6
CONTINUOUS
 10
5.7971460666
 20
11.9859705604
 40
0.0352527655
100
AcDbArc
 50
292.9323857667
 51
299.7954133021
  0
ARC
  5
3BF
100
AcDbEntity
  8
0
100
AcDbCircle
 62
7
  6
CONTINUOUS
 10
5.7943254622
 20
11.9858424429
 40
0.0351207772
100
AcDbArc
 50
300.8638505676
 51
303.6516222282
  0
ARC
  5
3C0
100
AcDbEntity
  8
0
100
AcDbCircle
 62
7
  6
CONTINUOUS
 10
5.7943664246
 20
11.9890942615
 40
0.0350814138
100
AcDbArc
 50
56.3050361612
 51
59.1229406077
  0
ARC
  5
3C1
100
AcDbEntity
  8
0
100
AcDbCircle
 62
7
  6
CONTINUOUS
 10
5.7945635874
 20
11.9853753059
 40
0.0345976518
100
AcDbArc
 50
276.2565696821
 51
300.9222054065
  0
ARC
  5
3C2
100
AcDbEntity
  8
0
100
AcDbCircle
 62
7
  6
CONTINUOUS
 10
5.7945991659
 20
11.9895501376
 40
0.0345707235
100
AcDbArc
 50
59.0662600152
 51
83.7447999216
  0
ARC
  5
3C3
100
AcDbEntity
  8
0
100
AcDbCircle
 62
7
  6
CONTINUOUS
 10
5.7946385664
 20
11.9849728435
 40
0.034189429
100
AcDbArc
 50
273.245929583
 51
276.2051689585
  0
ARC
  5
3C4
100
AcDbEntity
  8
0
100
AcDbCircle
 62
7
  6
CONTINUOUS
 10
5.7946726109
 20
11.9899510397
 40
0.0341642185
100
AcDbArc
 50
83.7939826775
 51
86.0065924696
  0
ARC
  5
3C5
100
AcDbEntity
  8
0
100
AcDbCircle
 62
7
  6
CONTINUOUS
 10
6.0244824092
 20
12.3688556283
 40
0.4816494299
100
AcDbArc
 50
236.7033505345
 51
239.070823843
  0
ARC
  5
3C6
100
AcDbEntity
  8
0
100
AcDbCircle
 62
7
  6
CONTINUOUS
 10
4.4562887505
 20
12.954214448
 40
0.25
100
AcDbArc
 50
270.0
 51
56.3237891065
  0
ARC
  5
3C7
100
AcDbEntity
  8
0
100
AcDbCircle
 62
7
  6
CONTINUOUS
 10
4.9875387505
 20
12.8662514851
 40
0.2072916667
100
AcDbArc
 50
267.8928628672
 51
92.1074636309
  0
CIRCLE
  5
3C8
100
AcDbEntity
  8
0
100
AcDbCircle
 62
7
  6
CONTINUOUS
 10
4.9875387505
 20
12.8662514851
 40
0.1739583333
  0
CIRCLE
  5
3C9
100
AcDbEntity
  8
0
100
AcDbCircle
 62
7
  6
CONTINUOUS
 10
4.9875387505
 20
12.8662514851
 40
0.1506523359
  0
ARC
  5
3CA
100
AcDbEntity
  8
0
100
AcDbCircle
 62
7
  6
CONTINUOUS
 10
4.2687887505
 20
12.954214448
 40
0.0833333333
100
AcDbArc
 50
90.0
 51
270.0
  0
ARC
  5
3CB
100
AcDbEntity
  8
0
100
AcDbCircle
 62
7
  6
CONTINUOUS
 10
4.7896220839
 20
13.0625477814
 40
0.0833333333
100
AcDbArc
 50
90.0
 51
180.0
  0
ARC
  5
3CC
100
AcDbEntity
  8
0
100
AcDbCircle
 62
7
  6
CONTINUOUS
 10
4.4562887505
 20
12.954214448
 40
0.0833333333
100
AcDbArc
 50
270.0
 51
90.0
  0
ARC
  5
3CD
100
AcDbEntity
  8
0
100
AcDbCircle
 62
7
  6
CONTINUOUS
 10
4.0417054172
 20
13.129214448
 40
0.0333333333
100
AcDbArc
 50
90.0
 51
180.0
  0
ARC
  5
3CE
100
AcDbEntity
  8
0
100
AcDbCircle
 62
7
  6
CONTINUOUS
 10
4.9979584336
 20
13.1777419313
 40
0.0166677972
100
AcDbArc
 50
273.837265558
 51
358.724753345
  0
ARC
  5
3CF
100
AcDbEntity
  8
0
100
AcDbCircle
 62
7
  6
CONTINUOUS
 10
4.8896193919
 20
13.1444752162
 40
0.0166670513
100
AcDbArc
 50
89.999311792
 51
175.1598411374
  0
ARC
  5
3D0
100
AcDbEntity
  8
0
100
AcDbCircle
 62
7
  6
CONTINUOUS
 10
7.6854554172
 20
12.2458811147
 40
0.25
100
AcDbArc
 50
90.0
 51
236.3237891065
  0
ARC
  5
3D1
100
AcDbEntity
  8
0
100
AcDbCircle
 62
7
  6
CONTINUOUS
 10
7.1542054172
 20
12.3338440777
 40
0.2072916667
100
AcDbArc
 50
87.8928628699
 51
272.1074636309
  0
CIRCLE
  5
3D2
100
AcDbEntity
  8
0
100
AcDbCircle
 62
7
  6
CONTINUOUS
 10
7.1542054172
 20
12.3338440777
 40
0.1739583333
  0
CIRCLE
  5
3D3
100
AcDbEntity
  8
0
100
AcDbCircle
 62
7
  6
CONTINUOUS
 10
7.1542054172
 20
12.3338440777
 40
0.1506523359
  0
ARC
  5
3D4
100
AcDbEntity
  8
0
100
AcDbCircle
 62
7
  6
CONTINUOUS
 10
7.6854554172
 20
12.2458811147
 40
0.0833333333
100
AcDbArc
 50
90.0
 51
270.0
  0
ARC
  5
3D5
100
AcDbEntity
  8
0
100
AcDbCircle
 62
7
  6
CONTINUOUS
 10
7.8729554172
 20
12.2458811147
 40
0.0833333333
100
AcDbArc
 50
270.0
 51
90.0
  0
ARC
  5
3D6
100
AcDbEntity
  8
0
100
AcDbCircle
 62
7
  6
CONTINUOUS
 10
7.3521220839
 20
12.1375477814
 40
0.0833333333
100
AcDbArc
 50
270.0
 51
360.0
  0
ARC
  5
3D7
100
AcDbEntity
  8
0
100
AcDbCircle
 62
7
  6
CONTINUOUS
 10
8.1000387505
 20
12.0708811147
 40
0.0333333333
100
AcDbArc
 50
270.0
 51
360.0
  0
ARC
  5
3D8
100
AcDbEntity
  8
0
100
AcDbCircle
 62
7
  6
CONTINUOUS
 10
7.1437873256
 20
12.0223528282
 40
0.0166689699
100
AcDbArc
 50
93.8560881714
 51
178.7911247431
  0
ARC
  5
3D9
100
AcDbEntity
  8
0
100
AcDbCircle
 62
7
  6
CONTINUOUS
 10
7.2521247748
 20
12.0556203479
 40
0.0166670519
100
AcDbArc
 50
269.9993153874
 51
355.1590529768
  0
ARC
  5
3DA
100
AcDbEntity
  8
0
100
AcDbCircle
 62
7
  6
CONTINUOUS
 10
7.6854554172
 20
12.954214448
 40
0.25
100
AcDbArc
 50
123.6775089884
 51
270.0
  0
ARC
  5
3DB
100
AcDbEntity
  8
0
100
AcDbCircle
 62
7
  6
CONTINUOUS
 10
7.1542054172
 20
12.8662514851
 40
0.2072916667
100
AcDbArc
 50
87.8928628672
 51
272.1074636309
  0
CIRCLE
  5
3DC
100
AcDbEntity
  8
0
100
AcDbCircle
 62
7
  6
CONTINUOUS
 10
7.1542054172
 20
12.8662514851
 40
0.1739583333
  0
CIRCLE
  5
3DD
100
AcDbEntity
  8
0
100
AcDbCircle
 62
7
  6
CONTINUOUS
 10
7.1542054172
 20
12.8662514851
 40
0.1506523359
  0
ARC
  5
3DE
100
AcDbEntity
  8
0
100
AcDbCircle
 62
7
  6
CONTINUOUS
 10
7.6854554172
 20
12.954214448
 40
0.0833333333
100
AcDbArc
 50
90.0
 51
270.0
  0
ARC
  5
3DF
100
AcDbEntity
  8
0
100
AcDbCircle
 62
7
  6
CONTINUOUS
 10
7.8729554172
 20
12.954214448
 40
0.0833333333
100
AcDbArc
 50
270.0
 51
90.0
  0
ARC
  5
3E0
100
AcDbEntity
  8
0
100
AcDbCircle
 62
7
  6
CONTINUOUS
 10
7.3521220839
 20
13.0625477814
 40
0.0833333333
100
AcDbArc
 50
0.0
 51
90.0
  0
ARC
  5
3E1
100
AcDbEntity
  8
0
100
AcDbCircle
 62
7
  6
CONTINUOUS
 10
8.1000387505
 20
13.129214448
 40
0.0333333333
100
AcDbArc
 50
0.0
 51
90.0
  0
ARC
  5
3E2
100
AcDbEntity
  8
0
100
AcDbCircle
 62
7
  6
CONTINUOUS
 10
7.1437857319
 20
13.1777419292
 40
0.0166677945
100
AcDbArc
 50
181.2752395163
 51
266.1627416443
  0
ARC
  5
3E3
100
AcDbEntity
  8
0
100
AcDbCircle
 62
7
  6
CONTINUOUS
 10
7.2521247758
 20
13.1444752162
 40
0.0166670513
100
AcDbArc
 50
4.8401587965
 51
90.0006882807
  0
ARC
  5
3E4
100
AcDbEntity
  8
0
100
AcDbCircle
 62
7
  6
CONTINUOUS
 10
14.9844576363
 20
6.5056365628
 40
0.016668785
100
AcDbArc
 50
270.0736573425
 51
358.6935468849
  0
ARC
  5
3E5
100
AcDbEntity
  8
0
100
AcDbCircle
 62
7
  6
CONTINUOUS
 10
16.1362533153
 20
6.5056353359
 40
0.0166676123
100
AcDbArc
 50
180.1
 51
269.8617580567
  0
ARC
  5
3E6
100
AcDbEntity
  8
0
100
AcDbCircle
 62
7
  6
CONTINUOUS
 10
16.1027334253
 20
6.6139629338
 40
0.0166672676
100
AcDbArc
 50
0.1
 51
90.1092271476
  0
ARC
  5
3E7
100
AcDbEntity
  8
0
100
AcDbCircle
 62
7
  6
CONTINUOUS
 10
15.0145219236
 20
4.5931338854
 40
0.0166666667
100
AcDbArc
 50
90.0
 51
180.0
  0
ARC
  5
3E8
100
AcDbEntity
  8
0
100
AcDbCircle
 62
7
  6
CONTINUOUS
 10
16.1061885903
 20
4.5931338854
 40
0.0166666667
100
AcDbArc
 50
0.0
 51
90.0
  0
ARC
  5
3E9
100
AcDbEntity
  8
0
100
AcDbCircle
 62
7
  6
CONTINUOUS
 10
15.0179253499
 20
6.6139652668
 40
0.0166660142
100
AcDbArc
 50
89.7301415876
 51
179.9
  0
ARC
  5
3EA
100
AcDbEntity
  8
0
100
AcDbCircle
 62
7
  6
CONTINUOUS
 10
15.0228552569
 20
5.9191755521
 40
0.0083333333
100
AcDbArc
 50
90.0
 51
180.0
  0
ARC
  5
3EB
100
AcDbEntity
  8
0
100
AcDbCircle
 62
7
  6
CONTINUOUS
 10
16.0978552569
 20
5.9191755521
 40
0.0083333333
100
AcDbArc
 50
0.0
 51
90.0
  0
ARC
  5
3EC
100
AcDbEntity
  8
0
100
AcDbCircle
 62
7
  6
CONTINUOUS
 10
13.8864912699
 20
12.360734932
 40
0.502670596
100
AcDbArc
 50
73.8302380273
 51
76.2035786743
  0
ARC
  5
3ED
100
AcDbEntity
  8
0
100
AcDbCircle
 62
7
  6
CONTINUOUS
 10
13.9035048348
 20
12.4276990815
 40
0.4335814983
100
AcDbArc
 50
76.2767318856
 51
76.5024724894
  0
ARC
  5
3EE
100
AcDbEntity
  8
0
100
AcDbCircle
 62
7
  6
CONTINUOUS
 10
14.2805108311
 20
12.3502927162
 40
0.4108226329
100
AcDbArc
 50
168.8314579669
 51
170.1926868651
  0
ARC
  5
3EF
100
AcDbEntity
  8
0
100
AcDbCircle
 62
7
  6
CONTINUOUS
 10
14.2770276344
 20
12.3510025214
 40
0.4072679166
100
AcDbArc
 50
162.8357759439
 51
168.8345083135
  0
ARC
  5
3F0
100
AcDbEntity
  8
0
100
AcDbCircle
 62
7
  6
CONTINUOUS
 10
13.6960878907
 20
11.9415106099
 40
0.2745504143
100
AcDbArc
 50
343.1524161319
 51
348.1414327925
  0
ARC
  5
3F1
100
AcDbEntity
  8
0
100
AcDbCircle
 62
7
  6
CONTINUOUS
 10
13.7854972643
 20
11.9154433485
 40
0.1814314022
100
AcDbArc
 50
341.9416384237
 51
342.5487240878
  0
ARC
  5
3F2
100
AcDbEntity
  8
0
100
AcDbCircle
 62
7
  6
CONTINUOUS
 10
15.167871876
 20
11.78313964
 40
0.3524228285
100
AcDbArc
 50
28.42083064
 51
30.9154819028
  0
ARC
  5
3F3
100
AcDbEntity
  8
0
100
AcDbCircle
 62
7
  6
CONTINUOUS
 10
15.1863428602
 20
11.7932528148
 40
0.33136476
100
AcDbArc
 50
26.5469713728
 51
28.4029974512
  0
ARC
  5
3F4
100
AcDbEntity
  8
0
100
AcDbCircle
 62
7
  6
CONTINUOUS
 10
15.1965812534
 20
11.7984401499
 40
0.3198874422
100
AcDbArc
 50
26.1388702557
 51
26.5354066845
  0
ARC
  5
3F5
100
AcDbEntity
  8
0
100
AcDbCircle
 62
7
  6
CONTINUOUS
 10
15.1972410546
 20
11.8010247846
 40
0.3140221478
100
AcDbArc
 50
25.8104625455
 51
26.1387301923
  0
ARC
  5
3F6
100
AcDbEntity
  8
0
100
AcDbCircle
 62
7
  6
CONTINUOUS
 10
15.3214960383
 20
11.8457892943
 40
0.1884877161
100
AcDbArc
 50
351.7039640823
 51
359.0304815273
  0
ARC
  5
3F7
100
AcDbEntity
  8
0
100
AcDbCircle
 62
7
  6
CONTINUOUS
 10
15.3233548888
 20
11.8314708488
 40
0.1874337303
100
AcDbArc
 50
351.6509692609
 51
355.7442448178
  0
ARC
  5
3F8
100
AcDbEntity
  8
0
100
AcDbCircle
 62
7
  6
CONTINUOUS
 10
15.3236088575
 20
11.8320518063
 40
0.1823084663
100
AcDbArc
 50
347.3096639882
 51
355.8465335103
  0
ARC
  5
3F9
100
AcDbEntity
  8
0
100
AcDbCircle
 62
7
  6
CONTINUOUS
 10
15.3288879399
 20
11.8306645025
 40
0.1818422353
100
AcDbArc
 50
342.8492200992
 51
351.6492001722
  0
ARC
  5
3FA
100
AcDbEntity
  8
0
100
AcDbCircle
 62
7
  6
CONTINUOUS
 10
15.3336128577
 20
11.843769947
 40
0.1811987071
100
AcDbArc
 50
338.1441166768
 51
338.4515992461
  0
ARC
  5
3FB
100
AcDbEntity
  8
0
100
AcDbCircle
 62
7
  6
CONTINUOUS
 10
15.3288143366
 20
11.8448630486
 40
0.1811123416
100
AcDbArc
 50
347.2038401538
 51
351.408656884
  0
ARC
  5
3FC
100
AcDbEntity
  8
0
100
AcDbCircle
 62
7
  6
CONTINUOUS
 10
15.3339519045
 20
11.8436374699
 40
0.1808347
100
AcDbArc
 50
338.4511843274
 51
340.3296662647
  0
ARC
  5
3FD
100
AcDbEntity
  8
0
100
AcDbCircle
 62
7
  6
CONTINUOUS
 10
15.3308272837
 20
11.844429017
 40
0.1790532583
100
AcDbArc
 50
342.9316026226
 51
347.1966141631
  0
ARC
  5
3FE
100
AcDbEntity
  8
0
100
AcDbCircle
 62
7
  6
CONTINUOUS
 10
15.3268022254
 20
11.8313712875
 40
0.1790436057
100
AcDbArc
 50
342.8305248566
 51
347.196760002
  0
ARC
  5
3FF
100
AcDbEntity
  8
0
100
AcDbCircle
 62
7
  6
CONTINUOUS
 10
14.8632291564
 20
11.2706394788
 40
0.0169457354
100
AcDbArc
 50
10.4629027276
 51
11.064796698
  0
ARC
  5
400
100
AcDbEntity
  8
0
100
AcDbCircle
 62
7
  6
CONTINUOUS
 10
14.8169686359
 20
11.2850763264
 40
0.0166555528
100
AcDbArc
 50
135.2566720433
 51
136.7542676551
  0
ARC
  5
401
100
AcDbEntity
  8
0
100
AcDbCircle
 62
7
  6
CONTINUOUS
 10
14.8635220973
 20
11.27069269
 40
0.0166480023
100
AcDbArc
 50
8.817024354
 51
10.4659012454
  0
ARC
  5
402
100
AcDbEntity
  8
0
100
AcDbCircle
 62
7
  6
CONTINUOUS
 10
14.8686190427
 20
11.2773193903
 40
0.0135537442
100
AcDbArc
 50
342.8585578926
 51
352.9523766804
  0
ARC
  5
403
100
AcDbEntity
  8
0
100
AcDbCircle
 62
7
  6
CONTINUOUS
 10
14.8164648152
 20
11.2934386614
 40
0.0135240033
100
AcDbArc
 50
153.3944583456
 51
162.8063301655
  0
ARC
  5
404
100
AcDbEntity
  8
0
100
AcDbCircle
 62
7
  6
CONTINUOUS
 10
14.8163673052
 20
11.2934741726
 40
0.0134203564
100
AcDbArc
 50
160.7407165341
 51
161.6167326579
  0
ARC
  5
405
100
AcDbEntity
  8
0
100
AcDbCircle
 62
7
  6
CONTINUOUS
 10
14.8687539317
 20
11.2772850683
 40
0.013414733
100
AcDbArc
 50
342.8396414332
 51
344.9165344694
  0
ARC
  5
406
100
AcDbEntity
  8
0
100
AcDbCircle
 62
7
  6
CONTINUOUS
 10
15.2715180247
 20
12.2624275438
 40
1.3469776564
100
AcDbArc
 50
48.7532910046
 51
48.9787015043
  0
ARC
  5
407
100
AcDbEntity
  8
0
100
AcDbCircle
 62
7
  6
CONTINUOUS
 10
14.7581423437
 20
12.0802918894
 40
0.3198874419
100
AcDbArc
 50
206.1388702556
 51
206.5354066847
  0
ARC
  5
408
100
AcDbEntity
  8
0
100
AcDbCircle
 62
7
  6
CONTINUOUS
 10
14.757482542
 20
12.0777072546
 40
0.314022147
100
AcDbArc
 50
205.8104625452
 51
206.1387301928
  0
ARC
  5
409
100
AcDbEntity
  8
0
100
AcDbCircle
 62
7
  6
CONTINUOUS
 10
14.7484123456
 20
12.0733927925
 40
0.3039783095
100
AcDbArc
 50
203.7732376024
 51
205.8227281897
  0
ARC
  5
40A
100
AcDbEntity
  8
0
100
AcDbCircle
 62
7
  6
CONTINUOUS
 10
14.6351394079
 20
12.0429681759
 40
0.1924321645
100
AcDbArc
 50
146.0636142023
 51
149.6857942865
  0
ARC
  5
40B
100
AcDbEntity
  8
0
100
AcDbCircle
 62
7
  6
CONTINUOUS
 10
14.6300597484
 20
12.0458870644
 40
0.1865735615
100
AcDbArc
 50
149.8933271502
 51
154.0388581677
  0
ARC
  5
40C
100
AcDbEntity
  8
0
100
AcDbCircle
 62
7
  6
CONTINUOUS
 10
14.6323630544
 20
12.0454059056
 40
0.1838924298
100
AcDbArc
 50
149.8226041726
 51
158.0965796184
  0
ARC
  5
40D
100
AcDbEntity
  8
0
100
AcDbCircle
 62
7
  6
CONTINUOUS
 10
14.6263818902
 20
12.047658858
 40
0.1824912096
100
AcDbArc
 50
154.0335142542
 51
158.1678937946
  0
ARC
  5
40E
100
AcDbEntity
  8
0
100
AcDbCircle
 62
7
  6
CONTINUOUS
 10
14.6289508144
 20
12.0614993586
 40
0.1808531439
100
AcDbArc
 50
164.7175753175
 51
167.1997718586
  0
ARC
  5
40F
100
AcDbEntity
  8
0
100
AcDbCircle
 62
7
  6
CONTINUOUS
 10
14.633546253
 20
12.0597552639
 40
0.1807643744
100
AcDbArc
 50
154.2276115207
 51
158.1719664206
  0
ARC
  5
410
100
AcDbEntity
  8
0
100
AcDbCircle
 62
7
  6
CONTINUOUS
 10
14.6246813315
 20
12.0483452069
 40
0.1806573741
100
AcDbArc
 50
158.1693859171
 51
162.8254103623
  0
ARC
  5
411
100
AcDbEntity
  8
0
100
AcDbCircle
 62
7
  6
CONTINUOUS
 10
14.6283880174
 20
12.047158869
 40
0.1795504612
100
AcDbArc
 50
158.142391757
 51
158.4551374025
  0
ARC
  5
412
100
AcDbEntity
  8
0
100
AcDbCircle
 62
7
  6
CONTINUOUS
 10
14.6324135156
 20
12.0602177687
 40
0.1795408804
100
AcDbArc
 50
158.1745731047
 51
158.4550444976
  0
ARC
  5
413
100
AcDbEntity
  8
0
100
AcDbCircle
 62
7
  6
CONTINUOUS
 10
14.631888214
 20
12.0604214247
 40
0.178977493
100
AcDbArc
 50
158.4539302414
 51
162.7389750875
  0
ARC
  5
414
100
AcDbEntity
  8
0
100
AcDbCircle
 62
7
  6
CONTINUOUS
 10
14.6278495289
 20
12.0473676172
 40
0.1789729382
100
AcDbArc
 50
158.4539894103
 51
162.8258352392
  0
ARC
  5
415
100
AcDbEntity
  8
0
100
AcDbCircle
 62
7
  6
CONTINUOUS
 10
15.4603912641
 20
12.6441943503
 40
0.9931848014
100
AcDbArc
 50
42.4236141538
 51
43.2080232631
  0
ARC
  5
416
100
AcDbEntity
  8
0
100
AcDbCircle
 62
7
  6
CONTINUOUS
 10
14.9753124502
 20
12.7976639891
 40
0.9892466047
100
AcDbArc
 50
102.445045753
 51
103.2331591677
  0
ARC
  5
417
100
AcDbEntity
  8
0
100
AcDbCircle
 62
7
  6
CONTINUOUS
 10
13.6043217141
 20
12.8525790628
 40
0.7617706201
100
AcDbArc
 50
284.444474011
 51
285.6328704554
  0
ARC
  5
418
100
AcDbEntity
  8
0
100
AcDbCircle
 62
7
  6
CONTINUOUS
 10
14.0153691736
 20
12.7777839811
 40
0.502670596
100
AcDbArc
 50
73.8302380273
 51
76.2035786746
  0
ARC
  5
419
100
AcDbEntity
  8
0
100
AcDbCircle
 62
7
  6
CONTINUOUS
 10
14.0323825803
 20
12.8447474793
 40
0.4335821685
100
AcDbArc
 50
76.2767320021
 51
76.5024408637
  0
ARC
  5
41A
100
AcDbEntity
  8
0
100
AcDbCircle
 62
7
  6
CONTINUOUS
 10
14.5347857276
 20
13.2026509463
 40
0.4021639128
100
AcDbArc
 50
152.2310893679
 51
154.7462516249
  0
ARC
  5
41B
100
AcDbEntity
  8
0
100
AcDbCircle
 62
7
  6
CONTINUOUS
 10
14.5282039575
 20
13.2057408964
 40
0.394892922
100
AcDbArc
 50
154.7443172982
 51
161.0209563656
  0
ARC
  5
41C
100
AcDbEntity
  8
0
100
AcDbCircle
 62
7
  6
CONTINUOUS
 10
14.5245820329
 20
13.2070935012
 40
0.3910280098
100
AcDbArc
 50
161.0357764861
 51
162.8287830554
  0
ARC
  5
41D
100
AcDbEntity
  8
0
100
AcDbCircle
 62
7
  6
CONTINUOUS
 10
13.9655723642
 20
13.1844493482
 40
0.0904900611
100
AcDbArc
 50
90.0042310832
 51
91.728268933
  0
ARC
  5
41E
100
AcDbEntity
  8
0
100
AcDbCircle
 62
7
  6
CONTINUOUS
 10
13.9350995871
 20
13.1902769311
 40
0.0677614453
100
AcDbArc
 50
158.9819490744
 51
162.797861284
  0
ARC
  5
41F
100
AcDbEntity
  8
0
100
AcDbCircle
 62
7
  6
CONTINUOUS
 10
14.4274929489
 20
12.7269971217
 40
0.0608369962
100
AcDbArc
 50
304.3644964137
 51
317.874952336
  0
ARC
  5
420
100
AcDbEntity
  8
0
100
AcDbCircle
 62
7
  6
CONTINUOUS
 10
14.4281171581
 20
12.7259958451
 40
0.0596581615
100
AcDbArc
 50
301.7357433077
 51
304.4124341995
  0
ARC
  5
421
100
AcDbEntity
  8
0
100
AcDbCircle
 62
7
  6
CONTINUOUS
 10
14.5322582932
 20
13.2459696957
 40
0.0546733209
100
AcDbArc
 50
154.1234680755
 51
154.6253067371
  0
ARC
  5
422
100
AcDbEntity
  8
0
100
AcDbCircle
 62
7
  6
CONTINUOUS
 10
14.4522997646
 20
12.7123934025
 40
0.0317658143
100
AcDbArc
 50
342.8204989652
 51
345.5387773676
  0
ARC
  5
423
100
AcDbEntity
  8
0
100
AcDbCircle
 62
7
  6
CONTINUOUS
 10
13.6770170583
 20
12.4316810383
 40
0.0304919906
100
AcDbArc
 50
154.5781332171
 51
162.7593624864
  0
ARC
  5
424
100
AcDbEntity
  8
0
100
AcDbCircle
 62
7
  6
CONTINUOUS
 10
14.4990603805
 20
13.2984591467
 40
0.0250946236
100
AcDbArc
 50
4.4193328347
 51
7.3267905938
  0
ARC
  5
425
100
AcDbEntity
  8
0
100
AcDbCircle
 62
7
  6
CONTINUOUS
 10
14.4992896858
 20
13.2984918831
 40
0.024863016
100
AcDbArc
 50
7.3193558832
 51
14.3177969588
  0
ARC
  5
426
100
AcDbEntity
  8
0
100
AcDbCircle
 62
7
  6
CONTINUOUS
 10
14.5350585552
 20
13.2885026032
 40
0.0229012929
100
AcDbArc
 50
8.2854128322
 51
9.040059649
  0
ARC
  5
427
100
AcDbEntity
  8
0
100
AcDbCircle
 62
7
  6
CONTINUOUS
 10
16.5145667961
 20
12.1112044363
 40
0.2949898636
100
AcDbArc
 50
230.0180659851
 51
234.254121572
  0
ARC
  5
428
100
AcDbEntity
  8
0
100
AcDbCircle
 62
7
  6
CONTINUOUS
 10
17.3880297526
 20
13.5883482653
 40
1.5044117005
100
AcDbArc
 50
251.1569697418
 51
258.3575850069
  0
ARC
  5
429
100
AcDbEntity
  8
0
100
AcDbCircle
 62
7
  6
CONTINUOUS
 10
17.3375992686
 20
13.4251551591
 40
1.5044117005
100
AcDbArc
 50
251.1569697418
 51
258.3575850069
  0
ARC
  5
42A
100
AcDbEntity
  8
0
100
AcDbCircle
 62
7
  6
CONTINUOUS
 10
15.499139878
 20
12.6793838485
 40
0.9408423953
100
AcDbArc
 50
39.2846634081
 51
42.4336004272
  0
ARC
  5
42B
100
AcDbEntity
  8
0
100
AcDbCircle
 62
7
  6
CONTINUOUS
 10
17.2141219206
 20
12.5623162742
 40
0.0969333771
100
AcDbArc
 50
257.2419599689
 51
258.5638899447
  0
SPLINE
  5
42C
100
AcDbEntity
  8
0
100
AcDbSpline
 62
7
  6
CONTINUOUS
 70
0
 71
3
 72
18
 73
14
 74
0
 42
0.0000001
 43
0.0000001
 44
0.0000000001
 40
0.0
 40
0.0
 40
0.0
 40
0.0
 40
0.0663202108
 40
0.1324135174
 40
0.1978306205
 40
0.262704554
 40
0.327113614
 40
0.3910423336
 40
0.5174184944
 40
0.6418415909
 40
0.7640788697
 40
0.8837882822
 40
1.0
 40
1.0
 40
1.0
 40
1.0
 10
4.6544133947
 20
4.8338651525
 30
0.0
 10
4.6544161135
 20
4.8349719339
 30
0.0
 10
4.6546200051
 20
4.8371816398
 30
0.0
 10
4.6552741795
 20
4.8404201073
 30
0.0
 10
4.656133556
 20
4.8435851947
 30
0.0
 10
4.6571787753
 20
4.8466636081
 30
0.0
 10
4.6583702141
 20
4.8496610199
 30
0.0
 10
4.660100229
 20
4.8535447809
 30
0.0
 10
4.6624881961
 20
4.8582275543
 30
0.0
 10
4.6656515668
 20
4.8635932272
 30
0.0
 10
4.6690579256
 20
4.8686750805
 30
0.0
 10
4.6726927734
 20
4.8734249823
 30
0.0
 10
4.6753295474
 20
4.8763583183
 30
0.0
 10
4.6767041726
 20
4.8777264099
 30
0.0
  0
SPLINE
  5
42D
100
AcDbEntity
  8
0
100
AcDbSpline
 62
7
  6
CONTINUOUS
 70
0
 71
3
 72
18
 73
14
 74
0
 42
0.0000001
 43
0.0000001
 44
0.0000000001
 40
0.0
 40
0.0
 40
0.0
 40
0.0
 40
0.0663157204
 40
0.1324073948
 40
0.1978231314
 40
0.2626965948
 40
0.3271077335
 40
0.3910375015
 40
0.5174145015
 40
0.6418392062
 40
0.7640781099
 40
0.8837883017
 40
1.0
 40
1.0
 40
1.0
 40
1.0
 10
7.6063258711
 20
4.8338651694
 30
0.0
 10
7.6063231523
 20
4.8349718873
 30
0.0
 10
7.6061157616
 20
4.8371813551
 30
0.0
 10
7.6054586811
 20
4.8404189387
 30
0.0
 10
7.6046009981
 20
4.843584439
 30
0.0
 10
7.6035564404
 20
4.8466631538
 30
0.0
 10
7.6023645345
 20
4.8496604655
 30
0.0
 10
7.6006345295
 20
4.8535443409
 30
0.0
 10
7.5982468196
 20
4.858227376
 30
0.0
 10
7.5950833687
 20
4.8635931592
 30
0.0
 10
7.5916769973
 20
4.8686751597
 30
0.0
 10
7.5880419457
 20
4.8734250424
 30
0.0
 10
7.5854050187
 20
4.8763583045
 30
0.0
 10
7.5840303797
 20
4.8777264099
 30
0.0
  0
LINE
  5
42E
100
AcDbEntity
  8
0
100
AcDbLine
 62
7
  6
CONTINUOUS
 10
5.8364203285
 20
6.5181281914
 11
5.8718376052
 21
6.5276182366
  0
LINE
  5
42F
100
AcDbEntity
  8
0
100
AcDbLine
 62
7
  6
CONTINUOUS
 10
5.8718376052
 20
6.5276182366
 11
5.889560099
 21
6.5323115501
  0
LINE
  5
430
100
AcDbEntity
  8
0
100
AcDbLine
 62
7
  6
CONTINUOUS
 10
5.8187255456
 20
6.5133314598
 11
5.8364203285
 21
6.5181281914
  0
LINE
  5
431
100
AcDbEntity
  8
0
100
AcDbLine
 62
7
  6
CONTINUOUS
 10
7.2248925136
 20
5.9786707444
 11
7.2224996767
 21
5.9844014342
  0
SPLINE
  5
432
100
AcDbEntity
  8
0
100
AcDbSpline
 62
7
  6
CONTINUOUS
 70
0
 71
3
 72
11
 73
7
 74
0
 42
0.0000001
 43
0.0000001
 44
0.0000000001
 40
0.0
 40
0.0
 40
0.0
 40
0.0
 40
0.2499814411
 40
0.499972863
 40
0.7499805331
 40
1.0
 40
1.0
 40
1.0
 40
1.0
 10
5.0470339428
 20
6.1442957444
 30
0.0
 10
5.0530404127
 20
6.1442957444
 30
0.0
 10
5.0650663742
 20
6.1435865735
 30
0.0
 10
5.0828418595
 20
6.1404170434
 30
0.0
 10
5.1001926329
 20
6.1354530236
 30
0.0
 10
5.1114348267
 20
6.1311770324
 30
0.0
 10
5.1169722741
 20
6.128847798
 30
0.0
  0
LINE
  5
433
100
AcDbEntity
  8
0
100
AcDbLine
 62
7
  6
CONTINUOUS
 10
7.8749670665
 20
4.6692957444
 11
7.9014817631
 21
4.6602586798
  0
SPLINE
  5
434
100
AcDbEntity
  8
0
100
AcDbSpline
 62
7
  6
CONTINUOUS
 70
0
 71
3
 72
19
 73
15
 74
0
 42
0.0000001
 43
0.0000001
 44
0.0000000001
 40
0.0
 40
0.0
 40
0.0
 40
0.0
 40
0.0698519884
 40
0.1398983423
 40
0.2099041428
 40
0.2799034256
 40
0.349748316
 40
0.4191623391
 40
0.4876213647
 40
0.5546511261
 40
0.6830863646
 40
0.8017970983
 40
0.9082334649
 40
1.0
 40
1.0
 40
1.0
 40
1.0
 10
7.9014817631
 20
4.6602586798
 30
0.0
 10
7.901875439
 20
4.6601257386
 30
0.0
 10
7.9026724316
 20
4.6598839369
 30
0.0
 10
7.9038842546
 20
4.6595837863
 30
0.0
 10
7.9051199713
 20
4.6593701458
 30
0.0
 10
7.9063802797
 20
4.6594332415
 30
0.0
 10
7.9075781781
 20
4.6598305686
 30
0.0
 10
7.9086079607
 20
4.660534188
 30
0.0
 10
7.909477759
 20
4.6613937921
 30
0.0
 10
7.910444693
 20
4.6626344941
 30
0.0
 10
7.9114120099
 20
4.6642379014
 30
0.0
 10
7.9124111737
 20
4.6660882264
 30
0.0
 10
7.9132786325
 20
4.6677621467
 30
0.0
 10
7.9138157395
 20
4.6688116957
 30
0.0
 10
7.9140680833
 20
4.6692957444
 30
0.0
  0
SPLINE
  5
435
100
AcDbEntity
  8
0
100
AcDbSpline
 62
7
  6
CONTINUOUS
 70
0
 71
3
 72
12
 73
8
 74
0
 42
0.0000001
 43
0.0000001
 44
0.0000000001
 40
0.0
 40
0.0
 40
0.0
 40
0.0
 40
0.2500052761
 40
0.4999855209
 40
0.7499232204
 40
0.8749698066
 40
1.0
 40
1.0
 40
1.0
 40
1.0
 10
4.9600547762
 20
6.1209897469
 30
0.0
 10
4.9668260662
 20
6.1243753919
 30
0.0
 10
4.980616662
 20
6.130669951
 30
0.0
 10
5.0020822871
 20
6.1381930511
 30
0.0
 10
5.0206131223
 20
6.1423276361
 30
0.0
 10
5.0356717911
 20
6.1440159753
 30
0.0
 10
5.0432478422
 20
6.1442957444
 30
0.0
 10
5.0470339428
 20
6.1442957444
 30
0.0
  0
SPLINE
  5
436
100
AcDbEntity
  8
0
100
AcDbSpline
 62
7
  6
CONTINUOUS
 70
0
 71
3
 72
9
 73
5
 74
0
 42
0.0000001
 43
0.0000001
 44
0.0000000001
 40
0.0
 40
0.0
 40
0.0
 40
0.0
 40
0.5018106583
 40
1.0
 40
1.0
 40
1.0
 40
1.0
 10
5.8549719639
 20
6.5197271113
 30
0.0
 10
5.8575813152
 20
6.5214466646
 30
0.0
 10
5.8629756625
 20
6.524598465
 30
0.0
 10
5.8688400975
 20
6.5268181818
 30
0.0
 10
5.8718376052
 20
6.5276182366
 30
0.0
  0
SPLINE
  5
437
100
AcDbEntity
  8
0
100
AcDbSpline
 62
7
  6
CONTINUOUS
 70
0
 71
3
 72
9
 73
5
 74
0
 42
0.0000001
 43
0.0000001
 44
0.0000000001
 40
0.0
 40
0.0
 40
0.0
 40
0.0
 40
0.5018848251
 40
1.0
 40
1.0
 40
1.0
 40
1.0
 10
5.8195646159
 20
6.5102023886
 30
0.0
 10
5.8221721609
 20
6.5119272549
 30
0.0
 10
5.8275618655
 20
6.5150906998
 30
0.0
 10
5.8334239117
 20
6.517322176
 30
0.0
 10
5.8364203286
 20
6.5181281914
 30
0.0
  0
SPLINE
  5
438
100
AcDbEntity
  8
0
100
AcDbSpline
 62
7
  6
CONTINUOUS
 70
0
 71
3
 72
13
 73
9
 74
0
 42
0.0000001
 43
0.0000001
 44
0.0000000001
 40
0.0
 40
0.0
 40
0.0
 40
0.0
 40
0.1124740069
 40
0.2267869675
 40
0.3444526634
 40
0.4664171313
 40
0.7242303607
 40
1.0
 40
1.0
 40
1.0
 40
1.0
 10
4.9165651928
 20
6.1442957444
 30
0.0
 10
4.9184621301
 20
6.1442957444
 30
0.0
 10
4.9222932499
 20
6.1440112883
 30
0.0
 10
4.9279778975
 20
6.1427252191
 30
0.0
 10
4.9335846912
 20
6.140630197
 30
0.0
 10
4.9410673366
 20
6.1368034404
 30
0.0
 10
4.9501295045
 20
6.1303790209
 30
0.0
 10
4.9567660155
 20
6.1242785075
 30
0.0
 10
4.9600547762
 20
6.1209897469
 30
0.0
  0
SPLINE
  5
439
100
AcDbEntity
  8
0
100
AcDbSpline
 62
7
  6
CONTINUOUS
 70
0
 71
3
 72
19
 73
15
 74
0
 42
0.0000001
 43
0.0000001
 44
0.0000000001
 40
0.0
 40
0.0
 40
0.0
 40
0.0
 40
0.0698554249
 40
0.139906429
 40
0.2098896334
 40
0.2799146239
 40
0.3497453063
 40
0.4191855807
 40
0.4876123101
 40
0.5546530385
 40
0.6830739283
 40
0.8018049534
 40
0.9082362247
 40
1.0
 40
1.0
 40
1.0
 40
1.0
 10
4.3592527892
 20
4.6602586798
 30
0.0
 10
4.3588612297
 20
4.6601194995
 30
0.0
 10
4.3580642696
 20
4.6598758473
 30
0.0
 10
4.3568498509
 20
4.659585926
 30
0.0
 10
4.3556131737
 20
4.6593802624
 30
0.0
 10
4.3543536457
 20
4.6594372464
 30
0.0
 10
4.3531515397
 20
4.6598223565
 30
0.0
 10
4.3521170608
 20
4.660521265
 30
0.0
 10
4.3512565217
 20
4.661391414
 30
0.0
 10
4.3503074523
 20
4.6626449999
 30
0.0
 10
4.3493320516
 20
4.6642423535
 30
0.0
 10
4.3483182882
 20
4.6660853714
 30
0.0
 10
4.3474582646
 20
4.6677633218
 30
0.0
 10
4.3469171836
 20
4.6688108345
 30
0.0
 10
4.3466664691
 20
4.6692957444
 30
0.0
  0
LINE
  5
43A
100
AcDbEntity
  8
0
100
AcDbLine
 62
7
  6
CONTINUOUS
 10
4.3592527892
 20
4.6602586798
 11
4.3857674859
 21
4.6692957444
  0
SPLINE
  5
43B
100
AcDbEntity
  8
0
100
AcDbSpline
 62
7
  6
CONTINUOUS
 70
0
 71
3
 72
9
 73
5
 74
0
 42
0.0000001
 43
0.0000001
 44
0.0000000001
 40
0.0
 40
0.0
 40
0.0
 40
0.0
 40
0.5018226974
 40
1.0
 40
1.0
 40
1.0
 40
1.0
 10
5.8549719639
 20
6.5197271113
 30
0.0
 10
5.8518523347
 20
6.5199116153
 30
0.0
 10
5.8456047212
 20
6.5199449161
 30
0.0
 10
5.8394162132
 20
6.5189340637
 30
0.0
 10
5.8364203286
 20
6.5181281914
 30
0.0
  0
SPLINE
  5
43C
100
AcDbEntity
  8
0
100
AcDbSpline
 62
7
  6
CONTINUOUS
 70
0
 71
3
 72
12
 73
8
 74
0
 42
0.0000001
 43
0.0000001
 44
0.0000000001
 40
0.0
 40
0.0
 40
0.0
 40
0.0
 40
0.1250299826
 40
0.2500764366
 40
0.5000143783
 40
0.7499949256
 40
1.0
 40
1.0
 40
1.0
 40
1.0
 10
7.2137006095
 20
6.1442957444
 30
0.0
 10
7.2174866979
 20
6.1442957444
 30
0.0
 10
7.2250627254
 20
6.1440159746
 30
0.0
 10
7.2401213645
 20
6.1423273164
 30
0.0
 10
7.2586517605
 20
6.1381912744
 30
0.0
 10
7.2801182611
 20
6.1306708233
 30
0.0
 10
7.293908502
 20
6.124375384
 30
0.0
 10
7.3006797762
 20
6.1209897469
 30
0.0
  0
SPLINE
  5
43D
100
AcDbEntity
  8
0
100
AcDbSpline
 62
7
  6
CONTINUOUS
 70
0
 71
3
 72
9
 73
5
 74
0
 42
0.0000001
 43
0.0000001
 44
0.0000000001
 40
0.0
 40
0.0
 40
0.0
 40
0.0
 40
0.501897249
 40
1.0
 40
1.0
 40
1.0
 40
1.0
 10
5.8903979808
 20
6.5291821606
 30
0.0
 10
5.8872772567
 20
6.5293721692
 30
0.0
 10
5.8810278423
 20
6.529417892
 30
0.0
 10
5.8748355234
 20
6.5284184009
 30
0.0
 10
5.8718376052
 20
6.5276182366
 30
0.0
  0
SPLINE
  5
43E
100
AcDbEntity
  8
0
100
AcDbSpline
 62
7
  6
CONTINUOUS
 70
0
 71
3
 72
13
 73
9
 74
0
 42
0.0000001
 43
0.0000001
 44
0.0000000001
 40
0.0
 40
0.0
 40
0.0
 40
0.0
 40
0.2757710482
 40
0.5335842143
 40
0.6555474526
 40
0.7732081347
 40
0.8875238515
 40
1.0
 40
1.0
 40
1.0
 40
1.0
 10
4.8730756095
 20
6.1209897469
 30
0.0
 10
4.8763643561
 20
6.1242784935
 30
0.0
 10
4.883000834
 20
6.1303789813
 30
0.0
 10
4.8920630511
 20
6.1368030908
 30
0.0
 10
4.8995455427
 20
6.1406298464
 30
0.0
 10
4.905152758
 20
6.1427234602
 30
0.0
 10
4.9108371441
 20
6.1440097375
 30
0.0
 10
4.9146682372
 20
6.1442957444
 30
0.0
 10
4.9165651928
 20
6.1442957444
 30
0.0
  0
SPLINE
  5
43F
100
AcDbEntity
  8
0
100
AcDbSpline
 62
7
  6
CONTINUOUS
 70
0
 71
3
 72
13
 73
9
 74
0
 42
0.0000001
 43
0.0000001
 44
0.0000000001
 40
0.0
 40
0.0
 40
0.0
 40
0.0
 40
0.2757710481
 40
0.5335842143
 40
0.6555474526
 40
0.7732081347
 40
0.8875238515
 40
1.0
 40
1.0
 40
1.0
 40
1.0
 10
7.3006797762
 20
6.1209897469
 30
0.0
 10
7.3039685228
 20
6.1242784935
 30
0.0
 10
7.3106050007
 20
6.1303789813
 30
0.0
 10
7.3196672178
 20
6.1368030908
 30
0.0
 10
7.3271497094
 20
6.1406298464
 30
0.0
 10
7.3327569247
 20
6.1427234602
 30
0.0
 10
7.3384413108
 20
6.1440097375
 30
0.0
 10
7.3422724038
 20
6.1442957444
 30
0.0
 10
7.3441693595
 20
6.1442957444
 30
0.0
  0
SPLINE
  5
440
100
AcDbEntity
  8
0
100
AcDbSpline
 62
7
  6
CONTINUOUS
 70
0
 71
3
 72
11
 73
7
 74
0
 42
0.0000001
 43
0.0000001
 44
0.0000000001
 40
0.0
 40
0.0
 40
0.0
 40
0.0
 40
0.2500197713
 40
0.5000269284
 40
0.7500180598
 40
1.0
 40
1.0
 40
1.0
 40
1.0
 10
7.1437633004
 20
6.1288478292
 30
0.0
 10
7.1493006751
 20
6.1311770849
 30
0.0
 10
7.1605421961
 20
6.1354544488
 30
0.0
 10
7.1778929565
 20
6.140418034
 30
0.0
 10
7.1956683746
 20
6.1435866339
 30
0.0
 10
7.2076941937
 20
6.1442957444
 30
0.0
 10
7.2137006095
 20
6.1442957444
 30
0.0
  0
LINE
  5
441
100
AcDbEntity
  8
0
100
AcDbLine
 62
7
  6
CONTINUOUS
 10
5.0574542087
 20
5.4922124768
 11
5.0580100363
 21
5.4922124606
  0
LINE
  5
442
100
AcDbEntity
  8
0
100
AcDbLine
 62
7
  6
CONTINUOUS
 10
5.0580100363
 20
5.4922124606
 11
5.058573032
 21
5.492212411
  0
SPLINE
  5
443
100
AcDbEntity
  8
0
100
AcDbSpline
 62
7
  6
CONTINUOUS
 70
0
 71
3
 72
13
 73
9
 74
0
 42
0.0000001
 43
0.0000001
 44
0.0000000001
 40
0.0
 40
0.0
 40
0.0
 40
0.0
 40
0.1124740069
 40
0.2267869675
 40
0.3444526634
 40
0.4664171313
 40
0.7242303607
 40
1.0
 40
1.0
 40
1.0
 40
1.0
 10
7.3441693595
 20
6.1442957444
 30
0.0
 10
7.3460662968
 20
6.1442957444
 30
0.0
 10
7.3498974166
 20
6.1440112883
 30
0.0
 10
7.3555820642
 20
6.1427252191
 30
0.0
 10
7.3611888578
 20
6.140630197
 30
0.0
 10
7.3686715032
 20
6.1368034404
 30
0.0
 10
7.3777336712
 20
6.1303790209
 30
0.0
 10
7.3843701822
 20
6.1242785075
 30
0.0
 10
7.3876589428
 20
6.1209897469
 30
0.0
  0
LINE
  5
444
100
AcDbEntity
  8
0
100
AcDbLine
 62
7
  6
CONTINUOUS
 10
7.2021615202
 20
5.492212411
 11
7.2027227104
 21
5.4922124605
  0
LINE
  5
445
100
AcDbEntity
  8
0
100
AcDbLine
 62
7
  6
CONTINUOUS
 10
5.0358420388
 20
5.9786707444
 11
5.0382348757
 21
5.9844014338
  0
SPLINE
  5
446
100
AcDbEntity
  8
0
100
AcDbSpline
 62
7
  6
CONTINUOUS
 70
0
 71
3
 72
23
 73
19
 74
0
 42
0.0000001
 43
0.0000001
 44
0.0000000001
 40
0.0
 40
0.0
 40
0.0
 40
0.0
 40
0.0625787947
 40
0.1251581732
 40
0.1876979581
 40
0.250211105
 40
0.3126898512
 40
0.3751405271
 40
0.4375702311
 40
0.4999900861
 40
0.5624108036
 40
0.6248426856
 40
0.6872967538
 40
0.7497792117
 40
0.8122960891
 40
0.8748388281
 40
0.937420681
 40
1.0
 40
1.0
 40
1.0
 40
1.0
 10
5.7755569848
 20
12.6000477814
 30
0.0
 10
5.7755569848
 20
12.5981487458
 30
0.0
 10
5.775187223
 20
12.5943404546
 30
0.0
 10
5.773544827
 20
12.5888506931
 30
0.0
 10
5.7708720845
 20
12.5837816437
 30
0.0
 10
5.7672687832
 20
12.5793299273
 30
0.0
 10
5.7628676466
 20
12.5756684087
 30
0.0
 10
5.7578360312
 20
12.5729418978
 30
0.0
 10
5.7523674155
 20
12.5712602003
 30
0.0
 10
5.7466751538
 20
12.5706916892
 30
0.0
 10
5.740982784
 20
12.5712598158
 30
0.0
 10
5.7355138801
 20
12.5729412649
 30
0.0
 10
5.7304818967
 20
12.5756676989
 30
0.0
 10
5.7260803723
 20
12.5793292766
 30
0.0
 10
5.722476781
 20
12.5837811698
 30
0.0
 10
5.7198038025
 20
12.5888504142
 30
0.0
 10
5.7181613359
 20
12.5943403492
 30
0.0
 10
5.7177915543
 20
12.5981487299
 30
0.0
 10
5.7177915543
 20
12.6000477814
 30
0.0
  0
SPLINE
  5
447
100
AcDbEntity
  8
0
100
AcDbSpline
 62
7
  6
CONTINUOUS
 70
0
 71
3
 72
23
 73
19
 74
0
 42
0.0000001
 43
0.0000001
 44
0.0000000001
 40
0.0
 40
0.0
 40
0.0
 40
0.0
 40
0.0625787947
 40
0.1251581732
 40
0.1876979581
 40
0.250211105
 40
0.3126898512
 40
0.3751405271
 40
0.4375702311
 40
0.4999900861
 40
0.5624108036
 40
0.6248426856
 40
0.6872967538
 40
0.7497792117
 40
0.8122960891
 40
0.8748388281
 40
0.937420681
 40
1.0
 40
1.0
 40
1.0
 40
1.0
 10
5.7177915543
 20
12.6000477814
 30
0.0
 10
5.7177915543
 20
12.6019468169
 30
0.0
 10
5.7181613161
 20
12.6057551081
 30
0.0
 10
5.7198037121
 20
12.6112448696
 30
0.0
 10
5.7224764546
 20
12.616313919
 30
0.0
 10
5.7260797559
 20
12.6207656354
 30
0.0
 10
5.7304808925
 20
12.6244271541
 30
0.0
 10
5.7355125079
 20
12.627153665
 30
0.0
 10
5.7409811236
 20
12.6288353625
 30
0.0
 10
5.7466733853
 20
12.6294038735
 30
0.0
 10
5.7523657551
 20
12.6288357469
 30
0.0
 10
5.757834659
 20
12.6271542978
 30
0.0
 10
5.7628666424
 20
12.6244278639
 30
0.0
 10
5.7672681668
 20
12.6207662862
 30
0.0
 10
5.7708717581
 20
12.6163143929
 30
0.0
 10
5.7735447366
 20
12.6112451485
 30
0.0
 10
5.7751872032
 20
12.6057552136
 30
0.0
 10
5.7755569848
 20
12.6019468328
 30
0.0
 10
5.7755569848
 20
12.6000477814
 30
0.0
  0
SPLINE
  5
448
100
AcDbEntity
  8
0
100
AcDbSpline
 62
7
  6
CONTINUOUS
 70
0
 71
3
 72
9
 73
5
 74
0
 42
0.0000001
 43
0.0000001
 44
0.0000000001
 40
0.0
 40
0.0
 40
0.0
 40
0.0
 40
0.2458619064
 40
1.0
 40
1.0
 40
1.0
 40
1.0
 10
5.7600871763
 20
12.0086129863
 30
0.0
 10
5.7599570189
 20
12.0068817991
 30
0.0
 10
5.759474974
 20
11.9998372434
 30
0.0
 10
5.7592326768
 20
11.992774481
 30
0.0
 10
5.7592303533
 20
11.9874493828
 30
0.0
  0
LINE
  5
449
100
AcDbEntity
  8
0
100
AcDbLine
 62
7
  6
CONTINUOUS
 10
5.7955137193
 20
12.0297828213
 11
5.7769528471
 21
12.0192036025
  0
SPLINE
  5
44A
100
AcDbEntity
  8
0
100
AcDbSpline
 62
7
  6
CONTINUOUS
 70
0
 71
3
 72
9
 73
5
 74
0
 42
0.0000001
 43
0.0000001
 44
0.0000000001
 40
0.0
 40
0.0
 40
0.0
 40
0.0
 40
0.4950178881
 40
1.0
 40
1.0
 40
1.0
 40
1.0
 10
5.7600687613
 20
11.9662740266
 30
0.0
 10
5.7598098046
 20
11.9697618448
 30
0.0
 10
5.7593834212
 20
11.9768155291
 30
0.0
 10
5.7592287966
 20
11.9838815652
 30
0.0
 10
5.7592303533
 20
11.9874493828
 30
0.0
  0
LINE
  5
44B
100
AcDbEntity
  8
0
100
AcDbLine
 62
7
  6
CONTINUOUS
 10
5.7954767716
 20
11.9451049022
 11
5.7769251362
 21
11.9556951631
  0
LINE
  5
44C
100
AcDbEntity
  8
0
100
AcDbLine
 62
7
  6
CONTINUOUS
 10
4.7785647342
 20
12.0549512966
 11
4.6172090196
 21
12.054557617
  0
LINE
  5
44D
100
AcDbEntity
  8
0
100
AcDbLine
 62
7
  6
CONTINUOUS
 10
7.1437849132
 20
13.1611115193
 11
7.143231301
 21
13.1611115193
  0
LINE
  5
44E
100
AcDbEntity
  8
0
100
AcDbLine
 62
7
  6
CONTINUOUS
 10
7.143231301
 20
13.1611115193
 11
7.1426702786
 21
13.1611115194
  0
SPLINE
  5
44F
100
AcDbEntity
  8
0
100
AcDbSpline
 62
7
  6
CONTINUOUS
 70
0
 71
3
 72
9
 73
5
 74
0
 42
0.0000001
 43
0.0000001
 44
0.0000000001
 40
0.0
 40
0.0
 40
0.0
 40
0.0
 40
0.4988005057
 40
1.0
 40
1.0
 40
1.0
 40
1.0
 10
5.7970509782
 20
12.0240323798
 30
0.0
 10
5.7935824113
 20
12.02427453
 30
0.0
 10
5.7865120172
 20
12.0236902267
 30
0.0
 10
5.7799519206
 20
12.0209957299
 30
0.0
 10
5.7769528471
 20
12.0192036025
 30
0.0
  0
SPLINE
  5
450
100
AcDbEntity
  8
0
100
AcDbSpline
 62
7
  6
CONTINUOUS
 70
0
 71
3
 72
11
 73
7
 74
0
 42
0.0000001
 43
0.0000001
 44
0.0000000001
 40
0.0
 40
0.0
 40
0.0
 40
0.0
 40
0.2471278831
 40
0.4964535137
 40
0.7476758125
 40
1.0
 40
1.0
 40
1.0
 40
1.0
 10
5.7769528471
 20
12.0192036025
 30
0.0
 10
5.7742716
 20
12.0176013955
 30
0.0
 10
5.7692934211
 20
12.0136412839
 30
0.0
 10
5.7636153292
 20
12.0059597911
 30
0.0
 10
5.7600436969
 20
11.9970318977
 30
0.0
 10
5.7592317449
 20
11.9906385435
 30
0.0
 10
5.7592303533
 20
11.9874493828
 30
0.0
  0
SPLINE
  5
451
100
AcDbEntity
  8
0
100
AcDbSpline
 62
7
  6
CONTINUOUS
 70
0
 71
3
 72
11
 73
7
 74
0
 42
0.0000001
 43
0.0000001
 44
0.0000000001
 40
0.0
 40
0.0
 40
0.0
 40
0.0
 40
0.2523754331
 40
0.5036005657
 40
0.7528999764
 40
1.0
 40
1.0
 40
1.0
 40
1.0
 10
5.7592303533
 20
11.9874493828
 30
0.0
 10
5.7592289619
 20
11.9842605704
 30
0.0
 10
5.7600350858
 20
11.9778677775
 30
0.0
 10
5.7635988767
 20
11.9689394585
 30
0.0
 10
5.7692705085
 20
11.9612574903
 30
0.0
 10
5.7742453964
 20
11.9572973049
 30
0.0
 10
5.7769251362
 20
11.9556951631
 30
0.0
  0
LINE
  5
452
100
AcDbEntity
  8
0
100
AcDbLine
 62
7
  6
CONTINUOUS
 10
4.7785647342
 20
13.1451442658
 11
4.6172090196
 21
13.1455379467
  0
SPLINE
  5
453
100
AcDbEntity
  8
0
100
AcDbSpline
 62
7
  6
CONTINUOUS
 70
0
 71
3
 72
9
 73
5
 74
0
 42
0.0000001
 43
0.0000001
 44
0.0000000001
 40
0.0
 40
0.0
 40
0.0
 40
0.0
 40
0.2602478675
 40
1.0
 40
1.0
 40
1.0
 40
1.0
 10
5.8123701238
 20
12.0192036025
 30
0.0
 10
5.8108882793
 20
12.020089556
 30
0.0
 10
5.8052135343
 20
12.0235259918
 30
0.0
 10
5.7996173403
 20
12.0270913099
 30
0.0
 10
5.7955137193
 20
12.0297828213
 30
0.0
  0
SPLINE
  5
454
100
AcDbEntity
  8
0
100
AcDbSpline
 62
7
  6
CONTINUOUS
 70
0
 71
3
 72
9
 73
5
 74
0
 42
0.0000001
 43
0.0000001
 44
0.0000000001
 40
0.0
 40
0.0
 40
0.0
 40
0.0
 40
0.2500177987
 40
1.0
 40
1.0
 40
1.0
 40
1.0
 10
7.854572891
 20
12.0442966095
 30
0.0
 10
7.8561510833
 20
12.0450320994
 30
0.0
 10
7.8623979125
 20
12.0481158072
 30
0.0
 10
7.8684321813
 20
12.0516029566
 30
0.0
 10
7.8729554172
 20
12.054214448
 30
0.0
  0
SPLINE
  5
455
100
AcDbEntity
  8
0
100
AcDbSpline
 62
7
  6
CONTINUOUS
 70
0
 71
3
 72
61
 73
57
 74
0
 42
0.0000001
 43
0.0000001
 44
0.0000000001
 40
0.0
 40
0.0
 40
0.0
 40
0.0
 40
0.0017213839
 40
0.0046064227
 40
0.0086484525
 40
0.0138379145
 40
0.0201629215
 40
0.0276086006
 40
0.0457898571
 40
0.068211871
 40
0.0946651785
 40
0.1249026562
 40
0.1586418246
 40
0.1955674896
 40
0.2353346857
 40
0.3218845307
 40
0.4150645684
 40
0.5114008152
 40
0.559631076
 40
0.6073016428
 40
0.6539671591
 40
0.6991916563
 40
0.7425526261
 40
0.7836449677
 40
0.8220847802
 40
0.857512951
 40
0.8739930741
 40
0.8895985062
 40
0.9042928836
 40
0.918041701
 40
0.9308130464
 40
0.9425768207
 40
0.9533058023
 40
0.9629746636
 40
0.9715610344
 40
0.9790446866
 40
0.9823675162
 40
0.9854082339
 40
0.9881651776
 40
0.9906367994
 40
0.992821555
 40
0.9947181154
 40
0.9963255166
 40
0.9970204933
 40
0.9976428339
 40
0.9981924244
 40
0.9986691783
 40
0.9990730576
 40
0.9994040329
 40
0.9996620831
 40
0.9997637606
 40
0.999847211
 40
0.9999124467
 40
0.9999595004
 40
0.9999884759
 40
1.0
 40
1.0
 40
1.0
 40
1.0
 10
5.0157906591
 20
13.17769007
 30
0.0
 10
5.0170012772
 20
13.1776443984
 30
0.0
 10
5.0202428598
 20
13.1775816261
 30
0.0
 10
5.0263287242
 20
13.1774946276
 30
0.0
 10
5.0348557941
 20
13.1774103374
 30
0.0
 10
5.0458038095
 20
13.1773234838
 30
0.0
 10
5.0591473631
 20
13.1772378176
 30
0.0
 10
5.0816342383
 20
13.1771161184
 30
0.0
 10
5.1154499431
 20
13.1769733372
 30
0.0
 10
5.1626429072
 20
13.1768166128
 30
0.0
 10
5.2183208885
 20
13.1766679182
 30
0.0
 10
5.2819637253
 20
13.1765287373
 30
0.0
 10
5.3529768571
 20
13.1764007105
 30
0.0
 10
5.4306968637
 20
13.176285125
 30
0.0
 10
5.5455840827
 20
13.1761452495
 30
0.0
 10
5.7000621578
 20
13.1760127113
 30
0.0
 10
5.8943525546
 20
13.1759203843
 30
0.0
 10
6.0616743323
 20
13.1758989667
 30
0.0
 10
6.1969673537
 20
13.1759160886
 30
0.0
 10
6.2973029982
 20
13.1759461852
 30
0.0
 10
6.395523233
 20
13.1759932184
 30
0.0
 10
6.4907104407
 20
13.1760567427
 30
0.0
 10
6.5819753341
 20
13.1761361355
 30
0.0
 10
6.6684652706
 20
13.1762306289
 30
0.0
 10
6.7493722234
 20
13.1763393004
 30
0.0
 10
6.8129575247
 20
13.176443093
 30
0.0
 10
6.8604723947
 20
13.1765333295
 30
0.0
 10
6.8933952045
 20
13.1766022432
 30
0.0
 10
6.9243957595
 20
13.1766738595
 30
0.0
 10
6.9534017229
 20
13.1767480093
 30
0.0
 10
6.9803451664
 20
13.1768245024
 30
0.0
 10
7.0051632875
 20
13.1769031515
 30
0.0
 10
7.0277979169
 20
13.1769837435
 30
0.0
 10
7.0481963241
 20
13.1770660566
 30
0.0
 10
7.0663106988
 20
13.1771498629
 30
0.0
 10
7.0799588467
 20
13.1772233087
 30
0.0
 10
7.0897040731
 20
13.1772835202
 30
0.0
 10
7.0961227642
 20
13.1773271248
 30
0.0
 10
7.1019423738
 20
13.1773709442
 30
0.0
 10
7.1071595522
 20
13.1774149429
 30
0.0
 10
7.1117711831
 20
13.1774590666
 30
0.0
 10
7.1157745584
 20
13.1775032728
 30
0.0
 10
7.1187294495
 20
13.1775416941
 30
0.0
 10
7.1207875768
 20
13.1775730466
 30
0.0
 10
7.1221012825
 20
13.1775954016
 30
0.0
 10
7.1232613882
 20
13.1776177296
 30
0.0
 10
7.1242676962
 20
13.1776400235
 30
0.0
 10
7.1251201561
 20
13.1776622107
 30
0.0
 10
7.1258184968
 20
13.1776843319
 30
0.0
 10
7.1263044615
 20
13.177703631
 30
0.0
 10
7.1266155918
 20
13.1777198764
 30
0.0
 10
7.126792201
 20
13.1777307531
 30
0.0
 10
7.1269275832
 20
13.1777421595
 30
0.0
 10
7.1270309371
 20
13.1777516627
 30
0.0
 10
7.1270835973
 20
13.1777635899
 30
0.0
 10
7.1271204554
 20
13.1777695999
 30
0.0
 10
7.1271220195
 20
13.1777775581
 30
0.0
  0
SPLINE
  5
456
100
AcDbEntity
  8
0
100
AcDbSpline
 62
7
  6
CONTINUOUS
 70
0
 71
3
 72
11
 73
7
 74
0
 42
0.0000001
 43
0.0000001
 44
0.0000000001
 40
0.0
 40
0.0
 40
0.0
 40
0.0
 40
0.3221140303
 40
0.5865885891
 40
0.8041641272
 40
1.0
 40
1.0
 40
1.0
 40
1.0
 10
4.9787395963
 20
13.1435978563
 30
0.0
 10
4.9785788652
 20
13.1439349647
 30
0.0
 10
4.9782624979
 20
13.1445388576
 30
0.0
 10
4.9776991008
 20
13.1452900837
 30
0.0
 10
4.9770582044
 20
13.1457727247
 30
0.0
 10
4.9765728481
 20
13.1458811147
 30
0.0
 10
4.976345792
 20
13.1458811147
 30
0.0
  0
LINE
  5
457
100
AcDbEntity
  8
0
100
AcDbLine
 62
7
  6
CONTINUOUS
 10
5.8309027885
 20
11.9662740262
 11
5.8123424129
 21
11.9556951631
  0
SPLINE
  5
458
100
AcDbEntity
  8
0
100
AcDbSpline
 62
7
  6
CONTINUOUS
 70
0
 71
3
 72
9
 73
5
 74
0
 42
0.0000001
 43
0.0000001
 44
0.0000000001
 40
0.0
 40
0.0
 40
0.0
 40
0.0
 40
0.4949041118
 40
1.0
 40
1.0
 40
1.0
 40
1.0
 10
5.8309217293
 20
12.0086129863
 30
0.0
 10
5.8306597162
 20
12.0051280224
 30
0.0
 10
5.8302271223
 20
11.9980783868
 30
0.0
 10
5.830066463
 20
11.991016152
 30
0.0
 10
5.8300649067
 20
11.9874493828
 30
0.0
  0
SPLINE
  5
459
100
AcDbEntity
  8
0
100
AcDbSpline
 62
7
  6
CONTINUOUS
 70
0
 71
3
 72
11
 73
7
 74
0
 42
0.0000001
 43
0.0000001
 44
0.0000000001
 40
0.0
 40
0.0
 40
0.0
 40
0.0
 40
0.195722071
 40
0.4132284255
 40
0.6778251934
 40
1.0
 40
1.0
 40
1.0
 40
1.0
 10
4.9763468465
 20
12.054214448
 30
0.0
 10
4.9765737076
 20
12.054214448
 30
0.0
 10
4.977058754
 20
12.0543228779
 30
0.0
 10
4.9776989306
 20
12.054805922
 30
0.0
 10
4.9782626999
 20
12.0555565576
 30
0.0
 10
4.9785795272
 20
12.0561603419
 30
0.0
 10
4.9787396834
 20
12.0564976869
 30
0.0
  0
SPLINE
  5
45A
100
AcDbEntity
  8
0
100
AcDbSpline
 62
7
  6
CONTINUOUS
 70
0
 71
3
 72
9
 73
5
 74
0
 42
0.0000001
 43
0.0000001
 44
0.0000000001
 40
0.0
 40
0.0
 40
0.0
 40
0.0
 40
0.4594128605
 40
1.0
 40
1.0
 40
1.0
 40
1.0
 10
4.9787396834
 20
12.0564976869
 30
0.0
 10
4.9791474762
 20
12.0573547796
 30
0.0
 10
4.9797319632
 20
12.0593620301
 30
0.0
 10
4.9799158304
 20
12.0614309141
 30
0.0
 10
4.9799158304
 20
12.0625477814
 30
0.0
  0
LINE
  5
45B
100
AcDbEntity
  8
0
100
AcDbLine
 62
7
  6
CONTINUOUS
 10
4.9979590164
 20
12.0389840435
 11
4.998514844
 21
12.0389840434
  0
LINE
  5
45C
100
AcDbEntity
  8
0
100
AcDbLine
 62
7
  6
CONTINUOUS
 10
4.998514844
 20
12.0389840434
 11
4.9990778397
 21
12.0389840434
  0
LINE
  5
45D
100
AcDbEntity
  8
0
100
AcDbLine
 62
7
  6
CONTINUOUS
 10
7.1426663279
 20
12.0389840434
 11
7.1432275181
 21
12.0389840434
  0
SPLINE
  5
45E
100
AcDbEntity
  8
0
100
AcDbSpline
 62
7
  6
CONTINUOUS
 70
0
 71
3
 72
46
 73
42
 74
0
 42
0.0000001
 43
0.0000001
 44
0.0000000001
 40
0.0
 40
0.0
 40
0.0
 40
0.0
 40
0.000022765
 40
0.0000814258
 40
0.00017733
 40
0.0003106923
 40
0.0004815798
 40
0.0006900178
 40
0.001219572
 40
0.0018993592
 40
0.0027293348
 40
0.0037094376
 40
0.0048395791
 40
0.0061195607
 40
0.0075491463
 40
0.0108561778
 40
0.0147587637
 40
0.019254834
 40
0.0243414813
 40
0.0300155106
 40
0.0362737174
 40
0.0431124305
 40
0.050527266
 40
0.0585137796
 40
0.0761829174
 40
0.096076782
 40
0.118147973
 40
0.1423429097
 40
0.1686036025
 40
0.1968666968
 40
0.2270640552
 40
0.2591231753
 40
0.2929665056
 40
0.365676458
 40
0.4444938266
 40
0.5286597159
 40
0.6173637942
 40
0.7097518324
 40
0.8049349528
 40
0.9019947826
 40
1.0
 40
1.0
 40
1.0
 40
1.0
 10
7.1271220651
 20
12.0223177025
 30
0.0
 10
7.127121219
 20
12.022325673
 30
0.0
 10
7.1270829852
 20
12.0223321566
 30
0.0
 10
7.127030733
 20
12.0223439002
 30
0.0
 10
7.1269247144
 20
12.0223537045
 30
0.0
 10
7.1267865246
 20
12.0223652056
 30
0.0
 10
7.1266054825
 20
12.0223762717
 30
0.0
 10
7.1262863107
 20
12.0223927544
 30
0.0
 10
7.1257872303
 20
12.022412353
 30
0.0
 10
7.1250696798
 20
12.0224348034
 30
0.0
 10
7.1241932735
 20
12.0224573262
 30
0.0
 10
7.1231583212
 20
12.0224799566
 30
0.0
 10
7.121964876
 20
12.0225026223
 30
0.0
 10
7.120613156
 20
12.0225253144
 30
0.0
 10
7.118495028
 20
12.0225571402
 30
0.0
 10
7.1154535247
 20
12.0225961363
 30
0.0
 10
7.1113323477
 20
12.0226409957
 30
0.0
 10
7.1065845586
 20
12.0226857645
 30
0.0
 10
7.1012130423
 20
12.0227304021
 30
0.0
 10
7.0952210804
 20
12.0227748516
 30
0.0
 10
7.0886122224
 20
12.0228190721
 30
0.0
 10
7.0813904352
 20
12.0228630253
 30
0.0
 10
7.0735601218
 20
12.0229066815
 30
0.0
 10
7.0619165895
 20
12.0229664799
 30
0.0
 10
7.0458793658
 20
12.0230394636
 30
0.0
 10
7.0248831115
 20
12.0231228124
 30
0.0
 10
7.0015891861
 20
12.0232043445
 30
0.0
 10
6.9760535652
 20
12.0232838476
 30
0.0
 10
6.9483378401
 20
12.0233610985
 30
0.0
 10
6.9185087272
 20
12.0234358987
 30
0.0
 10
6.8866380519
 20
12.0235080564
 30
0.0
 10
6.8528026379
 20
12.0235773899
 30
0.0
 10
6.8039991091
 20
12.023668013
 30
0.0
 10
6.7387326106
 20
12.0237719388
 30
0.0
 10
6.6557481861
 20
12.0238802393
 30
0.0
 10
6.567132418
 20
12.0239737793
 30
0.0
 10
6.4737385779
 20
12.0240516189
 30
0.0
 10
6.376465702
 20
12.0241129921
 30
0.0
 10
6.2762508658
 20
12.0241572402
 30
0.0
 10
6.1740582881
 20
12.0241840168
 30
0.0
 10
6.1053784381
 20
12.0241899459
 30
0.0
 10
6.0708720839
 20
12.0241899459
 30
0.0
  0
SPLINE
  5
45F
100
AcDbEntity
  8
0
100
AcDbSpline
 62
7
  6
CONTINUOUS
 70
0
 71
3
 72
44
 73
40
 74
0
 42
0.0000001
 43
0.0000001
 44
0.0000000001
 40
0.0
 40
0.0
 40
0.0
 40
0.0
 40
0.0000234605
 40
0.0000799561
 40
0.0001710954
 40
0.0002971615
 40
0.0004582482
 40
0.000654395
 40
0.0011519277
 40
0.0017898117
 40
0.0025680337
 40
0.0034865578
 40
0.0045453379
 40
0.0057443204
 40
0.0070833954
 40
0.0101811084
 40
0.0138370214
 40
0.0180496629
 40
0.0228175448
 40
0.0281387645
 40
0.0340108949
 40
0.0404314736
 40
0.0549079064
 40
0.0715442108
 40
0.0903130242
 40
0.1111837639
 40
0.1341218051
 40
0.1590899871
 40
0.1860467345
 40
0.2149484501
 40
0.2783925139
 40
0.3490057484
 40
0.4263246461
 40
0.5098417284
 40
0.5990086979
 40
0.6932404883
 40
0.7919181877
 40
0.8943939623
 40
1.0
 40
1.0
 40
1.0
 40
1.0
 10
5.0146221453
 20
12.0223179895
 30
0.0
 10
5.0146232818
 20
12.0223239081
 30
0.0
 10
5.0146486613
 20
12.0223303525
 30
0.0
 10
5.0146868517
 20
12.0223392283
 30
0.0
 10
5.0147593221
 20
12.022347852
 30
0.0
 10
5.0148549037
 20
12.0223571368
 30
0.0
 10
5.0149791668
 20
12.0223663659
 30
0.0
 10
5.0151981195
 20
12.0223799339
 30
0.0
 10
5.0155399512
 20
12.0223961519
 30
0.0
 10
5.016031137
 20
12.0224146908
 30
0.0
 10
5.016630615
 20
12.0224333068
 30
0.0
 10
5.017338227
 20
12.0224520071
 30
0.0
 10
5.0181539696
 20
12.0224707408
 30
0.0
 10
5.0190777681
 20
12.0224895009
 30
0.0
 10
5.0205252988
 20
12.0225158244
 30
0.0
 10
5.0226039791
 20
12.0225481076
 30
0.0
 10
5.0254208515
 20
12.0225852936
 30
0.0
 10
5.0286668046
 20
12.0226224674
 30
0.0
 10
5.0323405819
 20
12.0226595894
 30
0.0
 10
5.0364406843
 20
12.0226966148
 30
0.0
 10
5.0409653631
 20
12.0227335239
 30
0.0
 10
5.0478418786
 20
12.0227846118
 30
0.0
 10
5.0574835832
 20
12.022847144
 30
0.0
 10
5.0702974176
 20
12.0229188581
 30
0.0
 10
5.0847539076
 20
12.022989722
 30
0.0
 10
5.1008292675
 20
12.0230595921
 30
0.0
 10
5.1184971966
 20
12.0231283258
 30
0.0
 10
5.1377285709
 20
12.0231957877
 30
0.0
 10
5.1584919621
 20
12.0232618622
 30
0.0
 10
5.18913937
 20
12.0233507252
 30
0.0
 10
5.2310016571
 20
12.0234562529
 30
0.0
 10
5.2853018064
 20
12.0235721654
 30
0.0
 10
5.3447585239
 20
12.0236800937
 30
0.0
 10
5.4089815176
 20
12.0237792871
 30
0.0
 10
5.4775492693
 20
12.0238690545
 30
0.0
 10
5.5500116354
 20
12.0239487792
 30
0.0
 10
5.6258929027
 20
12.024017906
 30
0.0
 10
5.7046961019
 20
12.0240760142
 30
0.0
 10
5.7581500737
 20
12.0241066512
 30
0.0
 10
5.7852791259
 20
12.0241201837
 30
0.0
  0
SPLINE
  5
460
100
AcDbEntity
  8
0
100
AcDbSpline
 62
7
  6
CONTINUOUS
 70
0
 71
3
 72
11
 73
7
 74
0
 42
0.0000001
 43
0.0000001
 44
0.0000000001
 40
0.0
 40
0.0
 40
0.0
 40
0.0
 40
0.1963244786
 40
0.4142558128
 40
0.6782641106
 40
1.0
 40
1.0
 40
1.0
 40
1.0
 10
7.1653973213
 20
12.054214448
 30
0.0
 10
7.1651696413
 20
12.054214448
 30
0.0
 10
7.164683293
 20
12.0543227443
 30
0.0
 10
7.164040431
 20
12.0548040551
 30
0.0
 10
7.1634787854
 20
12.055556725
 30
0.0
 10
7.1631656359
 20
12.0561611615
 30
0.0
 10
7.1630044844
 20
12.0564976872
 30
0.0
  0
SPLINE
  5
461
100
AcDbEntity
  8
0
100
AcDbSpline
 62
7
  6
CONTINUOUS
 70
0
 71
3
 72
12
 73
8
 74
0
 42
0.0000001
 43
0.0000001
 44
0.0000000001
 40
0.0
 40
0.0
 40
0.0
 40
0.0
 40
0.24993576
 40
0.3750731638
 40
0.5000687251
 40
0.7500261916
 40
1.0
 40
1.0
 40
1.0
 40
1.0
 10
4.2871712768
 20
13.1557989532
 30
0.0
 10
4.2902185924
 20
13.1571288935
 30
0.0
 10
4.2949947091
 20
13.1586634052
 30
0.0
 10
4.3014770222
 20
13.1601543813
 30
0.0
 10
4.3080261333
 20
13.1613400948
 30
0.0
 10
4.3162939471
 20
13.162291976
 30
0.0
 10
4.3229469003
 20
13.1625477814
 30
0.0
 10
4.3262722936
 20
13.1625477814
 30
0.0
  0
SPLINE
  5
462
100
AcDbEntity
  8
0
100
AcDbSpline
 62
7
  6
CONTINUOUS
 70
0
 71
3
 72
16
 73
12
 74
0
 42
0.0000001
 43
0.0000001
 44
0.0000000001
 40
0.0
 40
0.0
 40
0.0
 40
0.0
 40
0.150990144
 40
0.3068126323
 40
0.3812234236
 40
0.4469914689
 40
0.5043871444
 40
0.5560892849
 40
0.7573003063
 40
0.8728046361
 40
1.0
 40
1.0
 40
1.0
 40
1.0
 10
4.2997575969
 20
13.1625477814
 30
0.0
 10
4.298955404
 20
13.1625477814
 30
0.0
 10
4.2973255178
 20
13.1625434375
 30
0.0
 10
4.2952995134
 20
13.1625244913
 30
0.0
 10
4.2937296632
 20
13.1624164847
 30
0.0
 10
4.2926905959
 20
13.1622533368
 30
0.0
 10
4.2917958827
 20
13.161991841
 30
0.0
 10
4.290299508
 20
13.1612782948
 30
0.0
 10
4.2889623915
 20
13.1597212559
 30
0.0
 10
4.2878642505
 20
13.1576429926
 30
0.0
 10
4.287391739
 20
13.1564377544
 30
0.0
 10
4.2871712768
 20
13.1557989532
 30
0.0
  0
SPLINE
  5
463
100
AcDbEntity
  8
0
100
AcDbSpline
 62
7
  6
CONTINUOUS
 70
0
 71
3
 72
9
 73
5
 74
0
 42
0.0000001
 43
0.0000001
 44
0.0000000001
 40
0.0
 40
0.0
 40
0.0
 40
0.0
 40
0.7499822432
 40
1.0
 40
1.0
 40
1.0
 40
1.0
 10
4.2687887505
 20
13.1458811147
 30
0.0
 10
4.2733119846
 20
13.1484926051
 30
0.0
 10
4.279346471
 20
13.1519793289
 30
0.0
 10
4.2855930853
 20
13.1550634637
 30
0.0
 10
4.2871712768
 20
13.1557989532
 30
0.0
  0
SPLINE
  5
464
100
AcDbEntity
  8
0
100
AcDbSpline
 62
7
  6
CONTINUOUS
 70
0
 71
3
 72
11
 73
7
 74
0
 42
0.0000001
 43
0.0000001
 44
0.0000000001
 40
0.0
 40
0.0
 40
0.0
 40
0.0
 40
0.1958479818
 40
0.4133958633
 40
0.6778948928
 40
1.0
 40
1.0
 40
1.0
 40
1.0
 10
7.1653983757
 20
13.1458811147
 30
0.0
 10
7.1651713054
 20
13.1458811147
 30
0.0
 10
7.1646859333
 20
13.1457727914
 30
0.0
 10
7.164045168
 20
13.1452899478
 30
0.0
 10
7.1634816163
 20
13.1445389354
 30
0.0
 10
7.1631648946
 20
13.143935148
 30
0.0
 10
7.1630045714
 20
13.1435978566
 30
0.0
  0
SPLINE
  5
465
100
AcDbEntity
  8
0
100
AcDbSpline
 62
7
  6
CONTINUOUS
 70
0
 71
3
 72
9
 73
5
 74
0
 42
0.0000001
 43
0.0000001
 44
0.0000000001
 40
0.0
 40
0.0
 40
0.0
 40
0.0
 40
0.4594137217
 40
1.0
 40
1.0
 40
1.0
 40
1.0
 10
7.1630045714
 20
13.1435978566
 30
0.0
 10
7.1625967793
 20
13.1427407598
 30
0.0
 10
7.1620121336
 20
13.1407335556
 30
0.0
 10
7.1618283373
 20
13.1386646487
 30
0.0
 10
7.1618283373
 20
13.1375477814
 30
0.0
  0
SPLINE
  5
466
100
AcDbEntity
  8
0
100
AcDbSpline
 62
7
  6
CONTINUOUS
 70
0
 71
3
 72
12
 73
8
 74
0
 42
0.0000001
 43
0.0000001
 44
0.0000000001
 40
0.0
 40
0.0
 40
0.0
 40
0.0
 40
0.0746832838
 40
0.16836681
 40
0.4046929096
 40
0.6896663626
 40
1.0
 40
1.0
 40
1.0
 40
1.0
 10
4.9787392089
 20
12.0564978165
 30
0.0
 10
5.0059270599
 20
12.0566019098
 30
0.0
 10
5.0672198294
 20
12.0567882611
 30
0.0
 10
5.2145457508
 20
12.0571204705
 30
0.0
 10
5.4384268735
 20
12.0574315935
 30
0.0
 10
5.7411784121
 20
12.0576610362
 30
0.0
 10
5.9578967822
 20
12.0577123994
 30
0.0
 10
6.0708720839
 20
12.057712398
 30
0.0
  0
SPLINE
  5
467
100
AcDbEntity
  8
0
100
AcDbSpline
 62
7
  6
CONTINUOUS
 70
0
 71
3
 72
12
 73
8
 74
0
 42
0.0000001
 43
0.0000001
 44
0.0000000001
 40
0.0
 40
0.0
 40
0.0
 40
0.0
 40
0.3103336717
 40
0.5953071195
 40
0.831633213
 40
0.9253167323
 40
1.0
 40
1.0
 40
1.0
 40
1.0
 10
6.0708720839
 20
12.057712398
 30
0.0
 10
6.183847398
 20
12.0577123909
 30
0.0
 10
6.4005657787
 20
12.0576610298
 30
0.0
 10
6.7033173257
 20
12.0574315849
 30
0.0
 10
6.9271984418
 20
12.0571204642
 30
0.0
 10
7.0745243526
 20
12.0567882532
 30
0.0
 10
7.1358171137
 20
12.0566019053
 30
0.0
 10
7.1630049588
 20
12.0564978173
 30
0.0
  0
SPLINE
  5
468
100
AcDbEntity
  8
0
100
AcDbSpline
 62
7
  6
CONTINUOUS
 70
0
 71
3
 72
9
 73
5
 74
0
 42
0.0000001
 43
0.0000001
 44
0.0000000001
 40
0.0
 40
0.0
 40
0.0
 40
0.0
 40
0.459413256
 40
1.0
 40
1.0
 40
1.0
 40
1.0
 10
7.1630049588
 20
12.0564978173
 30
0.0
 10
7.1625971631
 20
12.057354916
 30
0.0
 10
7.1620117569
 20
12.0593618966
 30
0.0
 10
7.1618283373
 20
12.0614309081
 30
0.0
 10
7.1618283373
 20
12.0625477814
 30
0.0
  0
SPLINE
  5
469
100
AcDbEntity
  8
0
100
AcDbSpline
 62
7
  6
CONTINUOUS
 70
0
 71
3
 72
17
 73
13
 74
0
 42
0.0000001
 43
0.0000001
 44
0.0000000001
 40
0.0
 40
0.0
 40
0.0
 40
0.0
 40
0.0373416425
 40
0.0841834069
 40
0.2023464567
 40
0.3448332311
 40
0.5000000103
 40
0.6551667887
 40
0.7976535606
 40
0.9158166069
 40
0.9626583665
 40
1.0
 40
1.0
 40
1.0
 40
1.0
 10
7.163004959
 20
13.1435977463
 30
0.0
 10
7.1358171076
 20
13.1434936494
 30
0.0
 10
7.0745243367
 20
13.1433073029
 30
0.0
 10
6.9271984139
 20
13.142975097
 30
0.0
 10
6.7033172555
 20
13.1426639787
 30
0.0
 10
6.4005657098
 20
13.1424345401
 30
0.0
 10
6.070872062
 20
13.1423563747
 30
0.0
 10
5.741178416
 20
13.1424345417
 30
0.0
 10
5.4384268752
 20
13.1426639827
 30
0.0
 10
5.2145457246
 20
13.1429751004
 30
0.0
 10
5.0672198144
 20
13.1433073091
 30
0.0
 10
5.0059270535
 20
13.1434936533
 30
0.0
 10
4.9787392087
 20
13.1435977456
 30
0.0
  0
SPLINE
  5
46A
100
AcDbEntity
  8
0
100
AcDbSpline
 62
7
  6
CONTINUOUS
 70
0
 71
3
 72
9
 73
5
 74
0
 42
0.0000001
 43
0.0000001
 44
0.0000000001
 40
0.0
 40
0.0
 40
0.0
 40
0.0
 40
0.4594131987
 40
1.0
 40
1.0
 40
1.0
 40
1.0
 10
4.9787392087
 20
13.1435977456
 30
0.0
 10
4.9791470021
 20
13.1427406459
 30
0.0
 10
4.9797324125
 20
13.1407336671
 30
0.0
 10
4.9799158304
 20
13.1386646548
 30
0.0
 10
4.9799158304
 20
13.1375477814
 30
0.0
  0
SPLINE
  5
46B
100
AcDbEntity
  8
0
100
AcDbSpline
 62
7
  6
CONTINUOUS
 70
0
 71
3
 72
11
 73
7
 74
0
 42
0.0000001
 43
0.0000001
 44
0.0000000001
 40
0.0
 40
0.0
 40
0.0
 40
0.0
 40
0.2471085009
 40
0.4964260738
 40
0.7476556075
 40
1.0
 40
1.0
 40
1.0
 40
1.0
 10
5.780016402
 20
12.6406427222
 30
0.0
 10
5.7834431024
 20
12.6385945252
 30
0.0
 10
5.7898048988
 20
12.6335316328
 30
0.0
 10
5.7970607928
 20
12.623711818
 30
0.0
 10
5.8016207054
 20
12.6122974048
 30
0.0
 10
5.8026552886
 20
12.6041245355
 30
0.0
 10
5.8026552886
 20
12.6000477814
 30
0.0
  0
LINE
  5
46C
100
AcDbEntity
  8
0
100
AcDbLine
 62
7
  6
CONTINUOUS
 10
7.5245351481
 20
12.0545576161
 11
7.3631794335
 21
12.0549512969
  0
SPLINE
  5
46D
100
AcDbEntity
  8
0
100
AcDbSpline
 62
7
  6
CONTINUOUS
 70
0
 71
3
 72
11
 73
7
 74
0
 42
0.0000001
 43
0.0000001
 44
0.0000000001
 40
0.0
 40
0.0
 40
0.0
 40
0.0
 40
0.2505859769
 40
0.5
 40
0.7494140231
 40
1.0
 40
1.0
 40
1.0
 40
1.0
 10
5.7347386289
 20
12.6406427222
 30
0.0
 10
5.7381383637
 20
12.6426748014
 30
0.0
 10
5.7455009087
 20
12.6458425474
 30
0.0
 10
5.7573775155
 20
12.6474615631
 30
0.0
 10
5.7692541222
 20
12.6458425474
 30
0.0
 10
5.7766166672
 20
12.6426748014
 30
0.0
 10
5.780016402
 20
12.6406427222
 30
0.0
  0
SPLINE
  5
46E
100
AcDbEntity
  8
0
100
AcDbSpline
 62
7
  6
CONTINUOUS
 70
0
 71
3
 72
11
 73
7
 74
0
 42
0.0000001
 43
0.0000001
 44
0.0000000001
 40
0.0
 40
0.0
 40
0.0
 40
0.0
 40
0.2523443925
 40
0.5035739262
 40
0.7528914991
 40
1.0
 40
1.0
 40
1.0
 40
1.0
 10
5.7120997424
 20
12.6000477814
 30
0.0
 10
5.7120997424
 20
12.6041245355
 30
0.0
 10
5.7131343255
 20
12.6122974048
 30
0.0
 10
5.7176942382
 20
12.623711818
 30
0.0
 10
5.7249501322
 20
12.6335316328
 30
0.0
 10
5.7313119286
 20
12.6385945252
 30
0.0
 10
5.7347386289
 20
12.6406427222
 30
0.0
  0
SPLINE
  5
46F
100
AcDbEntity
  8
0
100
AcDbSpline
 62
7
  6
CONTINUOUS
 70
0
 71
3
 72
9
 73
5
 74
0
 42
0.0000001
 43
0.0000001
 44
0.0000000001
 40
0.0
 40
0.0
 40
0.0
 40
0.0
 40
0.2459425581
 40
1.0
 40
1.0
 40
1.0
 40
1.0
 10
5.8309033143
 20
11.9662740266
 30
0.0
 10
5.8307746626
 20
11.9680068019
 30
0.0
 10
5.8302988985
 20
11.9750554592
 30
0.0
 10
5.8300625822
 20
11.9821220886
 30
0.0
 10
5.8300649067
 20
11.9874493828
 30
0.0
  0
LINE
  5
470
100
AcDbEntity
  8
0
100
AcDbLine
 62
7
  6
CONTINUOUS
 10
5.8309222559
 20
12.0086129867
 11
5.8123701238
 21
12.0192036025
  0
SPLINE
  5
471
100
AcDbEntity
  8
0
100
AcDbSpline
 62
7
  6
CONTINUOUS
 70
0
 71
3
 72
12
 73
8
 74
0
 42
0.0000001
 43
0.0000001
 44
0.0000000001
 40
0.0
 40
0.0
 40
0.0
 40
0.0
 40
0.24993576
 40
0.3750731638
 40
0.5000687251
 40
0.7500261916
 40
1.0
 40
1.0
 40
1.0
 40
1.0
 10
7.854572891
 20
12.0442966095
 30
0.0
 10
7.8515255753
 20
12.0429666692
 30
0.0
 10
7.8467494586
 20
12.0414321576
 30
0.0
 10
7.8402671455
 20
12.0399411814
 30
0.0
 10
7.8337180345
 20
12.038755468
 30
0.0
 10
7.8254502207
 20
12.0378035867
 30
0.0
 10
7.8187972674
 20
12.0375477814
 30
0.0
 10
7.8154718741
 20
12.0375477814
 30
0.0
  0
SPLINE
  5
472
100
AcDbEntity
  8
0
100
AcDbSpline
 62
7
  6
CONTINUOUS
 70
0
 71
3
 72
16
 73
12
 74
0
 42
0.0000001
 43
0.0000001
 44
0.0000000001
 40
0.0
 40
0.0
 40
0.0
 40
0.0
 40
0.150990144
 40
0.3068126323
 40
0.3812234236
 40
0.4469914689
 40
0.5043871444
 40
0.5560892849
 40
0.7573003063
 40
0.8728046361
 40
1.0
 40
1.0
 40
1.0
 40
1.0
 10
7.8419865708
 20
12.0375477814
 30
0.0
 10
7.8427887638
 20
12.0375477814
 30
0.0
 10
7.8444186499
 20
12.0375521253
 30
0.0
 10
7.8464446543
 20
12.0375710714
 30
0.0
 10
7.8480145045
 20
12.0376790781
 30
0.0
 10
7.8490535718
 20
12.037842226
 30
0.0
 10
7.849948285
 20
12.0381037218
 30
0.0
 10
7.8514446597
 20
12.038817268
 30
0.0
 10
7.8527817762
 20
12.0403743069
 30
0.0
 10
7.8538799172
 20
12.0424525701
 30
0.0
 10
7.8543524287
 20
12.0436578083
 30
0.0
 10
7.854572891
 20
12.0442966095
 30
0.0
  0
SPLINE
  5
473
100
AcDbEntity
  8
0
100
AcDbSpline
 62
7
  6
CONTINUOUS
 70
0
 71
3
 72
11
 73
7
 74
0
 42
0.0000001
 43
0.0000001
 44
0.0000000001
 40
0.0
 40
0.0
 40
0.0
 40
0.0
 40
0.2505859769
 40
0.5
 40
0.7494140231
 40
1.0
 40
1.0
 40
1.0
 40
1.0
 10
5.780016402
 20
12.5594528406
 30
0.0
 10
5.7766166672
 20
12.5574207613
 30
0.0
 10
5.7692541222
 20
12.5542530154
 30
0.0
 10
5.7573775155
 20
12.5526339997
 30
0.0
 10
5.7455009087
 20
12.5542530154
 30
0.0
 10
5.7381383637
 20
12.5574207613
 30
0.0
 10
5.7347386289
 20
12.5594528406
 30
0.0
  0
SPLINE
  5
474
100
AcDbEntity
  8
0
100
AcDbSpline
 62
7
  6
CONTINUOUS
 70
0
 71
3
 72
11
 73
7
 74
0
 42
0.0000001
 43
0.0000001
 44
0.0000000001
 40
0.0
 40
0.0
 40
0.0
 40
0.0
 40
0.2471085009
 40
0.4964260738
 40
0.7476556075
 40
1.0
 40
1.0
 40
1.0
 40
1.0
 10
5.7347386289
 20
12.5594528406
 30
0.0
 10
5.7313119286
 20
12.5615010375
 30
0.0
 10
5.7249501322
 20
12.5665639299
 30
0.0
 10
5.7176942382
 20
12.5763837447
 30
0.0
 10
5.7131343255
 20
12.5877981579
 30
0.0
 10
5.7120997424
 20
12.5959710273
 30
0.0
 10
5.7120997424
 20
12.6000477814
 30
0.0
  0
SPLINE
  5
475
100
AcDbEntity
  8
0
100
AcDbSpline
 62
7
  6
CONTINUOUS
 70
0
 71
3
 72
11
 73
7
 74
0
 42
0.0000001
 43
0.0000001
 44
0.0000000001
 40
0.0
 40
0.0
 40
0.0
 40
0.0
 40
0.2523443925
 40
0.5035739262
 40
0.7528914991
 40
1.0
 40
1.0
 40
1.0
 40
1.0
 10
5.8026552886
 20
12.6000477814
 30
0.0
 10
5.8026552886
 20
12.5959710273
 30
0.0
 10
5.8016207054
 20
12.5877981579
 30
0.0
 10
5.7970607928
 20
12.5763837447
 30
0.0
 10
5.7898048988
 20
12.5665639299
 30
0.0
 10
5.7834431024
 20
12.5615010375
 30
0.0
 10
5.780016402
 20
12.5594528406
 30
0.0
  0
LINE
  5
476
100
AcDbEntity
  8
0
100
AcDbLine
 62
7
  6
CONTINUOUS
 10
7.3631794335
 20
13.1451442662
 11
7.5245351481
 21
13.1455379457
  0
SPLINE
  5
477
100
AcDbEntity
  8
0
100
AcDbSpline
 62
7
  6
CONTINUOUS
 70
0
 71
3
 72
9
 73
5
 74
0
 42
0.0000001
 43
0.0000001
 44
0.0000000001
 40
0.0
 40
0.0
 40
0.0
 40
0.0
 40
0.5011477192
 40
1.0
 40
1.0
 40
1.0
 40
1.0
 10
5.7769251362
 20
11.9556951631
 30
0.0
 10
5.779859604
 20
11.9539407267
 30
0.0
 10
5.7862667755
 20
11.95128471
 30
0.0
 10
5.7931754447
 20
11.9506454815
 30
0.0
 10
5.7965732643
 20
11.9508381861
 30
0.0
  0
SPLINE
  5
478
100
AcDbEntity
  8
0
100
AcDbSpline
 62
7
  6
CONTINUOUS
 70
0
 71
3
 72
11
 73
7
 74
0
 42
0.0000001
 43
0.0000001
 44
0.0000000001
 40
0.0
 40
0.0
 40
0.0
 40
0.0
 40
0.2473472744
 40
0.4967246762
 40
0.7478584074
 40
1.0
 40
1.0
 40
1.0
 40
1.0
 10
5.8137873517
 20
11.9566071244
 30
0.0
 10
5.8162734673
 20
11.9582619652
 30
0.0
 10
5.8208630447
 20
11.9622379269
 30
0.0
 10
5.8260651469
 20
11.969726944
 30
0.0
 10
5.829324038
 20
11.9783031722
 30
0.0
 10
5.8300635783
 20
11.9844049812
 30
0.0
 10
5.8300649067
 20
11.9874493828
 30
0.0
  0
SPLINE
  5
479
100
AcDbEntity
  8
0
100
AcDbSpline
 62
7
  6
CONTINUOUS
 70
0
 71
3
 72
11
 73
7
 74
0
 42
0.0000001
 43
0.0000001
 44
0.0000000001
 40
0.0
 40
0.0
 40
0.0
 40
0.0
 40
0.2521911616
 40
0.5033286328
 40
0.7526813742
 40
1.0
 40
1.0
 40
1.0
 40
1.0
 10
5.8300649067
 20
11.9874493828
 30
0.0
 10
5.8300662343
 20
11.9904920101
 30
0.0
 10
5.8293329448
 20
11.9965903633
 30
0.0
 10
5.8260846722
 20
12.0051633733
 30
0.0
 10
5.820893627
 20
12.0126507566
 30
0.0
 10
5.8163112262
 20
12.0166268625
 30
0.0
 10
5.8138285861
 20
12.0182820992
 30
0.0
  0
SPLINE
  5
47A
100
AcDbEntity
  8
0
100
AcDbSpline
 62
7
  6
CONTINUOUS
 70
0
 71
3
 72
9
 73
5
 74
0
 42
0.0000001
 43
0.0000001
 44
0.0000000001
 40
0.0
 40
0.0
 40
0.0
 40
0.0
 40
0.2500177554
 40
1.0
 40
1.0
 40
1.0
 40
1.0
 10
7.854572891
 20
13.1557989532
 30
0.0
 10
7.8561510824
 20
13.1550634637
 30
0.0
 10
7.8623977007
 20
13.1519793369
 30
0.0
 10
7.868432183
 20
13.1484926052
 30
0.0
 10
7.8729554172
 20
13.1458811147
 30
0.0
  0
SPLINE
  5
47B
100
AcDbEntity
  8
0
100
AcDbSpline
 62
7
  6
CONTINUOUS
 70
0
 71
3
 72
16
 73
12
 74
0
 42
0.0000001
 43
0.0000001
 44
0.0000000001
 40
0.0
 40
0.0
 40
0.0
 40
0.0
 40
0.1272159073
 40
0.2426905454
 40
0.4444721003
 40
0.495637703
 40
0.552563523
 40
0.6185343458
 40
0.6930776456
 40
0.84899698
 40
1.0
 40
1.0
 40
1.0
 40
1.0
 10
7.854572891
 20
13.1557989532
 30
0.0
 10
7.8543538119
 20
13.1564382686
 30
0.0
 10
7.8538780901
 20
13.1576415762
 30
0.0
 10
7.8527852998
 20
13.1597277122
 30
0.0
 10
7.8514336841
 20
13.1612674981
 30
0.0
 10
7.8499469591
 20
13.1619932486
 30
0.0
 10
7.8490567597
 20
13.1622564041
 30
0.0
 10
7.8480180452
 20
13.1624164733
 30
0.0
 10
7.8464461371
 20
13.1625242421
 30
0.0
 10
7.8444190312
 20
13.1625434864
 30
0.0
 10
7.8427887459
 20
13.1625477814
 30
0.0
 10
7.8419865708
 20
13.1625477814
 30
0.0
  0
SPLINE
  5
47C
100
AcDbEntity
  8
0
100
AcDbSpline
 62
7
  6
CONTINUOUS
 70
0
 71
3
 72
12
 73
8
 74
0
 42
0.0000001
 43
0.0000001
 44
0.0000000001
 40
0.0
 40
0.0
 40
0.0
 40
0.0
 40
0.2499737441
 40
0.4999315005
 40
0.6249270336
 40
0.750064186
 40
1.0
 40
1.0
 40
1.0
 40
1.0
 10
7.8154718741
 20
13.1625477814
 30
0.0
 10
7.8187972687
 20
13.1625477814
 30
0.0
 10
7.8254502269
 20
13.1622919323
 30
0.0
 10
7.833718056
 20
13.1613401511
 30
0.0
 10
7.8402671933
 20
13.1601545532
 30
0.0
 10
7.8467495063
 20
13.158663549
 30
0.0
 10
7.8515255726
 20
13.1571288947
 30
0.0
 10
7.854572891
 20
13.1557989532
 30
0.0
  0
LINE
  5
47D
100
AcDbEntity
  8
0
100
AcDbLine
 62
7
  6
CONTINUOUS
 10
4.9990738891
 20
13.1611115194
 11
4.9985128667
 21
13.1611115193
  0
SPLINE
  5
47E
100
AcDbEntity
  8
0
100
AcDbSpline
 62
7
  6
CONTINUOUS
 70
0
 71
3
 72
9
 73
5
 74
0
 42
0.0000001
 43
0.0000001
 44
0.0000000001
 40
0.0
 40
0.0
 40
0.0
 40
0.0
 40
0.2500177554
 40
1.0
 40
1.0
 40
1.0
 40
1.0
 10
4.2871712768
 20
12.0442966095
 30
0.0
 10
4.2855930853
 20
12.045032099
 30
0.0
 10
4.279346467
 20
12.0481162259
 30
0.0
 10
4.2733119847
 20
12.0516029576
 30
0.0
 10
4.2687887505
 20
12.054214448
 30
0.0
  0
SPLINE
  5
47F
100
AcDbEntity
  8
0
100
AcDbSpline
 62
7
  6
CONTINUOUS
 70
0
 71
3
 72
16
 73
12
 74
0
 42
0.0000001
 43
0.0000001
 44
0.0000000001
 40
0.0
 40
0.0
 40
0.0
 40
0.0
 40
0.1510239354
 40
0.306945161
 40
0.3815538733
 40
0.4474860885
 40
0.5044104917
 40
0.5555534308
 40
0.7573165737
 40
0.8727858797
 40
1.0
 40
1.0
 40
1.0
 40
1.0
 10
4.2997575969
 20
12.0375477814
 30
0.0
 10
4.2989553001
 20
12.0375477814
 30
0.0
 10
4.2973248609
 20
12.0375520006
 30
0.0
 10
4.2952973034
 20
12.0375717634
 30
0.0
 10
4.2937251448
 20
12.0376787691
 30
0.0
 10
4.292686364
 20
12.0378393283
 30
0.0
 10
4.2917964028
 20
12.0381021628
 30
0.0
 10
4.2903101119
 20
12.0388283781
 30
0.0
 10
4.2889587322
 20
12.0403678936
 30
0.0
 10
4.2878660805
 20
12.0424540205
 30
0.0
 10
4.2873903882
 20
12.0436573058
 30
0.0
 10
4.2871712768
 20
12.0442966095
 30
0.0
  0
SPLINE
  5
480
100
AcDbEntity
  8
0
100
AcDbSpline
 62
7
  6
CONTINUOUS
 70
0
 71
3
 72
12
 73
8
 74
0
 42
0.0000001
 43
0.0000001
 44
0.0000000001
 40
0.0
 40
0.0
 40
0.0
 40
0.0
 40
0.2499737441
 40
0.4999315005
 40
0.6249270336
 40
0.750064186
 40
1.0
 40
1.0
 40
1.0
 40
1.0
 10
4.3262722936
 20
12.0375477814
 30
0.0
 10
4.322946899
 20
12.0375477814
 30
0.0
 10
4.3162939408
 20
12.0378036304
 30
0.0
 10
4.3080261117
 20
12.0387554117
 30
0.0
 10
4.3014769744
 20
12.0399410096
 30
0.0
 10
4.2949946615
 20
12.0414320137
 30
0.0
 10
4.2902185951
 20
12.0429666681
 30
0.0
 10
4.2871712768
 20
12.0442966095
 30
0.0
  0
SPLINE
  5
481
100
AcDbEntity
  8
0
100
AcDbSpline
 62
7
  6
CONTINUOUS
 70
0
 71
3
 72
19
 73
15
 74
0
 42
0.0000001
 43
0.0000001
 44
0.0000000001
 40
0.0
 40
0.0
 40
0.0
 40
0.0
 40
0.1258736621
 40
0.2466581565
 40
0.3072084972
 40
0.3687420047
 40
0.4311023494
 40
0.4939729131
 40
0.6200273214
 40
0.7464398642
 40
0.8098887882
 40
0.8733330017
 40
0.9367273898
 40
1.0
 40
1.0
 40
1.0
 40
1.0
 10
15.5603552569
 20
6.6656300921
 30
0.0
 10
15.5580703906
 20
6.6656300921
 30
0.0
 10
15.5535880065
 20
6.6653533144
 30
0.0
 10
15.5481032878
 20
6.6641662093
 30
0.0
 10
15.5440006292
 20
6.6625236725
 30
0.0
 10
15.5410718524
 20
6.6608796513
 30
0.0
 10
15.5383742201
 20
6.6588048618
 30
0.0
 10
15.5352085809
 20
6.6555000523
 30
0.0
 10
15.5322688305
 20
6.6504683718
 30
0.0
 10
15.531074517
 20
6.6447498168
 30
0.0
 10
15.5312416299
 20
6.6401380226
 30
0.0
 10
15.5319228757
 20
6.6367356691
 30
0.0
 10
15.5331384697
 20
6.633490889
 30
0.0
 10
15.5342849929
 20
6.6314845728
 30
0.0
 10
15.5349316115
 20
6.6305353618
 30
0.0
  0
SPLINE
  5
482
100
AcDbEntity
  8
0
100
AcDbSpline
 62
7
  6
CONTINUOUS
 70
0
 71
3
 72
19
 73
15
 74
0
 42
0.0000001
 43
0.0000001
 44
0.0000000001
 40
0.0
 40
0.0
 40
0.0
 40
0.0
 40
0.0632256987
 40
0.1265772274
 40
0.1899880575
 40
0.2534244752
 40
0.3798550337
 40
0.5059821129
 40
0.5688752443
 40
0.6312439581
 40
0.6927837784
 40
0.7533397693
 40
0.8741335967
 40
1.0
 40
1.0
 40
1.0
 40
1.0
 10
15.5857972452
 20
6.6305620766
 30
0.0
 10
15.586441657
 20
6.6315109369
 30
0.0
 10
15.5875832936
 20
6.6335165165
 30
0.0
 10
15.5887945254
 20
6.6367582889
 30
0.0
 10
15.5894709024
 20
6.6401579005
 30
0.0
 10
15.589633844
 20
6.6447665034
 30
0.0
 10
15.5884362804
 20
6.6504822324
 30
0.0
 10
15.5854939885
 20
6.6555108645
 30
0.0
 10
15.582327007
 20
6.6588132571
 30
0.0
 10
15.579629119
 20
6.6608854745
 30
0.0
 10
15.5767012708
 20
6.6625277832
 30
0.0
 10
15.5726001141
 20
6.6641680745
 30
0.0
 10
15.5671184063
 20
6.6653536599
 30
0.0
 10
15.5626386387
 20
6.6656300921
 30
0.0
 10
15.5603552569
 20
6.6656300921
 30
0.0
  0
LINE
  5
483
100
AcDbEntity
  8
0
100
AcDbLine
 62
7
  6
CONTINUOUS
 10
15.5358592666
 20
6.6306368239
 11
15.5363755898
 21
6.6314793433
  0
SPLINE
  5
484
100
AcDbEntity
  8
0
100
AcDbSpline
 62
7
  6
CONTINUOUS
 70
0
 71
3
 72
14
 73
10
 74
0
 42
0.0000001
 43
0.0000001
 44
0.0000000001
 40
0.0
 40
0.0
 40
0.0
 40
0.0
 40
0.0650070565
 40
0.1503148848
 40
0.2559765469
 40
0.3802875117
 40
0.5205118212
 40
0.6731794001
 40
1.0
 40
1.0
 40
1.0
 40
1.0
 10
15.5363755898
 20
6.6314793433
 30
0.0
 10
15.5367322036
 20
6.6318837305
 30
0.0
 10
15.5377474695
 20
6.6326428674
 30
0.0
 10
15.539666953
 20
6.6335585868
 30
0.0
 10
15.5421532139
 20
6.6343877532
 30
0.0
 10
15.5451417545
 20
6.6351021822
 30
0.0
 10
15.5485554429
 20
6.6356819616
 30
0.0
 10
15.5536638995
 20
6.6362640254
 30
0.0
 10
15.5576446085
 20
6.6364287778
 30
0.0
 10
15.5603552569
 20
6.6364287778
 30
0.0
  0
SPLINE
  5
485
100
AcDbEntity
  8
0
100
AcDbSpline
 62
7
  6
CONTINUOUS
 70
0
 71
3
 72
18
 73
14
 74
0
 42
0.0000001
 43
0.0000001
 44
0.0000000001
 40
0.0
 40
0.0
 40
0.0
 40
0.0
 40
0.1228599722
 40
0.2444126869
 40
0.3650111282
 40
0.4853842054
 40
0.6068557104
 40
0.6687449772
 40
0.7318224689
 40
0.7964393331
 40
0.8628283653
 40
0.9308834832
 40
1.0
 40
1.0
 40
1.0
 40
1.0
 10
15.0152588178
 20
5.0395351992
 30
0.0
 10
15.0156995611
 20
5.0330736427
 30
0.0
 10
15.0169985286
 20
5.0202418295
 30
0.0
 10
15.0204831001
 20
5.0012932435
 30
0.0
 10
15.025824516
 20
4.9829013544
 30
0.0
 10
15.0334617289
 20
4.9653218968
 30
0.0
 10
15.0422052678
 20
4.9517839549
 30
0.0
 10
15.0508952984
 20
4.9420935204
 30
0.0
 10
15.0584311705
 20
4.9354873497
 30
0.0
 10
15.0669956386
 20
4.9298269327
 30
0.0
 10
15.0765637399
 20
4.9254095698
 30
0.0
 10
15.0869641547
 20
4.9225696677
 30
0.0
 10
15.0942117757
 20
4.9219146883
 30
0.0
 10
15.0978552569
 20
4.9219146883
 30
0.0
  0
LINE
  5
486
100
AcDbEntity
  8
0
100
AcDbLine
 62
7
  6
CONTINUOUS
 10
14.9827071564
 20
5.4327172187
 11
14.9830119734
 21
5.4327172187
  0
SPLINE
  5
487
100
AcDbEntity
  8
0
100
AcDbSpline
 62
7
  6
CONTINUOUS
 70
0
 71
3
 72
9
 73
5
 74
0
 42
0.0000001
 43
0.0000001
 44
0.0000000001
 40
0.0
 40
0.0
 40
0.0
 40
0.0
 40
0.2513202458
 40
1.0
 40
1.0
 40
1.0
 40
1.0
 10
15.0145219236
 20
5.06199398
 30
0.0
 10
15.0145219236
 20
5.060111321
 30
0.0
 10
15.014579011
 20
5.0526204562
 30
0.0
 10
15.0148771311
 20
5.0451306131
 30
0.0
 10
15.0152588178
 20
5.0395351992
 30
0.0
  0
SPLINE
  5
488
100
AcDbEntity
  8
0
100
AcDbSpline
 62
7
  6
CONTINUOUS
 70
0
 71
3
 72
17
 73
13
 74
0
 42
0.0000001
 43
0.0000001
 44
0.0000000001
 40
0.0
 40
0.0
 40
0.0
 40
0.0
 40
0.1129213163
 40
0.229676057
 40
0.34952134
 40
0.4723739558
 40
0.5983568223
 40
0.7278940416
 40
0.7941921745
 40
0.8616575947
 40
0.9304174449
 40
1.0
 40
1.0
 40
1.0
 40
1.0
 10
16.1058454183
 20
4.8182312176
 30
0.0
 10
16.1070027196
 20
4.816861803
 30
0.0
 10
16.109175214
 20
4.8139215694
 30
0.0
 10
16.1120485196
 20
4.8091678012
 30
0.0
 10
16.1146443731
 20
4.8040801539
 30
0.0
 10
16.1169744765
 20
4.7987060632
 30
0.0
 10
16.1190257596
 20
4.7930557628
 30
0.0
 10
16.1204696674
 20
4.7881495078
 30
0.0
 10
16.1214126185
 20
4.7840753568
 30
0.0
 10
16.1219915223
 20
4.7809110126
 30
0.0
 10
16.122428308
 20
4.7776713891
 30
0.0
 10
16.1225630796
 20
4.7754747768
 30
0.0
 10
16.1225648881
 20
4.7743699602
 30
0.0
  0
SPLINE
  5
489
100
AcDbEntity
  8
0
100
AcDbSpline
 62
7
  6
CONTINUOUS
 70
0
 71
3
 72
9
 73
5
 74
0
 42
0.0000001
 43
0.0000001
 44
0.0000000001
 40
0.0
 40
0.0
 40
0.0
 40
0.0
 40
0.251343501
 40
1.0
 40
1.0
 40
1.0
 40
1.0
 10
16.1061885903
 20
5.0619946994
 30
0.0
 10
16.1061885895
 20
5.0601118057
 30
0.0
 10
16.1061316519
 20
5.0526206996
 30
0.0
 10
16.1058334323
 20
5.0451306155
 30
0.0
 10
16.105451696
 20
5.0395351992
 30
0.0
  0
SPLINE
  5
48A
100
AcDbEntity
  8
0
100
AcDbSpline
 62
7
  6
CONTINUOUS
 70
0
 71
3
 72
32
 73
28
 74
0
 42
0.0000001
 43
0.0000001
 44
0.0000000001
 40
0.0
 40
0.0
 40
0.0
 40
0.0
 40
0.0630586889
 40
0.1245757173
 40
0.1846660286
 40
0.2437965168
 40
0.2733562985
 40
0.3031678847
 40
0.3335036562
 40
0.3646604699
 40
0.3968977665
 40
0.4303366789
 40
0.4648485239
 40
0.5000043832
 40
0.5351599033
 40
0.5696710717
 40
0.6031083305
 40
0.6353438904
 40
0.6664995277
 40
0.6968347194
 40
0.7266464165
 40
0.7562060696
 40
0.8153366485
 40
0.845237997
 40
0.8754540698
 40
0.9369601907
 40
1.0
 40
1.0
 40
1.0
 40
1.0
 10
15.0868593622
 20
5.9439833722
 30
0.0
 10
15.0868586224
 20
5.9614586114
 30
0.0
 10
15.087822208
 20
5.9959968973
 30
0.0
 10
15.0933163565
 20
6.0469516443
 30
0.0
 10
15.104141866
 20
6.0959835467
 30
0.0
 10
15.1190682069
 20
6.1346752179
 30
0.0
 10
15.1353873207
 20
6.1632411079
 30
0.0
 10
15.1501274134
 20
6.1833355504
 30
0.0
 10
15.1676028613
 20
6.2017361099
 30
0.0
 10
15.187973724
 20
6.2179928464
 30
0.0
 10
15.2112391644
 20
6.2315622537
 30
0.0
 10
15.2371414384
 20
6.2418503512
 30
0.0
 10
15.2650907674
 20
6.2482979364
 30
0.0
 10
15.2941684588
 20
6.2504957401
 30
0.0
 10
15.3232455094
 20
6.248292594
 30
0.0
 10
15.3511931278
 20
6.2418408691
 30
0.0
 10
15.3770924697
 20
6.2315483796
 30
0.0
 10
15.4003544068
 20
6.2179755551
 30
0.0
 10
15.4207219015
 20
6.2017161405
 30
0.0
 10
15.4381943062
 20
6.183313484
 30
0.0
 10
15.4529316226
 20
6.1632167148
 30
0.0
 10
15.469245684
 20
6.1346501858
 30
0.0
 10
15.4811462615
 20
6.1037980576
 30
0.0
 10
15.4894938093
 20
6.0718106788
 30
0.0
 10
15.4958803394
 20
6.0386928577
 30
0.0
 10
15.5004811105
 20
5.995981062
 30
0.0
 10
15.5014432082
 20
5.9614532991
 30
0.0
 10
15.5014432562
 20
5.9439832918
 30
0.0
  0
SPLINE
  5
48B
100
AcDbEntity
  8
0
100
AcDbSpline
 62
7
  6
CONTINUOUS
 70
0
 71
3
 72
12
 73
8
 74
0
 42
0.0000001
 43
0.0000001
 44
0.0000000001
 40
0.0
 40
0.0
 40
0.0
 40
0.0
 40
0.1233853715
 40
0.2470120835
 40
0.4954725659
 40
0.746451599
 40
1.0
 40
1.0
 40
1.0
 40
1.0
 10
15.7512327927
 20
6.0848005521
 30
0.0
 10
15.7545123886
 20
6.0848005521
 30
0.0
 10
15.7610818218
 20
6.0845197054
 30
0.0
 10
15.7741559152
 20
6.0828246783
 30
0.0
 10
15.7902579948
 20
6.0786641859
 30
0.0
 10
15.8088447059
 20
6.0711326283
 30
0.0
 10
15.8207225186
 20
6.064864226
 30
0.0
 10
15.8265589606
 20
6.0614945546
 30
0.0
  0
SPLINE
  5
48C
100
AcDbEntity
  8
0
100
AcDbSpline
 62
7
  6
CONTINUOUS
 70
0
 71
3
 72
12
 73
8
 74
0
 42
0.0000001
 43
0.0000001
 44
0.0000000001
 40
0.0
 40
0.0
 40
0.0
 40
0.0
 40
0.2535482102
 40
0.5045286732
 40
0.7529882152
 40
0.8766145816
 40
1.0
 40
1.0
 40
1.0
 40
1.0
 10
15.8265589606
 20
6.0614945546
 30
0.0
 10
15.8323954243
 20
6.0648642385
 30
0.0
 10
15.8442736785
 20
6.0711318308
 30
0.0
 10
15.8628592298
 20
6.0786665533
 30
0.0
 10
15.8789618472
 20
6.0828258687
 30
0.0
 10
15.8920360565
 20
6.0845200459
 30
0.0
 10
15.8986055168
 20
6.0848005521
 30
0.0
 10
15.9018851286
 20
6.0848005521
 30
0.0
  0
SPLINE
  5
48D
100
AcDbEntity
  8
0
100
AcDbSpline
 62
7
  6
CONTINUOUS
 70
0
 71
3
 72
34
 73
30
 74
0
 42
0.0000001
 43
0.0000001
 44
0.0000000001
 40
0.0
 40
0.0
 40
0.0
 40
0.0
 40
0.0277299255
 40
0.0396571618
 40
0.0503206459
 40
0.0549971099
 40
0.0589974836
 40
0.0621370581
 40
0.0642413968
 40
0.0652067252
 40
0.0660967589
 40
0.0683705766
 40
0.0721586326
 40
0.0774956179
 40
0.0844049445
 40
0.0929074731
 40
0.103001919
 40
0.1274633569
 40
0.1565997763
 40
0.1892269041
 40
0.2245284912
 40
0.3009811437
 40
0.3824591175
 40
0.4668760355
 40
0.5530724803
 40
0.6405744549
 40
0.7291439897
 40
0.8186912057
 40
1.0
 40
1.0
 40
1.0
 40
1.0
 10
14.9978552569
 20
4.6007634874
 30
0.0
 10
14.9978552569
 20
4.6006421538
 30
0.0
 10
14.9978557885
 20
4.6004686641
 30
0.0
 10
14.9978588087
 20
4.6002484178
 30
0.0
 10
14.9978611366
 20
4.6001293066
 30
0.0
 10
14.9978641589
 20
4.600044421
 30
0.0
 10
14.9978665187
 20
4.5999934925
 30
0.0
 10
14.9978709733
 20
4.5999513476
 30
0.0
 10
14.9978733111
 20
4.5999282394
 30
0.0
 10
14.9978823257
 20
4.5999054712
 30
0.0
 10
14.997897484
 20
4.599925228
 30
0.0
 10
14.9979031805
 20
4.5999514222
 30
0.0
 10
14.9979185136
 20
4.6000010585
 30
0.0
 10
14.997933994
 20
4.6000685916
 30
0.0
 10
14.9979548521
 20
4.6001573047
 30
0.0
 10
14.9979795722
 20
4.6002660091
 30
0.0
 10
14.9980219432
 20
4.6004496443
 30
0.0
 10
14.9980868999
 20
4.600720633
 30
0.0
 10
14.9981823309
 20
4.6010857004
 30
0.0
 10
14.9983015204
 20
4.6014934159
 30
0.0
 10
14.9984976583
 20
4.6020940335
 30
0.0
 10
14.9987988835
 20
4.602884771
 30
0.0
 10
14.9992439077
 20
4.6038482238
 30
0.0
 10
14.9997773379
 20
4.6048148368
 30
0.0
 10
15.0003958003
 20
4.6057611134
 30
0.0
 10
15.0010940679
 20
4.6066731047
 30
0.0
 10
15.0018684181
 20
4.6075413641
 30
0.0
 10
15.0030000191
 20
4.6086349268
 30
0.0
 10
15.0039425805
 20
4.6093626291
 30
0.0
 10
15.0046040851
 20
4.6098005521
 30
0.0
  0
SPLINE
  5
48E
100
AcDbEntity
  8
0
100
AcDbSpline
 62
7
  6
CONTINUOUS
 70
0
 71
3
 72
12
 73
8
 74
0
 42
0.0000001
 43
0.0000001
 44
0.0000000001
 40
0.0
 40
0.0
 40
0.0
 40
0.0
 40
0.1233853715
 40
0.2470120835
 40
0.4954725659
 40
0.746451599
 40
1.0
 40
1.0
 40
1.0
 40
1.0
 10
15.9018851286
 20
6.0848005521
 30
0.0
 10
15.9051647245
 20
6.0848005521
 30
0.0
 10
15.9117341577
 20
6.0845197054
 30
0.0
 10
15.9248082511
 20
6.0828246783
 30
0.0
 10
15.9409103307
 20
6.0786641859
 30
0.0
 10
15.9594970418
 20
6.0711326283
 30
0.0
 10
15.9713748545
 20
6.064864226
 30
0.0
 10
15.9772112965
 20
6.0614945546
 30
0.0
  0
SPLINE
  5
48F
100
AcDbEntity
  8
0
100
AcDbSpline
 62
7
  6
CONTINUOUS
 70
0
 71
3
 72
23
 73
19
 74
0
 42
0.0000001
 43
0.0000001
 44
0.0000000001
 40
0.0
 40
0.0
 40
0.0
 40
0.0
 40
0.0785839955
 40
0.1562188437
 40
0.2322451259
 40
0.3063030837
 40
0.3782339771
 40
0.4479517509
 40
0.5153771584
 40
0.5804150222
 40
0.6429469682
 40
0.7028298266
 40
0.7599119728
 40
0.8140438718
 40
0.8651043299
 40
0.9130364941
 40
0.9579163196
 40
1.0
 40
1.0
 40
1.0
 40
1.0
 10
15.9145219236
 20
4.9219146883
 30
0.0
 10
15.90494174
 20
4.9219146883
 30
0.0
 10
15.8858645769
 20
4.9203983092
 30
0.0
 10
15.8582130758
 20
4.9138945044
 30
0.0
 10
15.8322199767
 20
4.9039381834
 30
0.0
 10
15.8081786878
 20
4.8913972459
 30
0.0
 10
15.7861252717
 20
4.8770089315
 30
0.0
 10
15.7659933291
 20
4.8613351659
 30
0.0
 10
15.7476953922
 20
4.8447915786
 30
0.0
 10
15.7311586151
 20
4.8276908221
 30
0.0
 10
15.7163468346
 20
4.8102683488
 30
0.0
 10
15.7032516532
 20
4.7927178724
 30
0.0
 10
15.6918978276
 20
4.7752010234
 30
0.0
 10
15.6823430785
 20
4.7578570419
 30
0.0
 10
15.6746676126
 20
4.7408156679
 30
0.0
 10
15.6689780681
 20
4.724191737
 30
0.0
 10
15.6654088205
 20
4.7081004857
 30
0.0
 10
15.6645219236
 20
4.6974886805
 30
0.0
 10
15.6645219236
 20
4.6923582543
 30
0.0
  0
SPLINE
  5
490
100
AcDbEntity
  8
0
100
AcDbSpline
 62
7
  6
CONTINUOUS
 70
0
 71
3
 72
15
 73
11
 74
0
 42
0.0000001
 43
0.0000001
 44
0.0000000001
 40
0.0
 40
0.0
 40
0.0
 40
0.0
 40
0.1108466099
 40
0.2262253111
 40
0.3458894161
 40
0.4696975758
 40
0.597486922
 40
0.7289890032
 40
0.8635729311
 40
1.0
 40
1.0
 40
1.0
 40
1.0
 10
16.1058454183
 20
4.8182312176
 30
0.0
 10
16.1004894775
 20
4.8245561593
 30
0.0
 10
16.08911054
 20
4.8370922843
 30
0.0
 10
16.0704232857
 20
4.855001479
 30
0.0
 10
16.0496876467
 20
4.872074093
 30
0.0
 10
16.0268079603
 20
4.8878611264
 30
0.0
 10
16.0016858353
 20
4.9017373376
 30
0.0
 10
15.9743264502
 20
4.9128598326
 30
0.0
 10
15.9450250192
 20
4.9201944717
 30
0.0
 10
15.9247225777
 20
4.9219146883
 30
0.0
 10
15.9145219236
 20
4.9219146883
 30
0.0
  0
SPLINE
  5
491
100
AcDbEntity
  8
0
100
AcDbSpline
 62
7
  6
CONTINUOUS
 70
0
 71
3
 72
18
 73
14
 74
0
 42
0.0000001
 43
0.0000001
 44
0.0000000001
 40
0.0
 40
0.0
 40
0.0
 40
0.0
 40
0.1228588016
 40
0.2444118218
 40
0.3650104156
 40
0.4853834861
 40
0.6068550759
 40
0.6687445539
 40
0.7318222377
 40
0.7964395023
 40
0.8628284824
 40
0.930884143
 40
1.0
 40
1.0
 40
1.0
 40
1.0
 10
16.1054517417
 20
5.0395350184
 30
0.0
 10
16.1050110031
 20
5.0330735311
 30
0.0
 10
16.1037121727
 20
5.0202417603
 30
0.0
 10
16.1002273458
 20
5.0012932819
 30
0.0
 10
16.0948860371
 20
4.9829013684
 30
0.0
 10
16.0872488135
 20
4.9653219205
 30
0.0
 10
16.0785052666
 20
4.9517839874
 30
0.0
 10
16.0698152066
 20
4.9420935669
 30
0.0
 10
16.0622793167
 20
4.9354873674
 30
0.0
 10
16.0537148126
 20
4.9298269808
 30
0.0
 10
16.0441467138
 20
4.9254095274
 30
0.0
 10
16.0337462988
 20
4.9225696965
 30
0.0
 10
16.0264986991
 20
4.9219146883
 30
0.0
 10
16.0228552569
 20
4.9219146883
 30
0.0
  0
SPLINE
  5
492
100
AcDbEntity
  8
0
100
AcDbSpline
 62
7
  6
CONTINUOUS
 70
0
 71
3
 72
34
 73
30
 74
0
 42
0.0000001
 43
0.0000001
 44
0.0000000001
 40
0.0
 40
0.0
 40
0.0
 40
0.0
 40
0.1814867799
 40
0.2711466933
 40
0.3598390528
 40
0.4473345926
 40
0.5333727051
 40
0.6176481958
 40
0.6992811844
 40
0.7764427999
 40
0.8121424193
 40
0.844979302
 40
0.8740987459
 40
0.8983908283
 40
0.9083665757
 40
0.9167196459
 40
0.9234459662
 40
0.9285946146
 40
0.932217688
 40
0.9343791303
 40
0.9352384408
 40
0.9361802055
 40
0.9382139944
 40
0.941249391
 40
0.9451249536
 40
0.9496687561
 40
0.9600820852
 40
0.9718154755
 40
1.0
 40
1.0
 40
1.0
 40
1.0
 10
16.1161064288
 20
4.6098005521
 30
0.0
 10
16.1167676608
 20
4.6093622161
 30
0.0
 10
16.1177107494
 20
4.6086350826
 30
0.0
 10
16.1188422923
 20
4.6075410119
 30
0.0
 10
16.1196161188
 20
4.6066724942
 30
0.0
 10
16.1203141781
 20
4.6057620385
 30
0.0
 10
16.1209327892
 20
4.6048187962
 30
0.0
 10
16.1214666599
 20
4.603854364
 30
0.0
 10
16.1219125578
 20
4.6028889162
 30
0.0
 10
16.1222135175
 20
4.6020930272
 30
0.0
 10
16.1224098318
 20
4.6014870733
 30
0.0
 10
16.1225292375
 20
4.6010771681
 30
0.0
 10
16.1226244607
 20
4.6007123247
 30
0.0
 10
16.1226890878
 20
4.6004429079
 30
0.0
 10
16.1227312171
 20
4.600261374
 30
0.0
 10
16.1227557694
 20
4.6001547552
 30
0.0
 10
16.1227764896
 20
4.6000684747
 30
0.0
 10
16.1227918916
 20
4.6000033044
 30
0.0
 10
16.1228070127
 20
4.5999560228
 30
0.0
 10
16.1228128853
 20
4.5999308586
 30
0.0
 10
16.1228277994
 20
4.5999125224
 30
0.0
 10
16.1228367101
 20
4.5999342633
 30
0.0
 10
16.1228392211
 20
4.5999567251
 30
0.0
 10
16.1228437396
 20
4.5999973736
 30
0.0
 10
16.122846241
 20
4.6000467112
 30
0.0
 10
16.1228494235
 20
4.6001292681
 30
0.0
 10
16.1228518223
 20
4.6002457511
 30
0.0
 10
16.1228548539
 20
4.6004658246
 30
0.0
 10
16.1228552569
 20
4.6006402856
 30
0.0
 10
16.1228552569
 20
4.6007634875
 30
0.0
  0
LINE
  5
493
100
AcDbEntity
  8
0
100
AcDbLine
 62
7
  6
CONTINUOUS
 10
16.1376784585
 20
5.4327172187
 11
16.1379923552
 21
5.4327172187
  0
SPLINE
  5
494
100
AcDbEntity
  8
0
100
AcDbSpline
 62
7
  6
CONTINUOUS
 70
0
 71
3
 72
12
 73
8
 74
0
 42
0.0000001
 43
0.0000001
 44
0.0000000001
 40
0.0
 40
0.0
 40
0.0
 40
0.0
 40
0.2535482102
 40
0.5045286732
 40
0.7529882152
 40
0.8766145816
 40
1.0
 40
1.0
 40
1.0
 40
1.0
 10
15.6759066248
 20
6.0614945546
 30
0.0
 10
15.6817430884
 20
6.0648642385
 30
0.0
 10
15.6936213426
 20
6.0711318308
 30
0.0
 10
15.7122068939
 20
6.0786665533
 30
0.0
 10
15.7283095113
 20
6.0828258687
 30
0.0
 10
15.7413837206
 20
6.0845200459
 30
0.0
 10
15.7479531809
 20
6.0848005521
 30
0.0
 10
15.7512327927
 20
6.0848005521
 30
0.0
  0
SPLINE
  5
495
100
AcDbEntity
  8
0
100
AcDbSpline
 62
7
  6
CONTINUOUS
 70
0
 71
3
 72
12
 73
8
 74
0
 42
0.0000001
 43
0.0000001
 44
0.0000000001
 40
0.0
 40
0.0
 40
0.0
 40
0.0
 40
0.2535491493
 40
0.504528217
 40
0.7529871764
 40
0.8766143523
 40
1.0
 40
1.0
 40
1.0
 40
1.0
 10
15.1434992174
 20
6.0614945546
 30
0.0
 10
15.1493356812
 20
6.0648642386
 30
0.0
 10
15.161213289
 20
6.071133088
 30
0.0
 10
15.1798000097
 20
6.078664678
 30
0.0
 10
15.1959022145
 20
6.0828247836
 30
0.0
 10
15.2089763466
 20
6.084519204
 30
0.0
 10
15.2155457794
 20
6.0848005521
 30
0.0
 10
15.2188253853
 20
6.0848005521
 30
0.0
  0
SPLINE
  5
496
100
AcDbEntity
  8
0
100
AcDbSpline
 62
7
  6
CONTINUOUS
 70
0
 71
3
 72
12
 73
8
 74
0
 42
0.0000001
 43
0.0000001
 44
0.0000000001
 40
0.0
 40
0.0
 40
0.0
 40
0.0
 40
0.1233852238
 40
0.2470111141
 40
0.4954722559
 40
0.7464513102
 40
1.0
 40
1.0
 40
1.0
 40
1.0
 10
15.2188253853
 20
6.0848005521
 30
0.0
 10
15.2221049934
 20
6.0848005521
 30
0.0
 10
15.2286744571
 20
6.0845207821
 30
0.0
 10
15.2417487693
 20
6.0828264514
 30
0.0
 10
15.2578505961
 20
6.0786646089
 30
0.0
 10
15.2764374836
 20
6.0711332619
 30
0.0
 10
15.288315076
 20
6.0648642463
 30
0.0
 10
15.2941515532
 20
6.0614945546
 30
0.0
  0
SPLINE
  5
497
100
AcDbEntity
  8
0
100
AcDbSpline
 62
7
  6
CONTINUOUS
 70
0
 71
3
 72
23
 73
19
 74
0
 42
0.0000001
 43
0.0000001
 44
0.0000000001
 40
0.0
 40
0.0
 40
0.0
 40
0.0
 40
0.0420836878
 40
0.0869635227
 40
0.1348956868
 40
0.1859561454
 40
0.2400880463
 40
0.2971701938
 40
0.3570530547
 40
0.4195850023
 40
0.4846228659
 40
0.5520482759
 40
0.6217660507
 40
0.6936969446
 40
0.7677549041
 40
0.8437811875
 40
0.9214160411
 40
1.0
 40
1.0
 40
1.0
 40
1.0
 10
15.4561885903
 20
4.6923582543
 30
0.0
 10
15.4561885903
 20
4.6974886814
 30
0.0
 10
15.4553016926
 20
4.7081004886
 30
0.0
 10
15.451732445
 20
4.724191742
 30
0.0
 10
15.4460428985
 20
4.7408156735
 30
0.0
 10
15.4383674327
 20
4.7578570478
 30
0.0
 10
15.4288126826
 20
4.7752010294
 30
0.0
 10
15.4174588555
 20
4.7927178782
 30
0.0
 10
15.4043636756
 20
4.8102683565
 30
0.0
 10
15.3895518932
 20
4.827690829
 30
0.0
 10
15.373015115
 20
4.8447915849
 30
0.0
 10
15.3547171781
 20
4.861335173
 30
0.0
 10
15.3345852331
 20
4.8770089363
 30
0.0
 10
15.3125318168
 20
4.8913972509
 30
0.0
 10
15.2884905269
 20
4.9039381877
 30
0.0
 10
15.2624974265
 20
4.9138945079
 30
0.0
 10
15.2348459289
 20
4.9203983123
 30
0.0
 10
15.2157687694
 20
4.9219146883
 30
0.0
 10
15.2061885903
 20
4.9219146883
 30
0.0
  0
SPLINE
  5
498
100
AcDbEntity
  8
0
100
AcDbSpline
 62
7
  6
CONTINUOUS
 70
0
 71
3
 72
12
 73
8
 74
0
 42
0.0000001
 43
0.0000001
 44
0.0000000001
 40
0.0
 40
0.0
 40
0.0
 40
0.0
 40
0.2535491493
 40
0.504528217
 40
0.7529871764
 40
0.8766143523
 40
1.0
 40
1.0
 40
1.0
 40
1.0
 10
15.2941515532
 20
6.0614945546
 30
0.0
 10
15.2999880171
 20
6.0648642386
 30
0.0
 10
15.3118656249
 20
6.071133088
 30
0.0
 10
15.3304523456
 20
6.078664678
 30
0.0
 10
15.3465545504
 20
6.0828247836
 30
0.0
 10
15.3596286825
 20
6.084519204
 30
0.0
 10
15.3661981153
 20
6.0848005521
 30
0.0
 10
15.3694777212
 20
6.0848005521
 30
0.0
  0
SPLINE
  5
499
100
AcDbEntity
  8
0
100
AcDbSpline
 62
7
  6
CONTINUOUS
 70
0
 71
3
 72
14
 73
10
 74
0
 42
0.0000001
 43
0.0000001
 44
0.0000000001
 40
0.0
 40
0.0
 40
0.0
 40
0.0
 40
0.3268205999
 40
0.4794881788
 40
0.6197124883
 40
0.7440234531
 40
0.8496851152
 40
0.9349929435
 40
1.0
 40
1.0
 40
1.0
 40
1.0
 10
15.5603552569
 20
6.6364287778
 30
0.0
 10
15.5630659054
 20
6.6364287778
 30
0.0
 10
15.5670466143
 20
6.6362640254
 30
0.0
 10
15.572155071
 20
6.6356819616
 30
0.0
 10
15.5755687594
 20
6.6351021822
 30
0.0
 10
15.5785573
 20
6.6343877532
 30
0.0
 10
15.5810435609
 20
6.6335585868
 30
0.0
 10
15.5829630444
 20
6.6326428674
 30
0.0
 10
15.5839783103
 20
6.6318837305
 30
0.0
 10
15.5843349241
 20
6.6314793433
 30
0.0
  0
LINE
  5
49A
100
AcDbEntity
  8
0
100
AcDbLine
 62
7
  6
CONTINUOUS
 10
15.5843349241
 20
6.6314793433
 11
15.5848512473
 21
6.6306368239
  0
SPLINE
  5
49B
100
AcDbEntity
  8
0
100
AcDbSpline
 62
7
  6
CONTINUOUS
 70
0
 71
3
 72
32
 73
28
 74
0
 42
0.0000001
 43
0.0000001
 44
0.0000000001
 40
0.0
 40
0.0
 40
0.0
 40
0.0
 40
0.0630586889
 40
0.1245757173
 40
0.1846660286
 40
0.243796517
 40
0.2733562987
 40
0.303167885
 40
0.3335036566
 40
0.3646604704
 40
0.3968977672
 40
0.4303366798
 40
0.4648485251
 40
0.5000043845
 40
0.5351599048
 40
0.5696710732
 40
0.6031083323
 40
0.6353438924
 40
0.6664995297
 40
0.6968347215
 40
0.7266464186
 40
0.7562060715
 40
0.8153366508
 40
0.8452379987
 40
0.8754540713
 40
0.9369601913
 40
1.0
 40
1.0
 40
1.0
 40
1.0
 10
15.6192667696
 20
5.9439833722
 30
0.0
 10
15.6192660298
 20
5.9614586114
 30
0.0
 10
15.6202296154
 20
5.9959968973
 30
0.0
 10
15.6257237639
 20
6.0469516444
 30
0.0
 10
15.6365492735
 20
6.0959835468
 30
0.0
 10
15.6514756143
 20
6.134675218
 30
0.0
 10
15.6677947282
 20
6.163241108
 30
0.0
 10
15.6825348209
 20
6.1833355506
 30
0.0
 10
15.7000102689
 20
6.2017361102
 30
0.0
 10
15.7203811318
 20
6.2179928466
 30
0.0
 10
15.7436465723
 20
6.231562254
 30
0.0
 10
15.7695488465
 20
6.2418503515
 30
0.0
 10
15.7974981758
 20
6.2482979364
 30
0.0
 10
15.8265758672
 20
6.2504957402
 30
0.0
 10
15.855652918
 20
6.2482925938
 30
0.0
 10
15.8836005365
 20
6.2418408686
 30
0.0
 10
15.9094998784
 20
6.2315483791
 30
0.0
 10
15.9327618155
 20
6.2179755543
 30
0.0
 10
15.9531293101
 20
6.2017161394
 30
0.0
 10
15.9706017147
 20
6.1833134828
 30
0.0
 10
15.9853390307
 20
6.1632167133
 30
0.0
 10
16.0016530924
 20
6.1346501844
 30
0.0
 10
16.0135536688
 20
6.103798056
 30
0.0
 10
16.0219012174
 20
6.0718106775
 30
0.0
 10
16.0282877465
 20
6.0386928565
 30
0.0
 10
16.0328885181
 20
5.9959810614
 30
0.0
 10
16.0338506156
 20
5.9614532989
 30
0.0
 10
16.0338506636
 20
5.9439832919
 30
0.0
  0
SPLINE
  5
49C
100
AcDbEntity
  8
0
100
AcDbSpline
 62
7
  6
CONTINUOUS
 70
0
 71
3
 72
12
 73
8
 74
0
 42
0.0000001
 43
0.0000001
 44
0.0000000001
 40
0.0
 40
0.0
 40
0.0
 40
0.0
 40
0.1233852238
 40
0.2470111141
 40
0.4954722559
 40
0.7464513102
 40
1.0
 40
1.0
 40
1.0
 40
1.0
 10
15.3694777212
 20
6.0848005521
 30
0.0
 10
15.3727573292
 20
6.0848005521
 30
0.0
 10
15.379326793
 20
6.0845207821
 30
0.0
 10
15.3924011052
 20
6.0828264514
 30
0.0
 10
15.408502932
 20
6.0786646089
 30
0.0
 10
15.4270898195
 20
6.0711332619
 30
0.0
 10
15.4389674118
 20
6.0648642463
 30
0.0
 10
15.4448038891
 20
6.0614945546
 30
0.0
  0
SPLINE
  5
49D
100
AcDbEntity
  8
0
100
AcDbSpline
 62
7
  6
CONTINUOUS
 70
0
 71
3
 72
17
 73
13
 74
0
 42
0.0000001
 43
0.0000001
 44
0.0000000001
 40
0.0
 40
0.0
 40
0.0
 40
0.0
 40
0.0695754415
 40
0.1383333947
 40
0.2058016759
 40
0.2721009992
 40
0.4016391211
 40
0.5276220098
 40
0.6504738484
 40
0.7703186368
 40
0.8870747105
 40
1.0
 40
1.0
 40
1.0
 40
1.0
 10
14.9981424851
 20
4.7743699771
 30
0.0
 10
14.9981442933
 20
4.7754746834
 30
0.0
 10
14.9982808801
 20
4.7776711192
 30
0.0
 10
14.9987200531
 20
4.7809102581
 30
0.0
 10
14.9992979946
 20
4.7840747984
 30
0.0
 10
15.0002402255
 20
4.7881492312
 30
0.0
 10
15.001684931
 20
4.7930553095
 30
0.0
 10
15.003735975
 20
4.7987056974
 30
0.0
 10
15.0060663699
 20
4.8040796676
 30
0.0
 10
15.0086623719
 20
4.8091672472
 30
0.0
 10
15.0115355267
 20
4.8139211885
 30
0.0
 10
15.0137077509
 20
4.8168617516
 30
0.0
 10
15.0148650955
 20
4.8182312176
 30
0.0
  0
SPLINE
  5
49E
100
AcDbEntity
  8
0
100
AcDbSpline
 62
7
  6
CONTINUOUS
 70
0
 71
3
 72
15
 73
11
 74
0
 42
0.0000001
 43
0.0000001
 44
0.0000000001
 40
0.0
 40
0.0
 40
0.0
 40
0.0
 40
0.1108451804
 40
0.2262242742
 40
0.3458897882
 40
0.4696976015
 40
0.5974871652
 40
0.7289891928
 40
0.8635733842
 40
1.0
 40
1.0
 40
1.0
 40
1.0
 10
15.0148650916
 20
4.8182311806
 30
0.0
 10
15.0202209642
 20
4.8245560417
 30
0.0
 10
15.0315996939
 20
4.8370922551
 30
0.0
 10
15.0502870887
 20
4.8550013611
 30
0.0
 10
15.0710228481
 20
4.8720739982
 30
0.0
 10
15.0939025877
 20
4.8878611279
 30
0.0
 10
15.1190246944
 20
4.9017373639
 30
0.0
 10
15.1463841329
 20
4.9128598123
 30
0.0
 10
15.1756855282
 20
4.9201945523
 30
0.0
 10
15.1959879684
 20
4.9219146883
 30
0.0
 10
15.2061885903
 20
4.9219146883
 30
0.0
  0
SPLINE
  5
49F
100
AcDbEntity
  8
0
100
AcDbSpline
 62
7
  6
CONTINUOUS
 70
0
 71
3
 72
11
 73
7
 74
0
 42
0.0000001
 43
0.0000001
 44
0.0000000001
 40
0.0
 40
0.0
 40
0.0
 40
0.0
 40
0.2342040706
 40
0.477984658
 40
0.7331005035
 40
1.0
 40
1.0
 40
1.0
 40
1.0
 10
13.8662508881
 20
12.8435202765
 30
0.0
 10
13.8605801286
 20
12.8409865849
 30
0.0
 10
13.8491808747
 20
12.8354112999
 30
0.0
 10
13.8324551516
 20
12.8254506544
 30
0.0
 10
13.8160597156
 20
12.8134065333
 30
0.0
 10
13.8058255038
 20
12.8040378871
 30
0.0
 10
13.8008510957
 20
12.7990025025
 30
0.0
  0
SPLINE
  5
4A0
100
AcDbEntity
  8
0
100
AcDbSpline
 62
7
  6
CONTINUOUS
 70
0
 71
3
 72
11
 73
7
 74
0
 42
0.0000001
 43
0.0000001
 44
0.0000000001
 40
0.0
 40
0.0
 40
0.0
 40
0.0
 40
0.2719998313
 40
0.5282766792
 40
0.7700709333
 40
1.0
 40
1.0
 40
1.0
 40
1.0
 10
13.9392547008
 20
12.8580075169
 30
0.0
 10
13.9324657196
 20
12.8580075169
 30
0.0
 10
13.9192664766
 20
12.8573625486
 30
0.0
 10
13.9002510469
 20
12.8543288547
 30
0.0
 10
13.8826596053
 20
12.8496744067
 30
0.0
 10
13.8715712094
 20
12.8456718656
 30
0.0
 10
13.8662508881
 20
12.8435202765
 30
0.0
  0
SPLINE
  5
4A1
100
AcDbEntity
  8
0
100
AcDbSpline
 62
7
  6
CONTINUOUS
 70
0
 71
3
 72
11
 73
7
 74
0
 42
0.0000001
 43
0.0000001
 44
0.0000000001
 40
0.0
 40
0.0
 40
0.0
 40
0.0
 40
0.2560963774
 40
0.5094817628
 40
0.7582052076
 40
1.0
 40
1.0
 40
1.0
 40
1.0
 10
14.0047042319
 20
12.8493050559
 30
0.0
 10
13.9992116069
 20
12.8506234255
 30
0.0
 10
13.9882309379
 20
12.8530311229
 30
0.0
 10
13.9717335517
 20
12.8558195893
 30
0.0
 10
13.9554107214
 20
12.8575936236
 30
0.0
 10
13.9445878862
 20
12.8580075169
 30
0.0
 10
13.9392547008
 20
12.8580075169
 30
0.0
  0
SPLINE
  5
4A2
100
AcDbEntity
  8
0
100
AcDbSpline
 62
7
  6
CONTINUOUS
 70
0
 71
3
 72
13
 73
9
 74
0
 42
0.0000001
 43
0.0000001
 44
0.0000000001
 40
0.0
 40
0.0
 40
0.0
 40
0.0
 40
0.1164875702
 40
0.2338811036
 40
0.3530531884
 40
0.4748109013
 40
0.7285857033
 40
1.0
 40
1.0
 40
1.0
 40
1.0
 10
15.4550720465
 20
11.7917423878
 30
0.0
 10
15.4568164354
 20
11.7973873673
 30
0.0
 10
15.4597068671
 20
11.808920699
 30
0.0
 10
15.4621732659
 20
11.8266895643
 30
0.0
 10
15.4627720629
 20
11.8448876046
 30
0.0
 10
15.461057389
 20
11.8699581227
 30
0.0
 10
15.4540186153
 20
11.9022088483
 30
0.0
 10
15.4439569758
 20
11.9270075011
 30
0.0
 10
15.4378922957
 20
11.9393660198
 30
0.0
  0
SPLINE
  5
4A3
100
AcDbEntity
  8
0
100
AcDbSpline
 62
7
  6
CONTINUOUS
 70
0
 71
3
 72
9
 73
5
 74
0
 42
0.0000001
 43
0.0000001
 44
0.0000000001
 40
0.0
 40
0.0
 40
0.0
 40
0.0
 40
0.4045604625
 40
1.0
 40
1.0
 40
1.0
 40
1.0
 10
13.7496699133
 20
12.7255102478
 30
0.0
 10
13.7513049547
 20
12.7194008883
 30
0.0
 10
13.7558974711
 20
12.7044483857
 30
0.0
 10
13.761154369
 20
12.6897228377
 30
0.0
 10
13.7643832387
 20
12.6809924738
 30
0.0
  0
SPLINE
  5
4A4
100
AcDbEntity
  8
0
100
AcDbSpline
 62
7
  6
CONTINUOUS
 70
0
 71
3
 72
11
 73
7
 74
0
 42
0.0000001
 43
0.0000001
 44
0.0000000001
 40
0.0
 40
0.0
 40
0.0
 40
0.0
 40
0.1215554555
 40
0.2448977891
 40
0.6210431713
 40
1.0
 40
1.0
 40
1.0
 40
1.0
 10
13.8008510957
 20
12.7990025025
 30
0.0
 10
13.7982922671
 20
12.7964123077
 30
0.0
 10
13.7932687635
 20
12.7910617435
 30
0.0
 10
13.7812212568
 20
12.7768794783
 30
0.0
 10
13.7660820557
 20
12.7552716767
 30
0.0
 10
13.7549328571
 20
12.7355673888
 30
0.0
 10
13.7496699133
 20
12.7255102478
 30
0.0
  0
SPLINE
  5
4A5
100
AcDbEntity
  8
0
100
AcDbSpline
 62
7
  6
CONTINUOUS
 70
0
 71
3
 72
11
 73
7
 74
0
 42
0.0000001
 43
0.0000001
 44
0.0000000001
 40
0.0
 40
0.0
 40
0.0
 40
0.0
 40
0.2336843862
 40
0.4744429393
 40
0.7285050451
 40
1.0
 40
1.0
 40
1.0
 40
1.0
 10
14.8015279851
 20
11.2909086608
 30
0.0
 10
14.8012423991
 20
11.2899844367
 30
0.0
 10
14.8008670264
 20
11.2880383502
 30
0.0
 10
14.8009330556
 20
11.2850033883
 30
0.0
 10
14.8016144269
 20
11.2818876631
 30
0.0
 10
14.8024356403
 20
11.279861732
 30
0.0
 10
14.8029307483
 20
11.2788528081
 30
0.0
  0
SPLINE
  5
4A6
100
AcDbEntity
  8
0
100
AcDbSpline
 62
7
  6
CONTINUOUS
 70
0
 71
3
 72
9
 73
5
 74
0
 42
0.0000001
 43
0.0000001
 44
0.0000000001
 40
0.0
 40
0.0
 40
0.0
 40
0.0
 40
0.4674337695
 40
1.0
 40
1.0
 40
1.0
 40
1.0
 10
13.7643832387
 20
12.6809924738
 30
0.0
 10
13.7686521757
 20
12.669449929
 30
0.0
 10
13.7781659241
 20
12.6448980139
 30
0.0
 10
13.788020248
 20
12.6204835133
 30
0.0
 10
13.793315174
 20
12.6075002192
 30
0.0
  0
SPLINE
  5
4A7
100
AcDbEntity
  8
0
100
AcDbSpline
 62
7
  6
CONTINUOUS
 70
0
 71
3
 72
11
 73
7
 74
0
 42
0.0000001
 43
0.0000001
 44
0.0000000001
 40
0.0
 40
0.0
 40
0.0
 40
0.0
 40
0.2599564077
 40
0.5116386464
 40
0.757379498
 40
1.0
 40
1.0
 40
1.0
 40
1.0
 10
13.7815747482
 20
12.636308716
 30
0.0
 10
13.7806890996
 20
12.6310250951
 30
0.0
 10
13.7796525504
 20
12.620489382
 30
0.0
 10
13.7804505968
 20
12.6048412682
 30
0.0
 10
13.783624671
 20
12.5898588337
 30
0.0
 10
13.7873128541
 20
12.5804362975
 30
0.0
 10
13.7895155558
 20
12.5759475609
 30
0.0
  0
SPLINE
  5
4A8
100
AcDbEntity
  8
0
100
AcDbSpline
 62
7
  6
CONTINUOUS
 70
0
 71
3
 72
11
 73
7
 74
0
 42
0.0000001
 43
0.0000001
 44
0.0000000001
 40
0.0
 40
0.0
 40
0.0
 40
0.0
 40
0.243379708
 40
0.4895315971
 40
0.7410416029
 40
1.0
 40
1.0
 40
1.0
 40
1.0
 10
16.226361214
 20
13.146268661
 30
0.0
 10
16.2242862552
 20
13.1504970788
 30
0.0
 10
16.2194371288
 20
13.1586885065
 30
0.0
 10
16.210281404
 20
13.1697962186
 30
0.0
 10
16.1993508545
 20
13.1796156529
 30
0.0
 10
16.1911117377
 20
13.1851320105
 30
0.0
 10
16.1867743884
 20
13.1876426642
 30
0.0
  0
SPLINE
  5
4A9
100
AcDbEntity
  8
0
100
AcDbSpline
 62
7
  6
CONTINUOUS
 70
0
 71
3
 72
9
 73
5
 74
0
 42
0.0000001
 43
0.0000001
 44
0.0000000001
 40
0.0
 40
0.0
 40
0.0
 40
0.0
 40
0.26315938
 40
1.0
 40
1.0
 40
1.0
 40
1.0
 10
13.7803652015
 20
12.1132438626
 30
0.0
 10
13.7816011928
 20
12.1132438626
 30
0.0
 10
13.7862954428
 20
12.1133716592
 30
0.0
 10
13.7909877014
 20
12.114024784
 30
0.0
 10
13.7943390298
 20
12.1148881401
 30
0.0
  0
SPLINE
  5
4AA
100
AcDbEntity
  8
0
100
AcDbSpline
 62
7
  6
CONTINUOUS
 70
0
 71
3
 72
9
 73
5
 74
0
 42
0.0000001
 43
0.0000001
 44
0.0000000001
 40
0.0
 40
0.0
 40
0.0
 40
0.0
 40
0.4896835593
 40
1.0
 40
1.0
 40
1.0
 40
1.0
 10
13.8804413655
 20
11.7339127666
 30
0.0
 10
13.8920824601
 20
11.7519943368
 30
0.0
 10
13.9138692369
 20
11.7902135432
 30
0.0
 10
13.9324051662
 20
11.8300704935
 30
0.0
 10
13.94118664
 20
11.850689332
 30
0.0
  0
SPLINE
  5
4AB
100
AcDbEntity
  8
0
100
AcDbSpline
 62
7
  6
CONTINUOUS
 70
0
 71
3
 72
18
 73
14
 74
0
 42
0.0000001
 43
0.0000001
 44
0.0000000001
 40
0.0
 40
0.0
 40
0.0
 40
0.0
 40
0.053755171
 40
0.0812005005
 40
0.1089170258
 40
0.1651543107
 40
0.2227132492
 40
0.2816190665
 40
0.3416996076
 40
0.4650101354
 40
0.5924358372
 40
0.7238857832
 40
1.0
 40
1.0
 40
1.0
 40
1.0
 10
13.8692424988
 20
11.6935513612
 30
0.0
 10
13.8689059638
 20
11.6942446044
 30
0.0
 10
13.8685609252
 20
11.6953727342
 30
0.0
 10
13.8683165149
 20
11.6969143871
 30
0.0
 10
13.8681658632
 20
11.6985054935
 30
0.0
 10
13.8681436489
 20
11.7005377019
 30
0.0
 10
13.8683421218
 20
11.7030081592
 30
0.0
 10
13.8687260259
 20
11.705511428
 30
0.0
 10
13.8694379247
 20
11.7089124209
 30
0.0
 10
13.8706441766
 20
11.7132071539
 30
0.0
 10
13.8724941721
 20
11.7183684398
 30
0.0
 10
13.8755161648
 20
11.7254194379
 30
0.0
 10
13.8783012474
 20
11.7305829483
 30
0.0
 10
13.8804413655
 20
11.7339127666
 30
0.0
  0
SPLINE
  5
4AC
100
AcDbEntity
  8
0
100
AcDbSpline
 62
7
  6
CONTINUOUS
 70
0
 71
3
 72
14
 73
10
 74
0
 42
0.0000001
 43
0.0000001
 44
0.0000000001
 40
0.0
 40
0.0
 40
0.0
 40
0.0
 40
0.2773983367
 40
0.4084944884
 40
0.5344250351
 40
0.6556052741
 40
0.7728155902
 40
0.8871603722
 40
1.0
 40
1.0
 40
1.0
 40
1.0
 10
13.649245943
 20
11.6889417866
 30
0.0
 10
13.6432440316
 20
11.6889417866
 30
0.0
 10
13.6343515734
 20
11.6898248493
 30
0.0
 10
13.6232186139
 20
11.6930357363
 30
0.0
 10
13.6156903607
 20
11.6963087577
 30
0.0
 10
13.6089491408
 20
11.7004472791
 30
0.0
 10
13.6030968539
 20
11.7053949891
 30
0.0
 10
13.5982283835
 20
11.7110782396
 30
0.0
 10
13.5956827365
 20
11.7153153764
 30
0.0
 10
13.594607255
 20
11.7175071805
 30
0.0
  0
SPLINE
  5
4AD
100
AcDbEntity
  8
0
100
AcDbSpline
 62
7
  6
CONTINUOUS
 70
0
 71
3
 72
12
 73
8
 74
0
 42
0.0000001
 43
0.0000001
 44
0.0000000001
 40
0.0
 40
0.0
 40
0.0
 40
0.0
 40
0.2777439388
 40
0.5345315286
 40
0.7725390476
 40
0.887021522
 40
1.0
 40
1.0
 40
1.0
 40
1.0
 10
13.5178657129
 20
11.3708723924
 30
0.0
 10
13.5154648911
 20
11.3708723924
 30
0.0
 10
13.5108232778
 20
11.3713329718
 30
0.0
 10
13.504453111
 20
11.3735560375
 30
0.0
 10
13.5000856662
 20
11.3766584349
 30
0.0
 10
13.4974591198
 20
11.3797269859
 30
0.0
 10
13.4964404892
 20
11.3814218481
 30
0.0
 10
13.496010247
 20
11.3822985546
 30
0.0
  0
SPLINE
  5
4AE
100
AcDbEntity
  8
0
100
AcDbSpline
 62
7
  6
CONTINUOUS
 70
0
 71
3
 72
13
 73
9
 74
0
 42
0.0000001
 43
0.0000001
 44
0.0000000001
 40
0.0
 40
0.0
 40
0.0
 40
0.0
 40
0.2295707976
 40
0.3545101463
 40
0.4839009913
 40
0.615583246
 40
0.7471638361
 40
1.0
 40
1.0
 40
1.0
 40
1.0
 10
17.2946091575
 20
11.3969832894
 30
0.0
 10
17.2934901805
 20
11.3933622787
 30
0.0
 10
17.2905013001
 20
11.3881270532
 30
0.0
 10
17.2850058547
 20
11.3823128428
 30
0.0
 10
17.2799657753
 20
11.3783699424
 30
0.0
 10
17.2743213466
 20
11.3751354817
 30
0.0
 10
17.2663958415
 20
11.37196757
 30
0.0
 10
17.260012297
 20
11.3708723924
 30
0.0
 10
17.2558382469
 20
11.3708723924
 30
0.0
  0
SPLINE
  5
4AF
100
AcDbEntity
  8
0
100
AcDbSpline
 62
7
  6
CONTINUOUS
 70
0
 71
3
 72
13
 73
9
 74
0
 42
0.0000001
 43
0.0000001
 44
0.0000000001
 40
0.0
 40
0.0
 40
0.0
 40
0.0
 40
0.1174491046
 40
0.2356912378
 40
0.3554945911
 40
0.4775781972
 40
0.7308502972
 40
1.0
 40
1.0
 40
1.0
 40
1.0
 10
14.4568567071
 20
12.1002142588
 30
0.0
 10
14.4550865675
 20
12.0944859541
 30
0.0
 10
14.4521121617
 20
12.0828029479
 30
0.0
 10
14.4494144904
 20
12.0648286293
 30
0.0
 10
14.4484795558
 20
12.0464387057
 30
0.0
 10
14.4495996833
 20
12.0211534822
 30
0.0
 10
14.4556053552
 20
11.988625053
 30
0.0
 10
14.4646894239
 20
11.9634278944
 30
0.0
 10
14.4702271851
 20
11.9508537002
 30
0.0
  0
SPLINE
  5
4B0
100
AcDbEntity
  8
0
100
AcDbSpline
 62
7
  6
CONTINUOUS
 70
0
 71
3
 72
9
 73
5
 74
0
 42
0.0000001
 43
0.0000001
 44
0.0000000001
 40
0.0
 40
0.0
 40
0.0
 40
0.0
 40
0.4950481423
 40
1.0
 40
1.0
 40
1.0
 40
1.0
 10
14.4710741264
 20
12.1389929597
 30
0.0
 10
14.4741510641
 20
12.1453052193
 30
0.0
 10
14.4811076716
 20
12.1577066913
 30
0.0
 10
14.489396394
 20
12.1692562237
 30
0.0
 10
14.493870619
 20
12.1748496348
 30
0.0
  0
SPLINE
  5
4B1
100
AcDbEntity
  8
0
100
AcDbSpline
 62
7
  6
CONTINUOUS
 70
0
 71
3
 72
14
 73
10
 74
0
 42
0.0000001
 43
0.0000001
 44
0.0000000001
 40
0.0
 40
0.0
 40
0.0
 40
0.0
 40
0.2773983367
 40
0.4084944884
 40
0.5344250351
 40
0.6556052741
 40
0.7728155902
 40
0.8871603722
 40
1.0
 40
1.0
 40
1.0
 40
1.0
 10
16.9676679849
 20
12.2437983476
 30
0.0
 10
16.9616660735
 20
12.2437983476
 30
0.0
 10
16.9527736153
 20
12.2446814103
 30
0.0
 10
16.9416406558
 20
12.2478922973
 30
0.0
 10
16.9341124027
 20
12.2511653187
 30
0.0
 10
16.9273711827
 20
12.2553038401
 30
0.0
 10
16.9215188959
 20
12.2602515501
 30
0.0
 10
16.9166504254
 20
12.2659348006
 30
0.0
 10
16.9141047784
 20
12.2701719374
 30
0.0
 10
16.913029297
 20
12.2723637415
 30
0.0
  0
SPLINE
  5
4B2
100
AcDbEntity
  8
0
100
AcDbSpline
 62
7
  6
CONTINUOUS
 70
0
 71
3
 72
14
 73
10
 74
0
 42
0.0000001
 43
0.0000001
 44
0.0000000001
 40
0.0
 40
0.0
 40
0.0
 40
0.0
 40
0.2773983367
 40
0.4084944884
 40
0.5344250351
 40
0.6556052741
 40
0.7728155902
 40
0.8871603722
 40
1.0
 40
1.0
 40
1.0
 40
1.0
 10
16.7962043391
 20
11.6889417866
 30
0.0
 10
16.7902024278
 20
11.6889417866
 30
0.0
 10
16.7813099696
 20
11.6898248493
 30
0.0
 10
16.7701770101
 20
11.6930357363
 30
0.0
 10
16.7626487569
 20
11.6963087577
 30
0.0
 10
16.755907537
 20
11.7004472791
 30
0.0
 10
16.7500552501
 20
11.7053949891
 30
0.0
 10
16.7451867796
 20
11.7110782396
 30
0.0
 10
16.7426411326
 20
11.7153153764
 30
0.0
 10
16.7415656512
 20
11.7175071805
 30
0.0
  0
SPLINE
  5
4B3
100
AcDbEntity
  8
0
100
AcDbSpline
 62
7
  6
CONTINUOUS
 70
0
 71
3
 72
16
 73
12
 74
0
 42
0.0000001
 43
0.0000001
 44
0.0000000001
 40
0.0
 40
0.0
 40
0.0
 40
0.0
 40
0.049949367
 40
0.1051690894
 40
0.1629990681
 40
0.2228926372
 40
0.346972381
 40
0.4744663673
 40
0.6042284183
 40
0.7354884098
 40
1.0
 40
1.0
 40
1.0
 40
1.0
 10
16.588133173
 20
11.6935489115
 30
0.0
 10
16.5877633281
 20
11.6942995378
 30
0.0
 10
16.5868914297
 20
11.6958332784
 30
0.0
 10
16.5854332489
 20
11.6981419374
 30
0.0
 10
16.5838235748
 20
11.7005514211
 30
0.0
 10
16.5815000382
 20
11.7038699232
 30
0.0
 10
16.5784103064
 20
11.7080754107
 30
0.0
 10
16.5745522877
 20
11.7131674634
 30
0.0
 10
16.570571549
 20
11.718317091
 30
0.0
 10
16.5651473435
 20
11.7252519197
 30
0.0
 10
16.5610327892
 20
11.7304512289
 30
0.0
 10
16.5582661317
 20
11.7339127666
 30
0.0
  0
SPLINE
  5
4B4
100
AcDbEntity
  8
0
100
AcDbSpline
 62
7
  6
CONTINUOUS
 70
0
 71
3
 72
9
 73
5
 74
0
 42
0.0000001
 43
0.0000001
 44
0.0000000001
 40
0.0
 40
0.0
 40
0.0
 40
0.0
 40
0.5015842904
 40
1.0
 40
1.0
 40
1.0
 40
1.0
 10
16.5582661059
 20
11.7339127405
 30
0.0
 10
16.5495446591
 20
11.744820612
 30
0.0
 10
16.5332557931
 20
11.7674701986
 30
0.0
 10
16.5194809462
 20
11.7917460373
 30
0.0
 10
16.5133674741
 20
11.8042045396
 30
0.0
  0
SPLINE
  5
4B5
100
AcDbEntity
  8
0
100
AcDbSpline
 62
7
  6
CONTINUOUS
 70
0
 71
3
 72
23
 73
19
 74
0
 42
0.0000001
 43
0.0000001
 44
0.0000000001
 40
0.0
 40
0.0
 40
0.0
 40
0.0
 40
0.0101559917
 40
0.0230259876
 40
0.0389690494
 40
0.0582155156
 40
0.0808819875
 40
0.1069606429
 40
0.1363108226
 40
0.1686625201
 40
0.2407371804
 40
0.3193424912
 40
0.4005542584
 40
0.4812803403
 40
0.6341499714
 40
0.7711599042
 40
0.8923159164
 40
1.0
 40
1.0
 40
1.0
 40
1.0
 10
14.1797195773
 20
13.3258795937
 30
0.0
 10
14.1803340232
 20
13.3246275889
 30
0.0
 10
14.1813302382
 20
13.3215964708
 30
0.0
 10
14.1821229105
 20
13.3162902822
 30
0.0
 10
14.1823017917
 20
13.3096797838
 30
0.0
 10
14.1817864227
 20
13.3017433838
 30
0.0
 10
14.1805076957
 20
13.292487753
 30
0.0
 10
14.1784140632
 20
13.2819646132
 30
0.0
 10
14.1754822332
 20
13.2702679983
 30
0.0
 10
14.1702743734
 20
13.2526464948
 30
0.0
 10
14.1618442111
 20
13.2289488482
 30
0.0
 10
14.1496773376
 20
13.1995118766
 30
0.0
 10
14.1359859651
 20
13.1694455653
 30
0.0
 10
14.1171836194
 20
13.1305158914
 30
0.0
 10
14.0942633689
 20
13.0850767346
 30
0.0
 10
14.0694568762
 20
13.0343680732
 30
0.0
 10
14.049253327
 20
12.9883469513
 30
0.0
 10
14.0385658745
 20
12.9587530712
 30
0.0
 10
14.0341998671
 20
12.9446247646
 30
0.0
  0
SPLINE
  5
4B6
100
AcDbEntity
  8
0
100
AcDbSpline
 62
7
  6
CONTINUOUS
 70
0
 71
3
 72
9
 73
5
 74
0
 42
0.0000001
 43
0.0000001
 44
0.0000000001
 40
0.0
 40
0.0
 40
0.0
 40
0.0
 40
0.2564428941
 40
1.0
 40
1.0
 40
1.0
 40
1.0
 10
17.0844349173
 20
12.1148881401
 30
0.0
 10
17.0857485278
 20
12.1146180279
 30
0.0
 10
17.0908946375
 20
12.1136865589
 30
0.0
 10
17.096134027
 20
12.1132438626
 30
0.0
 10
17.100022534
 20
12.1132438626
 30
0.0
  0
SPLINE
  5
4B7
100
AcDbEntity
  8
0
100
AcDbSpline
 62
7
  6
CONTINUOUS
 70
0
 71
3
 72
23
 73
19
 74
0
 42
0.0000001
 43
0.0000001
 44
0.0000000001
 40
0.0
 40
0.0
 40
0.0
 40
0.0
 40
0.0555741744
 40
0.113745018
 40
0.1742679105
 40
0.2368374014
 40
0.3010995339
 40
0.3666628812
 40
0.4331086198
 40
0.4999999635
 40
0.5668913196
 40
0.633337062
 40
0.6989004201
 40
0.7631625342
 40
0.8257320641
 40
0.886254997
 40
0.9444258889
 40
1.0
 40
1.0
 40
1.0
 40
1.0
 10
14.7623246946
 20
13.7638093039
 30
0.0
 10
14.7902359555
 20
13.7703735727
 30
0.0
 10
14.8479822698
 20
13.7812708484
 30
0.0
 10
14.9374503834
 20
13.7909524327
 30
0.0
 10
15.0309888401
 20
13.7942762512
 30
0.0
 10
15.1276712659
 20
13.7912101736
 30
0.0
 10
15.226550127
 20
13.7817860713
 30
0.0
 10
15.326651146
 20
13.7660970647
 30
0.0
 10
15.4269877053
 20
13.7442980254
 30
0.0
 10
15.5265698496
 20
13.7166040291
 30
0.0
 10
15.6244147813
 20
13.6832884079
 30
0.0
 10
15.7195568503
 20
13.6446799528
 30
0.0
 10
15.8110573263
 20
13.6011595971
 30
0.0
 10
15.8980142679
 20
13.5531560943
 30
0.0
 10
15.9795707139
 20
13.5011422059
 30
0.0
 10
16.0549263605
 20
13.4456261824
 30
0.0
 10
16.1233344307
 20
13.3871572499
 30
0.0
 10
16.1648651244
 20
13.3455809679
 30
0.0
 10
16.1842069691
 20
13.3244145019
 30
0.0
  0
SPLINE
  5
4B8
100
AcDbEntity
  8
0
100
AcDbSpline
 62
7
  6
CONTINUOUS
 70
0
 71
3
 72
11
 73
7
 74
0
 42
0.0000001
 43
0.0000001
 44
0.0000000001
 40
0.0
 40
0.0
 40
0.0
 40
0.0
 40
0.4715201413
 40
0.5982971376
 40
0.7286539701
 40
1.0
 40
1.0
 40
1.0
 40
1.0
 10
14.4771163667
 20
13.6390641745
 30
0.0
 10
14.5143690142
 20
13.6678612742
 30
0.0
 10
14.5669054516
 20
13.6979103259
 30
0.0
 10
14.6340765847
 20
13.7258244248
 30
0.0
 10
14.6837819074
 20
13.7436329044
 30
0.0
 10
14.7224831092
 20
13.7544396246
 30
0.0
 10
14.7488597783
 20
13.7606427181
 30
0.0
  0
SPLINE
  5
4B9
100
AcDbEntity
  8
0
100
AcDbSpline
 62
7
  6
CONTINUOUS
 70
0
 71
3
 72
14
 73
10
 74
0
 42
0.0000001
 43
0.0000001
 44
0.0000000001
 40
0.0
 40
0.0
 40
0.0
 40
0.0
 40
0.2517375066
 40
0.3814816423
 40
0.5113083509
 40
0.6394386615
 40
0.7642906949
 40
0.8846667574
 40
1.0
 40
1.0
 40
1.0
 40
1.0
 10
13.9628432374
 20
13.2748982455
 30
0.0
 10
13.9532039285
 20
13.2746080933
 30
0.0
 10
13.9385840972
 20
13.2718696731
 30
0.0
 10
13.9203932783
 20
13.2645212309
 30
0.0
 10
13.907432654
 20
13.2571679569
 30
0.0
 10
13.8957273714
 20
13.2482603696
 30
0.0
 10
13.8856344898
 20
13.2380533568
 30
0.0
 10
13.8774786073
 20
13.2268392703
 30
0.0
 10
13.873430446
 20
13.2187049372
 30
0.0
 10
13.8718464818
 20
13.2145803903
 30
0.0
  0
SPLINE
  5
4BA
100
AcDbEntity
  8
0
100
AcDbSpline
 62
7
  6
CONTINUOUS
 70
0
 71
3
 72
11
 73
7
 74
0
 42
0.0000001
 43
0.0000001
 44
0.0000000001
 40
0.0
 40
0.0
 40
0.0
 40
0.0
 40
0.2595470897
 40
0.5111314007
 40
0.7570354056
 40
1.0
 40
1.0
 40
1.0
 40
1.0
 10
13.6464579435
 20
12.4857395608
 30
0.0
 10
13.6454326084
 20
12.4824215751
 30
0.0
 10
13.6439289401
 20
12.4757107975
 30
0.0
 10
13.6434935516
 20
12.4655341014
 30
0.0
 10
13.644977372
 20
12.4556751889
 30
0.0
 10
13.6472562171
 20
12.4494857297
 30
0.0
 10
13.6486883873
 20
12.4465672736
 30
0.0
  0
SPLINE
  5
4BB
100
AcDbEntity
  8
0
100
AcDbSpline
 62
7
  6
CONTINUOUS
 70
0
 71
3
 72
28
 73
24
 74
0
 42
0.0000001
 43
0.0000001
 44
0.0000000001
 40
0.0
 40
0.0
 40
0.0
 40
0.0
 40
0.0217589922
 40
0.044232524
 40
0.067580864
 40
0.0919286713
 40
0.1438974339
 40
0.171643551
 40
0.2005533049
 40
0.2305986239
 40
0.2617304843
 40
0.3269458459
 40
0.3955128207
 40
0.4665349798
 40
0.5389951972
 40
0.6118098398
 40
0.6838792267
 40
0.7541377038
 40
0.821604679
 40
0.8854407151
 40
0.9158037964
 40
0.9450431272
 40
1.0
 40
1.0
 40
1.0
 40
1.0
 10
14.4754865384
 20
12.150397684
 30
0.0
 10
14.4800716059
 20
12.1572155142
 30
0.0
 10
14.4902734148
 20
12.1705010445
 30
0.0
 10
14.508112808
 20
12.1888192555
 30
0.0
 10
14.528592507
 20
12.2057101117
 30
0.0
 10
14.5599240775
 20
12.2266491647
 30
0.0
 10
14.5955361192
 20
12.2437838336
 30
0.0
 10
14.6342840714
 20
12.2572950906
 30
0.0
 10
14.6659117053
 20
12.2658622301
 30
0.0
 10
14.6992788061
 20
12.2725910107
 30
0.0
 10
14.746574716
 20
12.2791649692
 30
0.0
 10
14.8088951953
 20
12.2823961919
 30
0.0
 10
14.8862505378
 20
12.2786048889
 30
0.0
 10
14.9656268494
 20
12.2672879802
 30
0.0
 10
15.0452604286
 20
12.2486974127
 30
0.0
 10
15.1233886536
 20
12.2232455102
 30
0.0
 10
15.1982770537
 20
12.1914964445
 30
0.0
 10
15.2682690339
 20
12.1541528341
 30
0.0
 10
15.3318112349
 20
12.1120415995
 30
0.0
 10
15.3790045944
 20
12.0731012003
 30
0.0
 10
15.4121468413
 20
12.0402830207
 30
0.0
 10
15.4408800857
 20
12.0079271084
 30
0.0
 10
15.4595651687
 20
11.9820097345
 30
0.0
 10
15.4702246224
 20
11.964205006
 30
0.0
  0
SPLINE
  5
4BC
100
AcDbEntity
  8
0
100
AcDbSpline
 62
7
  6
CONTINUOUS
 70
0
 71
3
 72
14
 73
10
 74
0
 42
0.0000001
 43
0.0000001
 44
0.0000000001
 40
0.0
 40
0.0
 40
0.0
 40
0.0
 40
0.1164571865
 40
0.2338202662
 40
0.3529604642
 40
0.4746855341
 40
0.5997138248
 40
0.7286575029
 40
1.0
 40
1.0
 40
1.0
 40
1.0
 10
13.9722330875
 20
12.2642764683
 30
0.0
 10
13.9685480682
 20
12.2523514365
 30
0.0
 10
13.9624424623
 20
12.2279872005
 30
0.0
 10
13.9572317423
 20
12.190450269
 30
0.0
 10
13.9559667888
 20
12.1520082217
 30
0.0
 10
13.9586481321
 20
12.1128219051
 30
0.0
 10
13.9652596009
 20
12.0730401227
 30
0.0
 10
13.9795028763
 20
12.0185111432
 30
0.0
 10
13.9957139615
 20
11.9785287662
 30
0.0
 10
14.0085255625
 20
11.9524214683
 30
0.0
  0
SPLINE
  5
4BD
100
AcDbEntity
  8
0
100
AcDbSpline
 62
7
  6
CONTINUOUS
 70
0
 71
3
 72
13
 73
9
 74
0
 42
0.0000001
 43
0.0000001
 44
0.0000000001
 40
0.0
 40
0.0
 40
0.0
 40
0.0
 40
0.2673743
 40
0.5213406646
 40
0.6441225351
 40
0.7645386436
 40
0.8830108965
 40
1.0
 40
1.0
 40
1.0
 40
1.0
 10
13.9292265785
 20
12.1094820791
 30
0.0
 10
13.9172867715
 20
12.1338913134
 30
0.0
 10
13.8967316378
 20
12.1828951177
 30
0.0
 10
13.8796209464
 20
12.2463232871
 30
0.0
 10
13.8720112231
 20
12.2963173232
 30
0.0
 10
13.8693110007
 20
12.3330141765
 30
0.0
 10
13.8695742967
 20
12.3692189724
 30
0.0
 10
13.8717445131
 20
12.3930839373
 30
0.0
 10
13.8733274372
 20
12.404867569
 30
0.0
  0
SPLINE
  5
4BE
100
AcDbEntity
  8
0
100
AcDbSpline
 62
7
  6
CONTINUOUS
 70
0
 71
3
 72
13
 73
9
 74
0
 42
0.0000001
 43
0.0000001
 44
0.0000000001
 40
0.0
 40
0.0
 40
0.0
 40
0.0
 40
0.1167883172
 40
0.2344914605
 40
0.3540278924
 40
0.4761864957
 40
0.7302468486
 40
1.0
 40
1.0
 40
1.0
 40
1.0
 10
16.3824404759
 20
13.2445684499
 30
0.0
 10
16.3812801287
 20
13.2469329887
 30
0.0
 10
16.3785468128
 20
13.2514941792
 30
0.0
 10
16.3733487985
 20
13.257598714
 30
0.0
 10
16.367156051
 20
13.2628801751
 30
0.0
 10
16.3576248782
 20
13.2687948535
 30
0.0
 10
16.3437301746
 20
13.2737404103
 30
0.0
 10
16.3318681686
 20
13.274939409
 30
0.0
 10
16.325784479
 20
13.274939409
 30
0.0
  0
SPLINE
  5
4BF
100
AcDbEntity
  8
0
100
AcDbSpline
 62
7
  6
CONTINUOUS
 70
0
 71
3
 72
9
 73
5
 74
0
 42
0.0000001
 43
0.0000001
 44
0.0000000001
 40
0.0
 40
0.0
 40
0.0
 40
0.0
 40
0.508408247
 40
1.0
 40
1.0
 40
1.0
 40
1.0
 10
17.1580237496
 20
12.4722686962
 30
0.0
 10
17.1622250222
 20
12.4722686962
 30
0.0
 10
17.1704917934
 20
12.4719000072
 30
0.0
 10
17.1786941341
 20
12.4707329685
 30
0.0
 10
17.1826672863
 20
12.4698865594
 30
0.0
  0
SPLINE
  5
4C0
100
AcDbEntity
  8
0
100
AcDbSpline
 62
7
  6
CONTINUOUS
 70
0
 71
3
 72
31
 73
27
 74
0
 42
0.0000001
 43
0.0000001
 44
0.0000000001
 40
0.0
 40
0.0
 40
0.0
 40
0.0
 40
0.0655514346
 40
0.1342918015
 40
0.2054848152
 40
0.2782820728
 40
0.3517664286
 40
0.4249921621
 40
0.4970242891
 40
0.5669779723
 40
0.6009321895
 40
0.6340798238
 40
0.666343736
 40
0.6976586296
 40
0.7279728558
 40
0.7572502955
 40
0.785472407
 40
0.8126404044
 40
0.8387774864
 40
0.8639306972
 40
0.8881724016
 40
0.9116010959
 40
0.9343410152
 40
0.9565399701
 40
0.978365597
 40
1.0
 40
1.0
 40
1.0
 40
1.0
 10
16.155592708
 20
13.2786759195
 30
0.0
 10
16.1183339191
 20
13.3110889555
 30
0.0
 10
16.038338386
 20
13.3733604915
 30
0.0
 10
15.9075465044
 20
13.4565444062
 30
0.0
 10
15.765154065
 20
13.5305165766
 30
0.0
 10
15.6138713488
 20
13.5938806375
 30
0.0
 10
15.4565630652
 20
13.645445122
 30
0.0
 10
15.2962160957
 20
13.6842313713
 30
0.0
 10
15.1358829864
 20
13.709498261
 30
0.0
 10
15.0034843197
 20
13.7189784412
 30
0.0
 10
14.9001984674
 20
13.7192145306
 30
0.0
 10
14.8253863389
 20
13.7157948696
 30
0.0
 10
14.7528200542
 20
13.7087936607
 30
0.0
 10
14.6828395987
 20
13.6982376525
 30
0.0
 10
14.6157734117
 20
13.6841688662
 30
0.0
 10
14.5519349681
 20
13.6666428148
 30
0.0
 10
14.4916227957
 20
13.6457278137
 30
0.0
 10
14.4351202568
 20
13.6215039864
 30
0.0
 10
14.3826961362
 20
13.5940631044
 30
0.0
 10
14.3346061814
 20
13.5635085667
 30
0.0
 10
14.2910951562
 20
13.5299571222
 30
0.0
 10
14.2523983229
 20
13.4935420946
 30
0.0
 10
14.2187420396
 20
13.4544199639
 30
0.0
 10
14.1903388373
 20
13.4127732589
 30
0.0
 10
14.1673845126
 20
13.3688305638
 30
0.0
 10
14.1557964315
 20
13.3381066077
 30
0.0
 10
14.1509844342
 20
13.3225344502
 30
0.0
  0
SPLINE
  5
4C1
100
AcDbEntity
  8
0
100
AcDbSpline
 62
7
  6
CONTINUOUS
 70
0
 71
3
 72
23
 73
19
 74
0
 42
0.0000001
 43
0.0000001
 44
0.0000000001
 40
0.0
 40
0.0
 40
0.0
 40
0.0
 40
0.0101559753
 40
0.0230260017
 40
0.0389690414
 40
0.0582154945
 40
0.0808819989
 40
0.10696065
 40
0.1363108115
 40
0.1686625056
 40
0.2407371742
 40
0.3193424894
 40
0.4005542374
 40
0.481280327
 40
0.6341499657
 40
0.7711599116
 40
0.8923158785
 40
1.0
 40
1.0
 40
1.0
 40
1.0
 10
14.0508416719
 20
12.9088305424
 30
0.0
 10
14.051456117
 20
12.9075785397
 30
0.0
 10
14.0524523411
 20
12.9045474224
 30
0.0
 10
14.053245002
 20
12.8992412324
 30
0.0
 10
14.053423888
 20
12.8926307358
 30
0.0
 10
14.0529085249
 20
12.8846943352
 30
0.0
 10
14.0516297883
 20
12.8754387036
 30
0.0
 10
14.0495361561
 20
12.8649155627
 30
0.0
 10
14.0466043309
 20
12.8532189502
 30
0.0
 10
14.0413964755
 20
12.8355974473
 30
0.0
 10
14.0329663025
 20
12.8118998032
 30
0.0
 10
14.0207994384
 20
12.7824628289
 30
0.0
 10
14.0071080627
 20
12.7523965201
 30
0.0
 10
13.9883057181
 20
12.7134668466
 30
0.0
 10
13.9653854644
 20
12.6680276871
 30
0.0
 10
13.9405789751
 20
12.617319028
 30
0.0
 10
13.9203754253
 20
12.5712979058
 30
0.0
 10
13.9096879718
 20
12.5417040271
 30
0.0
 10
13.9053219635
 20
12.5275757153
 30
0.0
  0
SPLINE
  5
4C2
100
AcDbEntity
  8
0
100
AcDbSpline
 62
7
  6
CONTINUOUS
 70
0
 71
3
 72
15
 73
11
 74
0
 42
0.0000001
 43
0.0000001
 44
0.0000000001
 40
0.0
 40
0.0
 40
0.0
 40
0.0
 40
0.1247439893
 40
0.2496858841
 40
0.3748315616
 40
0.5000842366
 40
0.6253059008
 40
0.7503643002
 40
0.8752099318
 40
1.0
 40
1.0
 40
1.0
 40
1.0
 10
14.4942073734
 20
13.2678134126
 30
0.0
 10
14.4922241708
 20
13.2677193824
 30
0.0
 10
14.4882173708
 20
13.2679720329
 30
0.0
 10
14.4824631078
 20
13.2697482412
 30
0.0
 10
14.4773024514
 20
13.2728803855
 30
0.0
 10
14.4730792467
 20
13.2772014506
 30
0.0
 10
14.4700683589
 20
13.2824376034
 30
0.0
 10
14.4684419804
 20
13.2882454899
 30
0.0
 10
14.4682467867
 20
13.2942590115
 30
0.0
 10
14.4690244849
 20
13.2981931933
 30
0.0
 10
14.4696108946
 20
13.3000908156
 30
0.0
  0
SPLINE
  5
4C3
100
AcDbEntity
  8
0
100
AcDbSpline
 62
7
  6
CONTINUOUS
 70
0
 71
3
 72
19
 73
15
 74
0
 42
0.0000001
 43
0.0000001
 44
0.0000000001
 40
0.0
 40
0.0
 40
0.0
 40
0.0
 40
0.124708093
 40
0.2508440163
 40
0.376818434
 40
0.5013284952
 40
0.5634943036
 40
0.6256738788
 40
0.6879366125
 40
0.750302441
 40
0.8127202222
 40
0.875167923
 40
0.9376075312
 40
1.0
 40
1.0
 40
1.0
 40
1.0
 10
14.4696108946
 20
13.3000908156
 30
0.0
 10
14.4704963966
 20
13.3029563013
 30
0.0
 10
14.4732065421
 20
13.3084624122
 30
0.0
 10
14.479338026
 20
13.3152681915
 30
0.0
 10
14.4870012577
 20
13.3202882452
 30
0.0
 10
14.4943049001
 20
13.3225440298
 30
0.0
 10
14.5003039623
 20
13.3228957914
 30
0.0
 10
14.5047873639
 20
13.3223954903
 30
0.0
 10
14.5091163892
 20
13.3211048717
 30
0.0
 10
14.5131426918
 20
13.3190408345
 30
0.0
 10
14.5167166486
 20
13.3162578844
 30
0.0
 10
14.5197036271
 20
13.312849408
 30
0.0
 10
14.5219939773
 20
13.3089414622
 30
0.0
 10
14.5230089758
 20
13.3060943204
 30
0.0
 10
14.5233804307
 20
13.3046405068
 30
0.0
  0
SPLINE
  5
4C4
100
AcDbEntity
  8
0
100
AcDbSpline
 62
7
  6
CONTINUOUS
 70
0
 71
3
 72
9
 73
5
 74
0
 42
0.0000001
 43
0.0000001
 44
0.0000000001
 40
0.0
 40
0.0
 40
0.0
 40
0.0
 40
0.7495642204
 40
1.0
 40
1.0
 40
1.0
 40
1.0
 10
14.524080393
 20
13.3003928242
 30
0.0
 10
14.5242023273
 20
13.2988152545
 30
0.0
 10
14.5241652321
 20
13.2966883077
 30
0.0
 10
14.5238771759
 20
13.2945967775
 30
0.0
 10
14.5237897423
 20
13.2940754065
 30
0.0
  0
SPLINE
  5
4C5
100
AcDbEntity
  8
0
100
AcDbSpline
 62
7
  6
CONTINUOUS
 70
0
 71
3
 72
9
 73
5
 74
0
 42
0.0000001
 43
0.0000001
 44
0.0000000001
 40
0.0
 40
0.0
 40
0.0
 40
0.0
 40
0.261699736
 40
1.0
 40
1.0
 40
1.0
 40
1.0
 10
16.2684220754
 20
11.2283996185
 30
0.0
 10
16.2688039038
 20
11.2283996185
 30
0.0
 10
16.2702623081
 20
11.2284367167
 30
0.0
 10
16.2717198803
 20
11.2286243349
 30
0.0
 10
16.2727684677
 20
11.2288709784
 30
0.0
  0
SPLINE
  5
4C6
100
AcDbEntity
  8
0
100
AcDbSpline
 62
7
  6
CONTINUOUS
 70
0
 71
3
 72
11
 73
7
 74
0
 42
0.0000001
 43
0.0000001
 44
0.0000000001
 40
0.0
 40
0.0
 40
0.0
 40
0.0
 40
0.2677564077
 40
0.5222701518
 40
0.7654625327
 40
1.0
 40
1.0
 40
1.0
 40
1.0
 10
15.4837534577
 20
11.9393660198
 30
0.0
 10
15.4886780331
 20
11.9293307901
 30
0.0
 10
15.4972651958
 20
11.9092296766
 30
0.0
 10
15.5062382235
 20
11.8784717578
 30
0.0
 10
15.5108675669
 20
11.8481605252
 30
0.0
 10
15.5110159394
 20
11.8281291109
 30
0.0
 10
15.5103297136
 20
11.8183615988
 30
0.0
  0
SPLINE
  5
4C7
100
AcDbEntity
  8
0
100
AcDbSpline
 62
7
  6
CONTINUOUS
 70
0
 71
3
 72
15
 73
11
 74
0
 42
0.0000001
 43
0.0000001
 44
0.0000000001
 40
0.0
 40
0.0
 40
0.0
 40
0.0
 40
0.1590230382
 40
0.2487988728
 40
0.2706562377
 40
0.3121693017
 40
0.4116904492
 40
0.5642590364
 40
0.7629225937
 40
1.0
 40
1.0
 40
1.0
 40
1.0
 10
14.5246331798
 20
13.301806942
 30
0.0
 10
14.5247498291
 20
13.3018077048
 30
0.0
 10
14.5249491716
 20
13.3018020298
 30
0.0
 10
14.5251085597
 20
13.3017955551
 30
0.0
 10
14.5252657056
 20
13.3017752251
 30
0.0
 10
14.5250519881
 20
13.3018130308
 30
0.0
 10
14.5249133589
 20
13.301859248
 30
0.0
 10
14.5245647366
 20
13.3019708356
 30
0.0
 10
14.5241791519
 20
13.3021312801
 30
0.0
 10
14.523886342
 20
13.30226937
 30
0.0
 10
14.523731638
 20
13.3023488113
 30
0.0
  0
LINE
  5
4C8
100
AcDbEntity
  8
0
100
AcDbLine
 62
7
  6
CONTINUOUS
 10
14.486019348
 20
13.2687966547
 11
14.486384405
 21
13.2673245869
  0
SPLINE
  5
4C9
100
AcDbEntity
  8
0
100
AcDbSpline
 62
7
  6
CONTINUOUS
 70
0
 71
3
 72
11
 73
7
 74
0
 42
0.0000001
 43
0.0000001
 44
0.0000000001
 40
0.0
 40
0.0
 40
0.0
 40
0.0
 40
0.243379708
 40
0.4895315971
 40
0.7410416029
 40
1.0
 40
1.0
 40
1.0
 40
1.0
 10
16.0974833104
 20
12.7292196119
 30
0.0
 10
16.0954083516
 20
12.7334480297
 30
0.0
 10
16.0905592252
 20
12.7416394574
 30
0.0
 10
16.0814035003
 20
12.7527471695
 30
0.0
 10
16.0704729508
 20
12.7625666038
 30
0.0
 10
16.062233834
 20
12.7680829614
 30
0.0
 10
16.0578964847
 20
12.7705936151
 30
0.0
  0
SPLINE
  5
4CA
100
AcDbEntity
  8
0
100
AcDbSpline
 62
7
  6
CONTINUOUS
 70
0
 71
3
 72
9
 73
5
 74
0
 42
0.0000001
 43
0.0000001
 44
0.0000000001
 40
0.0
 40
0.0
 40
0.0
 40
0.0
 40
0.2353895961
 40
1.0
 40
1.0
 40
1.0
 40
1.0
 10
14.3523331663
 20
11.2518152332
 30
0.0
 10
14.3525734531
 20
11.2513255803
 30
0.0
 10
14.3536827944
 20
11.2492889783
 30
0.0
 10
14.3551094498
 20
11.2474343062
 30
0.0
 10
14.3563046264
 20
11.2461264306
 30
0.0
  0
SPLINE
  5
4CB
100
AcDbEntity
  8
0
100
AcDbSpline
 62
7
  6
CONTINUOUS
 70
0
 71
3
 72
11
 73
7
 74
0
 42
0.0000001
 43
0.0000001
 44
0.0000000001
 40
0.0
 40
0.0
 40
0.0
 40
0.0
 40
0.2295607466
 40
0.483909401
 40
0.7467482721
 40
1.0
 40
1.0
 40
1.0
 40
1.0
 10
14.3656354664
 20
11.2359153819
 30
0.0
 10
14.3666885779
 20
11.2347629866
 30
0.0
 10
14.3692694569
 20
11.2326593005
 30
0.0
 10
14.3738071503
 20
11.2303187756
 30
0.0
 10
14.3788472619
 20
11.2287911929
 30
0.0
 10
14.3823625752
 20
11.2283996185
 30
0.0
 10
14.3840847919
 20
11.2283996185
 30
0.0
  0
SPLINE
  5
4CC
100
AcDbEntity
  8
0
100
AcDbSpline
 62
7
  6
CONTINUOUS
 70
0
 71
3
 72
11
 73
7
 74
0
 42
0.0000001
 43
0.0000001
 44
0.0000000001
 40
0.0
 40
0.0
 40
0.0
 40
0.0
 40
0.289783478
 40
0.5489784296
 40
0.7821512559
 40
1.0
 40
1.0
 40
1.0
 40
1.0
 10
16.2862333308
 20
11.2320376203
 30
0.0
 10
16.2878379955
 20
11.2324150088
 30
0.0
 10
16.2908317144
 20
11.2333729686
 30
0.0
 10
16.2947356731
 20
11.2355875423
 30
0.0
 10
16.2976577959
 20
11.238456004
 30
0.0
 10
16.2988538184
 20
11.2407897014
 30
0.0
 10
16.2992196698
 20
11.2419737081
 30
0.0
  0
SPLINE
  5
4CD
100
AcDbEntity
  8
0
100
AcDbSpline
 62
7
  6
CONTINUOUS
 70
0
 71
3
 72
20
 73
16
 74
0
 42
0.0000001
 43
0.0000001
 44
0.0000000001
 40
0.0
 40
0.0
 40
0.0
 40
0.0
 40
0.043634055
 40
0.0904131893
 40
0.1415820947
 40
0.1977106614
 40
0.2587937856
 40
0.3243824806
 40
0.4655631152
 40
0.6129324386
 40
0.7565920879
 40
0.8241948677
 40
0.8876484715
 40
0.9463429501
 40
1.0
 40
1.0
 40
1.0
 40
1.0
 10
14.8043728561
 20
11.2994953263
 30
0.0
 10
14.8049455869
 20
11.3006393575
 30
0.0
 10
14.8064747667
 20
11.3028495497
 30
0.0
 10
14.809631815
 20
11.3055971656
 30
0.0
 10
14.8136029645
 20
11.3078079825
 30
0.0
 10
14.8182832709
 20
11.3094408565
 30
0.0
 10
14.8235602098
 20
11.3104670958
 30
0.0
 10
14.8314108512
 20
11.3110090322
 30
0.0
 10
14.8418239826
 20
11.3100127758
 30
0.0
 10
14.8540702757
 20
11.306528182
 30
0.0
 10
14.863575714
 20
11.301864341
 30
0.0
 10
14.8701811242
 20
11.29723045
 30
0.0
 10
14.8743503018
 20
11.2935242075
 30
0.0
 10
14.8777281192
 20
11.2896093501
 30
0.0
 10
14.879474857
 20
11.2867929049
 30
0.0
 10
14.8801679488
 20
11.2853805323
 30
0.0
  0
SPLINE
  5
4CE
100
AcDbEntity
  8
0
100
AcDbSpline
 62
7
  6
CONTINUOUS
 70
0
 71
3
 72
11
 73
7
 74
0
 42
0.0000001
 43
0.0000001
 44
0.0000000001
 40
0.0
 40
0.0
 40
0.0
 40
0.0
 40
0.2342067062
 40
0.477979562
 40
0.7330973885
 40
1.0
 40
1.0
 40
1.0
 40
1.0
 10
13.9951287918
 20
13.2605693256
 30
0.0
 10
13.9894579592
 20
13.2580356014
 30
0.0
 10
13.9780592954
 20
13.2524594541
 30
0.0
 10
13.9613323965
 20
13.2425009434
 30
0.0
 10
13.9449372273
 20
13.2304563251
 30
0.0
 10
13.9347034736
 20
13.2210870032
 30
0.0
 10
13.9297289994
 20
13.2160515516
 30
0.0
  0
SPLINE
  5
4CF
100
AcDbEntity
  8
0
100
AcDbSpline
 62
7
  6
CONTINUOUS
 70
0
 71
3
 72
11
 73
7
 74
0
 42
0.0000001
 43
0.0000001
 44
0.0000000001
 40
0.0
 40
0.0
 40
0.0
 40
0.0
 40
0.2719998313
 40
0.5282766792
 40
0.7700709333
 40
1.0
 40
1.0
 40
1.0
 40
1.0
 10
14.0681326045
 20
13.275056566
 30
0.0
 10
14.0613436232
 20
13.275056566
 30
0.0
 10
14.0481443803
 20
13.2744115977
 30
0.0
 10
14.0291289506
 20
13.2713779038
 30
0.0
 10
14.011537509
 20
13.2667234558
 30
0.0
 10
14.0004491131
 20
13.2627209147
 30
0.0
 10
13.9951287918
 20
13.2605693256
 30
0.0
  0
SPLINE
  5
4D0
100
AcDbEntity
  8
0
100
AcDbSpline
 62
7
  6
CONTINUOUS
 70
0
 71
3
 72
11
 73
7
 74
0
 42
0.0000001
 43
0.0000001
 44
0.0000000001
 40
0.0
 40
0.0
 40
0.0
 40
0.0
 40
0.2560963762
 40
0.5094817677
 40
0.7582052178
 40
1.0
 40
1.0
 40
1.0
 40
1.0
 10
14.1335823666
 20
13.2663540496
 30
0.0
 10
14.1280897226
 20
13.2676724269
 30
0.0
 10
14.1171090154
 20
13.270080139
 30
0.0
 10
14.1006115711
 20
13.2728686232
 30
0.0
 10
14.0842886828
 20
13.2746426697
 30
0.0
 10
14.0734658088
 20
13.275056566
 30
0.0
 10
14.0681326045
 20
13.275056566
 30
0.0
  0
SPLINE
  5
4D1
100
AcDbEntity
  8
0
100
AcDbSpline
 62
7
  6
CONTINUOUS
 70
0
 71
3
 72
9
 73
5
 74
0
 42
0.0000001
 43
0.0000001
 44
0.0000000001
 40
0.0
 40
0.0
 40
0.0
 40
0.0
 40
0.4674390614
 40
1.0
 40
1.0
 40
1.0
 40
1.0
 10
13.8932611423
 20
13.098041523
 30
0.0
 10
13.8975301276
 20
13.0864988475
 30
0.0
 10
13.9070439585
 20
13.0619469647
 30
0.0
 10
13.9168982043
 20
13.0375324333
 30
0.0
 10
13.9221930776
 20
13.0245492683
 30
0.0
  0
SPLINE
  5
4D2
100
AcDbEntity
  8
0
100
AcDbSpline
 62
7
  6
CONTINUOUS
 70
0
 71
3
 72
9
 73
5
 74
0
 42
0.0000001
 43
0.0000001
 44
0.0000000001
 40
0.0
 40
0.0
 40
0.0
 40
0.0
 40
0.404538779
 40
1.0
 40
1.0
 40
1.0
 40
1.0
 10
13.878547817
 20
13.1425592969
 30
0.0
 10
13.8801827709
 20
13.1364502641
 30
0.0
 10
13.8847750155
 20
13.1214976764
 30
0.0
 10
13.8900321547
 20
13.1067722058
 30
0.0
 10
13.8932611423
 20
13.098041523
 30
0.0
  0
SPLINE
  5
4D3
100
AcDbEntity
  8
0
100
AcDbSpline
 62
7
  6
CONTINUOUS
 70
0
 71
3
 72
11
 73
7
 74
0
 42
0.0000001
 43
0.0000001
 44
0.0000000001
 40
0.0
 40
0.0
 40
0.0
 40
0.0
 40
0.1215571626
 40
0.2449007509
 40
0.6210439403
 40
1.0
 40
1.0
 40
1.0
 40
1.0
 10
13.9297289994
 20
13.2160515516
 30
0.0
 10
13.927170139
 20
13.2134613246
 30
0.0
 10
13.9221470996
 20
13.2081102095
 30
0.0
 10
13.9100999799
 20
13.1939276609
 30
0.0
 10
13.8949600806
 20
13.1723205041
 30
0.0
 10
13.8838107416
 20
13.1526164013
 30
0.0
 10
13.878547817
 20
13.1425592969
 30
0.0
  0
SPLINE
  5
4D4
100
AcDbEntity
  8
0
100
AcDbSpline
 62
7
  6
CONTINUOUS
 70
0
 71
3
 72
11
 73
7
 74
0
 42
0.0000001
 43
0.0000001
 44
0.0000000001
 40
0.0
 40
0.0
 40
0.0
 40
0.0
 40
0.2599564182
 40
0.5116386589
 40
0.7573795061
 40
1.0
 40
1.0
 40
1.0
 40
1.0
 10
13.9104526584
 20
13.0533578041
 30
0.0
 10
13.9095670074
 20
13.0480741799
 30
0.0
 10
13.9085304543
 20
13.03753846
 30
0.0
 10
13.9093284975
 20
13.0218903359
 30
0.0
 10
13.9125025716
 20
13.0069078915
 30
0.0
 10
13.9161907564
 20
12.9974853493
 30
0.0
 10
13.9183934595
 20
12.99299661
 30
0.0
  0
SPLINE
  5
4D5
100
AcDbEntity
  8
0
100
AcDbSpline
 62
7
  6
CONTINUOUS
 70
0
 71
3
 72
11
 73
7
 74
0
 42
0.0000001
 43
0.0000001
 44
0.0000000001
 40
0.0
 40
0.0
 40
0.0
 40
0.0
 40
0.2586201073
 40
0.5106305752
 40
0.7572764457
 40
1.0
 40
1.0
 40
1.0
 40
1.0
 10
15.7772069019
 20
12.636308716
 30
0.0
 10
15.776530104
 20
12.6322710612
 30
0.0
 10
15.7756077604
 20
12.6242218616
 30
0.0
 10
15.7755760375
 20
12.612208758
 30
0.0
 10
15.7769161614
 20
12.6005224943
 30
0.0
 10
15.7787317812
 20
12.5929676393
 30
0.0
 10
15.7798614954
 20
12.5892951296
 30
0.0
  0
SPLINE
  5
4D6
100
AcDbEntity
  8
0
100
AcDbSpline
 62
7
  6
CONTINUOUS
 70
0
 71
3
 72
13
 73
9
 74
0
 42
0.0000001
 43
0.0000001
 44
0.0000000001
 40
0.0
 40
0.0
 40
0.0
 40
0.0
 40
0.1150375535
 40
0.2316686404
 40
0.3506289737
 40
0.4725839087
 40
0.7274627805
 40
1.0
 40
1.0
 40
1.0
 40
1.0
 10
13.9647788071
 20
11.8850914514
 30
0.0
 10
13.9666015845
 20
11.8937673642
 30
0.0
 10
13.9694318651
 20
11.9114274561
 30
0.0
 10
13.9711782782
 20
11.9384288922
 30
0.0
 10
13.9704360531
 20
11.9660114152
 30
0.0
 10
13.9660544148
 20
12.0040104067
 30
0.0
 10
13.9539943469
 20
12.0528130476
 30
0.0
 10
13.9384206871
 20
12.0905163024
 30
0.0
 10
13.9291935239
 20
12.1093838524
 30
0.0
  0
SPLINE
  5
4D7
100
AcDbEntity
  8
0
100
AcDbSpline
 62
7
  6
CONTINUOUS
 70
0
 71
3
 72
9
 73
5
 74
0
 42
0.0000001
 43
0.0000001
 44
0.0000000001
 40
0.0
 40
0.0
 40
0.0
 40
0.0
 40
0.2591216735
 40
1.0
 40
1.0
 40
1.0
 40
1.0
 10
17.1949024449
 20
12.4673073728
 30
0.0
 10
17.1963607461
 20
12.4670124304
 30
0.0
 10
17.2020136154
 20
12.4660055678
 30
0.0
 10
17.2077652058
 20
12.4655197482
 30
0.0
 10
17.2120191913
 20
12.4655197482
 30
0.0
  0
SPLINE
  5
4D8
100
AcDbEntity
  8
0
100
AcDbSpline
 62
7
  6
CONTINUOUS
 70
0
 71
3
 72
11
 73
7
 74
0
 42
0.0000001
 43
0.0000001
 44
0.0000000001
 40
0.0
 40
0.0
 40
0.0
 40
0.0
 40
0.2390900548
 40
0.4828942019
 40
0.7356200819
 40
1.0
 40
1.0
 40
1.0
 40
1.0
 10
17.5500183267
 20
12.2406890036
 30
0.0
 10
17.5505465616
 20
12.2396126172
 30
0.0
 10
17.5513881553
 20
12.2373201582
 30
0.0
 10
17.5519336627
 20
12.2336479701
 30
0.0
 10
17.5517606553
 20
12.2298146783
 30
0.0
 10
17.551187468
 20
12.2272710065
 30
0.0
 10
17.5507960164
 20
12.2260042688
 30
0.0
  0
SPLINE
  5
4D9
100
AcDbEntity
  8
0
100
AcDbSpline
 62
7
  6
CONTINUOUS
 70
0
 71
3
 72
13
 73
9
 74
0
 42
0.0000001
 43
0.0000001
 44
0.0000000001
 40
0.0
 40
0.0
 40
0.0
 40
0.0
 40
0.2529657414
 40
0.502666936
 40
0.6271781372
 40
0.7515241221
 40
0.8757357928
 40
1.0
 40
1.0
 40
1.0
 40
1.0
 10
17.421176792
 20
12.4655197482
 30
0.0
 10
17.4238342665
 20
12.4655197482
 30
0.0
 10
17.4291393809
 20
12.4649110002
 30
0.0
 10
17.4353564183
 20
12.462481222
 30
0.0
 10
17.4397364006
 20
12.4595799832
 30
0.0
 10
17.4426625735
 20
12.4569500238
 30
0.0
 10
17.445157656
 20
12.453912373
 30
0.0
 10
17.4464916443
 20
12.4516543155
 30
0.0
 10
17.4470667417
 20
12.45048239
 30
0.0
  0
SPLINE
  5
4DA
100
AcDbEntity
  8
0
100
AcDbSpline
 62
7
  6
CONTINUOUS
 70
0
 71
3
 72
14
 73
10
 74
0
 42
0.0000001
 43
0.0000001
 44
0.0000000001
 40
0.0
 40
0.0
 40
0.0
 40
0.0
 40
0.2334776255
 40
0.3553307971
 40
0.4804194845
 40
0.6083743844
 40
0.7385158562
 40
0.8696814264
 40
1.0
 40
1.0
 40
1.0
 40
1.0
 10
15.9032763238
 20
12.4799561096
 30
0.0
 10
15.8830779117
 20
12.4968674241
 30
0.0
 10
15.852408828
 20
12.522696985
 30
0.0
 10
15.8119449515
 20
12.558772976
 30
0.0
 10
15.7811922551
 20
12.5878287142
 30
0.0
 10
15.7510000517
 20
12.6187971438
 30
0.0
 10
15.7221470955
 20
12.6519555755
 30
0.0
 10
15.6957781255
 20
12.687474736
 30
0.0
 10
15.6807669526
 20
12.7129888896
 30
0.0
 10
15.6742891839
 20
12.7261889485
 30
0.0
  0
SPLINE
  5
4DB
100
AcDbEntity
  8
0
100
AcDbSpline
 62
7
  6
CONTINUOUS
 70
0
 71
3
 72
11
 73
7
 74
0
 42
0.0000001
 43
0.0000001
 44
0.0000000001
 40
0.0
 40
0.0
 40
0.0
 40
0.0
 40
0.2495292582
 40
0.499170803
 40
0.7491613443
 40
1.0
 40
1.0
 40
1.0
 40
1.0
 10
13.3930585719
 20
11.5920918968
 30
0.0
 10
13.39232197
 20
11.5935929336
 30
0.0
 10
13.3911439306
 20
11.596751044
 30
0.0
 10
13.3903388492
 20
11.6017369274
 30
0.0
 10
13.390495266
 20
11.6067919397
 30
0.0
 10
13.3912120093
 20
11.6100915654
 30
0.0
 10
13.3917082631
 20
11.6116974432
 30
0.0
  0
LINE
  5
4DC
100
AcDbEntity
  8
0
100
AcDbLine
 62
7
  6
CONTINUOUS
 10
15.9970698986
 20
12.0909319825
 11
15.9983370962
 21
12.0936870612
  0
SPLINE
  5
4DD
100
AcDbEntity
  8
0
100
AcDbSpline
 62
7
  6
CONTINUOUS
 70
0
 71
3
 72
11
 73
7
 74
0
 42
0.0000001
 43
0.0000001
 44
0.0000000001
 40
0.0
 40
0.0
 40
0.0
 40
0.0
 40
0.2386690941
 40
0.492450894
 40
0.7502625363
 40
1.0
 40
1.0
 40
1.0
 40
1.0
 10
15.9983370962
 20
12.0936870612
 30
0.0
 10
15.9991618322
 20
12.095086224
 30
0.0
 10
16.0013070196
 20
12.0977225688
 30
0.0
 10
16.0054264366
 20
12.1008108737
 30
0.0
 10
16.0101985164
 20
12.1029332411
 30
0.0
 10
16.0136310489
 20
12.1035886286
 30
0.0
 10
16.0153278252
 20
12.1036841886
 30
0.0
  0
SPLINE
  5
4DE
100
AcDbEntity
  8
0
100
AcDbSpline
 62
7
  6
CONTINUOUS
 70
0
 71
3
 72
15
 73
11
 74
0
 42
0.0000001
 43
0.0000001
 44
0.0000000001
 40
0.0
 40
0.0
 40
0.0
 40
0.0
 40
0.1237874977
 40
0.2483192453
 40
0.3732735434
 40
0.4984712469
 40
0.6238091163
 40
0.7492149208
 40
0.8746367534
 40
1.0
 40
1.0
 40
1.0
 40
1.0
 10
16.6848311502
 20
12.3590611774
 30
0.0
 10
16.6902623849
 20
12.347993893
 30
0.0
 10
16.7023503988
 20
12.3263614487
 30
0.0
 10
16.7235467125
 20
12.2957605183
 30
0.0
 10
16.7475444095
 20
12.2671175143
 30
0.0
 10
16.7740924633
 20
12.2407076614
 30
0.0
 10
16.8029974487
 20
12.2168249091
 30
0.0
 10
16.8340797501
 20
12.1958023553
 30
0.0
 10
16.8671291079
 20
12.1780211904
 30
0.0
 10
16.8903234942
 20
12.1685932164
 30
0.0
 10
16.902140042
 20
12.1645625533
 30
0.0
  0
SPLINE
  5
4DF
100
AcDbEntity
  8
0
100
AcDbSpline
 62
7
  6
CONTINUOUS
 70
0
 71
3
 72
12
 73
8
 74
0
 42
0.0000001
 43
0.0000001
 44
0.0000000001
 40
0.0
 40
0.0
 40
0.0
 40
0.0
 40
0.260468209
 40
0.5142416363
 40
0.6385007602
 40
0.7612230178
 40
1.0
 40
1.0
 40
1.0
 40
1.0
 10
16.8499344131
 20
12.5826489546
 30
0.0
 10
16.8509916758
 20
12.5821455059
 30
0.0
 10
16.8530456143
 20
12.5810779416
 30
0.0
 10
16.8554551946
 20
12.5795054923
 30
0.0
 10
16.857207944
 20
12.5780876285
 30
0.0
 10
16.8587977239
 20
12.5765949051
 30
0.0
 10
16.8598366114
 20
12.5753009092
 30
0.0
 10
16.8603136338
 20
12.574339227
 30
0.0
  0
SPLINE
  5
4E0
100
AcDbEntity
  8
0
100
AcDbSpline
 62
7
  6
CONTINUOUS
 70
0
 71
3
 72
9
 73
5
 74
0
 42
0.0000001
 43
0.0000001
 44
0.0000000001
 40
0.0
 40
0.0
 40
0.0
 40
0.0
 40
0.5096342457
 40
1.0
 40
1.0
 40
1.0
 40
1.0
 10
16.8499345885
 20
12.5826491341
 30
0.0
 10
16.8140943153
 20
12.5997317263
 30
0.0
 10
16.7451216937
 20
12.6361809406
 30
0.0
 10
16.6796506068
 20
12.6786436397
 30
0.0
 10
16.6486774134
 20
12.7010055887
 30
0.0
  0
SPLINE
  5
4E1
100
AcDbEntity
  8
0
100
AcDbSpline
 62
7
  6
CONTINUOUS
 70
0
 71
3
 72
18
 73
14
 74
0
 42
0.0000001
 43
0.0000001
 44
0.0000000001
 40
0.0
 40
0.0
 40
0.0
 40
0.0
 40
0.0504923119
 40
0.1018151204
 40
0.1547015521
 40
0.2097144626
 40
0.2672090724
 40
0.3273273927
 40
0.454825236
 40
0.5901638637
 40
0.7293003001
 40
0.8674426475
 40
1.0
 40
1.0
 40
1.0
 40
1.0
 10
17.0638864176
 20
11.7909309103
 30
0.0
 10
17.0650845099
 20
11.7884897016
 30
0.0
 10
17.06703826
 20
11.7833253208
 30
0.0
 10
17.0685020613
 20
11.7750787226
 30
0.0
 10
17.0684922743
 20
11.7664610994
 30
0.0
 10
17.0670179162
 20
11.7576392804
 30
0.0
 10
17.0641155771
 20
11.7487723052
 30
0.0
 10
17.0583115075
 20
11.7368771825
 30
0.0
 10
17.0477419757
 20
11.722841876
 30
0.0
 10
17.031215618
 20
11.708637329
 30
0.0
 10
17.0117301338
 20
11.6976578999
 30
0.0
 10
16.9906553779
 20
11.6906661234
 30
0.0
 10
16.9760424081
 20
11.6889417866
 30
0.0
 10
16.9689032755
 20
11.6889417866
 30
0.0
  0
SPLINE
  5
4E2
100
AcDbEntity
  8
0
100
AcDbSpline
 62
7
  6
CONTINUOUS
 70
0
 71
3
 72
18
 73
14
 74
0
 42
0.0000001
 43
0.0000001
 44
0.0000000001
 40
0.0
 40
0.0
 40
0.0
 40
0.0
 40
0.0504923119
 40
0.1018151204
 40
0.1547015521
 40
0.2097144626
 40
0.2672090724
 40
0.3273273927
 40
0.454825236
 40
0.5901638637
 40
0.7293003001
 40
0.8674426475
 40
1.0
 40
1.0
 40
1.0
 40
1.0
 10
17.2353500633
 20
12.3457874713
 30
0.0
 10
17.2365481556
 20
12.3433462626
 30
0.0
 10
17.2385019057
 20
12.3381818818
 30
0.0
 10
17.2399657071
 20
12.3299352836
 30
0.0
 10
17.23995592
 20
12.3213176604
 30
0.0
 10
17.2384815619
 20
12.3124958414
 30
0.0
 10
17.2355792228
 20
12.3036288662
 30
0.0
 10
17.2297751533
 20
12.2917337435
 30
0.0
 10
17.2192056215
 20
12.277698437
 30
0.0
 10
17.2026792637
 20
12.26349389
 30
0.0
 10
17.1831937796
 20
12.2525144609
 30
0.0
 10
17.1621190236
 20
12.2455226844
 30
0.0
 10
17.1475060539
 20
12.2437983476
 30
0.0
 10
17.1403669213
 20
12.2437983476
 30
0.0
  0
SPLINE
  5
4E3
100
AcDbEntity
  8
0
100
AcDbSpline
 62
7
  6
CONTINUOUS
 70
0
 71
3
 72
9
 73
5
 74
0
 42
0.0000001
 43
0.0000001
 44
0.0000000001
 40
0.0
 40
0.0
 40
0.0
 40
0.0
 40
0.510438873
 40
1.0
 40
1.0
 40
1.0
 40
1.0
 10
13.8683369212
 20
11.700112792
 30
0.0
 10
13.8609928119
 20
11.6965323759
 30
0.0
 10
13.8458238285
 20
11.6910146573
 30
0.0
 10
13.8297810905
 20
11.6889417866
 30
0.0
 10
13.8219448793
 20
11.6889417866
 30
0.0
  0
SPLINE
  5
4E4
100
AcDbEntity
  8
0
100
AcDbSpline
 62
7
  6
CONTINUOUS
 70
0
 71
3
 72
14
 73
10
 74
0
 42
0.0000001
 43
0.0000001
 44
0.0000000001
 40
0.0
 40
0.0
 40
0.0
 40
0.0
 40
0.2334776252
 40
0.3553307966
 40
0.4804194841
 40
0.608374384
 40
0.7385158559
 40
0.869681426
 40
1.0
 40
1.0
 40
1.0
 40
1.0
 10
16.0321542275
 20
12.8970051587
 30
0.0
 10
16.0119558154
 20
12.9139164732
 30
0.0
 10
15.9812867317
 20
12.9397460341
 30
0.0
 10
15.9408228553
 20
12.975822025
 30
0.0
 10
15.9100701588
 20
13.0048777632
 30
0.0
 10
15.8798779555
 20
13.0358461928
 30
0.0
 10
15.8510249993
 20
13.0690046244
 30
0.0
 10
15.8246560293
 20
13.104523785
 30
0.0
 10
15.8096448563
 20
13.1300379387
 30
0.0
 10
15.8031670875
 20
13.1432379977
 30
0.0
  0
SPLINE
  5
4E5
100
AcDbEntity
  8
0
100
AcDbSpline
 62
7
  6
CONTINUOUS
 70
0
 71
3
 72
33
 73
29
 74
0
 42
0.0000001
 43
0.0000001
 44
0.0000000001
 40
0.0
 40
0.0
 40
0.0
 40
0.0
 40
0.0543258104
 40
0.0834889497
 40
0.1139515083
 40
0.1456595649
 40
0.1785344758
 40
0.2124751753
 40
0.2473619639
 40
0.3193979563
 40
0.3934542852
 40
0.4682005813
 40
0.5422678886
 40
0.6143250078
 40
0.649225763
 40
0.6831824512
 40
0.7160751588
 40
0.7478024399
 40
0.7782850789
 40
0.8074699766
 40
0.8353344867
 40
0.86189123
 40
0.8871932754
 40
0.9113388831
 40
0.9344748444
 40
0.9567970645
 40
0.9785465868
 40
1.0
 40
1.0
 40
1.0
 40
1.0
 10
14.4755754447
 20
11.9393660198
 30
0.0
 10
14.4851826716
 20
11.9197885496
 30
0.0
 10
14.503074481
 20
11.8911717871
 30
0.0
 10
14.5317589561
 20
11.8555162929
 30
0.0
 10
14.556821391
 20
11.8287058417
 30
0.0
 10
14.5847382114
 20
11.8026613011
 30
0.0
 10
14.6153252137
 20
11.7775496886
 30
0.0
 10
14.6483740145
 20
11.7535413418
 30
0.0
 10
14.6959246306
 20
11.7228961307
 30
0.0
 10
14.7600658997
 20
11.6884861233
 30
0.0
 10
14.8420265155
 20
11.6543629576
 30
0.0
 10
14.9276225634
 20
11.6278769266
 30
0.0
 10
15.0145440443
 20
11.609742223
 30
0.0
 10
15.0869279667
 20
11.6019066644
 30
0.0
 10
15.1434967281
 20
11.6003330208
 30
0.0
 10
15.1843488638
 20
11.6014737698
 30
0.0
 10
15.2237945776
 20
11.6049144629
 30
0.0
 10
15.2615680804
 20
11.6106332471
 30
0.0
 10
15.297414022
 20
11.6185925948
 30
0.0
 10
15.3310908353
 20
11.6287409806
 30
0.0
 10
15.3623714657
 20
11.6410135733
 30
0.0
 10
15.3910442595
 20
11.6553332466
 30
0.0
 10
15.4169135542
 20
11.6716105814
 30
0.0
 10
15.439799626
 20
11.6897445285
 30
0.0
 10
15.459537609
 20
11.7096210367
 30
0.0
 10
15.4759786865
 20
11.731113651
 30
0.0
 10
15.488989304
 20
11.7540688803
 30
0.0
 10
15.4953242951
 20
11.7702897521
 30
0.0
 10
15.4978668902
 20
11.7785177807
 30
0.0
  0
SPLINE
  5
4E6
100
AcDbEntity
  8
0
100
AcDbSpline
 62
7
  6
CONTINUOUS
 70
0
 71
3
 72
31
 73
27
 74
0
 42
0.0000001
 43
0.0000001
 44
0.0000000001
 40
0.0
 40
0.0
 40
0.0
 40
0.0
 40
0.0543287389
 40
0.0834934299
 40
0.1139576416
 40
0.1456674758
 40
0.1785441493
 40
0.247348381
 40
0.3193882871
 40
0.3934485752
 40
0.4681986403
 40
0.542269785
 40
0.6143307487
 40
0.6831650876
 40
0.7160596109
 40
0.7477886513
 40
0.778272978
 40
0.8074594859
 40
0.8353255162
 40
0.8618836869
 40
0.8871871193
 40
0.9113341056
 40
0.9344713822
 40
0.9567947866
 40
0.9785454599
 40
1.0
 40
1.0
 40
1.0
 40
1.0
 10
15.4378922957
 20
11.9393660198
 30
0.0
 10
15.4290749534
 20
11.9573338742
 30
0.0
 10
15.4126541809
 20
11.9835978079
 30
0.0
 10
15.3863280632
 20
12.0163218345
 30
0.0
 10
15.3633262629
 20
12.0409278545
 30
0.0
 10
15.3377043959
 20
12.0648316957
 30
0.0
 10
15.2997011226
 20
12.0960299777
 30
0.0
 10
15.2466749734
 20
12.1321273305
 30
0.0
 10
15.1767966186
 20
12.1696171328
 30
0.0
 10
15.101568532
 20
12.2009373453
 30
0.0
 10
15.0230134076
 20
12.2252447205
 30
0.0
 10
14.9432319926
 20
12.2418897479
 30
0.0
 10
14.8643699832
 20
12.2504248653
 30
0.0
 10
14.8001980906
 20
12.2505931194
 30
0.0
 10
14.7511909506
 20
12.2463200143
 30
0.0
 10
14.7165224793
 20
12.2410710863
 30
0.0
 10
14.6836238045
 20
12.2337662255
 30
0.0
 10
14.6527157496
 20
12.2244521936
 30
0.0
 10
14.6240069301
 20
12.2131886345
 30
0.0
 10
14.5976915302
 20
12.2000462946
 30
0.0
 10
14.5739491162
 20
12.1851072345
 30
0.0
 10
14.5529446442
 20
12.1684641726
 30
0.0
 10
14.5348294338
 20
12.15022184
 30
0.0
 10
14.5197401163
 20
12.1304962774
 30
0.0
 10
14.5077992323
 20
12.1094283898
 30
0.0
 10
14.501985094
 20
12.0945411805
 30
0.0
 10
14.4996515508
 20
12.0869896517
 30
0.0
  0
SPLINE
  5
4E7
100
AcDbEntity
  8
0
100
AcDbSpline
 62
7
  6
CONTINUOUS
 70
0
 71
3
 72
9
 73
5
 74
0
 42
0.0000001
 43
0.0000001
 44
0.0000000001
 40
0.0
 40
0.0
 40
0.0
 40
0.0
 40
0.5236230451
 40
1.0
 40
1.0
 40
1.0
 40
1.0
 10
14.8801679488
 20
11.2853805323
 30
0.0
 10
14.880937967
 20
11.2838114002
 30
0.0
 10
14.8820892303
 20
11.2806340202
 30
0.0
 10
14.8822659075
 20
11.2772345318
 30
0.0
 10
14.8820703818
 20
11.2756564233
 30
0.0
  0
SPLINE
  5
4E8
100
AcDbEntity
  8
0
100
AcDbSpline
 62
7
  6
CONTINUOUS
 70
0
 71
3
 72
9
 73
5
 74
0
 42
0.0000001
 43
0.0000001
 44
0.0000000001
 40
0.0
 40
0.0
 40
0.0
 40
0.0
 40
0.5148588096
 40
1.0
 40
1.0
 40
1.0
 40
1.0
 10
14.4137408978
 20
12.6795212525
 30
0.0
 10
14.4140416964
 20
12.6827451459
 30
0.0
 10
14.4148177313
 20
12.6889923946
 30
0.0
 10
14.416235126
 20
12.695139764
 30
0.0
 10
14.4171400448
 20
12.6980534817
 30
0.0
  0
SPLINE
  5
4E9
100
AcDbEntity
  8
0
100
AcDbSpline
 62
7
  6
CONTINUOUS
 70
0
 71
3
 72
9
 73
5
 74
0
 42
0.0000001
 43
0.0000001
 44
0.0000000001
 40
0.0
 40
0.0
 40
0.0
 40
0.0
 40
0.4938483355
 40
1.0
 40
1.0
 40
1.0
 40
1.0
 10
14.4240270195
 20
12.7126438385
 30
0.0
 10
14.426357724
 20
12.7150941644
 30
0.0
 10
14.4313008022
 20
12.7198526871
 30
0.0
 10
14.4368046494
 20
12.7239679658
 30
0.0
 10
14.4397185126
 20
12.7258448269
 30
0.0
  0
SPLINE
  5
4EA
100
AcDbEntity
  8
0
100
AcDbSpline
 62
7
  6
CONTINUOUS
 70
0
 71
3
 72
9
 73
5
 74
0
 42
0.0000001
 43
0.0000001
 44
0.0000000001
 40
0.0
 40
0.0
 40
0.0
 40
0.0
 40
0.5024658211
 40
1.0
 40
1.0
 40
1.0
 40
1.0
 10
14.4588978588
 20
12.7351042896
 30
0.0
 10
14.4555417883
 20
12.7338791687
 30
0.0
 10
14.4489487189
 20
12.7311885787
 30
0.0
 10
14.4426925861
 20
12.7277604703
 30
0.0
 10
14.4397185126
 20
12.7258448269
 30
0.0
  0
SPLINE
  5
4EB
100
AcDbEntity
  8
0
100
AcDbSpline
 62
7
  6
CONTINUOUS
 70
0
 71
3
 72
9
 73
5
 74
0
 42
0.0000001
 43
0.0000001
 44
0.0000000001
 40
0.0
 40
0.0
 40
0.0
 40
0.0
 40
0.5533761065
 40
1.0
 40
1.0
 40
1.0
 40
1.0
 10
14.4694451236
 20
12.7317439336
 30
0.0
 10
14.4675687161
 20
12.7325577595
 30
0.0
 10
14.4641141175
 20
12.7338935176
 30
0.0
 10
14.4605216268
 20
12.7348071428
 30
0.0
 10
14.4588978588
 20
12.7351042896
 30
0.0
  0
SPLINE
  5
4EC
100
AcDbEntity
  8
0
100
AcDbSpline
 62
7
  6
CONTINUOUS
 70
0
 71
3
 72
9
 73
5
 74
0
 42
0.0000001
 43
0.0000001
 44
0.0000000001
 40
0.0
 40
0.0
 40
0.0
 40
0.0
 40
0.4795273841
 40
1.0
 40
1.0
 40
1.0
 40
1.0
 10
14.4240276596
 20
12.7126437784
 30
0.0
 10
14.4226158666
 20
12.7104778942
 30
0.0
 10
14.4199356849
 20
12.7057798424
 30
0.0
 10
14.4179723381
 20
12.700733355
 30
0.0
 10
14.4171400448
 20
12.6980534817
 30
0.0
  0
SPLINE
  5
4ED
100
AcDbEntity
  8
0
100
AcDbSpline
 62
7
  6
CONTINUOUS
 70
0
 71
3
 72
9
 73
5
 74
0
 42
0.0000001
 43
0.0000001
 44
0.0000000001
 40
0.0
 40
0.0
 40
0.0
 40
0.0
 40
0.5311256454
 40
1.0
 40
1.0
 40
1.0
 40
1.0
 10
14.4834812398
 20
12.72444225
 30
0.0
 10
14.4810566593
 20
12.7258471812
 30
0.0
 10
14.4764531157
 20
12.7284265184
 30
0.0
 10
14.4717146381
 20
12.7307596113
 30
0.0
 10
14.4694451236
 20
12.7317439336
 30
0.0
  0
SPLINE
  5
4EE
100
AcDbEntity
  8
0
100
AcDbSpline
 62
7
  6
CONTINUOUS
 70
0
 71
3
 72
9
 73
5
 74
0
 42
0.0000001
 43
0.0000001
 44
0.0000000001
 40
0.0
 40
0.0
 40
0.0
 40
0.0
 40
0.271090394
 40
1.0
 40
1.0
 40
1.0
 40
1.0
 10
14.8644961867
 20
11.2548359372
 30
0.0
 10
14.8654514219
 20
11.2550845492
 30
0.0
 10
14.8689317667
 20
11.2561423585
 30
0.0
 10
14.8722606897
 20
11.2578249023
 30
0.0
 10
14.8743401662
 20
11.2594740008
 30
0.0
  0
SPLINE
  5
4EF
100
AcDbEntity
  8
0
100
AcDbSpline
 62
7
  6
CONTINUOUS
 70
0
 71
3
 72
9
 73
5
 74
0
 42
0.0000001
 43
0.0000001
 44
0.0000000001
 40
0.0
 40
0.0
 40
0.0
 40
0.0
 40
0.5159991142
 40
1.0
 40
1.0
 40
1.0
 40
1.0
 10
14.8743401662
 20
11.2594740008
 30
0.0
 10
14.8755656803
 20
11.2604458768
 30
0.0
 10
14.8777274127
 20
11.2626346167
 30
0.0
 10
14.8791203603
 20
11.2653952367
 30
0.0
 10
14.8795534926
 20
11.2667969553
 30
0.0
  0
SPLINE
  5
4F0
100
AcDbEntity
  8
0
100
AcDbSpline
 62
7
  6
CONTINUOUS
 70
0
 71
3
 72
11
 73
7
 74
0
 42
0.0000001
 43
0.0000001
 44
0.0000000001
 40
0.0
 40
0.0
 40
0.0
 40
0.0
 40
0.2556535721
 40
0.5094478831
 40
0.7588062025
 40
1.0
 40
1.0
 40
1.0
 40
1.0
 10
16.0221092772
 20
12.8435202765
 30
0.0
 10
16.0148493648
 20
12.8456220416
 30
0.0
 10
16.0002948157
 20
12.849518327
 30
0.0
 10
15.978337419
 20
12.8541774045
 30
0.0
 10
15.9565273666
 20
12.8572597284
 30
0.0
 10
15.9420173975
 20
12.8580075169
 30
0.0
 10
15.9348868545
 20
12.8580075169
 30
0.0
  0
SPLINE
  5
4F1
100
AcDbEntity
  8
0
100
AcDbSpline
 62
7
  6
CONTINUOUS
 70
0
 71
3
 72
11
 73
7
 74
0
 42
0.0000001
 43
0.0000001
 44
0.0000000001
 40
0.0
 40
0.0
 40
0.0
 40
0.0
 40
0.2342040706
 40
0.477984658
 40
0.7331005035
 40
1.0
 40
1.0
 40
1.0
 40
1.0
 10
15.8618830418
 20
12.8435202765
 30
0.0
 10
15.8562122822
 20
12.8409865849
 30
0.0
 10
15.8448130284
 20
12.8354112999
 30
0.0
 10
15.8280873053
 20
12.8254506544
 30
0.0
 10
15.8116918693
 20
12.8134065333
 30
0.0
 10
15.8014576575
 20
12.8040378871
 30
0.0
 10
15.7964832494
 20
12.7990025025
 30
0.0
  0
SPLINE
  5
4F2
100
AcDbEntity
  8
0
100
AcDbSpline
 62
7
  6
CONTINUOUS
 70
0
 71
3
 72
11
 73
7
 74
0
 42
0.0000001
 43
0.0000001
 44
0.0000000001
 40
0.0
 40
0.0
 40
0.0
 40
0.0
 40
0.2719998313
 40
0.5282766792
 40
0.7700709333
 40
1.0
 40
1.0
 40
1.0
 40
1.0
 10
15.9348868545
 20
12.8580075169
 30
0.0
 10
15.9280978732
 20
12.8580075169
 30
0.0
 10
15.9148986303
 20
12.8573625486
 30
0.0
 10
15.8958832006
 20
12.8543288547
 30
0.0
 10
15.878291759
 20
12.8496744067
 30
0.0
 10
15.8672033631
 20
12.8456718656
 30
0.0
 10
15.8618830418
 20
12.8435202765
 30
0.0
  0
SPLINE
  5
4F3
100
AcDbEntity
  8
0
100
AcDbSpline
 62
7
  6
CONTINUOUS
 70
0
 71
3
 72
9
 73
5
 74
0
 42
0.0000001
 43
0.0000001
 44
0.0000000001
 40
0.0
 40
0.0
 40
0.0
 40
0.0
 40
0.4045604625
 40
1.0
 40
1.0
 40
1.0
 40
1.0
 10
15.745302067
 20
12.7255102478
 30
0.0
 10
15.7469371084
 20
12.7194008883
 30
0.0
 10
15.7515296247
 20
12.7044483857
 30
0.0
 10
15.7567865226
 20
12.6897228377
 30
0.0
 10
15.7600153924
 20
12.6809924738
 30
0.0
  0
SPLINE
  5
4F4
100
AcDbEntity
  8
0
100
AcDbSpline
 62
7
  6
CONTINUOUS
 70
0
 71
3
 72
11
 73
7
 74
0
 42
0.0000001
 43
0.0000001
 44
0.0000000001
 40
0.0
 40
0.0
 40
0.0
 40
0.0
 40
0.1215554555
 40
0.2448977891
 40
0.6210431713
 40
1.0
 40
1.0
 40
1.0
 40
1.0
 10
15.7964832494
 20
12.7990025025
 30
0.0
 10
15.7939244208
 20
12.7964123077
 30
0.0
 10
15.7889009171
 20
12.7910617435
 30
0.0
 10
15.7768534104
 20
12.7768794783
 30
0.0
 10
15.7617142094
 20
12.7552716767
 30
0.0
 10
15.7505650108
 20
12.7355673888
 30
0.0
 10
15.745302067
 20
12.7255102478
 30
0.0
  0
SPLINE
  5
4F5
100
AcDbEntity
  8
0
100
AcDbSpline
 62
7
  6
CONTINUOUS
 70
0
 71
3
 72
9
 73
5
 74
0
 42
0.0000001
 43
0.0000001
 44
0.0000000001
 40
0.0
 40
0.0
 40
0.0
 40
0.0
 40
0.4674337695
 40
1.0
 40
1.0
 40
1.0
 40
1.0
 10
15.7600153924
 20
12.6809924738
 30
0.0
 10
15.7642843294
 20
12.669449929
 30
0.0
 10
15.7737980777
 20
12.6448980139
 30
0.0
 10
15.7836524017
 20
12.6204835133
 30
0.0
 10
15.7889473276
 20
12.6075002192
 30
0.0
  0
SPLINE
  5
4F6
100
AcDbEntity
  8
0
100
AcDbSpline
 62
7
  6
CONTINUOUS
 70
0
 71
3
 72
11
 73
7
 74
0
 42
0.0000001
 43
0.0000001
 44
0.0000000001
 40
0.0
 40
0.0
 40
0.0
 40
0.0
 40
0.2342067062
 40
0.477979562
 40
0.7330973885
 40
1.0
 40
1.0
 40
1.0
 40
1.0
 10
15.9907609454
 20
13.2605693256
 30
0.0
 10
15.9850901129
 20
13.2580356014
 30
0.0
 10
15.973691449
 20
13.2524594541
 30
0.0
 10
15.9569645502
 20
13.2425009434
 30
0.0
 10
15.940569381
 20
13.2304563251
 30
0.0
 10
15.9303356273
 20
13.2210870032
 30
0.0
 10
15.9253611531
 20
13.2160515516
 30
0.0
  0
SPLINE
  5
4F7
100
AcDbEntity
  8
0
100
AcDbSpline
 62
7
  6
CONTINUOUS
 70
0
 71
3
 72
11
 73
7
 74
0
 42
0.0000001
 43
0.0000001
 44
0.0000000001
 40
0.0
 40
0.0
 40
0.0
 40
0.0
 40
0.2719998313
 40
0.5282766792
 40
0.7700709333
 40
1.0
 40
1.0
 40
1.0
 40
1.0
 10
16.0637647582
 20
13.275056566
 30
0.0
 10
16.0569757769
 20
13.275056566
 30
0.0
 10
16.0437765339
 20
13.2744115977
 30
0.0
 10
16.0247611042
 20
13.2713779038
 30
0.0
 10
16.0071696627
 20
13.2667234558
 30
0.0
 10
15.9960812668
 20
13.2627209147
 30
0.0
 10
15.9907609454
 20
13.2605693256
 30
0.0
  0
SPLINE
  5
4F8
100
AcDbEntity
  8
0
100
AcDbSpline
 62
7
  6
CONTINUOUS
 70
0
 71
3
 72
11
 73
7
 74
0
 42
0.0000001
 43
0.0000001
 44
0.0000000001
 40
0.0
 40
0.0
 40
0.0
 40
0.0
 40
0.2556535721
 40
0.5094478831
 40
0.7588062025
 40
1.0
 40
1.0
 40
1.0
 40
1.0
 10
16.1509871808
 20
13.2605693256
 30
0.0
 10
16.1437272684
 20
13.2626710907
 30
0.0
 10
16.1291727193
 20
13.2665673761
 30
0.0
 10
16.1072153227
 20
13.2712264536
 30
0.0
 10
16.0854052703
 20
13.2743087775
 30
0.0
 10
16.0708953012
 20
13.275056566
 30
0.0
 10
16.0637647582
 20
13.275056566
 30
0.0
  0
SPLINE
  5
4F9
100
AcDbEntity
  8
0
100
AcDbSpline
 62
7
  6
CONTINUOUS
 70
0
 71
3
 72
9
 73
5
 74
0
 42
0.0000001
 43
0.0000001
 44
0.0000000001
 40
0.0
 40
0.0
 40
0.0
 40
0.0
 40
0.4674390614
 40
1.0
 40
1.0
 40
1.0
 40
1.0
 10
15.888893296
 20
13.098041523
 30
0.0
 10
15.8931622813
 20
13.0864988475
 30
0.0
 10
15.9026761122
 20
13.0619469647
 30
0.0
 10
15.912530358
 20
13.0375324333
 30
0.0
 10
15.9178252313
 20
13.0245492683
 30
0.0
  0
SPLINE
  5
4FA
100
AcDbEntity
  8
0
100
AcDbSpline
 62
7
  6
CONTINUOUS
 70
0
 71
3
 72
9
 73
5
 74
0
 42
0.0000001
 43
0.0000001
 44
0.0000000001
 40
0.0
 40
0.0
 40
0.0
 40
0.0
 40
0.404538779
 40
1.0
 40
1.0
 40
1.0
 40
1.0
 10
15.8741799707
 20
13.1425592969
 30
0.0
 10
15.8758149246
 20
13.1364502641
 30
0.0
 10
15.8804071691
 20
13.1214976764
 30
0.0
 10
15.8856643083
 20
13.1067722058
 30
0.0
 10
15.888893296
 20
13.098041523
 30
0.0
  0
SPLINE
  5
4FB
100
AcDbEntity
  8
0
100
AcDbSpline
 62
7
  6
CONTINUOUS
 70
0
 71
3
 72
11
 73
7
 74
0
 42
0.0000001
 43
0.0000001
 44
0.0000000001
 40
0.0
 40
0.0
 40
0.0
 40
0.0
 40
0.1215571626
 40
0.2449007509
 40
0.6210439403
 40
1.0
 40
1.0
 40
1.0
 40
1.0
 10
15.9253611531
 20
13.2160515516
 30
0.0
 10
15.9228022926
 20
13.2134613246
 30
0.0
 10
15.9177792533
 20
13.2081102095
 30
0.0
 10
15.9057321336
 20
13.1939276609
 30
0.0
 10
15.8905922343
 20
13.1723205041
 30
0.0
 10
15.8794428953
 20
13.1526164013
 30
0.0
 10
15.8741799707
 20
13.1425592969
 30
0.0
  0
SPLINE
  5
4FC
100
AcDbEntity
  8
0
100
AcDbSpline
 62
7
  6
CONTINUOUS
 70
0
 71
3
 72
11
 73
7
 74
0
 42
0.0000001
 43
0.0000001
 44
0.0000000001
 40
0.0
 40
0.0
 40
0.0
 40
0.0
 40
0.2586201139
 40
0.5106305841
 40
0.7572764524
 40
1.0
 40
1.0
 40
1.0
 40
1.0
 10
15.9060848121
 20
13.0533578041
 30
0.0
 10
15.9054080127
 20
13.0493201483
 30
0.0
 10
15.9044856661
 20
13.0412709467
 30
0.0
 10
15.9044539392
 20
13.0292578398
 30
0.0
 10
15.9057940598
 20
13.0175715727
 30
0.0
 10
15.9076096777
 20
13.0100167153
 30
0.0
 10
15.9087393911
 20
13.0063442044
 30
0.0
  0
SPLINE
  5
4FD
100
AcDbEntity
  8
0
100
AcDbSpline
 62
7
  6
CONTINUOUS
 70
0
 71
3
 72
9
 73
5
 74
0
 42
0.0000001
 43
0.0000001
 44
0.0000000001
 40
0.0
 40
0.0
 40
0.0
 40
0.0
 40
0.5087882707
 40
1.0
 40
1.0
 40
1.0
 40
1.0
 10
16.75757493
 20
12.30907559
 30
0.0
 10
16.7553642853
 20
12.3019219413
 30
0.0
 10
16.7518421436
 20
12.2875905058
 30
0.0
 10
16.750192751
 20
12.2729164812
 30
0.0
 10
16.7498900239
 20
12.2656940507
 30
0.0
  0
SPLINE
  5
4FE
100
AcDbEntity
  8
0
100
AcDbSpline
 62
7
  6
CONTINUOUS
 70
0
 71
3
 72
44
 73
40
 74
0
 42
0.0000001
 43
0.0000001
 44
0.0000000001
 40
0.0
 40
0.0
 40
0.0
 40
0.0
 40
0.0278055298
 40
0.0572351432
 40
0.0882938904
 40
0.1209272118
 40
0.1550321871
 40
0.190465197
 40
0.2270498541
 40
0.2645835575
 40
0.3028435405
 40
0.3415921729
 40
0.3805822208
 40
0.4195618203
 40
0.4582793297
 40
0.496488123
 40
0.5339516144
 40
0.5704484258
 40
0.605777894
 40
0.6397660942
 40
0.6722725525
 40
0.7031978449
 40
0.7324922635
 40
0.7601656006
 40
0.7862974475
 40
0.8110467788
 40
0.8229844301
 40
0.834675276
 40
0.8461628527
 40
0.8574949283
 40
0.8687228309
 40
0.8799003114
 40
0.8910823535
 40
0.9023238258
 40
0.9136781215
 40
0.9251960897
 40
0.9488900435
 40
0.9737454205
 40
1.0
 40
1.0
 40
1.0
 40
1.0
 10
15.934881457
 20
11.9393660198
 30
0.0
 10
15.9242048592
 20
11.9611226387
 30
0.0
 10
15.8995166618
 20
12.0046113886
 30
0.0
 10
15.8547023857
 20
12.067314546
 30
0.0
 10
15.8015024915
 20
12.1287549317
 30
0.0
 10
15.7404322895
 20
12.1883496381
 30
0.0
 10
15.6720721393
 20
12.2455452094
 30
0.0
 10
15.5970729551
 20
12.2998013202
 30
0.0
 10
15.5161491767
 20
12.3506040635
 30
0.0
 10
15.4300726618
 20
12.3974699176
 30
0.0
 10
15.3396654426
 20
12.4399518264
 30
0.0
 10
15.245791743
 20
12.4776438007
 30
0.0
 10
15.1493495657
 20
12.5101852952
 30
0.0
 10
15.0512617316
 20
12.5372649281
 30
0.0
 10
14.9524667935
 20
12.5586235855
 30
0.0
 10
14.8539097397
 20
12.5740569484
 30
0.0
 10
14.7565325982
 20
12.5834173578
 30
0.0
 10
14.6612649867
 20
12.5866150134
 30
0.0
 10
14.5690148155
 20
12.5836183873
 30
0.0
 10
14.4806591975
 20
12.5744537503
 30
0.0
 10
14.3970359405
 20
12.5592038089
 30
0.0
 10
14.3189355336
 20
12.5380047366
 30
0.0
 10
14.2470959513
 20
12.5110437871
 30
0.0
 10
14.1821954515
 20
12.4785502419
 30
0.0
 10
14.12486475
 20
12.4408077275
 30
0.0
 10
14.0833616446
 20
12.4047924071
 30
0.0
 10
14.0547634709
 20
12.3737592241
 30
0.0
 10
14.0357903904
 20
12.3497014189
 30
0.0
 10
14.019088973
 20
12.3246456341
 30
0.0
 10
14.0047025094
 20
12.2986509796
 30
0.0
 10
13.9926671463
 20
12.2717826067
 30
0.0
 10
13.9830151181
 20
12.2441069038
 30
0.0
 10
13.9757701568
 20
12.2156936771
 30
0.0
 10
13.9709504748
 20
12.1866148248
 30
0.0
 10
13.9685674408
 20
12.1569417268
 30
0.0
 10
13.9686420103
 20
12.116316612
 30
0.0
 10
13.9750532514
 20
12.0641274676
 30
0.0
 10
13.9923853747
 20
12.0010738746
 30
0.0
 10
14.0097610669
 20
11.9599090875
 30
0.0
 10
14.0198421403
 20
11.9393660198
 30
0.0
  0
SPLINE
  5
4FF
100
AcDbEntity
  8
0
100
AcDbSpline
 62
7
  6
CONTINUOUS
 70
0
 71
3
 72
13
 73
9
 74
0
 42
0.0000001
 43
0.0000001
 44
0.0000000001
 40
0.0
 40
0.0
 40
0.0
 40
0.0
 40
0.2663795491
 40
0.3974573157
 40
0.5258678232
 40
0.6508635478
 40
0.7718495683
 40
1.0
 40
1.0
 40
1.0
 40
1.0
 10
16.9109867573
 20
12.4722686962
 30
0.0
 10
16.8925890694
 20
12.463430695
 30
0.0
 10
16.8662144909
 20
12.4477782222
 30
0.0
 10
16.834655567
 20
12.4226618166
 30
0.0
 10
16.8133951036
 20
12.4022015714
 30
0.0
 10
16.7947522572
 20
12.3803246113
 30
0.0
 10
16.7741832285
 20
12.3503390221
 30
0.0
 10
16.7627362212
 20
12.3257775346
 30
0.0
 10
16.75757493
 20
12.30907559
 30
0.0
  0
SPLINE
  5
500
100
AcDbEntity
  8
0
100
AcDbSpline
 62
7
  6
CONTINUOUS
 70
0
 71
3
 72
9
 73
5
 74
0
 42
0.0000001
 43
0.0000001
 44
0.0000000001
 40
0.0
 40
0.0
 40
0.0
 40
0.0
 40
0.23530691
 40
1.0
 40
1.0
 40
1.0
 40
1.0
 10
14.3636497442
 20
11.2387597847
 30
0.0
 10
14.3637698449
 20
11.2385150451
 30
0.0
 10
14.3643246152
 20
11.2374968053
 30
0.0
 10
14.36503781
 20
11.2365693832
 30
0.0
 10
14.3656354664
 20
11.2359153819
 30
0.0
  0
SPLINE
  5
501
100
AcDbEntity
  8
0
100
AcDbSpline
 62
7
  6
CONTINUOUS
 70
0
 71
3
 72
9
 73
5
 74
0
 42
0.0000001
 43
0.0000001
 44
0.0000000001
 40
0.0
 40
0.0
 40
0.0
 40
0.0
 40
0.2494912035
 40
1.0
 40
1.0
 40
1.0
 40
1.0
 10
16.9233472212
 20
11.5963124616
 30
0.0
 10
16.9249812727
 20
11.596889439
 30
0.0
 10
16.9314931384
 20
11.5993096672
 30
0.0
 10
16.9378841136
 20
11.6020370074
 30
0.0
 10
16.9426794238
 20
11.6040813714
 30
0.0
  0
SPLINE
  5
502
100
AcDbEntity
  8
0
100
AcDbSpline
 62
7
  6
CONTINUOUS
 70
0
 71
3
 72
13
 73
9
 74
0
 42
0.0000001
 43
0.0000001
 44
0.0000000001
 40
0.0
 40
0.0
 40
0.0
 40
0.0
 40
0.2714143394
 40
0.5251893452
 40
0.6469470737
 40
0.7661189741
 40
0.8835123263
 40
1.0
 40
1.0
 40
1.0
 40
1.0
 10
14.4709701397
 20
11.9393660198
 30
0.0
 10
14.4643015175
 20
11.9529552431
 30
0.0
 10
14.4532379021
 20
11.9802234412
 30
0.0
 10
14.4454981826
 20
12.0156858174
 30
0.0
 10
14.4436127661
 20
12.0432529435
 30
0.0
 10
14.4442711833
 20
12.0632631861
 30
0.0
 10
14.4469832007
 20
12.0828015191
 30
0.0
 10
14.4501614746
 20
12.0954833727
 30
0.0
 10
14.4520795757
 20
12.101690504
 30
0.0
  0
SPLINE
  5
503
100
AcDbEntity
  8
0
100
AcDbSpline
 62
7
  6
CONTINUOUS
 70
0
 71
3
 72
9
 73
5
 74
0
 42
0.0000001
 43
0.0000001
 44
0.0000000001
 40
0.0
 40
0.0
 40
0.0
 40
0.0
 40
0.5093462114
 40
1.0
 40
1.0
 40
1.0
 40
1.0
 10
16.5861112842
 20
11.754219029
 30
0.0
 10
16.5837546573
 20
11.7465929814
 30
0.0
 10
16.5800612255
 20
11.7313113779
 30
0.0
 10
16.5785114411
 20
11.7156552262
 30
0.0
 10
16.5783328783
 20
11.7079683527
 30
0.0
  0
SPLINE
  5
504
100
AcDbEntity
  8
0
100
AcDbSpline
 62
7
  6
CONTINUOUS
 70
0
 71
3
 72
16
 73
12
 74
0
 42
0.0000001
 43
0.0000001
 44
0.0000000001
 40
0.0
 40
0.0
 40
0.0
 40
0.0
 40
0.1242545882
 40
0.2531100914
 40
0.3844484122
 40
0.5158884455
 40
0.6450411625
 40
0.7697504877
 40
0.8299445807
 40
0.8884535846
 40
1.0
 40
1.0
 40
1.0
 40
1.0
 10
16.8768931136
 20
11.9500507565
 30
0.0
 10
16.8614798858
 20
11.9500507565
 30
0.0
 10
16.830038503
 20
11.947374027
 30
0.0
 10
16.7835224455
 20
11.936155173
 30
0.0
 10
16.7382541153
 20
11.9180755644
 30
0.0
 10
16.695936179
 20
11.8938128754
 30
0.0
 10
16.6581519348
 20
11.8642745753
 30
0.0
 10
16.6312888936
 20
11.8358164987
 30
0.0
 10
16.6134417092
 20
11.811416087
 30
0.0
 10
16.5986369356
 20
11.7869669821
 30
0.0
 10
16.5901965736
 20
11.7674390302
 30
0.0
 10
16.5861112842
 20
11.754219029
 30
0.0
  0
LINE
  5
505
100
AcDbEntity
  8
0
100
AcDbLine
 62
7
  6
CONTINUOUS
 10
15.9969961126
 20
12.0906932111
 11
15.9970698986
 21
12.0909319825
  0
SPLINE
  5
506
100
AcDbEntity
  8
0
100
AcDbSpline
 62
7
  6
CONTINUOUS
 70
0
 71
3
 72
14
 73
10
 74
0
 42
0.0000001
 43
0.0000001
 44
0.0000000001
 40
0.0
 40
0.0
 40
0.0
 40
0.0
 40
0.2773985403
 40
0.4084929372
 40
0.5344231193
 40
0.6556039016
 40
0.7728142123
 40
0.8871596105
 40
1.0
 40
1.0
 40
1.0
 40
1.0
 10
17.1807113085
 20
12.3743528325
 30
0.0
 10
17.1867132283
 20
12.3743528325
 30
0.0
 10
17.1956056518
 20
12.3734697605
 30
0.0
 10
17.2067386033
 20
12.3702589665
 30
0.0
 10
17.2142668267
 20
12.3669859427
 30
0.0
 10
17.2210080263
 20
12.3628473574
 30
0.0
 10
17.2268603077
 20
12.3578996406
 30
0.0
 10
17.2317291161
 20
12.3522165806
 30
0.0
 10
17.2342744059
 20
12.3479792091
 30
0.0
 10
17.2353500633
 20
12.3457874713
 30
0.0
  0
SPLINE
  5
507
100
AcDbEntity
  8
0
100
AcDbSpline
 62
7
  6
CONTINUOUS
 70
0
 71
3
 72
10
 73
6
 74
0
 42
0.0000001
 43
0.0000001
 44
0.0000000001
 40
0.0
 40
0.0
 40
0.0
 40
0.0
 40
0.4891576317
 40
0.7433357693
 40
1.0
 40
1.0
 40
1.0
 40
1.0
 10
13.8663189867
 20
12.6219874595
 30
0.0
 10
13.8811584942
 20
12.6219874595
 30
0.0
 10
13.9038022656
 20
12.6250555444
 30
0.0
 10
13.9327656448
 20
12.6341847285
 30
0.0
 10
13.946971001
 20
12.6404878218
 30
0.0
 10
13.9539005969
 20
12.6440386708
 30
0.0
  0
LINE
  5
508
100
AcDbEntity
  8
0
100
AcDbLine
 62
7
  6
CONTINUOUS
 10
16.0153278252
 20
12.1036841886
 11
16.0158447005
 21
12.1036842194
  0
SPLINE
  5
509
100
AcDbEntity
  8
0
100
AcDbSpline
 62
7
  6
CONTINUOUS
 70
0
 71
3
 72
20
 73
16
 74
0
 42
0.0000001
 43
0.0000001
 44
0.0000000001
 40
0.0
 40
0.0
 40
0.0
 40
0.0
 40
0.0504775594
 40
0.1017854308
 40
0.1546565552
 40
0.2096535535
 40
0.3269524571
 40
0.3896205827
 40
0.4546308623
 40
0.5216187521
 40
0.5901122481
 40
0.7292081561
 40
0.798771513
 40
0.867483851
 40
1.0
 40
1.0
 40
1.0
 40
1.0
 10
16.1025673824
 20
12.7188594657
 30
0.0
 10
16.1050683597
 20
12.713763424
 30
0.0
 10
16.1091470048
 20
12.7029827679
 30
0.0
 10
16.1122029424
 20
12.6857684609
 30
0.0
 10
16.1121816149
 20
12.6677771913
 30
0.0
 10
16.1079944792
 20
12.6427094714
 30
0.0
 10
16.0976550941
 20
12.6179534078
 30
0.0
 10
16.0825344847
 20
12.5948810616
 30
0.0
 10
16.0684622246
 20
12.5780430752
 30
0.0
 10
16.0521770596
 20
12.5623877941
 30
0.0
 10
16.0277974142
 20
12.5433693653
 30
0.0
 10
16.0004361825
 20
12.5279506208
 30
0.0
 10
15.9712870157
 20
12.5167261089
 30
0.0
 10
15.9418960354
 20
12.5086359523
 30
0.0
 10
15.9191927453
 20
12.5059571766
 30
0.0
 10
15.9042900869
 20
12.5059571766
 30
0.0
  0
SPLINE
  5
50A
100
AcDbEntity
  8
0
100
AcDbSpline
 62
7
  6
CONTINUOUS
 70
0
 71
3
 72
14
 73
10
 74
0
 42
0.0000001
 43
0.0000001
 44
0.0000000001
 40
0.0
 40
0.0
 40
0.0
 40
0.0
 40
0.1134496919
 40
0.2276872763
 40
0.3443762492
 40
0.4649534832
 40
0.5904561824
 40
0.7214867044
 40
1.0
 40
1.0
 40
1.0
 40
1.0
 10
13.7643832387
 20
12.6809924738
 30
0.0
 10
13.7660271906
 20
12.6765474824
 30
0.0
 10
13.7701451421
 20
12.6679049088
 30
0.0
 10
13.7786267856
 20
12.6561934205
 30
0.0
 10
13.7892487273
 20
12.6459486214
 30
0.0
 10
13.8018049599
 20
12.6373488353
 30
0.0
 10
13.8160730389
 20
12.6305304378
 30
0.0
 10
13.837451342
 20
12.6238214324
 30
0.0
 10
13.8546843566
 20
12.6219874595
 30
0.0
 10
13.8663189867
 20
12.6219874595
 30
0.0
  0
SPLINE
  5
50B
100
AcDbEntity
  8
0
100
AcDbSpline
 62
7
  6
CONTINUOUS
 70
0
 71
3
 72
11
 73
7
 74
0
 42
0.0000001
 43
0.0000001
 44
0.0000000001
 40
0.0
 40
0.0
 40
0.0
 40
0.0
 40
0.243379708
 40
0.4895315971
 40
0.7410416029
 40
1.0
 40
1.0
 40
1.0
 40
1.0
 10
13.9183934595
 20
12.99299661
 30
0.0
 10
13.9204684183
 20
12.9887681922
 30
0.0
 10
13.9253175447
 20
12.9805767645
 30
0.0
 10
13.9344732695
 20
12.9694690524
 30
0.0
 10
13.945403819
 20
12.9596496181
 30
0.0
 10
13.9536429359
 20
12.9541332605
 30
0.0
 10
13.9579802852
 20
12.9516226068
 30
0.0
  0
SPLINE
  5
50C
100
AcDbEntity
  8
0
100
AcDbSpline
 62
7
  6
CONTINUOUS
 70
0
 71
3
 72
11
 73
7
 74
0
 42
0.0000001
 43
0.0000001
 44
0.0000000001
 40
0.0
 40
0.0
 40
0.0
 40
0.0
 40
0.2346325745
 40
0.4793919635
 40
0.7346177771
 40
1.0
 40
1.0
 40
1.0
 40
1.0
 10
13.8291023815
 20
12.5345735577
 30
0.0
 10
13.8342313188
 20
12.5316046972
 30
0.0
 10
13.8451926137
 20
12.5263422452
 30
0.0
 10
13.8629221248
 20
12.5206970264
 30
0.0
 10
13.8819855005
 20
12.5172156497
 30
0.0
 10
13.8951415051
 20
12.5163872664
 30
0.0
 10
13.9018441011
 20
12.5163253255
 30
0.0
  0
SPLINE
  5
50D
100
AcDbEntity
  8
0
100
AcDbSpline
 62
7
  6
CONTINUOUS
 70
0
 71
3
 72
9
 73
5
 74
0
 42
0.0000001
 43
0.0000001
 44
0.0000000001
 40
0.0
 40
0.0
 40
0.0
 40
0.0
 40
0.5045555395
 40
1.0
 40
1.0
 40
1.0
 40
1.0
 10
15.4781089306
 20
11.7341515015
 30
0.0
 10
15.4829582987
 20
11.7407013699
 30
0.0
 10
15.4917921864
 20
11.7542805045
 30
0.0
 10
15.4988084592
 20
11.7688872006
 30
0.0
 10
15.5017875766
 20
11.7763145144
 30
0.0
  0
SPLINE
  5
50E
100
AcDbEntity
  8
0
100
AcDbSpline
 62
7
  6
CONTINUOUS
 70
0
 71
3
 72
11
 73
7
 74
0
 42
0.0000001
 43
0.0000001
 44
0.0000000001
 40
0.0
 40
0.0
 40
0.0
 40
0.0
 40
0.242297551
 40
0.4877948867
 40
0.7394909162
 40
1.0
 40
1.0
 40
1.0
 40
1.0
 10
14.4996515508
 20
12.0869896517
 30
0.0
 10
14.4973701662
 20
12.079606912
 30
0.0
 10
14.4938286522
 20
12.0643963146
 30
0.0
 10
14.4917365352
 20
12.0408340146
 30
0.0
 10
14.492851679
 20
12.0166282401
 30
0.0
 10
14.4956659042
 20
12.0004897534
 30
0.0
 10
14.4975598244
 20
11.9924005194
 30
0.0
  0
SPLINE
  5
50F
100
AcDbEntity
  8
0
100
AcDbSpline
 62
7
  6
CONTINUOUS
 70
0
 71
3
 72
9
 73
5
 74
0
 42
0.0000001
 43
0.0000001
 44
0.0000000001
 40
0.0
 40
0.0
 40
0.0
 40
0.0
 40
0.4879474073
 40
1.0
 40
1.0
 40
1.0
 40
1.0
 10
14.4975598244
 20
11.9924005194
 30
0.0
 10
14.4996553899
 20
11.9834500263
 30
0.0
 10
14.5051183794
 20
11.9653669831
 30
0.0
 10
14.5125815366
 20
11.9480261304
 30
0.0
 10
14.5168313017
 20
11.9393660198
 30
0.0
  0
SPLINE
  5
510
100
AcDbEntity
  8
0
100
AcDbSpline
 62
7
  6
CONTINUOUS
 70
0
 71
3
 72
14
 73
10
 74
0
 42
0.0000001
 43
0.0000001
 44
0.0000000001
 40
0.0
 40
0.0
 40
0.0
 40
0.0
 40
0.2773985403
 40
0.4084929372
 40
0.5344231193
 40
0.6556039016
 40
0.7728142123
 40
0.8871596105
 40
1.0
 40
1.0
 40
1.0
 40
1.0
 10
17.0092476627
 20
11.8194962715
 30
0.0
 10
17.0152495825
 20
11.8194962715
 30
0.0
 10
17.024142006
 20
11.8186131995
 30
0.0
 10
17.0352749576
 20
11.8154024055
 30
0.0
 10
17.042803181
 20
11.8121293817
 30
0.0
 10
17.0495443806
 20
11.8079907964
 30
0.0
 10
17.055396662
 20
11.8030430796
 30
0.0
 10
17.0602654703
 20
11.7973600196
 30
0.0
 10
17.0628107601
 20
11.7931226481
 30
0.0
 10
17.0638864176
 20
11.7909309103
 30
0.0
  0
SPLINE
  5
511
100
AcDbEntity
  8
0
100
AcDbSpline
 62
7
  6
CONTINUOUS
 70
0
 71
3
 72
33
 73
29
 74
0
 42
0.0000001
 43
0.0000001
 44
0.0000000001
 40
0.0
 40
0.0
 40
0.0
 40
0.0
 40
0.0214451839
 40
0.0431850867
 40
0.0654950886
 40
0.0886153244
 40
0.1127411401
 40
0.1380191158
 40
0.1645476109
 40
0.1923800355
 40
0.2215295749
 40
0.2519742643
 40
0.2836617878
 40
0.3165138427
 40
0.3504300613
 40
0.3852916034
 40
0.4572782273
 40
0.5312922652
 40
0.6060102699
 40
0.6800701114
 40
0.7521459107
 40
0.7870667361
 40
0.8210509187
 40
0.8539783969
 40
0.8857473687
 40
0.9162782087
 40
0.9455155022
 40
1.0
 40
1.0
 40
1.0
 40
1.0
 10
15.5026440217
 20
11.7770415355
 30
0.0
 10
15.5000837434
 20
11.7687562667
 30
0.0
 10
15.4937076174
 20
11.7524223017
 30
0.0
 10
15.4806185331
 20
11.729303258
 30
0.0
 10
15.4640822307
 20
11.707652889
 30
0.0
 10
15.4442324016
 20
11.6876251785
 30
0.0
 10
15.4212180464
 20
11.6693470589
 30
0.0
 10
15.3952042557
 20
11.6529330519
 30
0.0
 10
15.3663709918
 20
11.6384846982
 30
0.0
 10
15.3349142142
 20
11.6260918157
 30
0.0
 10
15.3010458774
 20
11.6158319702
 30
0.0
 10
15.2649933779
 20
11.6077704242
 30
0.0
 10
15.2269986529
 20
11.6019592033
 30
0.0
 10
15.1873174365
 20
11.5984361777
 30
0.0
 10
15.1462158817
 20
11.5972236419
 30
0.0
 10
15.0892900178
 20
11.5987154613
 30
0.0
 10
15.0164274409
 20
11.6064799322
 30
0.0
 10
14.9288958876
 20
11.6245787568
 30
0.0
 10
14.842650078
 20
11.6510811398
 30
0.0
 10
14.7600073468
 20
11.6852753435
 30
0.0
 10
14.6952807761
 20
11.7197882934
 30
0.0
 10
14.6472515749
 20
11.750544411
 30
0.0
 10
14.6138403881
 20
11.7746530353
 30
0.0
 10
14.5828903839
 20
11.7998796716
 30
0.0
 10
14.5546114824
 20
11.8260539545
 30
0.0
 10
14.5291894863
 20
11.8530085845
 30
0.0
 10
14.5000383387
 20
11.8888752218
 30
0.0
 10
14.4817950336
 20
11.9176707448
 30
0.0
 10
14.4719523385
 20
11.9373819302
 30
0.0
  0
SPLINE
  5
512
100
AcDbEntity
  8
0
100
AcDbSpline
 62
7
  6
CONTINUOUS
 70
0
 71
3
 72
9
 73
5
 74
0
 42
0.0000001
 43
0.0000001
 44
0.0000000001
 40
0.0
 40
0.0
 40
0.0
 40
0.0
 40
0.2428179453
 40
1.0
 40
1.0
 40
1.0
 40
1.0
 10
17.04959205
 20
11.9500507565
 30
0.0
 10
17.0483221647
 20
11.9500507565
 30
0.0
 10
17.0430929159
 20
11.9501968476
 30
0.0
 10
17.0378831798
 20
11.9508974635
 30
0.0
 10
17.0340044333
 20
11.9516950339
 30
0.0
  0
SPLINE
  5
513
100
AcDbEntity
  8
0
100
AcDbSpline
 62
7
  6
CONTINUOUS
 70
0
 71
3
 72
26
 73
22
 74
0
 42
0.0000001
 43
0.0000001
 44
0.0000000001
 40
0.0
 40
0.0
 40
0.0
 40
0.0
 40
0.1435208196
 40
0.2140796783
 40
0.2834571147
 40
0.3514351356
 40
0.4178388888
 40
0.4825318203
 40
0.5454126903
 40
0.6064127982
 40
0.665517783
 40
0.7227891653
 40
0.750804283
 40
0.7784594646
 40
0.8329229088
 40
0.859991292
 40
0.887129619
 40
0.9145115814
 40
0.942334304
 40
0.9707858576
 40
1.0
 40
1.0
 40
1.0
 40
1.0
 10
16.851709558
 20
12.0013694471
 30
0.0
 10
16.833664966
 20
12.0075245165
 30
0.0
 10
16.8062777342
 20
12.0153883407
 30
0.0
 10
16.769463353
 20
12.0233330116
 30
0.0
 10
16.7422254652
 20
12.0279683694
 30
0.0
 10
16.7153569668
 20
12.0313190362
 30
0.0
 10
16.6889807113
 20
12.0333660807
 30
0.0
 10
16.6632101687
 20
12.0340686777
 30
0.0
 10
16.6381553626
 20
12.0333477194
 30
0.0
 10
16.6139332339
 20
12.0310775606
 30
0.0
 10
16.590684779
 20
12.0270840596
 30
0.0
 10
16.5721296638
 20
12.0220698691
 30
0.0
 10
16.5580411044
 20
12.0168813055
 30
0.0
 10
16.5446689857
 20
12.0109297025
 30
0.0
 10
16.5320838764
 20
12.003559056
 30
0.0
 10
16.5207367201
 20
11.9946033406
 30
0.0
 10
16.5129332331
 20
11.9870524537
 30
0.0
 10
16.5059235899
 20
11.978626065
 30
0.0
 10
16.4998144751
 20
11.9693133599
 30
0.0
 10
16.4947039229
 20
11.9591453919
 30
0.0
 10
16.4920492134
 20
11.9519401231
 30
0.0
 10
16.4909034055
 20
11.9482322873
 30
0.0
  0
SPLINE
  5
514
100
AcDbEntity
  8
0
100
AcDbSpline
 62
7
  6
CONTINUOUS
 70
0
 71
3
 72
11
 73
7
 74
0
 42
0.0000001
 43
0.0000001
 44
0.0000000001
 40
0.0
 40
0.0
 40
0.0
 40
0.0
 40
0.2509598395
 40
0.5120254678
 40
0.766473768
 40
1.0
 40
1.0
 40
1.0
 40
1.0
 10
16.1161380468
 20
12.1036602478
 30
0.0
 10
16.1181103109
 20
12.1036602175
 30
0.0
 10
16.1221485458
 20
12.1043148673
 30
0.0
 10
16.12768594
 20
12.1068477575
 30
0.0
 10
16.1322761389
 20
12.1106418613
 30
0.0
 10
16.1344347898
 20
12.1139151638
 30
0.0
 10
16.1351289368
 20
12.1156140818
 30
0.0
  0
SPLINE
  5
515
100
AcDbEntity
  8
0
100
AcDbSpline
 62
7
  6
CONTINUOUS
 70
0
 71
3
 72
14
 73
10
 74
0
 42
0.0000001
 43
0.0000001
 44
0.0000000001
 40
0.0
 40
0.0
 40
0.0
 40
0.0
 40
0.1508006439
 40
0.2885449699
 40
0.4142733105
 40
0.530731399
 40
0.6423701746
 40
0.7546857391
 40
1.0
 40
1.0
 40
1.0
 40
1.0
 10
16.2727684677
 20
11.2288709784
 30
0.0
 10
16.2734331168
 20
11.2290273138
 30
0.0
 10
16.2746879317
 20
11.2294107338
 30
0.0
 10
16.2763776064
 20
11.2302472126
 30
0.0
 10
16.2777507947
 20
11.2313054884
 30
0.0
 10
16.278766277
 20
11.2325668981
 30
0.0
 10
16.2793837697
 20
11.2340015126
 30
0.0
 10
16.2796517454
 20
11.2361341932
 30
0.0
 10
16.2791783814
 20
11.2377626544
 30
0.0
 10
16.2786890609
 20
11.2387597847
 30
0.0
  0
SPLINE
  5
516
100
AcDbEntity
  8
0
100
AcDbSpline
 62
7
  6
CONTINUOUS
 70
0
 71
3
 72
10
 73
6
 74
0
 42
0.0000001
 43
0.0000001
 44
0.0000000001
 40
0.0
 40
0.0
 40
0.0
 40
0.0
 40
0.5117188322
 40
0.7592470013
 40
1.0
 40
1.0
 40
1.0
 40
1.0
 10
16.5582661059
 20
11.7339127405
 30
0.0
 10
16.5191966362
 20
11.7536709279
 30
0.0
 10
16.4625429147
 20
11.7857474247
 30
0.0
 10
16.3916025834
 20
11.8336249468
 30
0.0
 10
16.3582810777
 20
11.8588690327
 30
0.0
 10
16.3422360121
 20
11.871785793
 30
0.0
  0
SPLINE
  5
517
100
AcDbEntity
  8
0
100
AcDbSpline
 62
7
  6
CONTINUOUS
 70
0
 71
3
 72
10
 73
6
 74
0
 42
0.0000001
 43
0.0000001
 44
0.0000000001
 40
0.0
 40
0.0
 40
0.0
 40
0.0
 40
0.2341292004
 40
0.47534544
 40
1.0
 40
1.0
 40
1.0
 40
1.0
 10
16.2992196698
 20
11.2419737081
 30
0.0
 10
16.2994527982
 20
11.2427281826
 30
0.0
 10
16.2997590296
 20
11.2443173068
 30
0.0
 10
16.2996863711
 20
11.2477086466
 30
0.0
 10
16.2988540809
 20
11.2502266473
 30
0.0
 10
16.2980745162
 20
11.2518152332
 30
0.0
  0
SPLINE
  5
518
100
AcDbEntity
  8
0
100
AcDbSpline
 62
7
  6
CONTINUOUS
 70
0
 71
3
 72
11
 73
7
 74
0
 42
0.0000001
 43
0.0000001
 44
0.0000000001
 40
0.0
 40
0.0
 40
0.0
 40
0.0
 40
0.2278056398
 40
0.4705578611
 40
0.7281991981
 40
1.0
 40
1.0
 40
1.0
 40
1.0
 10
16.1351222105
 20
12.1156145747
 30
0.0
 10
16.1451812838
 20
12.0951248509
 30
0.0
 10
16.1688632378
 20
12.054188225
 30
0.0
 10
16.212499845
 20
11.995545553
 30
0.0
 10
16.2648507126
 20
11.9384124541
 30
0.0
 10
16.3041532826
 20
11.9026680947
 30
0.0
 10
16.3250219503
 20
11.8851698812
 30
0.0
  0
SPLINE
  5
519
100
AcDbEntity
  8
0
100
AcDbSpline
 62
7
  6
CONTINUOUS
 70
0
 71
3
 72
11
 73
7
 74
0
 42
0.0000001
 43
0.0000001
 44
0.0000000001
 40
0.0
 40
0.0
 40
0.0
 40
0.0
 40
0.2708817594
 40
0.5281346264
 40
0.7711745946
 40
1.0
 40
1.0
 40
1.0
 40
1.0
 10
15.8915595399
 20
12.4180019236
 30
0.0
 10
15.9181732134
 20
12.3948522488
 30
0.0
 10
15.9683352938
 20
12.3476714338
 30
0.0
 10
16.0352714495
 20
12.272624699
 30
0.0
 10
16.0913409834
 20
12.1958108992
 30
0.0
 10
16.1219908486
 20
12.1423617784
 30
0.0
 10
16.1351222105
 20
12.1156145747
 30
0.0
  0
SPLINE
  5
51A
100
AcDbEntity
  8
0
100
AcDbSpline
 62
7
  6
CONTINUOUS
 70
0
 71
3
 72
18
 73
14
 74
0
 42
0.0000001
 43
0.0000001
 44
0.0000000001
 40
0.0
 40
0.0
 40
0.0
 40
0.0
 40
0.1342799995
 40
0.2667735808
 40
0.3968514293
 40
0.5237002487
 40
0.6463243203
 40
0.7059079266
 40
0.7643187181
 40
0.8218716801
 40
0.879358647
 40
0.9381665066
 40
1.0
 40
1.0
 40
1.0
 40
1.0
 10
16.3422362891
 20
11.8717859408
 30
0.0
 10
16.3473480911
 20
11.8681133417
 30
0.0
 10
16.3577643104
 20
11.8611688192
 30
0.0
 10
16.3740615488
 20
11.8521505837
 30
0.0
 10
16.390870384
 20
11.8449321974
 30
0.0
 10
16.408018341
 20
11.8399981887
 30
0.0
 10
16.4225238263
 20
11.8383440942
 30
0.0
 10
16.4338085954
 20
11.8391078563
 30
0.0
 10
16.4418827213
 20
11.8408780369
 30
0.0
 10
16.4494260267
 20
11.8440563481
 30
0.0
 10
16.4561139005
 20
11.8488530385
 30
0.0
 10
16.461489368
 20
11.8553687439
 30
0.0
 10
16.4638238026
 20
11.8606026602
 30
0.0
 10
16.4646795538
 20
11.8633718721
 30
0.0
  0
SPLINE
  5
51B
100
AcDbEntity
  8
0
100
AcDbSpline
 62
7
  6
CONTINUOUS
 70
0
 71
3
 72
11
 73
7
 74
0
 42
0.0000001
 43
0.0000001
 44
0.0000000001
 40
0.0
 40
0.0
 40
0.0
 40
0.0
 40
0.2611311607
 40
0.514203777
 40
0.7605797097
 40
1.0
 40
1.0
 40
1.0
 40
1.0
 10
16.8223557274
 20
12.5885070113
 30
0.0
 10
16.8248283309
 20
12.5885765934
 30
0.0
 10
16.8297114659
 20
12.5883484115
 30
0.0
 10
16.8368312312
 20
12.5871664678
 30
0.0
 10
16.8435928758
 20
12.585316093
 30
0.0
 10
16.847886786
 20
12.5836239961
 30
0.0
 10
16.8499344131
 20
12.5826489546
 30
0.0
  0
SPLINE
  5
51C
100
AcDbEntity
  8
0
100
AcDbSpline
 62
7
  6
CONTINUOUS
 70
0
 71
3
 72
11
 73
7
 74
0
 42
0.0000001
 43
0.0000001
 44
0.0000000001
 40
0.0
 40
0.0
 40
0.0
 40
0.0
 40
0.2426909656
 40
0.4955306888
 40
0.7507095336
 40
1.0
 40
1.0
 40
1.0
 40
1.0
 10
14.0681326045
 20
13.275056566
 30
0.0
 10
14.0556746929
 20
13.275056566
 30
0.0
 10
14.0301823895
 20
13.2721526433
 30
0.0
 10
13.9932763257
 20
13.2603209992
 30
0.0
 10
13.9589079077
 20
13.2416944209
 30
0.0
 10
13.9387223303
 20
13.2251551232
 30
0.0
 10
13.9297289994
 20
13.2160515516
 30
0.0
  0
SPLINE
  5
51D
100
AcDbEntity
  8
0
100
AcDbSpline
 62
7
  6
CONTINUOUS
 70
0
 71
3
 72
14
 73
10
 74
0
 42
0.0000001
 43
0.0000001
 44
0.0000000001
 40
0.0
 40
0.0
 40
0.0
 40
0.0
 40
0.1125883711
 40
0.2272988099
 40
0.3451594011
 40
0.4669567428
 40
0.5932282559
 40
0.7242314856
 40
1.0
 40
1.0
 40
1.0
 40
1.0
 10
14.1624562694
 20
13.2313052271
 30
0.0
 10
14.1602578398
 20
13.2347245229
 30
0.0
 10
14.1552772168
 20
13.2412941642
 30
0.0
 10
14.1463205694
 20
13.2500198361
 30
0.0
 10
14.1359469775
 20
13.2575801012
 30
0.0
 10
14.1242928436
 20
13.2638811688
 30
0.0
 10
14.1115034783
 20
13.2688514883
 30
0.0
 10
14.0928487274
 20
13.2737106818
 30
0.0
 10
14.078089355
 20
13.275056566
 30
0.0
 10
14.0681326045
 20
13.275056566
 30
0.0
  0
SPLINE
  5
51E
100
AcDbEntity
  8
0
100
AcDbSpline
 62
7
  6
CONTINUOUS
 70
0
 71
3
 72
10
 73
6
 74
0
 42
0.0000001
 43
0.0000001
 44
0.0000000001
 40
0.0
 40
0.0
 40
0.0
 40
0.0
 40
0.4891576335
 40
0.7433357424
 40
1.0
 40
1.0
 40
1.0
 40
1.0
 10
13.9951968904
 20
13.0390365086
 30
0.0
 10
14.0100362634
 20
13.0390365086
 30
0.0
 10
14.0326798275
 20
13.042104538
 30
0.0
 10
14.0616429669
 20
13.0512335658
 30
0.0
 10
14.0758482154
 20
13.0575365525
 30
0.0
 10
14.0827777633
 20
13.0610873422
 30
0.0
  0
SPLINE
  5
51F
100
AcDbEntity
  8
0
100
AcDbSpline
 62
7
  6
CONTINUOUS
 70
0
 71
3
 72
14
 73
10
 74
0
 42
0.0000001
 43
0.0000001
 44
0.0000000001
 40
0.0
 40
0.0
 40
0.0
 40
0.0
 40
0.1134496919
 40
0.2276872763
 40
0.3443762492
 40
0.4649534832
 40
0.5904561824
 40
0.7214867044
 40
1.0
 40
1.0
 40
1.0
 40
1.0
 10
13.8932611423
 20
13.0980415229
 30
0.0
 10
13.8949050942
 20
13.0935965315
 30
0.0
 10
13.8990230457
 20
13.0849539579
 30
0.0
 10
13.9075046893
 20
13.0732424696
 30
0.0
 10
13.918126631
 20
13.0629976705
 30
0.0
 10
13.9306828636
 20
13.0543978844
 30
0.0
 10
13.9449509426
 20
13.0475794869
 30
0.0
 10
13.9663292457
 20
13.0408704815
 30
0.0
 10
13.9835622603
 20
13.0390365086
 30
0.0
 10
13.9951968904
 20
13.0390365086
 30
0.0
  0
SPLINE
  5
520
100
AcDbEntity
  8
0
100
AcDbSpline
 62
7
  6
CONTINUOUS
 70
0
 71
3
 72
13
 73
9
 74
0
 42
0.0000001
 43
0.0000001
 44
0.0000000001
 40
0.0
 40
0.0
 40
0.0
 40
0.0
 40
0.2797078507
 40
0.5385704556
 40
0.660146121
 40
0.7768755022
 40
0.8897243512
 40
1.0
 40
1.0
 40
1.0
 40
1.0
 10
13.9297289994
 20
13.2160515516
 30
0.0
 10
13.9212066718
 20
13.207424757
 30
0.0
 10
13.9063918871
 20
13.1891125276
 30
0.0
 10
13.8939259921
 20
13.1629659297
 30
0.0
 10
13.888973213
 20
13.1419144594
 30
0.0
 10
13.8877805138
 20
13.1266707798
 30
0.0
 10
13.889071309
 20
13.1119252034
 30
0.0
 10
13.8916027432
 20
13.1025255775
 30
0.0
 10
13.8932611423
 20
13.0980415229
 30
0.0
  0
SPLINE
  5
521
100
AcDbEntity
  8
0
100
AcDbSpline
 62
7
  6
CONTINUOUS
 70
0
 71
3
 72
9
 73
5
 74
0
 42
0.0000001
 43
0.0000001
 44
0.0000000001
 40
0.0
 40
0.0
 40
0.0
 40
0.0
 40
0.4918368096
 40
1.0
 40
1.0
 40
1.0
 40
1.0
 10
16.6552006361
 20
12.6887234966
 30
0.0
 10
16.6812426067
 20
12.6701696687
 30
0.0
 10
16.7357814123
 20
12.6346428382
 30
0.0
 10
16.7928433263
 20
12.6033546647
 30
0.0
 10
16.8223557032
 20
12.5885069906
 30
0.0
  0
SPLINE
  5
522
100
AcDbEntity
  8
0
100
AcDbSpline
 62
7
  6
CONTINUOUS
 70
0
 71
3
 72
9
 73
5
 74
0
 42
0.0000001
 43
0.0000001
 44
0.0000000001
 40
0.0
 40
0.0
 40
0.0
 40
0.0
 40
0.5664124193
 40
1.0
 40
1.0
 40
1.0
 40
1.0
 10
14.1634813602
 20
13.2344533385
 30
0.0
 10
14.1618029773
 20
13.2393377767
 30
0.0
 10
14.1589413835
 20
13.2479970224
 30
0.0
 10
14.1563771556
 20
13.2567501255
 30
0.0
 10
14.1553550272
 20
13.2605693256
 30
0.0
  0
SPLINE
  5
523
100
AcDbEntity
  8
0
100
AcDbSpline
 62
7
  6
CONTINUOUS
 70
0
 71
3
 72
10
 73
6
 74
0
 42
0.0000001
 43
0.0000001
 44
0.0000000001
 40
0.0
 40
0.0
 40
0.0
 40
0.0
 40
0.2415648245
 40
0.6167718555
 40
1.0
 40
1.0
 40
1.0
 40
1.0
 10
13.9951968904
 20
13.0390365086
 30
0.0
 10
14.0010768171
 20
13.0390365086
 30
0.0
 10
14.0160950071
 20
13.0384024364
 30
0.0
 10
14.0402464827
 20
13.035050898
 30
0.0
 10
14.0582732831
 20
13.0309963487
 30
0.0
 10
14.0673092565
 20
13.0286799717
 30
0.0
  0
SPLINE
  5
524
100
AcDbEntity
  8
0
100
AcDbSpline
 62
7
  6
CONTINUOUS
 70
0
 71
3
 72
11
 73
7
 74
0
 42
0.0000001
 43
0.0000001
 44
0.0000000001
 40
0.0
 40
0.0
 40
0.0
 40
0.0
 40
0.2299321955
 40
0.4717171968
 40
0.7280012916
 40
1.0
 40
1.0
 40
1.0
 40
1.0
 10
13.9221930776
 20
13.0245492683
 30
0.0
 10
13.9275134718
 20
13.0267008868
 30
0.0
 10
13.9386020483
 20
13.0307023051
 30
0.0
 10
13.9561928375
 20
13.0353594739
 30
0.0
 10
13.9752086782
 20
13.038390457
 30
0.0
 10
13.9884079366
 20
13.0390365086
 30
0.0
 10
13.9951968904
 20
13.0390365086
 30
0.0
  0
SPLINE
  5
525
100
AcDbEntity
  8
0
100
AcDbSpline
 62
7
  6
CONTINUOUS
 70
0
 71
3
 72
14
 73
10
 74
0
 42
0.0000001
 43
0.0000001
 44
0.0000000001
 40
0.0
 40
0.0
 40
0.0
 40
0.0
 40
0.2754897199
 40
0.40598421
 40
0.5316822181
 40
0.6530509987
 40
0.7708482596
 40
0.8860908562
 40
1.0
 40
1.0
 40
1.0
 40
1.0
 10
13.8986989171
 20
12.5062253796
 30
0.0
 10
13.8871857138
 20
12.5068508015
 30
0.0
 10
13.8702114767
 20
12.5094205333
 30
0.0
 10
13.8490892322
 20
12.5165559357
 30
0.0
 10
13.8348191947
 20
12.5234502246
 30
0.0
 10
13.8220398974
 20
12.5318980048
 30
0.0
 10
13.8109200853
 20
12.5417973983
 30
0.0
 10
13.8016170835
 20
12.5530183742
 30
0.0
 10
13.7966999638
 20
12.5613075215
 30
0.0
 10
13.7945995461
 20
12.5655873748
 30
0.0
  0
SPLINE
  5
526
100
AcDbEntity
  8
0
100
AcDbSpline
 62
7
  6
CONTINUOUS
 70
0
 71
3
 72
13
 73
9
 74
0
 42
0.0000001
 43
0.0000001
 44
0.0000000001
 40
0.0
 40
0.0
 40
0.0
 40
0.0
 40
0.2797078507
 40
0.5385704556
 40
0.660146121
 40
0.7768755022
 40
0.8897243512
 40
1.0
 40
1.0
 40
1.0
 40
1.0
 10
13.8008510957
 20
12.7990025025
 30
0.0
 10
13.7923287681
 20
12.7903757079
 30
0.0
 10
13.7775139835
 20
12.7720634785
 30
0.0
 10
13.7650480884
 20
12.7459168806
 30
0.0
 10
13.7600953093
 20
12.7248654103
 30
0.0
 10
13.7589026101
 20
12.7096217307
 30
0.0
 10
13.7601934054
 20
12.6948761543
 30
0.0
 10
13.7627248396
 20
12.6854765283
 30
0.0
 10
13.7643832387
 20
12.6809924738
 30
0.0
  0
SPLINE
  5
527
100
AcDbEntity
  8
0
100
AcDbSpline
 62
7
  6
CONTINUOUS
 70
0
 71
3
 72
11
 73
7
 74
0
 42
0.0000001
 43
0.0000001
 44
0.0000000001
 40
0.0
 40
0.0
 40
0.0
 40
0.0
 40
0.2346325745
 40
0.4793919635
 40
0.7346177771
 40
1.0
 40
1.0
 40
1.0
 40
1.0
 10
13.9579802852
 20
12.9516226068
 30
0.0
 10
13.9631092225
 20
12.9486537463
 30
0.0
 10
13.9740705174
 20
12.9433912944
 30
0.0
 10
13.9918000284
 20
12.9377460755
 30
0.0
 10
14.0108634042
 20
12.9342646988
 30
0.0
 10
14.0240194088
 20
12.9334363155
 30
0.0
 10
14.0307220048
 20
12.9333743746
 30
0.0
  0
SPLINE
  5
528
100
AcDbEntity
  8
0
100
AcDbSpline
 62
7
  6
CONTINUOUS
 70
0
 71
3
 72
19
 73
15
 74
0
 42
0.0000001
 43
0.0000001
 44
0.0000000001
 40
0.0
 40
0.0
 40
0.0
 40
0.0
 40
0.207390361
 40
0.395919087
 40
0.5631506782
 40
0.705975995
 40
0.8209600044
 40
0.8668687437
 40
0.9045871017
 40
0.9340647458
 40
0.9564177712
 40
0.966171956
 40
0.9760641979
 40
1.0
 40
1.0
 40
1.0
 40
1.0
 10
13.9579915838
 20
11.8592022298
 30
0.0
 10
13.957465988
 20
11.8575907718
 30
0.0
 10
13.9564178954
 20
11.8545286191
 30
0.0
 10
13.9547746594
 20
11.8502282719
 30
0.0
 10
13.9531573633
 20
11.8464858453
 30
0.0
 10
13.951600902
 20
11.8433786686
 30
0.0
 10
13.950315667
 20
11.8412477025
 30
0.0
 10
13.9493253666
 20
11.8399593626
 30
0.0
 10
13.9486835229
 20
11.83928958
 30
0.0
 10
13.9480949962
 20
11.8388491407
 30
0.0
 10
13.9475985653
 20
11.8386819667
 30
0.0
 10
13.9472521617
 20
11.8387308686
 30
0.0
 10
13.9469316995
 20
11.8389008425
 30
0.0
 10
13.9467684478
 20
11.8391434316
 30
0.0
 10
13.9466823499
 20
11.8393190944
 30
0.0
  0
SPLINE
  5
529
100
AcDbEntity
  8
0
100
AcDbSpline
 62
7
  6
CONTINUOUS
 70
0
 71
3
 72
14
 73
10
 74
0
 42
0.0000001
 43
0.0000001
 44
0.0000000001
 40
0.0
 40
0.0
 40
0.0
 40
0.0
 40
0.2754897199
 40
0.40598421
 40
0.5316822181
 40
0.6530509987
 40
0.7708482596
 40
0.8860908562
 40
1.0
 40
1.0
 40
1.0
 40
1.0
 10
14.0275768207
 20
12.9232744288
 30
0.0
 10
14.0160636175
 20
12.9238998506
 30
0.0
 10
13.9990893803
 20
12.9264695824
 30
0.0
 10
13.9779671358
 20
12.9336049848
 30
0.0
 10
13.9636970984
 20
12.9404992738
 30
0.0
 10
13.950917801
 20
12.9489470539
 30
0.0
 10
13.939797989
 20
12.9588464474
 30
0.0
 10
13.9304949872
 20
12.9700674233
 30
0.0
 10
13.9255778674
 20
12.9783565706
 30
0.0
 10
13.9234774497
 20
12.9826364239
 30
0.0
  0
SPLINE
  5
52A
100
AcDbEntity
  8
0
100
AcDbSpline
 62
7
  6
CONTINUOUS
 70
0
 71
3
 72
11
 73
7
 74
0
 42
0.0000001
 43
0.0000001
 44
0.0000000001
 40
0.0
 40
0.0
 40
0.0
 40
0.0
 40
0.2436325401
 40
0.4898702544
 40
0.7412462644
 40
1.0
 40
1.0
 40
1.0
 40
1.0
 10
13.9584015673
 20
11.8604553397
 30
0.0
 10
13.9548041915
 20
11.8488147675
 30
0.0
 10
13.9460551963
 20
11.8258480041
 30
0.0
 10
13.9285243197
 20
11.7930806325
 30
0.0
 10
13.9066701999
 20
11.7620990604
 30
0.0
 10
13.8895890935
 20
11.743064917
 30
0.0
 10
13.8804414123
 20
11.7339127413
 30
0.0
  0
SPLINE
  5
52B
100
AcDbEntity
  8
0
100
AcDbSpline
 62
7
  6
CONTINUOUS
 70
0
 71
3
 72
11
 73
7
 74
0
 42
0.0000001
 43
0.0000001
 44
0.0000000001
 40
0.0
 40
0.0
 40
0.0
 40
0.0
 40
0.2426909656
 40
0.4955306888
 40
0.7507095336
 40
1.0
 40
1.0
 40
1.0
 40
1.0
 10
13.9392547008
 20
12.8580075169
 30
0.0
 10
13.9267967892
 20
12.8580075169
 30
0.0
 10
13.9013044858
 20
12.8551035942
 30
0.0
 10
13.864398422
 20
12.8432719501
 30
0.0
 10
13.8300300041
 20
12.8246453718
 30
0.0
 10
13.8098444267
 20
12.8081060741
 30
0.0
 10
13.8008510957
 20
12.7990025025
 30
0.0
  0
SPLINE
  5
52C
100
AcDbEntity
  8
0
100
AcDbSpline
 62
7
  6
CONTINUOUS
 70
0
 71
3
 72
11
 73
7
 74
0
 42
0.0000001
 43
0.0000001
 44
0.0000000001
 40
0.0
 40
0.0
 40
0.0
 40
0.0
 40
0.2268650071
 40
0.4650432619
 40
0.7220211552
 40
1.0
 40
1.0
 40
1.0
 40
1.0
 10
13.9291936466
 20
12.1093839093
 30
0.0
 10
13.9296245152
 20
12.1085029867
 30
0.0
 10
13.930830331
 20
12.1068389443
 30
0.0
 10
13.9334137501
 20
12.1050063429
 30
0.0
 10
13.9366025179
 20
12.1038903031
 30
0.0
 10
13.9389252643
 20
12.1036602294
 30
0.0
 10
13.9401268585
 20
12.1036602476
 30
0.0
  0
SPLINE
  5
52D
100
AcDbEntity
  8
0
100
AcDbSpline
 62
7
  6
CONTINUOUS
 70
0
 71
3
 72
11
 73
7
 74
0
 42
0.0000001
 43
0.0000001
 44
0.0000000001
 40
0.0
 40
0.0
 40
0.0
 40
0.0
 40
0.2347557818
 40
0.4780276501
 40
0.7324639509
 40
1.0
 40
1.0
 40
1.0
 40
1.0
 10
15.5054385142
 20
11.8188475339
 30
0.0
 10
15.5061440584
 20
11.8284407518
 30
0.0
 10
15.5060736329
 20
11.8481126276
 30
0.0
 10
15.5016672759
 20
11.877891171
 30
0.0
 10
15.4930214667
 20
11.9081157715
 30
0.0
 10
15.4847090259
 20
11.9278799014
 30
0.0
 10
15.479936127
 20
11.9377486133
 30
0.0
  0
SPLINE
  5
52E
100
AcDbEntity
  8
0
100
AcDbSpline
 62
7
  6
CONTINUOUS
 70
0
 71
3
 72
9
 73
5
 74
0
 42
0.0000001
 43
0.0000001
 44
0.0000000001
 40
0.0
 40
0.0
 40
0.0
 40
0.0
 40
0.4910594692
 40
1.0
 40
1.0
 40
1.0
 40
1.0
 10
14.8795534926
 20
11.2667969553
 30
0.0
 10
14.8798677767
 20
11.2678140533
 30
0.0
 10
14.8802588094
 20
11.2699699417
 30
0.0
 10
14.8801424152
 20
11.2721542025
 30
0.0
 10
14.8799733682
 20
11.2732444869
 30
0.0
  0
SPLINE
  5
52F
100
AcDbEntity
  8
0
100
AcDbSpline
 62
7
  6
CONTINUOUS
 70
0
 71
3
 72
9
 73
5
 74
0
 42
0.0000001
 43
0.0000001
 44
0.0000000001
 40
0.0
 40
0.0
 40
0.0
 40
0.0
 40
0.2403862185
 40
1.0
 40
1.0
 40
1.0
 40
1.0
 10
14.8798598836
 20
11.2738916876
 30
0.0
 10
14.879779059
 20
11.2743050167
 30
0.0
 10
14.8793791194
 20
11.2760118416
 30
0.0
 10
14.8787370239
 20
11.2776580655
 30
0.0
 10
14.8781507294
 20
11.2788528081
 30
0.0
  0
SPLINE
  5
530
100
AcDbEntity
  8
0
100
AcDbSpline
 62
7
  6
CONTINUOUS
 70
0
 71
3
 72
27
 73
23
 74
0
 42
0.0000001
 43
0.0000001
 44
0.0000000001
 40
0.0
 40
0.0
 40
0.0
 40
0.0
 40
0.0718416837
 40
0.1069409344
 40
0.1413184022
 40
0.2074428871
 40
0.2391772689
 40
0.2700237216
 40
0.3000773251
 40
0.3294867039
 40
0.358435692
 40
0.3871175131
 40
0.4157098984
 40
0.4443617117
 40
0.5021715723
 40
0.5611374961
 40
0.6213455827
 40
0.6826856189
 40
0.7449776522
 40
0.8080309317
 40
0.8716616052
 40
1.0
 40
1.0
 40
1.0
 40
1.0
 10
15.8031670875
 20
13.1432379977
 30
0.0
 10
15.7985475728
 20
13.1526514035
 30
0.0
 10
15.7924176325
 20
13.1670650599
 30
0.0
 10
15.7864091186
 20
13.1868171713
 30
0.0
 10
15.782179926
 20
13.2061648578
 30
0.0
 10
15.7806011016
 20
13.2255615348
 30
0.0
 10
15.782284634
 20
13.2443103988
 30
0.0
 10
15.7851430864
 20
13.2575639144
 30
0.0
 10
15.7896034489
 20
13.2700100186
 30
0.0
 10
15.7955994259
 20
13.281483823
 30
0.0
 10
15.8030165954
 20
13.2918485464
 30
0.0
 10
15.8117041244
 20
13.301007053
 30
0.0
 10
15.8214928802
 20
13.3089042857
 30
0.0
 10
15.8358069209
 20
13.3177559881
 30
0.0
 10
15.8556954099
 20
13.3256750326
 30
0.0
 10
15.8812153418
 20
13.3304302518
 30
0.0
 10
15.9076496335
 20
13.3310640966
 30
0.0
 10
15.9343874296
 20
13.3281247976
 30
0.0
 10
15.9610148342
 20
13.3221186307
 30
0.0
 10
15.9872507209
 20
13.3134842998
 30
0.0
 10
16.0215465917
 20
13.29893873
 30
0.0
 10
16.0460859255
 20
13.2851964295
 30
0.0
 10
16.0618803763
 20
13.2751257027
 30
0.0
  0
SPLINE
  5
531
100
AcDbEntity
  8
0
100
AcDbSpline
 62
7
  6
CONTINUOUS
 70
0
 71
3
 72
13
 73
9
 74
0
 42
0.0000001
 43
0.0000001
 44
0.0000000001
 40
0.0
 40
0.0
 40
0.0
 40
0.0
 40
0.2658142044
 40
0.3970848049
 40
0.5258079664
 40
0.6511026496
 40
0.7722581166
 40
1.0
 40
1.0
 40
1.0
 40
1.0
 10
15.9849607706
 20
12.5345735577
 30
0.0
 10
15.9988746254
 20
12.5405053916
 30
0.0
 10
16.0188963831
 20
12.551358909
 30
0.0
 10
16.0429156725
 20
12.5692543639
 30
0.0
 10
16.0591491212
 20
12.584046724
 30
0.0
 10
16.0733872967
 20
12.6000157182
 30
0.0
 10
16.0890477039
 20
12.6220218627
 30
0.0
 10
16.097715598
 20
12.6402021689
 30
0.0
 10
16.1015417454
 20
12.6525835864
 30
0.0
  0
SPLINE
  5
532
100
AcDbEntity
  8
0
100
AcDbSpline
 62
7
  6
CONTINUOUS
 70
0
 71
3
 72
11
 73
7
 74
0
 42
0.0000001
 43
0.0000001
 44
0.0000000001
 40
0.0
 40
0.0
 40
0.0
 40
0.0
 40
0.2644303867
 40
0.5170826331
 40
0.7609168475
 40
1.0
 40
1.0
 40
1.0
 40
1.0
 10
16.1015417454
 20
12.6525835864
 30
0.0
 10
16.1035850324
 20
12.6591956658
 30
0.0
 10
16.1065780259
 20
12.6724696975
 30
0.0
 10
16.1074777794
 20
12.6924749726
 30
0.0
 10
16.1046336821
 20
12.7116383742
 30
0.0
 10
16.1002398294
 20
12.7236022885
 30
0.0
 10
16.0974833104
 20
12.7292196119
 30
0.0
  0
SPLINE
  5
533
100
AcDbEntity
  8
0
100
AcDbSpline
 62
7
  6
CONTINUOUS
 70
0
 71
3
 72
9
 73
5
 74
0
 42
0.0000001
 43
0.0000001
 44
0.0000000001
 40
0.0
 40
0.0
 40
0.0
 40
0.0
 40
0.4897544887
 40
1.0
 40
1.0
 40
1.0
 40
1.0
 10
15.8992060558
 20
12.5163173427
 30
0.0
 10
15.913591062
 20
12.5163173427
 30
0.0
 10
15.9430185606
 20
12.5196667655
 30
0.0
 10
15.9711744823
 20
12.5286961087
 30
0.0
 10
15.9849607706
 20
12.5345735577
 30
0.0
  0
SPLINE
  5
534
100
AcDbEntity
  8
0
100
AcDbSpline
 62
7
  6
CONTINUOUS
 70
0
 71
3
 72
9
 73
5
 74
0
 42
0.0000001
 43
0.0000001
 44
0.0000000001
 40
0.0
 40
0.0
 40
0.0
 40
0.0
 40
0.4880758263
 40
1.0
 40
1.0
 40
1.0
 40
1.0
 10
15.8523290517
 20
12.5228144537
 30
0.0
 10
15.859727992
 20
12.5206131228
 30
0.0
 10
15.8752718601
 20
12.5173346993
 30
0.0
 10
15.8911094001
 20
12.5163173427
 30
0.0
 10
15.8992060558
 20
12.5163173427
 30
0.0
  0
SPLINE
  5
535
100
AcDbEntity
  8
0
100
AcDbSpline
 62
7
  6
CONTINUOUS
 70
0
 71
3
 72
9
 73
5
 74
0
 42
0.0000001
 43
0.0000001
 44
0.0000000001
 40
0.0
 40
0.0
 40
0.0
 40
0.0
 40
0.256731889
 40
1.0
 40
1.0
 40
1.0
 40
1.0
 10
15.9042900869
 20
12.5059571766
 30
0.0
 10
15.9011153814
 20
12.5059571766
 30
0.0
 10
15.8887530425
 20
12.5062698967
 30
0.0
 10
15.876411227
 20
12.5078627314
 30
0.0
 10
15.8674389644
 20
12.509856586
 30
0.0
  0
SPLINE
  5
536
100
AcDbEntity
  8
0
100
AcDbSpline
 62
7
  6
CONTINUOUS
 70
0
 71
3
 72
11
 73
7
 74
0
 42
0.0000001
 43
0.0000001
 44
0.0000000001
 40
0.0
 40
0.0
 40
0.0
 40
0.0
 40
0.2283154346
 40
0.4776772854
 40
0.7386421092
 40
1.0
 40
1.0
 40
1.0
 40
1.0
 10
14.5563175817
 20
13.2779917478
 30
0.0
 10
14.5552705694
 20
13.2746036148
 30
0.0
 10
14.5522196409
 20
13.2677712118
 30
0.0
 10
14.5456852972
 20
13.2582807087
 30
0.0
 10
14.5373689103
 20
13.2495840541
 30
0.0
 10
14.5309007822
 20
13.2446224456
 30
0.0
 10
14.527489524
 20
13.2424219078
 30
0.0
  0
SPLINE
  5
537
100
AcDbEntity
  8
0
100
AcDbSpline
 62
7
  6
CONTINUOUS
 70
0
 71
3
 72
14
 73
10
 74
0
 42
0.0000001
 43
0.0000001
 44
0.0000000001
 40
0.0
 40
0.0
 40
0.0
 40
0.0
 40
0.1166614028
 40
0.229772705
 40
0.3426242689
 40
0.458662286
 40
0.7102286478
 40
0.8501672473
 40
1.0
 40
1.0
 40
1.0
 40
1.0
 10
14.4894867447
 20
13.2348804469
 30
0.0
 10
14.488328178
 20
13.2353835567
 30
0.0
 10
14.4861329529
 20
13.2365967523
 30
0.0
 10
14.4833201607
 20
13.2390592546
 30
0.0
 10
14.4811235344
 20
13.2420783643
 30
0.0
 10
14.4790201904
 20
13.2468745272
 30
0.0
 10
14.4784129784
 20
13.2524728718
 30
0.0
 10
14.4790738817
 20
13.2583030293
 30
0.0
 10
14.4798330625
 20
13.2613589086
 30
0.0
 10
14.4803120232
 20
13.262908826
 30
0.0
  0
SPLINE
  5
538
100
AcDbEntity
  8
0
100
AcDbSpline
 62
7
  6
CONTINUOUS
 70
0
 71
3
 72
14
 73
10
 74
0
 42
0.0000001
 43
0.0000001
 44
0.0000000001
 40
0.0
 40
0.0
 40
0.0
 40
0.0
 40
0.1125883655
 40
0.2272988622
 40
0.3451595325
 40
0.4669569423
 40
0.593228487
 40
0.7242316959
 40
1.0
 40
1.0
 40
1.0
 40
1.0
 10
14.033577791
 20
12.8142570719
 30
0.0
 10
14.031379337
 20
12.8176763046
 30
0.0
 10
14.0263986802
 20
12.8242458202
 30
0.0
 10
14.0174420272
 20
12.8329713163
 30
0.0
 10
14.007068469
 20
12.840531425
 30
0.0
 10
13.9954144043
 20
12.8468323598
 30
0.0
 10
13.9826251396
 20
12.8518025732
 30
0.0
 10
13.9639705643
 20
12.8566616609
 30
0.0
 10
13.9492113465
 20
12.8580075169
 30
0.0
 10
13.9392547008
 20
12.8580075169
 30
0.0
  0
SPLINE
  5
539
100
AcDbEntity
  8
0
100
AcDbSpline
 62
7
  6
CONTINUOUS
 70
0
 71
3
 72
12
 73
8
 74
0
 42
0.0000001
 43
0.0000001
 44
0.0000000001
 40
0.0
 40
0.0
 40
0.0
 40
0.0
 40
0.2908799955
 40
0.5578856112
 40
0.6802525851
 40
0.7945524664
 40
1.0
 40
1.0
 40
1.0
 40
1.0
 10
14.527489524
 20
13.2424219078
 30
0.0
 10
14.5242206613
 20
13.2403132267
 30
0.0
 10
14.5176214557
 20
13.2367505729
 30
0.0
 10
14.5089065429
 20
13.2339163217
 30
0.0
 10
14.5022184263
 20
13.2329681656
 30
0.0
 10
14.4963009228
 20
13.2328957134
 30
0.0
 10
14.4920068692
 20
13.2337860782
 30
0.0
 10
14.4894867447
 20
13.2348804469
 30
0.0
  0
SPLINE
  5
53A
100
AcDbEntity
  8
0
100
AcDbSpline
 62
7
  6
CONTINUOUS
 70
0
 71
3
 72
9
 73
5
 74
0
 42
0.0000001
 43
0.0000001
 44
0.0000000001
 40
0.0
 40
0.0
 40
0.0
 40
0.0
 40
0.2366210911
 40
1.0
 40
1.0
 40
1.0
 40
1.0
 10
13.7439085457
 20
11.9516950339
 30
0.0
 10
13.7428322234
 20
11.951417756
 30
0.0
 10
13.7382400194
 20
11.9504160188
 30
0.0
 10
13.7335204855
 20
11.9500507565
 30
0.0
 10
13.7299347174
 20
11.9500507565
 30
0.0
  0
SPLINE
  5
53B
100
AcDbEntity
  8
0
100
AcDbSpline
 62
7
  6
CONTINUOUS
 70
0
 71
3
 72
11
 73
7
 74
0
 42
0.0000001
 43
0.0000001
 44
0.0000000001
 40
0.0
 40
0.0
 40
0.0
 40
0.0
 40
0.2366480195
 40
0.4829258092
 40
0.7378786293
 40
1.0
 40
1.0
 40
1.0
 40
1.0
 10
16.6623670513
 20
12.5030888483
 30
0.0
 10
16.6607147944
 20
12.497742143
 30
0.0
 10
16.6581782661
 20
12.486559484
 30
0.0
 10
16.6566410346
 20
12.4691344279
 30
0.0
 10
16.657177254
 20
12.4510553448
 30
0.0
 10
16.6587771452
 20
12.4389118774
 30
0.0
 10
16.6598526809
 20
12.4328073366
 30
0.0
  0
SPLINE
  5
53C
100
AcDbEntity
  8
0
100
AcDbSpline
 62
7
  6
CONTINUOUS
 70
0
 71
3
 72
9
 73
5
 74
0
 42
0.0000001
 43
0.0000001
 44
0.0000000001
 40
0.0
 40
0.0
 40
0.0
 40
0.0
 40
0.4942396816
 40
1.0
 40
1.0
 40
1.0
 40
1.0
 10
16.6598526809
 20
12.4328073366
 30
0.0
 10
16.6620838187
 20
12.4201438124
 30
0.0
 10
16.6688886583
 20
12.3949041193
 30
0.0
 10
16.6790341843
 20
12.3708737159
 30
0.0
 10
16.6848311502
 20
12.3590611774
 30
0.0
  0
SPLINE
  5
53D
100
AcDbEntity
  8
0
100
AcDbSpline
 62
7
  6
CONTINUOUS
 70
0
 71
3
 72
18
 73
14
 74
0
 42
0.0000001
 43
0.0000001
 44
0.0000000001
 40
0.0
 40
0.0
 40
0.0
 40
0.0
 40
0.1354049198
 40
0.266421017
 40
0.3930581662
 40
0.5156979401
 40
0.635250785
 40
0.6944766959
 40
0.7537371731
 40
0.8134567794
 40
0.87411127
 40
0.9361747071
 40
1.0
 40
1.0
 40
1.0
 40
1.0
 10
16.8223557274
 20
12.5885070113
 30
0.0
 10
16.8135975597
 20
12.5882528652
 30
0.0
 10
16.7963733554
 20
12.58721432
 30
0.0
 10
16.7711446922
 20
12.5837757088
 30
0.0
 10
16.7471284605
 20
12.5782117403
 30
0.0
 10
16.724595374
 20
12.5701573207
 30
0.0
 10
16.7073136026
 20
12.5608929463
 30
0.0
 10
16.6948842552
 20
12.5517556115
 30
0.0
 10
16.6863391448
 20
12.5439779403
 30
0.0
 10
16.6786645499
 20
12.5352127373
 30
0.0
 10
16.6719900097
 20
12.5254396109
 30
0.0
 10
16.6664363989
 20
12.5146898071
 30
0.0
 10
16.6635864351
 20
12.5070347759
 30
0.0
 10
16.6623670513
 20
12.5030888483
 30
0.0
  0
SPLINE
  5
53E
100
AcDbEntity
  8
0
100
AcDbSpline
 62
7
  6
CONTINUOUS
 70
0
 71
3
 72
9
 73
5
 74
0
 42
0.0000001
 43
0.0000001
 44
0.0000000001
 40
0.0
 40
0.0
 40
0.0
 40
0.0
 40
0.4856132332
 40
1.0
 40
1.0
 40
1.0
 40
1.0
 10
13.8693334112
 20
11.9972935234
 30
0.0
 10
13.8499224582
 20
11.9877482203
 30
0.0
 10
13.8087695419
 20
11.9704402679
 30
0.0
 10
13.7660967253
 20
11.9574110659
 30
0.0
 10
13.7439085457
 20
11.9516950339
 30
0.0
  0
SPLINE
  5
53F
100
AcDbEntity
  8
0
100
AcDbSpline
 62
7
  6
CONTINUOUS
 70
0
 71
3
 72
9
 73
5
 74
0
 42
0.0000001
 43
0.0000001
 44
0.0000000001
 40
0.0
 40
0.0
 40
0.0
 40
0.0
 40
0.2426742497
 40
1.0
 40
1.0
 40
1.0
 40
1.0
 10
14.4803120232
 20
13.262908826
 30
0.0
 10
14.480478627
 20
13.263447956
 30
0.0
 10
14.4812087619
 20
13.2656559916
 30
0.0
 10
14.4821049667
 20
13.2678080784
 30
0.0
 10
14.4828595996
 20
13.2693991875
 30
0.0
  0
SPLINE
  5
540
100
AcDbEntity
  8
0
100
AcDbSpline
 62
7
  6
CONTINUOUS
 70
0
 71
3
 72
11
 73
7
 74
0
 42
0.0000001
 43
0.0000001
 44
0.0000000001
 40
0.0
 40
0.0
 40
0.0
 40
0.0
 40
0.283300311
 40
0.5443423046
 40
0.7824794868
 40
1.0
 40
1.0
 40
1.0
 40
1.0
 10
14.5230864081
 20
13.3053696524
 30
0.0
 10
14.5252791813
 20
13.30612863
 30
0.0
 10
14.5295910667
 20
13.307326039
 30
0.0
 10
14.5359815953
 20
13.308100667
 30
0.0
 10
14.5418769092
 20
13.3077580111
 30
0.0
 10
14.5455086624
 20
13.3067297803
 30
0.0
 10
14.5471428601
 20
13.3060201269
 30
0.0
  0
SPLINE
  5
541
100
AcDbEntity
  8
0
100
AcDbSpline
 62
7
  6
CONTINUOUS
 70
0
 71
3
 72
14
 73
10
 74
0
 42
0.0000001
 43
0.0000001
 44
0.0000000001
 40
0.0
 40
0.0
 40
0.0
 40
0.0
 40
0.1116437098
 40
0.2303329331
 40
0.3551495171
 40
0.4844120377
 40
0.6159637984
 40
0.7474153305
 40
1.0
 40
1.0
 40
1.0
 40
1.0
 10
13.5926630537
 20
11.754219029
 30
0.0
 10
13.5940248401
 20
11.7586257712
 30
0.0
 10
13.5978295995
 20
11.7674286569
 30
0.0
 10
13.6060607959
 20
11.7796568927
 30
0.0
 10
13.6166760177
 20
11.7909036039
 30
0.0
 10
13.6292701482
 20
11.800750113
 30
0.0
 10
13.643382945
 20
11.8088392111
 30
0.0
 10
13.663196237
 20
11.8167577826
 30
0.0
 10
13.6791552532
 20
11.8194962715
 30
0.0
 10
13.6895903302
 20
11.8194962715
 30
0.0
  0
SPLINE
  5
542
100
AcDbEntity
  8
0
100
AcDbSpline
 62
7
  6
CONTINUOUS
 70
0
 71
3
 72
11
 73
7
 74
0
 42
0.0000001
 43
0.0000001
 44
0.0000000001
 40
0.0
 40
0.0
 40
0.0
 40
0.0
 40
0.2507388157
 40
0.4939161999
 40
0.7402899027
 40
1.0
 40
1.0
 40
1.0
 40
1.0
 10
14.5471428601
 20
13.3060201269
 30
0.0
 10
14.5485390745
 20
13.3054138181
 30
0.0
 10
14.5511664679
 20
13.3038938839
 30
0.0
 10
14.554370263
 20
13.300666687
 30
0.0
 10
14.5566242042
 20
13.2966570392
 30
0.0
 10
14.557427631
 20
13.2936580212
 30
0.0
 10
14.5576753848
 20
13.2921009686
 30
0.0
  0
SPLINE
  5
543
100
AcDbEntity
  8
0
100
AcDbSpline
 62
7
  6
CONTINUOUS
 70
0
 71
3
 72
9
 73
5
 74
0
 42
0.0000001
 43
0.0000001
 44
0.0000000001
 40
0.0
 40
0.0
 40
0.0
 40
0.0
 40
0.2308763631
 40
1.0
 40
1.0
 40
1.0
 40
1.0
 10
14.5577208161
 20
13.2918027773
 30
0.0
 10
14.5578755307
 20
13.2907404684
 30
0.0
 10
14.5582233165
 20
13.2860917202
 30
0.0
 10
14.5573734537
 20
13.2814085509
 30
0.0
 10
14.5563175817
 20
13.2779917478
 30
0.0
  0
SPLINE
  5
544
100
AcDbEntity
  8
0
100
AcDbSpline
 62
7
  6
CONTINUOUS
 70
0
 71
3
 72
9
 73
5
 74
0
 42
0.0000001
 43
0.0000001
 44
0.0000000001
 40
0.0
 40
0.0
 40
0.0
 40
0.0
 40
0.5118612455
 40
1.0
 40
1.0
 40
1.0
 40
1.0
 10
15.7652265317
 20
12.6667199939
 30
0.0
 10
15.7615655533
 20
12.659225454
 30
0.0
 10
15.7553976425
 20
12.6440744932
 30
0.0
 10
15.7516100648
 20
12.6281422393
 30
0.0
 10
15.750440836
 20
12.62027429
 30
0.0
  0
SPLINE
  5
545
100
AcDbEntity
  8
0
100
AcDbSpline
 62
7
  6
CONTINUOUS
 70
0
 71
3
 72
29
 73
25
 74
0
 42
0.0000001
 43
0.0000001
 44
0.0000000001
 40
0.0
 40
0.0
 40
0.0
 40
0.0
 40
0.0647630119
 40
0.1325827639
 40
0.2027888327
 40
0.274615861
 40
0.347240012
 40
0.4198093685
 40
0.4914739061
 40
0.5614156212
 40
0.6288795963
 40
0.6614811167
 40
0.693226885
 40
0.7240561935
 40
0.7539196182
 40
0.7827805172
 40
0.810616715
 40
0.8374224157
 40
0.8632103175
 40
0.9118440393
 40
0.9348679204
 40
0.9571458102
 40
0.9788062921
 40
1.0
 40
1.0
 40
1.0
 40
1.0
 10
16.151312437
 20
13.2749074859
 30
0.0
 10
16.115675057
 20
13.3055844934
 30
0.0
 10
16.039452408
 20
13.3646641284
 30
0.0
 10
15.9152876244
 20
13.4441147984
 30
0.0
 10
15.780418721
 20
13.5153723563
 30
0.0
 10
15.63718369
 20
13.5771993598
 30
0.0
 10
15.4880493352
 20
13.6285317326
 30
0.0
 10
15.3355941429
 20
13.6684828543
 30
0.0
 10
15.182447799
 20
13.6963620313
 30
0.0
 10
15.0312628836
 20
13.7116880606
 30
0.0
 10
14.9076686569
 20
13.713803108
 30
0.0
 10
14.8120644936
 20
13.7088062525
 30
0.0
 10
14.7432790587
 20
13.701874977
 30
0.0
 10
14.6768997408
 20
13.6917486099
 30
0.0
 10
14.6132134608
 20
13.6784700069
 30
0.0
 10
14.5524959102
 20
13.6620950411
 30
0.0
 10
14.4950128706
 20
13.642694068
 30
0.0
 10
14.4410044739
 20
13.620342032
 30
0.0
 10
14.3752611619
 20
13.5873966502
 30
0.0
 10
14.3157118243
 20
13.5484441773
 30
0.0
 10
14.2642842562
 20
13.5035121791
 30
0.0
 10
14.230904359
 20
13.468044093
 30
0.0
 10
14.2021899428
 20
13.4303632275
 30
0.0
 10
14.1861064999
 20
13.4036378439
 30
0.0
 10
14.1789374594
 20
13.3900217625
 30
0.0
  0
SPLINE
  5
546
100
AcDbEntity
  8
0
100
AcDbSpline
 62
7
  6
CONTINUOUS
 70
0
 71
3
 72
9
 73
5
 74
0
 42
0.0000001
 43
0.0000001
 44
0.0000000001
 40
0.0
 40
0.0
 40
0.0
 40
0.0
 40
0.5252985526
 40
1.0
 40
1.0
 40
1.0
 40
1.0
 10
15.8881621536
 20
12.4233528584
 30
0.0
 10
15.8877797072
 20
12.4244153009
 30
0.0
 10
15.887292207
 20
12.4265335164
 30
0.0
 10
15.8874477428
 20
12.4287348028
 30
0.0
 10
15.8877490184
 20
12.4297097309
 30
0.0
  0
SPLINE
  5
547
100
AcDbEntity
  8
0
100
AcDbSpline
 62
7
  6
CONTINUOUS
 70
0
 71
3
 72
17
 73
13
 74
0
 42
0.0000001
 43
0.0000001
 44
0.0000000001
 40
0.0
 40
0.0
 40
0.0
 40
0.0
 40
0.1221964257
 40
0.2485963719
 40
0.3775598794
 40
0.5073353699
 40
0.6361382985
 40
0.762224296
 40
0.8237493427
 40
0.883997514
 40
0.9428013385
 40
1.0
 40
1.0
 40
1.0
 40
1.0
 10
14.6672587213
 20
12.8629915539
 30
0.0
 10
14.7211369062
 20
12.8629915511
 30
0.0
 10
14.8308008035
 20
12.8575818459
 30
0.0
 10
14.9958779082
 20
12.8346315629
 30
0.0
 10
15.1617038224
 20
12.7971410936
 30
0.0
 10
15.3249037587
 20
12.7458681498
 30
0.0
 10
15.4821681847
 20
12.6818558311
 30
0.0
 10
15.6066574644
 20
12.6184506653
 30
0.0
 10
15.7004857636
 20
12.5623568845
 30
0.0
 10
15.7668691878
 20
12.5183398794
 30
0.0
 10
15.8294869693
 20
12.4722661154
 30
0.0
 10
15.8690934891
 20
12.4398580238
 30
0.0
 10
15.8881621536
 20
12.4233528584
 30
0.0
  0
SPLINE
  5
548
100
AcDbEntity
  8
0
100
AcDbSpline
 62
7
  6
CONTINUOUS
 70
0
 71
3
 72
10
 73
6
 74
0
 42
0.0000001
 43
0.0000001
 44
0.0000000001
 40
0.0
 40
0.0
 40
0.0
 40
0.0
 40
0.2335602588
 40
0.4711440293
 40
1.0
 40
1.0
 40
1.0
 40
1.0
 10
16.1513121281
 20
13.2749075287
 30
0.0
 10
16.1509406454
 20
13.2748604323
 30
0.0
 10
16.150199362
 20
13.2746531289
 30
0.0
 10
16.1488486619
 20
13.2737450225
 30
0.0
 10
16.1482206534
 20
13.2725962506
 30
0.0
 10
16.1479703161
 20
13.2717861587
 30
0.0
  0
SPLINE
  5
549
100
AcDbEntity
  8
0
100
AcDbSpline
 62
7
  6
CONTINUOUS
 70
0
 71
3
 72
23
 73
19
 74
0
 42
0.0000001
 43
0.0000001
 44
0.0000000001
 40
0.0
 40
0.0
 40
0.0
 40
0.0
 40
0.0558283026
 40
0.1141660046
 40
0.1747704252
 40
0.2373432262
 40
0.3015416018
 40
0.3669883325
 40
0.4332810186
 40
0.5000007556
 40
0.5667204664
 40
0.6330130751
 40
0.6984596792
 40
0.7626578817
 40
0.8252304679
 40
0.8858346313
 40
0.9441720617
 40
1.0
 40
1.0
 40
1.0
 40
1.0
 10
14.7621267231
 20
13.7636664171
 30
0.0
 10
14.7902104769
 20
13.7698654203
 30
0.0
 10
14.8482044774
 20
13.7800836095
 30
0.0
 10
14.9378775207
 20
13.7889169268
 30
0.0
 10
15.031420566
 20
13.7915367218
 30
0.0
 10
15.1279432107
 20
13.7879184202
 30
0.0
 10
15.2265360135
 20
13.7780977579
 30
0.0
 10
15.3262652874
 20
13.7621679176
 30
0.0
 10
15.4261863643
 20
13.740279984
 30
0.0
 10
15.5253518297
 20
13.7126414708
 30
0.0
 10
15.6228211727
 20
13.6795145044
 30
0.0
 10
15.7176699737
 20
13.6412132775
 30
0.0
 10
15.8089989222
 20
13.598100961
 30
0.0
 10
15.8959428155
 20
13.5505857718
 30
0.0
 10
15.9776781741
 20
13.499117529
 30
0.0
 10
16.0534339809
 20
13.444179827
 30
0.0
 10
16.122488863
 20
13.3862952654
 30
0.0
 10
16.1646066753
 20
13.3451398658
 30
0.0
 10
16.184296613
 20
13.3241775085
 30
0.0
  0
SPLINE
  5
54A
100
AcDbEntity
  8
0
100
AcDbSpline
 62
7
  6
CONTINUOUS
 70
0
 71
3
 72
9
 73
5
 74
0
 42
0.0000001
 43
0.0000001
 44
0.0000000001
 40
0.0
 40
0.0
 40
0.0
 40
0.0
 40
0.4807107497
 40
1.0
 40
1.0
 40
1.0
 40
1.0
 10
15.8915610665
 20
12.4180019236
 30
0.0
 10
15.8907883011
 20
12.4186741069
 30
0.0
 10
15.8894158239
 20
12.420353437
 30
0.0
 10
15.8885382596
 20
12.4223123465
 30
0.0
 10
15.8881617128
 20
12.4233527002
 30
0.0
  0
SPLINE
  5
54B
100
AcDbEntity
  8
0
100
AcDbSpline
 62
7
  6
CONTINUOUS
 70
0
 71
3
 72
11
 73
7
 74
0
 42
0.0000001
 43
0.0000001
 44
0.0000000001
 40
0.0
 40
0.0
 40
0.0
 40
0.0
 40
0.2656059853
 40
0.5246098356
 40
0.7711848957
 40
1.0
 40
1.0
 40
1.0
 40
1.0
 10
16.6804346545
 20
12.6373204892
 30
0.0
 10
16.6824282117
 20
12.633257453
 30
0.0
 10
16.6859815665
 20
12.6250323301
 30
0.0
 10
16.6895992709
 20
12.612347679
 30
0.0
 10
16.6908851566
 20
12.5998203332
 30
0.0
 10
16.6897420339
 20
12.5916743245
 30
0.0
 10
16.688590903
 20
12.5879492635
 30
0.0
  0
SPLINE
  5
54C
100
AcDbEntity
  8
0
100
AcDbSpline
 62
7
  6
CONTINUOUS
 70
0
 71
3
 72
9
 73
5
 74
0
 42
0.0000001
 43
0.0000001
 44
0.0000000001
 40
0.0
 40
0.0
 40
0.0
 40
0.0
 40
0.4874709875
 40
1.0
 40
1.0
 40
1.0
 40
1.0
 10
14.4756286084
 20
12.7289533043
 30
0.0
 10
14.5120315929
 20
12.7356770957
 30
0.0
 10
14.5874561144
 20
12.7456002361
 30
0.0
 10
14.6634366792
 20
12.7486711014
 30
0.0
 10
14.702358329
 20
12.748671103
 30
0.0
  0
SPLINE
  5
54D
100
AcDbEntity
  8
0
100
AcDbSpline
 62
7
  6
CONTINUOUS
 70
0
 71
3
 72
9
 73
5
 74
0
 42
0.0000001
 43
0.0000001
 44
0.0000000001
 40
0.0
 40
0.0
 40
0.0
 40
0.0
 40
0.2668510259
 40
1.0
 40
1.0
 40
1.0
 40
1.0
 10
14.4830591387
 20
12.7044606937
 30
0.0
 10
14.4832621151
 20
12.7052490046
 30
0.0
 10
14.4839053377
 20
12.7082292782
 30
0.0
 10
14.4840417365
 20
12.7113400833
 30
0.0
 10
14.4837398779
 20
12.7135560729
 30
0.0
  0
SPLINE
  5
54E
100
AcDbEntity
  8
0
100
AcDbSpline
 62
7
  6
CONTINUOUS
 70
0
 71
3
 72
23
 73
19
 74
0
 42
0.0000001
 43
0.0000001
 44
0.0000000001
 40
0.0
 40
0.0
 40
0.0
 40
0.0
 40
0.0488018033
 40
0.1004404375
 40
0.1549248926
 40
0.2121593384
 40
0.271963636
 40
0.3340867123
 40
0.3982201693
 40
0.4640097727
 40
0.5310659069
 40
0.5989731632
 40
0.6672993652
 40
0.7356042737
 40
0.8034479285
 40
0.8703998087
 40
0.9360453621
 40
1.0
 40
1.0
 40
1.0
 40
1.0
 10
15.9968820491
 20
12.0908211585
 30
0.0
 10
15.9860434564
 20
12.1129690087
 30
0.0
 10
15.9609802462
 20
12.1572393204
 30
0.0
 10
15.9154768845
 20
12.2210763351
 30
0.0
 10
15.8614567268
 20
12.2836265115
 30
0.0
 10
15.7994428121
 20
12.3442966053
 30
0.0
 10
15.7300244
 20
12.4025232289
 30
0.0
 10
15.6538622833
 20
12.4577565509
 30
0.0
 10
15.5716816422
 20
12.5094735905
 30
0.0
 10
15.4842660868
 20
12.5571823019
 30
0.0
 10
15.3924501427
 20
12.6004276957
 30
0.0
 10
15.2971112181
 20
12.6387966791
 30
0.0
 10
15.1991609895
 20
12.6719224248
 30
0.0
 10
15.0995362704
 20
12.6994880148
 30
0.0
 10
14.9991902834
 20
12.7212299959
 30
0.0
 10
14.8990812401
 20
12.7369399959
 30
0.0
 10
14.8001710555
 20
12.7464684654
 30
0.0
 10
14.7346721867
 20
12.7486711029
 30
0.0
 10
14.702358329
 20
12.748671103
 30
0.0
  0
SPLINE
  5
54F
100
AcDbEntity
  8
0
100
AcDbSpline
 62
7
  6
CONTINUOUS
 70
0
 71
3
 72
40
 73
36
 74
0
 42
0.0000001
 43
0.0000001
 44
0.0000000001
 40
0.0
 40
0.0
 40
0.0
 40
0.0
 40
0.0265313563
 40
0.0543700383
 40
0.0835287138
 40
0.1139857092
 40
0.1456881078
 40
0.1785571216
 40
0.2124917018
 40
0.2473722401
 40
0.2830637358
 40
0.31941874
 40
0.356280064
 40
0.3934833367
 40
0.4308594491
 40
0.4682369309
 40
0.5054442926
 40
0.5423123687
 40
0.5786766927
 40
0.614379941
 40
0.6492744864
 40
0.6832251089
 40
0.716111922
 40
0.7478335802
 40
0.7783108382
 40
0.8074905316
 40
0.8353500117
 40
0.8619019877
 40
0.8871995588
 40
0.9113409191
 40
0.9344727684
 40
0.9567909553
 40
0.9785365737
 40
0.9892869998
 40
1.0
 40
1.0
 40
1.0
 40
1.0
 10
15.9542669123
 20
11.9524214683
 30
0.0
 10
15.9451685012
 20
11.9709620808
 30
0.0
 10
15.9245938884
 20
12.008033114
 30
0.0
 10
15.8880467993
 20
12.061899484
 30
0.0
 10
15.8453325381
 20
12.1149981229
 30
0.0
 10
15.7967474357
 20
12.1669688949
 30
0.0
 10
15.7426200733
 20
12.2174672081
 30
0.0
 10
15.6833180351
 20
12.2661536738
 30
0.0
 10
15.6192431916
 20
12.3127004045
 30
0.0
 10
15.5508302786
 20
12.3567927332
 30
0.0
 10
15.4785437375
 20
12.3981318951
 30
0.0
 10
15.4028747165
 20
12.4364372897
 30
0.0
 10
15.3243376712
 20
12.4714485943
 30
0.0
 10
15.2434668253
 20
12.5029276859
 30
0.0
 10
15.1608124607
 20
12.530660367
 30
0.0
 10
15.0769370915
 20
12.5544578967
 30
0.0
 10
14.9924115436
 20
12.5741583181
 30
0.0
 10
14.9078109704
 20
12.589627577
 30
0.0
 10
14.8237108297
 20
12.6007604217
 30
0.0
 10
14.7406828492
 20
12.6074810711
 30
0.0
 10
14.6592910097
 20
12.6097436382
 30
0.0
 10
14.5800875783
 20
12.6075322862
 30
0.0
 10
14.5036092344
 20
12.6008611003
 30
0.0
 10
14.4303733461
 20
12.5897736306
 30
0.0
 10
14.3608744873
 20
12.5743420863
 30
0.0
 10
14.2955813273
 20
12.5546661772
 30
0.0
 10
14.2349340813
 20
12.5308716046
 30
0.0
 10
14.1793428175
 20
12.5031085072
 30
0.0
 10
14.1291867413
 20
12.4715497997
 30
0.0
 10
14.0848149293
 20
12.4363918658
 30
0.0
 10
14.046546243
 20
12.3978527901
 30
0.0
 10
14.0146721108
 20
12.3561893729
 30
0.0
 10
13.9935603743
 20
12.3189313463
 30
0.0
 10
13.9802081529
 20
12.2880349515
 30
0.0
 10
13.9746951841
 20
12.2722440198
 30
0.0
 10
13.9722330875
 20
12.2642764683
 30
0.0
  0
LINE
  5
550
100
AcDbEntity
  8
0
100
AcDbLine
 62
7
  6
CONTINUOUS
 10
13.8753120603
 20
12.4180019236
 11
13.8756888597
 21
12.4202710633
  0
SPLINE
  5
551
100
AcDbEntity
  8
0
100
AcDbSpline
 62
7
  6
CONTINUOUS
 70
0
 71
3
 72
14
 73
10
 74
0
 42
0.0000001
 43
0.0000001
 44
0.0000000001
 40
0.0
 40
0.0
 40
0.0
 40
0.0
 40
0.2637754942
 40
0.3937629301
 40
0.521779438
 40
0.647143881
 40
0.7690773643
 40
0.886850731
 40
1.0
 40
1.0
 40
1.0
 40
1.0
 10
16.5133674741
 20
11.8042045396
 30
0.0
 10
16.5075953093
 20
11.8159674996
 30
0.0
 10
16.4999558919
 20
11.8340478213
 30
0.0
 10
16.4923617842
 20
11.8588480549
 30
0.0
 10
16.4881964754
 20
11.8774533044
 30
0.0
 10
16.4857308181
 20
11.8959603191
 30
0.0
 10
16.485170204
 20
11.9141234875
 30
0.0
 10
16.4867004747
 20
11.9316283548
 30
0.0
 10
16.4892439345
 20
11.9428622372
 30
0.0
 10
16.4909034055
 20
11.9482322873
 30
0.0
  0
SPLINE
  5
552
100
AcDbEntity
  8
0
100
AcDbSpline
 62
7
  6
CONTINUOUS
 70
0
 71
3
 72
11
 73
7
 74
0
 42
0.0000001
 43
0.0000001
 44
0.0000000001
 40
0.0
 40
0.0
 40
0.0
 40
0.0
 40
0.2390843943
 40
0.4829125276
 40
0.7355780975
 40
1.0
 40
1.0
 40
1.0
 40
1.0
 10
16.913029297
 20
12.2723637415
 30
0.0
 10
16.9117088769
 20
12.2750547244
 30
0.0
 10
16.9096040017
 20
12.2807858341
 30
0.0
 10
16.9082413432
 20
12.2899660032
 30
0.0
 10
16.9086726461
 20
12.2995493423
 30
0.0
 10
16.9101063072
 20
12.3059082296
 30
0.0
 10
16.9110850957
 20
12.30907559
 30
0.0
  0
SPLINE
  5
553
100
AcDbEntity
  8
0
100
AcDbSpline
 62
7
  6
CONTINUOUS
 70
0
 71
3
 72
11
 73
7
 74
0
 42
0.0000001
 43
0.0000001
 44
0.0000000001
 40
0.0
 40
0.0
 40
0.0
 40
0.0
 40
0.2390843943
 40
0.4829125276
 40
0.7355780975
 40
1.0
 40
1.0
 40
1.0
 40
1.0
 10
16.7415656512
 20
11.7175071805
 30
0.0
 10
16.7402452311
 20
11.7201981634
 30
0.0
 10
16.738140356
 20
11.7259292732
 30
0.0
 10
16.7367776975
 20
11.7351094422
 30
0.0
 10
16.7372090004
 20
11.7446927813
 30
0.0
 10
16.7386426615
 20
11.7510516686
 30
0.0
 10
16.7396214499
 20
11.754219029
 30
0.0
  0
SPLINE
  5
554
100
AcDbEntity
  8
0
100
AcDbSpline
 62
7
  6
CONTINUOUS
 70
0
 71
3
 72
11
 73
7
 74
0
 42
0.0000001
 43
0.0000001
 44
0.0000000001
 40
0.0
 40
0.0
 40
0.0
 40
0.0
 40
0.2299321955
 40
0.4717171968
 40
0.7280012916
 40
1.0
 40
1.0
 40
1.0
 40
1.0
 10
13.793315174
 20
12.6075002192
 30
0.0
 10
13.7986355681
 20
12.6096518377
 30
0.0
 10
13.8097241446
 20
12.613653256
 30
0.0
 10
13.8273149339
 20
12.6183104248
 30
0.0
 10
13.8463307745
 20
12.6213414079
 30
0.0
 10
13.859530033
 20
12.6219874595
 30
0.0
 10
13.8663189867
 20
12.6219874595
 30
0.0
  0
SPLINE
  5
555
100
AcDbEntity
  8
0
100
AcDbSpline
 62
7
  6
CONTINUOUS
 70
0
 71
3
 72
11
 73
7
 74
0
 42
0.0000001
 43
0.0000001
 44
0.0000000001
 40
0.0
 40
0.0
 40
0.0
 40
0.0
 40
0.2390843943
 40
0.4829125276
 40
0.7355780975
 40
1.0
 40
1.0
 40
1.0
 40
1.0
 10
13.594607255
 20
11.7175071805
 30
0.0
 10
13.593286835
 20
11.7201981634
 30
0.0
 10
13.5911819598
 20
11.7259292732
 30
0.0
 10
13.5898193013
 20
11.7351094422
 30
0.0
 10
13.5902506042
 20
11.7446927813
 30
0.0
 10
13.5916842653
 20
11.7510516686
 30
0.0
 10
13.5926630537
 20
11.754219029
 30
0.0
  0
SPLINE
  5
556
100
AcDbEntity
  8
0
100
AcDbSpline
 62
7
  6
CONTINUOUS
 70
0
 71
3
 72
9
 73
5
 74
0
 42
0.0000001
 43
0.0000001
 44
0.0000000001
 40
0.0
 40
0.0
 40
0.0
 40
0.0
 40
0.5118612637
 40
1.0
 40
1.0
 40
1.0
 40
1.0
 10
15.8941044748
 20
13.0837691237
 30
0.0
 10
15.8904434867
 20
13.0762745733
 30
0.0
 10
15.8842755597
 20
13.0611235906
 30
0.0
 10
15.8804879726
 20
13.0451913117
 30
0.0
 10
15.8793187413
 20
13.0373233502
 30
0.0
  0
SPLINE
  5
557
100
AcDbEntity
  8
0
100
AcDbSpline
 62
7
  6
CONTINUOUS
 70
0
 71
3
 72
32
 73
28
 74
0
 42
0.0000001
 43
0.0000001
 44
0.0000000001
 40
0.0
 40
0.0
 40
0.0
 40
0.0
 40
0.053335115
 40
0.0818717911
 40
0.1116289123
 40
0.1425629212
 40
0.1746084559
 40
0.2416544226
 40
0.311933175
 40
0.3843968246
 40
0.457883419
 40
0.5311791024
 40
0.603079777
 40
0.6381589867
 40
0.6724740511
 40
0.7059052281
 40
0.7383456363
 40
0.7697038695
 40
0.7999071024
 40
0.8289039931
 40
0.8566680737
 40
0.8832018314
 40
0.9085407449
 40
0.9327569871
 40
0.9559627705
 40
0.9783122723
 40
1.0
 40
1.0
 40
1.0
 40
1.0
 10
15.4791481527
 20
11.9393660198
 30
0.0
 10
15.4700382902
 20
11.9579299677
 30
0.0
 10
15.453244186
 20
11.9851052076
 30
0.0
 10
15.4264385221
 20
12.0191063678
 30
0.0
 10
15.4031123426
 20
12.0446975609
 30
0.0
 10
15.3771738236
 20
12.0696305688
 30
0.0
 10
15.3387363902
 20
12.1022906885
 30
0.0
 10
15.2850748428
 20
12.1403872175
 30
0.0
 10
15.2141927762
 20
12.1805340606
 30
0.0
 10
15.1375631505
 20
12.2148313589
 30
0.0
 10
15.0570478219
 20
12.2424453026
 30
0.0
 10
14.974603465
 20
12.2627053664
 30
0.0
 10
14.9053767269
 20
12.273140906
 30
0.0
 10
14.8507357747
 20
12.2773269218
 30
0.0
 10
14.8108640593
 20
12.2783616523
 30
0.0
 10
14.772015554
 20
12.2773116622
 30
0.0
 10
14.7344272603
 20
12.2741826639
 30
0.0
 10
14.6983294354
 20
12.2689929571
 30
0.0
 10
14.6639424528
 20
12.2617735976
 30
0.0
 10
14.631476035
 20
12.2525671016
 30
0.0
 10
14.6011282517
 20
12.241426742
 30
0.0
 10
14.5730845377
 20
12.2284167149
 30
0.0
 10
14.5475169129
 20
12.2136114334
 30
0.0
 10
14.5245847633
 20
12.1970950947
 30
0.0
 10
14.5044337522
 20
12.1789595459
 30
0.0
 10
14.4872002317
 20
12.159315113
 30
0.0
 10
14.477617525
 20
12.1451151124
 30
0.0
 10
14.47339298
 20
12.1378447565
 30
0.0
  0
SPLINE
  5
558
100
AcDbEntity
  8
0
100
AcDbSpline
 62
7
  6
CONTINUOUS
 70
0
 71
3
 72
9
 73
5
 74
0
 42
0.0000001
 43
0.0000001
 44
0.0000000001
 40
0.0
 40
0.0
 40
0.0
 40
0.0
 40
0.4949945292
 40
1.0
 40
1.0
 40
1.0
 40
1.0
 10
14.4525921474
 20
12.1015678032
 30
0.0
 10
14.4506827207
 20
12.0931640737
 30
0.0
 10
14.4480391804
 20
12.0758895916
 30
0.0
 10
14.4478110668
 20
12.0584219595
 30
0.0
 10
14.4482651045
 20
12.0496414769
 30
0.0
  0
SPLINE
  5
559
100
AcDbEntity
  8
0
100
AcDbSpline
 62
7
  6
CONTINUOUS
 70
0
 71
3
 72
31
 73
27
 74
0
 42
0.0000001
 43
0.0000001
 44
0.0000000001
 40
0.0
 40
0.0
 40
0.0
 40
0.0
 40
0.0543287389
 40
0.0834934299
 40
0.1139576416
 40
0.1456674758
 40
0.1785441493
 40
0.247348381
 40
0.3193882871
 40
0.3934485752
 40
0.4681986403
 40
0.542269785
 40
0.6143307487
 40
0.6831650876
 40
0.7160596109
 40
0.7477886513
 40
0.778272978
 40
0.8074594859
 40
0.8353255162
 40
0.8618836869
 40
0.8871871193
 40
0.9113341056
 40
0.9344713822
 40
0.9567947866
 40
0.9785454599
 40
1.0
 40
1.0
 40
1.0
 40
1.0
 10
14.5168313017
 20
11.9393660198
 30
0.0
 10
14.525648644
 20
11.9213981653
 30
0.0
 10
14.5420694165
 20
11.8951342316
 30
0.0
 10
14.5683955342
 20
11.862410205
 30
0.0
 10
14.5913973345
 20
11.837804185
 30
0.0
 10
14.6170192014
 20
11.8139003438
 30
0.0
 10
14.6550224747
 20
11.7827020618
 30
0.0
 10
14.708048624
 20
11.746604709
 30
0.0
 10
14.7779269788
 20
11.7091149067
 30
0.0
 10
14.8531550653
 20
11.6777946942
 30
0.0
 10
14.9317101898
 20
11.653487319
 30
0.0
 10
15.0114916048
 20
11.6368422916
 30
0.0
 10
15.0903536142
 20
11.6283071742
 30
0.0
 10
15.1545255068
 20
11.6281389201
 30
0.0
 10
15.2035326467
 20
11.6324120252
 30
0.0
 10
15.2382011181
 20
11.6376609533
 30
0.0
 10
15.2710997929
 20
11.6449658141
 30
0.0
 10
15.3020078478
 20
11.6542798459
 30
0.0
 10
15.3307166672
 20
11.665543405
 30
0.0
 10
15.3570320671
 20
11.6786857449
 30
0.0
 10
15.3807744812
 20
11.693624805
 30
0.0
 10
15.4017789531
 20
11.7102678669
 30
0.0
 10
15.4198941635
 20
11.7285101995
 30
0.0
 10
15.434983481
 20
11.7482357621
 30
0.0
 10
15.446924365
 20
11.7693036497
 30
0.0
 10
15.4527385034
 20
11.784190859
 30
0.0
 10
15.4550720465
 20
11.7917423878
 30
0.0
  0
SPLINE
  5
55A
100
AcDbEntity
  8
0
100
AcDbSpline
 62
7
  6
CONTINUOUS
 70
0
 71
3
 72
17
 73
13
 74
0
 42
0.0000001
 43
0.0000001
 44
0.0000000001
 40
0.0
 40
0.0
 40
0.0
 40
0.0
 40
0.0539197223
 40
0.1081032815
 40
0.1628005399
 40
0.2182496487
 40
0.3321896689
 40
0.4515335409
 40
0.5774189244
 40
0.7105918221
 40
0.8514286025
 40
1.0
 40
1.0
 40
1.0
 40
1.0
 10
14.0155280002
 20
12.4043713234
 30
0.0
 10
14.018451574
 20
12.413713386
 30
0.0
 10
14.0251089542
 20
12.4322046561
 30
0.0
 10
14.0374354455
 20
12.4591028155
 30
0.0
 10
14.0520851726
 20
12.4851315305
 30
0.0
 10
14.0748598613
 20
12.5188860476
 30
0.0
 10
14.1092725932
 20
12.558718989
 30
0.0
 10
14.1587257842
 20
12.6015215633
 30
0.0
 10
14.2162214823
 20
12.639438344
 30
0.0
 10
14.2811991371
 20
12.6721470577
 30
0.0
 10
14.3530471632
 20
12.6993816771
 30
0.0
 10
14.4037740362
 20
12.7133713963
 30
0.0
 10
14.4300475255
 20
12.7194715325
 30
0.0
  0
SPLINE
  5
55B
100
AcDbEntity
  8
0
100
AcDbSpline
 62
7
  6
CONTINUOUS
 70
0
 71
3
 72
22
 73
18
 74
0
 42
0.0000001
 43
0.0000001
 44
0.0000000001
 40
0.0
 40
0.0
 40
0.0
 40
0.0
 40
0.0497071787
 40
0.0998764886
 40
0.1509418391
 40
0.2032941051
 40
0.2572757316
 40
0.3131710934
 40
0.3712038918
 40
0.4315379844
 40
0.4942801368
 40
0.559484391
 40
0.6271570036
 40
0.6972619537
 40
0.7697254205
 40
0.8444371423
 40
1.0
 40
1.0
 40
1.0
 40
1.0
 10
13.88845212
 20
12.4729696337
 30
0.0
 10
13.8930635712
 20
12.4876469232
 30
0.0
 10
13.9040726145
 20
12.5166216027
 30
0.0
 10
13.9256635087
 20
12.5581604769
 30
0.0
 10
13.9522563001
 20
12.5976811193
 30
0.0
 10
13.9837157155
 20
12.6349946187
 30
0.0
 10
14.0198868321
 20
12.6699377937
 30
0.0
 10
14.0605964656
 20
12.7023594226
 30
0.0
 10
14.1056552297
 20
12.7321218025
 30
0.0
 10
14.1548575009
 20
12.7590989584
 30
0.0
 10
14.2079814772
 20
12.7831767147
 30
0.0
 10
14.2647890889
 20
12.8042529717
 30
0.0
 10
14.3250270796
 20
12.8222377497
 30
0.0
 10
14.3884264982
 20
12.8370532819
 30
0.0
 10
14.4547071546
 20
12.8486355612
 30
0.0
 10
14.5477646425
 20
12.8598491319
 30
0.0
 10
14.6191110592
 20
12.8629915544
 30
0.0
 10
14.6672587213
 20
12.8629915539
 30
0.0
  0
SPLINE
  5
55C
100
AcDbEntity
  8
0
100
AcDbSpline
 62
7
  6
CONTINUOUS
 70
0
 71
3
 72
11
 73
7
 74
0
 42
0.0000001
 43
0.0000001
 44
0.0000000001
 40
0.0
 40
0.0
 40
0.0
 40
0.0
 40
0.243379708
 40
0.4895315971
 40
0.7410416029
 40
1.0
 40
1.0
 40
1.0
 40
1.0
 10
13.7895155558
 20
12.5759475609
 30
0.0
 10
13.7915905146
 20
12.5717191431
 30
0.0
 10
13.796439641
 20
12.5635277154
 30
0.0
 10
13.8055953659
 20
12.5524200033
 30
0.0
 10
13.8165259154
 20
12.542600569
 30
0.0
 10
13.8247650322
 20
12.5370842114
 30
0.0
 10
13.8291023815
 20
12.5345735577
 30
0.0
  0
SPLINE
  5
55D
100
AcDbEntity
  8
0
100
AcDbSpline
 62
7
  6
CONTINUOUS
 70
0
 71
3
 72
10
 73
6
 74
0
 42
0.0000001
 43
0.0000001
 44
0.0000000001
 40
0.0
 40
0.0
 40
0.0
 40
0.0
 40
0.5246560759
 40
0.7658718448
 40
1.0
 40
1.0
 40
1.0
 40
1.0
 10
16.3444705615
 20
11.4019528909
 30
0.0
 10
16.3452501273
 20
11.4003643028
 30
0.0
 10
16.346082411
 20
11.3978462972
 30
0.0
 10
16.3461550434
 20
11.3944549622
 30
0.0
 10
16.3458488057
 20
11.392865847
 30
0.0
 10
16.3456156742
 20
11.3921113784
 30
0.0
  0
LINE
  5
55E
100
AcDbEntity
  8
0
100
AcDbLine
 62
7
  6
CONTINUOUS
 10
16.8856991358
 20
11.5910259229
 11
16.9128774717
 21
11.5854083934
  0
SPLINE
  5
55F
100
AcDbEntity
  8
0
100
AcDbSpline
 62
7
  6
CONTINUOUS
 70
0
 71
3
 72
11
 73
7
 74
0
 42
0.0000001
 43
0.0000001
 44
0.0000000001
 40
0.0
 40
0.0
 40
0.0
 40
0.0
 40
0.2568950189
 40
0.509087049
 40
0.7567770149
 40
1.0
 40
1.0
 40
1.0
 40
1.0
 10
16.9233472212
 20
11.5963124616
 30
0.0
 10
16.9202475748
 20
11.5952803568
 30
0.0
 10
16.9139536212
 20
11.5936895601
 30
0.0
 10
16.9044502922
 20
11.5921339989
 30
0.0
 10
16.8950366956
 20
11.5912312001
 30
0.0
 10
16.8887922301
 20
11.5910259229
 30
0.0
 10
16.8856991358
 20
11.5910259229
 30
0.0
  0
SPLINE
  5
560
100
AcDbEntity
  8
0
100
AcDbSpline
 62
7
  6
CONTINUOUS
 70
0
 71
3
 72
18
 73
14
 74
0
 42
0.0000001
 43
0.0000001
 44
0.0000000001
 40
0.0
 40
0.0
 40
0.0
 40
0.0
 40
0.1358857697
 40
0.2024428938
 40
0.2654948671
 40
0.3231314942
 40
0.3765491588
 40
0.4295279869
 40
0.4843328215
 40
0.6018342004
 40
0.7288150853
 40
0.8625550452
 40
1.0
 40
1.0
 40
1.0
 40
1.0
 10
16.9128774717
 20
11.5854083934
 30
0.0
 10
16.9136786244
 20
11.5852441743
 30
0.0
 10
16.9148803739
 20
11.5850381011
 30
0.0
 10
16.9164718239
 20
11.5848718074
 30
0.0
 10
16.9176038314
 20
11.5849284906
 30
0.0
 10
16.9186240202
 20
11.5852319851
 30
0.0
 10
16.9194361135
 20
11.5858219241
 30
0.0
 10
16.9200494826
 20
11.5865831606
 30
0.0
 10
16.9206981618
 20
11.5877787476
 30
0.0
 10
16.921305279
 20
11.5894802907
 30
0.0
 10
16.9219746707
 20
11.5916545572
 30
0.0
 10
16.9226500888
 20
11.593954155
 30
0.0
 10
16.9231098032
 20
11.5955200712
 30
0.0
 10
16.9233472212
 20
11.5963124616
 30
0.0
  0
SPLINE
  5
561
100
AcDbEntity
  8
0
100
AcDbSpline
 62
7
  6
CONTINUOUS
 70
0
 71
3
 72
9
 73
5
 74
0
 42
0.0000001
 43
0.0000001
 44
0.0000000001
 40
0.0
 40
0.0
 40
0.0
 40
0.0
 40
0.4795255343
 40
1.0
 40
1.0
 40
1.0
 40
1.0
 10
14.4834808809
 20
12.7244419926
 30
0.0
 10
14.4820690888
 20
12.7222761098
 30
0.0
 10
14.4793882628
 20
12.7175783763
 30
0.0
 10
14.4774255657
 20
12.7125315863
 30
0.0
 10
14.4765932668
 20
12.709851695
 30
0.0
  0
SPLINE
  5
562
100
AcDbEntity
  8
0
100
AcDbSpline
 62
7
  6
CONTINUOUS
 70
0
 71
3
 72
9
 73
5
 74
0
 42
0.0000001
 43
0.0000001
 44
0.0000000001
 40
0.0
 40
0.0
 40
0.0
 40
0.0
 40
0.5024785262
 40
1.0
 40
1.0
 40
1.0
 40
1.0
 10
14.4731937611
 20
12.6913192086
 30
0.0
 10
14.4698377031
 20
12.6900940524
 30
0.0
 10
14.4632441923
 20
12.6874049275
 30
0.0
 10
14.4569887216
 20
12.6839758961
 30
0.0
 10
14.4540147989
 20
12.6820603498
 30
0.0
  0
SPLINE
  5
563
100
AcDbEntity
  8
0
100
AcDbSpline
 62
7
  6
CONTINUOUS
 70
0
 71
3
 72
9
 73
5
 74
0
 42
0.0000001
 43
0.0000001
 44
0.0000000001
 40
0.0
 40
0.0
 40
0.0
 40
0.0
 40
0.5311678342
 40
1.0
 40
1.0
 40
1.0
 40
1.0
 10
14.4383240926
 20
12.6688595113
 30
0.0
 10
14.4358993367
 20
12.67026453
 30
0.0
 10
14.4312960951
 20
12.6728443186
 30
0.0
 10
14.4265574764
 20
12.6751770188
 30
0.0
 10
14.424288188
 20
12.6761612431
 30
0.0
  0
SPLINE
  5
564
100
AcDbEntity
  8
0
100
AcDbSpline
 62
7
  6
CONTINUOUS
 70
0
 71
3
 72
11
 73
7
 74
0
 42
0.0000001
 43
0.0000001
 44
0.0000000001
 40
0.0
 40
0.0
 40
0.0
 40
0.0
 40
0.2891122155
 40
0.4247939035
 40
0.5538415205
 40
1.0
 40
1.0
 40
1.0
 40
1.0
 10
14.8280848626
 20
11.3042352151
 30
0.0
 10
14.8257132491
 20
11.3042352151
 30
0.0
 10
14.8222212939
 20
11.3040154899
 30
0.0
 10
14.8177437261
 20
11.303198016
 30
0.0
 10
14.8121291314
 20
11.3016773807
 30
0.0
 10
14.8077149166
 20
11.2994003236
 30
0.0
 10
14.8051387405
 20
11.2968007034
 30
0.0
  0
SPLINE
  5
565
100
AcDbEntity
  8
0
100
AcDbSpline
 62
7
  6
CONTINUOUS
 70
0
 71
3
 72
9
 73
5
 74
0
 42
0.0000001
 43
0.0000001
 44
0.0000000001
 40
0.0
 40
0.0
 40
0.0
 40
0.0
 40
0.508987482
 40
1.0
 40
1.0
 40
1.0
 40
1.0
 10
14.8048363647
 20
11.2964875243
 30
0.0
 10
14.8040774811
 20
11.2956806046
 30
0.0
 10
14.8027415541
 20
11.2939377392
 30
0.0
 10
14.8018434631
 20
11.2919296224
 30
0.0
 10
14.8015279851
 20
11.2909086608
 30
0.0
  0
SPLINE
  5
566
100
AcDbEntity
  8
0
100
AcDbSpline
 62
7
  6
CONTINUOUS
 70
0
 71
3
 72
14
 73
10
 74
0
 42
0.0000001
 43
0.0000001
 44
0.0000000001
 40
0.0
 40
0.0
 40
0.0
 40
0.0
 40
0.1498611321
 40
0.2898697878
 40
0.5413875462
 40
0.6573838348
 40
0.7702035093
 40
0.8833368423
 40
1.0
 40
1.0
 40
1.0
 40
1.0
 10
14.4171400448
 20
12.6980534817
 30
0.0
 10
14.4167641361
 20
12.696843106
 30
0.0
 10
14.4161679293
 20
12.6944560482
 30
0.0
 10
14.4156445776
 20
12.6899023222
 30
0.0
 10
14.4161150598
 20
12.6855288499
 30
0.0
 10
14.4177545407
 20
12.6817820021
 30
0.0
 10
14.4194699163
 20
12.6794236889
 30
0.0
 10
14.4216678997
 20
12.6775012118
 30
0.0
 10
14.4233830136
 20
12.6765538308
 30
0.0
 10
14.424288188
 20
12.6761612431
 30
0.0
  0
SPLINE
  5
567
100
AcDbEntity
  8
0
100
AcDbSpline
 62
7
  6
CONTINUOUS
 70
0
 71
3
 72
11
 73
7
 74
0
 42
0.0000001
 43
0.0000001
 44
0.0000000001
 40
0.0
 40
0.0
 40
0.0
 40
0.0
 40
0.2614410061
 40
0.5224370682
 40
0.7717747406
 40
1.0
 40
1.0
 40
1.0
 40
1.0
 10
14.4397185126
 20
12.7258448269
 30
0.0
 10
14.4370487623
 20
12.7241252024
 30
0.0
 10
14.4319860675
 20
12.7202486088
 30
0.0
 10
14.4254747161
 20
12.7134534755
 30
0.0
 10
14.420355161
 20
12.7060394529
 30
0.0
 10
14.4179622642
 20
12.7007009183
 30
0.0
 10
14.4171400448
 20
12.6980534817
 30
0.0
  0
SPLINE
  5
568
100
AcDbEntity
  8
0
100
AcDbSpline
 62
7
  6
CONTINUOUS
 70
0
 71
3
 72
12
 73
8
 74
0
 42
0.0000001
 43
0.0000001
 44
0.0000000001
 40
0.0
 40
0.0
 40
0.0
 40
0.0
 40
0.2053441155
 40
0.3196301986
 40
0.4420024438
 40
0.7090466793
 40
1.0
 40
1.0
 40
1.0
 40
1.0
 10
14.4694451236
 20
12.7317439336
 30
0.0
 10
14.4674746384
 20
12.7325985624
 30
0.0
 10
14.4641170118
 20
12.7332928355
 30
0.0
 10
14.4594899045
 20
12.7332351182
 30
0.0
 10
14.4542587692
 20
12.7324921783
 30
0.0
 10
14.4474408678
 20
12.730277264
 30
0.0
 10
14.4422769924
 20
12.7274927805
 30
0.0
 10
14.4397185126
 20
12.7258448269
 30
0.0
  0
SPLINE
  5
569
100
AcDbEntity
  8
0
100
AcDbSpline
 62
7
  6
CONTINUOUS
 70
0
 71
3
 72
9
 73
5
 74
0
 42
0.0000001
 43
0.0000001
 44
0.0000000001
 40
0.0
 40
0.0
 40
0.0
 40
0.0
 40
0.2719447207
 40
1.0
 40
1.0
 40
1.0
 40
1.0
 10
14.4765932668
 20
12.709851695
 30
0.0
 10
14.4768959962
 20
12.7108264433
 30
0.0
 10
14.4778462577
 20
12.7144524432
 30
0.0
 10
14.47809455
 20
12.7183130394
 30
0.0
 10
14.4776467345
 20
12.7210086674
 30
0.0
  0
SPLINE
  5
56A
100
AcDbEntity
  8
0
100
AcDbSpline
 62
7
  6
CONTINUOUS
 70
0
 71
3
 72
11
 73
7
 74
0
 42
0.0000001
 43
0.0000001
 44
0.0000000001
 40
0.0
 40
0.0
 40
0.0
 40
0.0
 40
0.25928798
 40
0.5055702581
 40
0.7489923014
 40
1.0
 40
1.0
 40
1.0
 40
1.0
 10
14.4776467345
 20
12.7210086674
 30
0.0
 10
14.4774471936
 20
12.7222098053
 30
0.0
 10
14.4768106516
 20
12.724522828
 30
0.0
 10
14.4750510996
 20
12.7276133865
 30
0.0
 10
14.4725620045
 20
12.7301008464
 30
0.0
 10
14.4705265105
 20
12.7312749199
 30
0.0
 10
14.4694451236
 20
12.7317439336
 30
0.0
  0
SPLINE
  5
56B
100
AcDbEntity
  8
0
100
AcDbSpline
 62
7
  6
CONTINUOUS
 70
0
 71
3
 72
11
 73
7
 74
0
 42
0.0000001
 43
0.0000001
 44
0.0000000001
 40
0.0
 40
0.0
 40
0.0
 40
0.0
 40
0.2614410061
 40
0.5224370682
 40
0.7717747406
 40
1.0
 40
1.0
 40
1.0
 40
1.0
 10
14.4540147989
 20
12.6820603498
 30
0.0
 10
14.4566845492
 20
12.6837799743
 30
0.0
 10
14.461747244
 20
12.687656568
 30
0.0
 10
14.4682585955
 20
12.6944517012
 30
0.0
 10
14.4733781506
 20
12.7018657238
 30
0.0
 10
14.4757710474
 20
12.7072042584
 30
0.0
 10
14.4765932668
 20
12.709851695
 30
0.0
  0
SPLINE
  5
56C
100
AcDbEntity
  8
0
100
AcDbSpline
 62
7
  6
CONTINUOUS
 70
0
 71
3
 72
12
 73
8
 74
0
 42
0.0000001
 43
0.0000001
 44
0.0000000001
 40
0.0
 40
0.0
 40
0.0
 40
0.0
 40
0.2053441155
 40
0.3196301986
 40
0.4420024438
 40
0.7090466793
 40
1.0
 40
1.0
 40
1.0
 40
1.0
 10
14.424288188
 20
12.6761612431
 30
0.0
 10
14.4262586731
 20
12.6753066143
 30
0.0
 10
14.4296162998
 20
12.6746123412
 30
0.0
 10
14.434243407
 20
12.6746700585
 30
0.0
 10
14.4394745424
 20
12.6754129985
 30
0.0
 10
14.4462924438
 20
12.6776279127
 30
0.0
 10
14.4514563191
 20
12.6804123962
 30
0.0
 10
14.4540147989
 20
12.6820603498
 30
0.0
  0
SPLINE
  5
56D
100
AcDbEntity
  8
0
100
AcDbSpline
 62
7
  6
CONTINUOUS
 70
0
 71
3
 72
9
 73
5
 74
0
 42
0.0000001
 43
0.0000001
 44
0.0000000001
 40
0.0
 40
0.0
 40
0.0
 40
0.0
 40
0.4466182668
 40
1.0
 40
1.0
 40
1.0
 40
1.0
 10
14.4137415366
 20
12.6795211932
 30
0.0
 10
14.415365176
 20
12.6792240419
 30
0.0
 10
14.4189574856
 20
12.6783106913
 30
0.0
 10
14.4224118807
 20
12.6769750256
 30
0.0
 10
14.424288188
 20
12.6761612431
 30
0.0
  0
SPLINE
  5
56E
100
AcDbEntity
  8
0
100
AcDbSpline
 62
7
  6
CONTINUOUS
 70
0
 71
3
 72
9
 73
5
 74
0
 42
0.0000001
 43
0.0000001
 44
0.0000000001
 40
0.0
 40
0.0
 40
0.0
 40
0.0
 40
0.5148385324
 40
1.0
 40
1.0
 40
1.0
 40
1.0
 10
14.473194119
 20
12.6913194666
 30
0.0
 10
14.4734949053
 20
12.6945432275
 30
0.0
 10
14.4742715359
 20
12.7007903684
 30
0.0
 10
14.4756883117
 20
12.7069378606
 30
0.0
 10
14.4765932668
 20
12.709851695
 30
0.0
  0
SPLINE
  5
56F
100
AcDbEntity
  8
0
100
AcDbSpline
 62
7
  6
CONTINUOUS
 70
0
 71
3
 72
9
 73
5
 74
0
 42
0.0000001
 43
0.0000001
 44
0.0000000001
 40
0.0
 40
0.0
 40
0.0
 40
0.0
 40
0.4938376206
 40
1.0
 40
1.0
 40
1.0
 40
1.0
 10
14.4383240926
 20
12.6688595113
 30
0.0
 10
14.440654695
 20
12.6713096711
 30
0.0
 10
14.4455975445
 20
12.6760680574
 30
0.0
 10
14.4511009751
 20
12.680183514
 30
0.0
 10
14.4540147989
 20
12.6820603498
 30
0.0
  0
SPLINE
  5
570
100
AcDbEntity
  8
0
100
AcDbSpline
 62
7
  6
CONTINUOUS
 70
0
 71
3
 72
13
 73
9
 74
0
 42
0.0000001
 43
0.0000001
 44
0.0000000001
 40
0.0
 40
0.0
 40
0.0
 40
0.0
 40
0.276232224
 40
0.5331433497
 40
0.6548859416
 40
0.7726713293
 40
0.887349089
 40
1.0
 40
1.0
 40
1.0
 40
1.0
 10
13.8622892666
 20
11.8194962715
 30
0.0
 10
13.8678909411
 20
11.8194962715
 30
0.0
 10
13.8787394277
 20
11.8184945018
 30
0.0
 10
13.8915105265
 20
11.8143843832
 30
0.0
 10
13.9003401968
 20
11.8094920286
 30
0.0
 10
13.9061076029
 20
11.8051690437
 30
0.0
 10
13.9110545037
 20
11.8001835597
 30
0.0
 10
13.9137772755
 20
11.7964364141
 30
0.0
 10
13.9149706179
 20
11.7944884502
 30
0.0
  0
SPLINE
  5
571
100
AcDbEntity
  8
0
100
AcDbSpline
 62
7
  6
CONTINUOUS
 70
0
 71
3
 72
15
 73
11
 74
0
 42
0.0000001
 43
0.0000001
 44
0.0000000001
 40
0.0
 40
0.0
 40
0.0
 40
0.0
 40
0.1002579316
 40
0.2118791307
 40
0.3337768941
 40
0.4637221182
 40
0.5987437096
 40
0.7354533156
 40
0.8703312431
 40
1.0
 40
1.0
 40
1.0
 40
1.0
 10
14.8781507294
 20
11.2788528081
 30
0.0
 10
14.8772886858
 20
11.2806094683
 30
0.0
 10
14.8750074293
 20
11.2841021167
 30
0.0
 10
14.8704866827
 20
11.2888294329
 30
0.0
 10
14.8648502625
 20
11.2931758858
 30
0.0
 10
14.8583072036
 20
11.2969816486
 30
0.0
 10
14.8510994737
 20
11.3001083117
 30
0.0
 10
14.8434959265
 20
11.3024388035
 30
0.0
 10
14.835783151
 20
11.3038858986
 30
0.0
 10
14.8306156627
 20
11.3042352151
 30
0.0
 10
14.8280848626
 20
11.3042352151
 30
0.0
  0
SPLINE
  5
572
100
AcDbEntity
  8
0
100
AcDbSpline
 62
7
  6
CONTINUOUS
 70
0
 71
3
 72
9
 73
5
 74
0
 42
0.0000001
 43
0.0000001
 44
0.0000000001
 40
0.0
 40
0.0
 40
0.0
 40
0.0
 40
0.2530655924
 40
1.0
 40
1.0
 40
1.0
 40
1.0
 10
17.192404507
 20
12.4669821575
 30
0.0
 10
17.1936716373
 20
12.4664098422
 30
0.0
 10
17.1986229391
 20
12.4640230236
 30
0.0
 10
17.2033834868
 20
12.4612691167
 30
0.0
 10
17.2069351602
 20
12.4592132477
 30
0.0
  0
LINE
  5
573
100
AcDbEntity
  8
0
100
AcDbLine
 62
7
  6
CONTINUOUS
 10
17.192404507
 20
12.4669821575
 11
17.1927153603
 21
12.467775982
  0
SPLINE
  5
574
100
AcDbEntity
  8
0
100
AcDbSpline
 62
7
  6
CONTINUOUS
 70
0
 71
3
 72
20
 73
16
 74
0
 42
0.0000001
 43
0.0000001
 44
0.0000000001
 40
0.0
 40
0.0
 40
0.0
 40
0.0
 40
0.0504775594
 40
0.1017854308
 40
0.1546565552
 40
0.2096535535
 40
0.3269524571
 40
0.3896205827
 40
0.4546308623
 40
0.5216187521
 40
0.5901122481
 40
0.7292081561
 40
0.798771513
 40
0.867483851
 40
1.0
 40
1.0
 40
1.0
 40
1.0
 10
16.231445286
 20
13.1359085148
 30
0.0
 10
16.2339462634
 20
13.1308124731
 30
0.0
 10
16.2380249085
 20
13.1200318171
 30
0.0
 10
16.241080846
 20
13.10281751
 30
0.0
 10
16.2410595185
 20
13.0848262404
 30
0.0
 10
16.2368723828
 20
13.0597585205
 30
0.0
 10
16.2265329978
 20
13.0350024569
 30
0.0
 10
16.2114123883
 20
13.0119301107
 30
0.0
 10
16.1973401283
 20
12.9950921243
 30
0.0
 10
16.1810549632
 20
12.9794368432
 30
0.0
 10
16.1566753179
 20
12.9604184144
 30
0.0
 10
16.1293140862
 20
12.9449996699
 30
0.0
 10
16.1001649194
 20
12.933775158
 30
0.0
 10
16.070773939
 20
12.9256850014
 30
0.0
 10
16.0480706489
 20
12.9230062257
 30
0.0
 10
16.0331679905
 20
12.9230062257
 30
0.0
  0
SPLINE
  5
575
100
AcDbEntity
  8
0
100
AcDbSpline
 62
7
  6
CONTINUOUS
 70
0
 71
3
 72
9
 73
5
 74
0
 42
0.0000001
 43
0.0000001
 44
0.0000000001
 40
0.0
 40
0.0
 40
0.0
 40
0.0
 40
0.595443828
 40
1.0
 40
1.0
 40
1.0
 40
1.0
 10
16.0368226025
 20
12.7990025025
 30
0.0
 10
16.0335937095
 20
12.8077329295
 30
0.0
 10
16.0283367547
 20
12.8224584592
 30
0.0
 10
16.0237443013
 20
12.8374109816
 30
0.0
 10
16.0221092772
 20
12.8435202765
 30
0.0
  0
SPLINE
  5
576
100
AcDbEntity
  8
0
100
AcDbSpline
 62
7
  6
CONTINUOUS
 70
0
 71
3
 72
13
 73
9
 74
0
 42
0.0000001
 43
0.0000001
 44
0.0000000001
 40
0.0
 40
0.0
 40
0.0
 40
0.0
 40
0.2797078507
 40
0.5385704556
 40
0.660146121
 40
0.7768755022
 40
0.8897243512
 40
1.0
 40
1.0
 40
1.0
 40
1.0
 10
16.0003547455
 20
12.6809924738
 30
0.0
 10
16.0088770731
 20
12.6896192685
 30
0.0
 10
16.0236918577
 20
12.7079314979
 30
0.0
 10
16.0361577528
 20
12.7340780957
 30
0.0
 10
16.0411105319
 20
12.7551295661
 30
0.0
 10
16.0423032311
 20
12.7703732457
 30
0.0
 10
16.0410124358
 20
12.7851188221
 30
0.0
 10
16.0384810016
 20
12.794518448
 30
0.0
 10
16.0368226025
 20
12.7990025025
 30
0.0
  0
SPLINE
  5
577
100
AcDbEntity
  8
0
100
AcDbSpline
 62
7
  6
CONTINUOUS
 70
0
 71
3
 72
11
 73
7
 74
0
 42
0.0000001
 43
0.0000001
 44
0.0000000001
 40
0.0
 40
0.0
 40
0.0
 40
0.0
 40
0.2426909656
 40
0.4955306888
 40
0.7507095336
 40
1.0
 40
1.0
 40
1.0
 40
1.0
 10
15.8619511404
 20
12.6219874595
 30
0.0
 10
15.874409052
 20
12.6219874595
 30
0.0
 10
15.8999013554
 20
12.6248913821
 30
0.0
 10
15.9368074192
 20
12.6367230262
 30
0.0
 10
15.9711758372
 20
12.6553496045
 30
0.0
 10
15.9913614145
 20
12.6718889023
 30
0.0
 10
16.0003547455
 20
12.6809924738
 30
0.0
  0
SPLINE
  5
578
100
AcDbEntity
  8
0
100
AcDbSpline
 62
7
  6
CONTINUOUS
 70
0
 71
3
 72
14
 73
10
 74
0
 42
0.0000001
 43
0.0000001
 44
0.0000000001
 40
0.0
 40
0.0
 40
0.0
 40
0.0
 40
0.1134496919
 40
0.2276872763
 40
0.3443762492
 40
0.4649534832
 40
0.5904561824
 40
0.7214867044
 40
1.0
 40
1.0
 40
1.0
 40
1.0
 10
15.7600153924
 20
12.6809924738
 30
0.0
 10
15.7616593442
 20
12.6765474824
 30
0.0
 10
15.7657772958
 20
12.6679049088
 30
0.0
 10
15.7742589393
 20
12.6561934205
 30
0.0
 10
15.784880881
 20
12.6459486214
 30
0.0
 10
15.7974371136
 20
12.6373488353
 30
0.0
 10
15.8117051926
 20
12.6305304378
 30
0.0
 10
15.8330834957
 20
12.6238214324
 30
0.0
 10
15.8503165103
 20
12.6219874595
 30
0.0
 10
15.8619511404
 20
12.6219874595
 30
0.0
  0
SPLINE
  5
579
100
AcDbEntity
  8
0
100
AcDbSpline
 62
7
  6
CONTINUOUS
 70
0
 71
3
 72
13
 73
9
 74
0
 42
0.0000001
 43
0.0000001
 44
0.0000000001
 40
0.0
 40
0.0
 40
0.0
 40
0.0
 40
0.2797078507
 40
0.5385704556
 40
0.660146121
 40
0.7768755022
 40
0.8897243512
 40
1.0
 40
1.0
 40
1.0
 40
1.0
 10
15.7964832494
 20
12.7990025025
 30
0.0
 10
15.7879609218
 20
12.7903757079
 30
0.0
 10
15.7731461371
 20
12.7720634785
 30
0.0
 10
15.7606802421
 20
12.7459168806
 30
0.0
 10
15.755727463
 20
12.7248654103
 30
0.0
 10
15.7545347638
 20
12.7096217307
 30
0.0
 10
15.755825559
 20
12.6948761543
 30
0.0
 10
15.7583569932
 20
12.6854765283
 30
0.0
 10
15.7600153924
 20
12.6809924738
 30
0.0
  0
SPLINE
  5
57A
100
AcDbEntity
  8
0
100
AcDbSpline
 62
7
  6
CONTINUOUS
 70
0
 71
3
 72
11
 73
7
 74
0
 42
0.0000001
 43
0.0000001
 44
0.0000000001
 40
0.0
 40
0.0
 40
0.0
 40
0.0
 40
0.2426909656
 40
0.4955306888
 40
0.7507095336
 40
1.0
 40
1.0
 40
1.0
 40
1.0
 10
15.9348868545
 20
12.8580075169
 30
0.0
 10
15.9224289429
 20
12.8580075169
 30
0.0
 10
15.8969366395
 20
12.8551035942
 30
0.0
 10
15.8600305757
 20
12.8432719501
 30
0.0
 10
15.8256621577
 20
12.8246453718
 30
0.0
 10
15.8054765804
 20
12.8081060741
 30
0.0
 10
15.7964832494
 20
12.7990025025
 30
0.0
  0
SPLINE
  5
57B
100
AcDbEntity
  8
0
100
AcDbSpline
 62
7
  6
CONTINUOUS
 70
0
 71
3
 72
14
 73
10
 74
0
 42
0.0000001
 43
0.0000001
 44
0.0000000001
 40
0.0
 40
0.0
 40
0.0
 40
0.0
 40
0.1134496919
 40
0.2276872763
 40
0.3443762492
 40
0.4649534832
 40
0.5904561824
 40
0.7214867044
 40
1.0
 40
1.0
 40
1.0
 40
1.0
 10
16.0368226025
 20
12.7990025025
 30
0.0
 10
16.0351786506
 20
12.803447494
 30
0.0
 10
16.0310606991
 20
12.8120900676
 30
0.0
 10
16.0225790556
 20
12.8238015559
 30
0.0
 10
16.0119571139
 20
12.834046355
 30
0.0
 10
15.9994008813
 20
12.8426461411
 30
0.0
 10
15.9851328023
 20
12.8494645386
 30
0.0
 10
15.9637544992
 20
12.8561735439
 30
0.0
 10
15.9465214846
 20
12.8580075169
 30
0.0
 10
15.9348868545
 20
12.8580075169
 30
0.0
  0
SPLINE
  5
57C
100
AcDbEntity
  8
0
100
AcDbSpline
 62
7
  6
CONTINUOUS
 70
0
 71
3
 72
9
 73
5
 74
0
 42
0.0000001
 43
0.0000001
 44
0.0000000001
 40
0.0
 40
0.0
 40
0.0
 40
0.0
 40
0.5325634867
 40
1.0
 40
1.0
 40
1.0
 40
1.0
 10
16.0657545378
 20
12.7255102478
 30
0.0
 10
16.0604596392
 20
12.738493475
 30
0.0
 10
16.0506053461
 20
12.7629079879
 30
0.0
 10
16.0410915646
 20
12.78745989
 30
0.0
 10
16.0368226025
 20
12.7990025025
 30
0.0
  0
SPLINE
  5
57D
100
AcDbEntity
  8
0
100
AcDbSpline
 62
7
  6
CONTINUOUS
 70
0
 71
3
 72
11
 73
7
 74
0
 42
0.0000001
 43
0.0000001
 44
0.0000000001
 40
0.0
 40
0.0
 40
0.0
 40
0.0
 40
0.2669033407
 40
0.522016195
 40
0.7657962023
 40
1.0
 40
1.0
 40
1.0
 40
1.0
 10
16.0003547455
 20
12.6809924738
 30
0.0
 10
16.0053292336
 20
12.6860279394
 30
0.0
 10
16.0155622782
 20
12.6953979835
 30
0.0
 10
16.0319589837
 20
12.7074405601
 30
0.0
 10
16.0486844485
 20
12.7174013805
 30
0.0
 10
16.0600837754
 20
12.7229765549
 30
0.0
 10
16.0657545378
 20
12.7255102478
 30
0.0
  0
SPLINE
  5
57E
100
AcDbEntity
  8
0
100
AcDbSpline
 62
7
  6
CONTINUOUS
 70
0
 71
3
 72
9
 73
5
 74
0
 42
0.0000001
 43
0.0000001
 44
0.0000000001
 40
0.0
 40
0.0
 40
0.0
 40
0.0
 40
0.2530655924
 40
1.0
 40
1.0
 40
1.0
 40
1.0
 10
13.6375527444
 20
11.5963124616
 30
0.0
 10
13.6362856142
 20
11.5968847768
 30
0.0
 10
13.6313343124
 20
11.5992715955
 30
0.0
 10
13.6265737647
 20
11.6020255024
 30
0.0
 10
13.6230220913
 20
11.6040813714
 30
0.0
  0
SPLINE
  5
57F
100
AcDbEntity
  8
0
100
AcDbSpline
 62
7
  6
CONTINUOUS
 70
0
 71
3
 72
11
 73
7
 74
0
 42
0.0000001
 43
0.0000001
 44
0.0000000001
 40
0.0
 40
0.0
 40
0.0
 40
0.0
 40
0.2299321955
 40
0.4717171968
 40
0.7280012916
 40
1.0
 40
1.0
 40
1.0
 40
1.0
 10
15.7889473276
 20
12.6075002192
 30
0.0
 10
15.7942677218
 20
12.6096518377
 30
0.0
 10
15.8053562983
 20
12.613653256
 30
0.0
 10
15.8229470875
 20
12.6183104248
 30
0.0
 10
15.8419629282
 20
12.6213414079
 30
0.0
 10
15.8551621866
 20
12.6219874595
 30
0.0
 10
15.8619511404
 20
12.6219874595
 30
0.0
  0
SPLINE
  5
580
100
AcDbEntity
  8
0
100
AcDbSpline
 62
7
  6
CONTINUOUS
 70
0
 71
3
 72
18
 73
14
 74
0
 42
0.0000001
 43
0.0000001
 44
0.0000000001
 40
0.0
 40
0.0
 40
0.0
 40
0.0
 40
0.0526404068
 40
0.1071655594
 40
0.1637971932
 40
0.2244362247
 40
0.2884106421
 40
0.3536407058
 40
0.4824547056
 40
0.6111409626
 40
0.7408500304
 40
0.8709517693
 40
1.0
 40
1.0
 40
1.0
 40
1.0
 10
13.650268532
 20
11.5854083934
 30
0.0
 10
13.6499437969
 20
11.5853200992
 30
0.0
 10
13.6492750106
 20
11.5851683271
 30
0.0
 10
13.6482428815
 20
11.5849913657
 30
0.0
 10
13.6471483399
 20
11.5848746969
 30
0.0
 10
13.645985036
 20
11.5849446088
 30
0.0
 10
13.6448016603
 20
11.5852513757
 30
0.0
 10
13.6433183502
 20
11.5859985982
 30
0.0
 10
13.641764639
 20
11.5874025773
 30
0.0
 10
13.6403022456
 20
11.5894090533
 30
0.0
 10
13.6391148503
 20
11.5915983053
 30
0.0
 10
13.6381961892
 20
11.5939131041
 30
0.0
 10
13.6377382284
 20
11.5955085916
 30
0.0
 10
13.6375527444
 20
11.5963124616
 30
0.0
  0
SPLINE
  5
581
100
AcDbEntity
  8
0
100
AcDbSpline
 62
7
  6
CONTINUOUS
 70
0
 71
3
 72
11
 73
7
 74
0
 42
0.0000001
 43
0.0000001
 44
0.0000000001
 40
0.0
 40
0.0
 40
0.0
 40
0.0
 40
0.260119938
 40
0.5144621485
 40
0.7621206817
 40
1.0
 40
1.0
 40
1.0
 40
1.0
 10
13.6719335018
 20
11.5910259229
 30
0.0
 10
13.66890206
 20
11.5910259229
 30
0.0
 10
13.6629048936
 20
11.5912193211
 30
0.0
 10
13.6540587768
 20
11.5921076605
 30
0.0
 10
13.6455677735
 20
11.5936371122
 30
0.0
 10
13.6401093879
 20
11.5952405753
 30
0.0
 10
13.6375527444
 20
11.5963124616
 30
0.0
  0
SPLINE
  5
582
100
AcDbEntity
  8
0
100
AcDbSpline
 62
7
  6
CONTINUOUS
 70
0
 71
3
 72
12
 73
8
 74
0
 42
0.0000001
 43
0.0000001
 44
0.0000000001
 40
0.0
 40
0.0
 40
0.0
 40
0.0
 40
0.2526279474
 40
0.442024525
 40
0.6305450044
 40
0.8170224161
 40
1.0
 40
1.0
 40
1.0
 40
1.0
 10
15.9491735631
 20
12.6075002192
 30
0.0
 10
15.9526827446
 20
12.6142060352
 30
0.0
 10
15.9590834006
 20
12.6258071373
 30
0.0
 10
15.969026751
 20
12.6418764671
 30
0.0
 10
15.9786602929
 20
12.655783942
 30
0.0
 10
15.9890246446
 20
12.6689150288
 30
0.0
 10
15.9965021795
 20
12.677092683
 30
0.0
 10
16.0003547455
 20
12.6809924738
 30
0.0
  0
SPLINE
  5
583
100
AcDbEntity
  8
0
100
AcDbSpline
 62
7
  6
CONTINUOUS
 70
0
 71
3
 72
11
 73
7
 74
0
 42
0.0000001
 43
0.0000001
 44
0.0000000001
 40
0.0
 40
0.0
 40
0.0
 40
0.0
 40
0.241191556
 40
0.4905533932
 40
0.7443465061
 40
1.0
 40
1.0
 40
1.0
 40
1.0
 10
15.8619511404
 20
12.6219874595
 30
0.0
 10
15.8690816161
 20
12.6219874595
 30
0.0
 10
15.8835916876
 20
12.6212403305
 30
0.0
 10
15.9054014946
 20
12.6181562986
 30
0.0
 10
15.9273592406
 20
12.6134987214
 30
0.0
 10
15.9419136539
 20
12.6096019832
 30
0.0
 10
15.9491735631
 20
12.6075002192
 30
0.0
  0
LINE
  5
584
100
AcDbEntity
  8
0
100
AcDbLine
 62
7
  6
CONTINUOUS
 10
13.650268532
 20
11.5854083934
 11
13.6719335018
 21
11.5910259229
  0
SPLINE
  5
585
100
AcDbEntity
  8
0
100
AcDbSpline
 62
7
  6
CONTINUOUS
 70
0
 71
3
 72
12
 73
8
 74
0
 42
0.0000001
 43
0.0000001
 44
0.0000000001
 40
0.0
 40
0.0
 40
0.0
 40
0.0
 40
0.2526284225
 40
0.4420259317
 40
0.6305466302
 40
0.8170246854
 40
1.0
 40
1.0
 40
1.0
 40
1.0
 10
16.0780514667
 20
13.0245492683
 30
0.0
 10
16.0815606589
 20
13.0312551048
 30
0.0
 10
16.0879621855
 20
13.0428557565
 30
0.0
 10
16.0979037921
 20
13.0589262536
 30
0.0
 10
16.107537977
 20
13.0728333864
 30
0.0
 10
16.1179018832
 20
13.0859648105
 30
0.0
 10
16.1253801265
 20
13.0941417759
 30
0.0
 10
16.1292326491
 20
13.098041523
 30
0.0
  0
SPLINE
  5
586
100
AcDbEntity
  8
0
100
AcDbSpline
 62
7
  6
CONTINUOUS
 70
0
 71
3
 72
11
 73
7
 74
0
 42
0.0000001
 43
0.0000001
 44
0.0000000001
 40
0.0
 40
0.0
 40
0.0
 40
0.0
 40
0.241191556
 40
0.4905533932
 40
0.7443465061
 40
1.0
 40
1.0
 40
1.0
 40
1.0
 10
15.9908290441
 20
13.0390365086
 30
0.0
 10
15.9979595198
 20
13.0390365086
 30
0.0
 10
16.0124695913
 20
13.0382893796
 30
0.0
 10
16.0342793983
 20
13.0352053477
 30
0.0
 10
16.0562371442
 20
13.0305477705
 30
0.0
 10
16.0707915576
 20
13.0266510324
 30
0.0
 10
16.0780514667
 20
13.0245492683
 30
0.0
  0
SPLINE
  5
587
100
AcDbEntity
  8
0
100
AcDbSpline
 62
7
  6
CONTINUOUS
 70
0
 71
3
 72
11
 73
7
 74
0
 42
0.0000001
 43
0.0000001
 44
0.0000000001
 40
0.0
 40
0.0
 40
0.0
 40
0.0
 40
0.2426909656
 40
0.4955306888
 40
0.7507095336
 40
1.0
 40
1.0
 40
1.0
 40
1.0
 10
16.0637647582
 20
13.275056566
 30
0.0
 10
16.0513068465
 20
13.275056566
 30
0.0
 10
16.0258145431
 20
13.2721526433
 30
0.0
 10
15.9889084793
 20
13.2603209992
 30
0.0
 10
15.9545400614
 20
13.2416944209
 30
0.0
 10
15.934354484
 20
13.2251551232
 30
0.0
 10
15.9253611531
 20
13.2160515516
 30
0.0
  0
SPLINE
  5
588
100
AcDbEntity
  8
0
100
AcDbSpline
 62
7
  6
CONTINUOUS
 70
0
 71
3
 72
14
 73
10
 74
0
 42
0.0000001
 43
0.0000001
 44
0.0000000001
 40
0.0
 40
0.0
 40
0.0
 40
0.0
 40
0.1134496919
 40
0.2276872763
 40
0.3443762492
 40
0.4649534832
 40
0.5904561824
 40
0.7214867044
 40
1.0
 40
1.0
 40
1.0
 40
1.0
 10
16.1657005062
 20
13.2160515516
 30
0.0
 10
16.1640565543
 20
13.2204965431
 30
0.0
 10
16.1599386028
 20
13.2291391167
 30
0.0
 10
16.1514569593
 20
13.240850605
 30
0.0
 10
16.1408350176
 20
13.2510954041
 30
0.0
 10
16.128278785
 20
13.2596951902
 30
0.0
 10
16.114010706
 20
13.2665135877
 30
0.0
 10
16.0926324029
 20
13.2732225931
 30
0.0
 10
16.0753993882
 20
13.275056566
 30
0.0
 10
16.0637647582
 20
13.275056566
 30
0.0
  0
SPLINE
  5
589
100
AcDbEntity
  8
0
100
AcDbSpline
 62
7
  6
CONTINUOUS
 70
0
 71
3
 72
13
 73
9
 74
0
 42
0.0000001
 43
0.0000001
 44
0.0000000001
 40
0.0
 40
0.0
 40
0.0
 40
0.0
 40
0.2797078507
 40
0.5385704556
 40
0.660146121
 40
0.7768755022
 40
0.8897243512
 40
1.0
 40
1.0
 40
1.0
 40
1.0
 10
16.1292326491
 20
13.0980415229
 30
0.0
 10
16.1377549768
 20
13.1066683176
 30
0.0
 10
16.1525697614
 20
13.124980547
 30
0.0
 10
16.1650356565
 20
13.1511271449
 30
0.0
 10
16.1699884356
 20
13.1721786152
 30
0.0
 10
16.1711811348
 20
13.1874222948
 30
0.0
 10
16.1698903395
 20
13.2021678712
 30
0.0
 10
16.1673589053
 20
13.2115674971
 30
0.0
 10
16.1657005062
 20
13.2160515516
 30
0.0
  0
SPLINE
  5
58A
100
AcDbEntity
  8
0
100
AcDbSpline
 62
7
  6
CONTINUOUS
 70
0
 71
3
 72
11
 73
7
 74
0
 42
0.0000001
 43
0.0000001
 44
0.0000000001
 40
0.0
 40
0.0
 40
0.0
 40
0.0
 40
0.2426909656
 40
0.4955306888
 40
0.7507095336
 40
1.0
 40
1.0
 40
1.0
 40
1.0
 10
15.9908290441
 20
13.0390365086
 30
0.0
 10
16.0032869557
 20
13.0390365086
 30
0.0
 10
16.0287792591
 20
13.0419404313
 30
0.0
 10
16.0656853229
 20
13.0537720753
 30
0.0
 10
16.1000537408
 20
13.0723986536
 30
0.0
 10
16.1202393182
 20
13.0889379514
 30
0.0
 10
16.1292326491
 20
13.0980415229
 30
0.0
  0
SPLINE
  5
58B
100
AcDbEntity
  8
0
100
AcDbSpline
 62
7
  6
CONTINUOUS
 70
0
 71
3
 72
14
 73
10
 74
0
 42
0.0000001
 43
0.0000001
 44
0.0000000001
 40
0.0
 40
0.0
 40
0.0
 40
0.0
 40
0.1134496919
 40
0.2276872763
 40
0.3443762492
 40
0.4649534832
 40
0.5904561824
 40
0.7214867044
 40
1.0
 40
1.0
 40
1.0
 40
1.0
 10
15.888893296
 20
13.0980415229
 30
0.0
 10
15.8905372479
 20
13.0935965315
 30
0.0
 10
15.8946551994
 20
13.0849539579
 30
0.0
 10
15.9031368429
 20
13.0732424696
 30
0.0
 10
15.9137587846
 20
13.0629976705
 30
0.0
 10
15.9263150173
 20
13.0543978844
 30
0.0
 10
15.9405830963
 20
13.0475794869
 30
0.0
 10
15.9619613993
 20
13.0408704815
 30
0.0
 10
15.979194414
 20
13.0390365086
 30
0.0
 10
15.9908290441
 20
13.0390365086
 30
0.0
  0
SPLINE
  5
58C
100
AcDbEntity
  8
0
100
AcDbSpline
 62
7
  6
CONTINUOUS
 70
0
 71
3
 72
13
 73
9
 74
0
 42
0.0000001
 43
0.0000001
 44
0.0000000001
 40
0.0
 40
0.0
 40
0.0
 40
0.0
 40
0.2797078507
 40
0.5385704556
 40
0.660146121
 40
0.7768755022
 40
0.8897243512
 40
1.0
 40
1.0
 40
1.0
 40
1.0
 10
15.9253611531
 20
13.2160515516
 30
0.0
 10
15.9168388255
 20
13.207424757
 30
0.0
 10
15.9020240408
 20
13.1891125276
 30
0.0
 10
15.8895581458
 20
13.1629659297
 30
0.0
 10
15.8846053666
 20
13.1419144594
 30
0.0
 10
15.8834126674
 20
13.1266707798
 30
0.0
 10
15.8847034627
 20
13.1119252034
 30
0.0
 10
15.8872348969
 20
13.1025255775
 30
0.0
 10
15.888893296
 20
13.0980415229
 30
0.0
  0
SPLINE
  5
58D
100
AcDbEntity
  8
0
100
AcDbSpline
 62
7
  6
CONTINUOUS
 70
0
 71
3
 72
10
 73
6
 74
0
 42
0.0000001
 43
0.0000001
 44
0.0000000001
 40
0.0
 40
0.0
 40
0.0
 40
0.0
 40
0.2415648052
 40
0.6167718605
 40
1.0
 40
1.0
 40
1.0
 40
1.0
 10
13.8663189867
 20
12.6219874595
 30
0.0
 10
13.8721989617
 20
12.6219874595
 30
0.0
 10
13.8872172766
 20
12.6213533766
 30
0.0
 10
13.9113689497
 20
12.6180017861
 30
0.0
 10
13.929395895
 20
12.61394718
 30
0.0
 10
13.9384319403
 20
12.611630772
 30
0.0
  0
SPLINE
  5
58E
100
AcDbEntity
  8
0
100
AcDbSpline
 62
7
  6
CONTINUOUS
 70
0
 71
3
 72
9
 73
5
 74
0
 42
0.0000001
 43
0.0000001
 44
0.0000000001
 40
0.0
 40
0.0
 40
0.0
 40
0.0
 40
0.5954314334
 40
1.0
 40
1.0
 40
1.0
 40
1.0
 10
16.1657005062
 20
13.2160515516
 30
0.0
 10
16.1624716806
 20
13.2247817963
 30
0.0
 10
16.157214869
 20
13.2395073719
 30
0.0
 10
16.1526222549
 20
13.254459844
 30
0.0
 10
16.1509871808
 20
13.2605693256
 30
0.0
  0
SPLINE
  5
58F
100
AcDbEntity
  8
0
100
AcDbSpline
 62
7
  6
CONTINUOUS
 70
0
 71
3
 72
9
 73
5
 74
0
 42
0.0000001
 43
0.0000001
 44
0.0000000001
 40
0.0
 40
0.0
 40
0.0
 40
0.0
 40
0.5325716118
 40
1.0
 40
1.0
 40
1.0
 40
1.0
 10
16.1946324415
 20
13.1425592969
 30
0.0
 10
16.189337462
 20
13.1555427224
 30
0.0
 10
16.179483037
 20
13.1799571833
 30
0.0
 10
16.1699693941
 20
13.2045091395
 30
0.0
 10
16.1657005062
 20
13.2160515516
 30
0.0
  0
SPLINE
  5
590
100
AcDbEntity
  8
0
100
AcDbSpline
 62
7
  6
CONTINUOUS
 70
0
 71
3
 72
11
 73
7
 74
0
 42
0.0000001
 43
0.0000001
 44
0.0000000001
 40
0.0
 40
0.0
 40
0.0
 40
0.0
 40
0.2668986041
 40
0.522013586
 40
0.7657944018
 40
1.0
 40
1.0
 40
1.0
 40
1.0
 10
16.1292326491
 20
13.098041523
 30
0.0
 10
16.1342070375
 20
13.1030768876
 30
0.0
 10
16.1444410797
 20
13.1124456563
 30
0.0
 10
16.1608368414
 20
13.1244892625
 30
0.0
 10
16.1775625219
 20
13.1344499414
 30
0.0
 10
16.1889616485
 20
13.1400255903
 30
0.0
 10
16.1946324415
 20
13.1425592969
 30
0.0
  0
SPLINE
  5
591
100
AcDbEntity
  8
0
100
AcDbSpline
 62
7
  6
CONTINUOUS
 70
0
 71
3
 72
11
 73
7
 74
0
 42
0.0000001
 43
0.0000001
 44
0.0000000001
 40
0.0
 40
0.0
 40
0.0
 40
0.0
 40
0.2299321955
 40
0.4717171968
 40
0.7280012916
 40
1.0
 40
1.0
 40
1.0
 40
1.0
 10
15.9178252313
 20
13.0245492683
 30
0.0
 10
15.9231456254
 20
13.0267008868
 30
0.0
 10
15.9342342019
 20
13.0307023051
 30
0.0
 10
15.9518249912
 20
13.0353594739
 30
0.0
 10
15.9708408319
 20
13.038390457
 30
0.0
 10
15.9840400903
 20
13.0390365086
 30
0.0
 10
15.9908290441
 20
13.0390365086
 30
0.0
  0
SPLINE
  5
592
100
AcDbEntity
  8
0
100
AcDbSpline
 62
7
  6
CONTINUOUS
 70
0
 71
3
 72
9
 73
5
 74
0
 42
0.0000001
 43
0.0000001
 44
0.0000000001
 40
0.0
 40
0.0
 40
0.0
 40
0.0
 40
0.4897544887
 40
1.0
 40
1.0
 40
1.0
 40
1.0
 10
16.0280839594
 20
12.9333663918
 30
0.0
 10
16.0424689657
 20
12.9333663918
 30
0.0
 10
16.0718964643
 20
12.9367158146
 30
0.0
 10
16.100052386
 20
12.9457451578
 30
0.0
 10
16.1138386743
 20
12.9516226068
 30
0.0
  0
SPLINE
  5
593
100
AcDbEntity
  8
0
100
AcDbSpline
 62
7
  6
CONTINUOUS
 70
0
 71
3
 72
9
 73
5
 74
0
 42
0.0000001
 43
0.0000001
 44
0.0000000001
 40
0.0
 40
0.0
 40
0.0
 40
0.0
 40
0.4880758241
 40
1.0
 40
1.0
 40
1.0
 40
1.0
 10
15.9812069482
 20
12.9398635049
 30
0.0
 10
15.9886058895
 20
12.9376621733
 30
0.0
 10
16.0041497599
 20
12.9343837487
 30
0.0
 10
16.0199873024
 20
12.9333663918
 30
0.0
 10
16.0280839594
 20
12.9333663918
 30
0.0
  0
SPLINE
  5
594
100
AcDbEntity
  8
0
100
AcDbSpline
 62
7
  6
CONTINUOUS
 70
0
 71
3
 72
23
 73
19
 74
0
 42
0.0000001
 43
0.0000001
 44
0.0000000001
 40
0.0
 40
0.0
 40
0.0
 40
0.0
 40
0.1951982759
 40
0.373993832
 40
0.5335529052
 40
0.6051737245
 40
0.6707644421
 40
0.7299241117
 40
0.7823271958
 40
0.8277647973
 40
0.8664693599
 40
0.8994840689
 40
0.9146950686
 40
0.9296730886
 40
0.9450487556
 40
0.9614907239
 40
0.9796290552
 40
1.0
 40
1.0
 40
1.0
 40
1.0
 10
14.1335584095
 20
13.2661490141
 30
0.0
 10
14.1352260389
 20
13.271544962
 30
0.0
 10
14.1386922399
 20
13.2818036109
 30
0.0
 10
14.1445478293
 20
13.2960985986
 30
0.0
 10
14.1498684014
 20
13.3067202096
 30
0.0
 10
14.1543012399
 20
13.314078885
 30
0.0
 10
14.157523375
 20
13.318763639
 30
0.0
 10
14.1607355459
 20
13.3227654082
 30
0.0
 10
14.1639053104
 20
13.3260311223
 30
0.0
 10
14.1670036552
 20
13.3285060568
 30
0.0
 10
14.1700020779
 20
13.3301349313
 30
0.0
 10
14.1724996793
 20
13.3307230216
 30
0.0
 10
14.1743372466
 20
13.3306046221
 30
0.0
 10
14.175614942
 20
13.3302386459
 30
0.0
 10
14.1768115337
 20
13.3295822964
 30
0.0
 10
14.1779122821
 20
13.3286307963
 30
0.0
 10
14.1789074217
 20
13.3273812747
 30
0.0
 10
14.179459903
 20
13.3264087102
 30
0.0
 10
14.1797195773
 20
13.3258795937
 30
0.0
  0
LINE
  5
595
100
AcDbEntity
  8
0
100
AcDbLine
 62
7
  6
CONTINUOUS
 10
14.4261728846
 20
12.6720998147
 11
14.428786376
 21
12.670219722
  0
SPLINE
  5
596
100
AcDbEntity
  8
0
100
AcDbSpline
 62
7
  6
CONTINUOUS
 70
0
 71
3
 72
9
 73
5
 74
0
 42
0.0000001
 43
0.0000001
 44
0.0000000001
 40
0.0
 40
0.0
 40
0.0
 40
0.0
 40
0.2382515218
 40
1.0
 40
1.0
 40
1.0
 40
1.0
 10
14.428786376
 20
12.670219722
 30
0.0
 10
14.4292281459
 20
12.6699766593
 30
0.0
 10
14.4311373625
 20
12.6690565555
 30
0.0
 10
14.4332280066
 20
12.668541599
 30
0.0
 10
14.4348271337
 20
12.668337318
 30
0.0
  0
SPLINE
  5
597
100
AcDbEntity
  8
0
100
AcDbSpline
 62
7
  6
CONTINUOUS
 70
0
 71
3
 72
9
 73
5
 74
0
 42
0.0000001
 43
0.0000001
 44
0.0000000001
 40
0.0
 40
0.0
 40
0.0
 40
0.0
 40
0.4850931714
 40
1.0
 40
1.0
 40
1.0
 40
1.0
 10
14.4470592491
 20
12.669596966
 30
0.0
 10
14.4491846312
 20
12.6702193447
 30
0.0
 10
14.453468431
 20
12.671848166
 30
0.0
 10
14.4574981567
 20
12.6740211909
 30
0.0
 10
14.4594974893
 20
12.675257585
 30
0.0
  0
SPLINE
  5
598
100
AcDbEntity
  8
0
100
AcDbSpline
 62
7
  6
CONTINUOUS
 70
0
 71
3
 72
9
 73
5
 74
0
 42
0.0000001
 43
0.0000001
 44
0.0000000001
 40
0.0
 40
0.0
 40
0.0
 40
0.0
 40
0.263435185
 40
1.0
 40
1.0
 40
1.0
 40
1.0
 10
14.4769501396
 20
12.6916419325
 30
0.0
 10
14.4775882931
 20
12.6925611832
 30
0.0
 10
14.4798939166
 20
12.6961275976
 30
0.0
 10
14.4817245337
 20
12.7000214843
 30
0.0
 10
14.4826483185
 20
12.7030108528
 30
0.0
  0
SPLINE
  5
599
100
AcDbEntity
  8
0
100
AcDbSpline
 62
7
  6
CONTINUOUS
 70
0
 71
3
 72
23
 73
19
 74
0
 42
0.0000001
 43
0.0000001
 44
0.0000000001
 40
0.0
 40
0.0
 40
0.0
 40
0.0
 40
0.195199139
 40
0.3739942184
 40
0.533553475
 40
0.6051740061
 40
0.6707650989
 40
0.7299243252
 40
0.7823274353
 40
0.8277651355
 40
0.8664694002
 40
0.8994842645
 40
0.9146950932
 40
0.9296730978
 40
0.945048833
 40
0.9614907792
 40
0.9796290066
 40
1.0
 40
1.0
 40
1.0
 40
1.0
 10
14.0046805013
 20
12.8490999575
 30
0.0
 10
14.0063481401
 20
12.8544959293
 30
0.0
 10
14.0098143559
 20
12.864754586
 30
0.0
 10
14.015669941
 20
12.8790495953
 30
0.0
 10
14.0209905147
 20
12.8896711879
 30
0.0
 10
14.0254233541
 20
12.8970298735
 30
0.0
 10
14.0286454965
 20
12.9017146102
 30
0.0
 10
14.0318576569
 20
12.9057163877
 30
0.0
 10
14.0350274269
 20
12.9089820834
 30
0.0
 10
14.0381257632
 20
12.9114570233
 30
0.0
 10
14.0411241923
 20
12.9130858805
 30
0.0
 10
14.0436217832
 20
12.9136739795
 30
0.0
 10
14.04545935
 20
12.9135555727
 30
0.0
 10
14.0467370398
 20
12.9131895904
 30
0.0
 10
14.0479336334
 20
12.9125332435
 30
0.0
 10
14.049034385
 20
12.9115817486
 30
0.0
 10
14.0500295178
 20
12.9103322237
 30
0.0
 10
14.0505819969
 20
12.9093596601
 30
0.0
 10
14.0508416719
 20
12.9088305424
 30
0.0
  0
SPLINE
  5
59A
100
AcDbEntity
  8
0
100
AcDbSpline
 62
7
  6
CONTINUOUS
 70
0
 71
3
 72
11
 73
7
 74
0
 42
0.0000001
 43
0.0000001
 44
0.0000000001
 40
0.0
 40
0.0
 40
0.0
 40
0.0
 40
0.2644303867
 40
0.5170826331
 40
0.7609168475
 40
1.0
 40
1.0
 40
1.0
 40
1.0
 10
16.230419649
 20
13.0696326355
 30
0.0
 10
16.2324629361
 20
13.0762447149
 30
0.0
 10
16.2354559296
 20
13.0895187466
 30
0.0
 10
16.2363556831
 20
13.1095240217
 30
0.0
 10
16.2335115858
 20
13.1286874233
 30
0.0
 10
16.2291177331
 20
13.1406513377
 30
0.0
 10
16.226361214
 20
13.146268661
 30
0.0
  0
SPLINE
  5
59B
100
AcDbEntity
  8
0
100
AcDbSpline
 62
7
  6
CONTINUOUS
 70
0
 71
3
 72
13
 73
9
 74
0
 42
0.0000001
 43
0.0000001
 44
0.0000000001
 40
0.0
 40
0.0
 40
0.0
 40
0.0
 40
0.2658142044
 40
0.3970848049
 40
0.5258079664
 40
0.6511026496
 40
0.7722581166
 40
1.0
 40
1.0
 40
1.0
 40
1.0
 10
16.1138386743
 20
12.9516226068
 30
0.0
 10
16.127752529
 20
12.9575544407
 30
0.0
 10
16.1477742867
 20
12.9684079581
 30
0.0
 10
16.1717935762
 20
12.986303413
 30
0.0
 10
16.1880270249
 20
13.0010957731
 30
0.0
 10
16.2022652004
 20
13.0170647673
 30
0.0
 10
16.2179256076
 20
13.0390709118
 30
0.0
 10
16.2265935016
 20
13.057251218
 30
0.0
 10
16.230419649
 20
13.0696326355
 30
0.0
  0
SPLINE
  5
59C
100
AcDbEntity
  8
0
100
AcDbSpline
 62
7
  6
CONTINUOUS
 70
0
 71
3
 72
14
 73
10
 74
0
 42
0.0000001
 43
0.0000001
 44
0.0000000001
 40
0.0
 40
0.0
 40
0.0
 40
0.0
 40
0.1116437098
 40
0.2303329331
 40
0.3551495171
 40
0.4844120377
 40
0.6159637984
 40
0.7474153305
 40
1.0
 40
1.0
 40
1.0
 40
1.0
 10
16.9110850957
 20
12.30907559
 30
0.0
 10
16.912446882
 20
12.3134823322
 30
0.0
 10
16.9162516414
 20
12.3222852178
 30
0.0
 10
16.9244828378
 20
12.3345134537
 30
0.0
 10
16.9350980596
 20
12.3457601649
 30
0.0
 10
16.9476921901
 20
12.355606674
 30
0.0
 10
16.961804987
 20
12.3636957721
 30
0.0
 10
16.981618279
 20
12.3716143435
 30
0.0
 10
16.9975772951
 20
12.3743528325
 30
0.0
 10
17.0080123721
 20
12.3743528325
 30
0.0
  0
SPLINE
  5
59D
100
AcDbEntity
  8
0
100
AcDbSpline
 62
7
  6
CONTINUOUS
 70
0
 71
3
 72
9
 73
5
 74
0
 42
0.0000001
 43
0.0000001
 44
0.0000000001
 40
0.0
 40
0.0
 40
0.0
 40
0.0
 40
0.2567318882
 40
1.0
 40
1.0
 40
1.0
 40
1.0
 10
16.0331679905
 20
12.9230062257
 30
0.0
 10
16.0299932855
 20
12.9230062257
 30
0.0
 10
16.0176309478
 20
12.9233189457
 30
0.0
 10
16.0052891336
 20
12.9249117801
 30
0.0
 10
15.9963168719
 20
12.9269056342
 30
0.0
  0
SPLINE
  5
59E
100
AcDbEntity
  8
0
100
AcDbSpline
 62
7
  6
CONTINUOUS
 70
0
 71
3
 72
9
 73
5
 74
0
 42
0.0000001
 43
0.0000001
 44
0.0000000001
 40
0.0
 40
0.0
 40
0.0
 40
0.0
 40
0.5664156295
 40
1.0
 40
1.0
 40
1.0
 40
1.0
 10
14.0346032906
 20
12.8174044404
 30
0.0
 10
14.032924937
 20
12.8222888811
 30
0.0
 10
14.0300633488
 20
12.830948062
 30
0.0
 10
14.0274992372
 20
12.8397011316
 30
0.0
 10
14.0264771235
 20
12.8435202765
 30
0.0
  0
SPLINE
  5
59F
100
AcDbEntity
  8
0
100
AcDbSpline
 62
7
  6
CONTINUOUS
 70
0
 71
3
 72
27
 73
23
 74
0
 42
0.0000001
 43
0.0000001
 44
0.0000000001
 40
0.0
 40
0.0
 40
0.0
 40
0.0
 40
0.0718416843
 40
0.1069409358
 40
0.1413184044
 40
0.2074428921
 40
0.2391772756
 40
0.2700237301
 40
0.3000773355
 40
0.3294867159
 40
0.358435705
 40
0.3871175267
 40
0.4157099125
 40
0.4443617252
 40
0.5021715844
 40
0.5611375059
 40
0.6213455898
 40
0.6826856233
 40
0.7449776535
 40
0.8080309316
 40
0.8716616052
 40
1.0
 40
1.0
 40
1.0
 40
1.0
 10
15.6742891839
 20
12.7261889485
 30
0.0
 10
15.6696696704
 20
12.7356023518
 30
0.0
 10
15.6635397314
 20
12.7500160044
 30
0.0
 10
15.6575312181
 20
12.7697681103
 30
0.0
 10
15.6533020251
 20
12.7891157918
 30
0.0
 10
15.6517231983
 20
12.8085124638
 30
0.0
 10
15.6534067267
 20
12.8272613239
 30
0.0
 10
15.656265175
 20
12.8405148373
 30
0.0
 10
15.6607255325
 20
12.8529609402
 30
0.0
 10
15.666721504
 20
12.8644347441
 30
0.0
 10
15.6741386678
 20
12.8747994679
 30
0.0
 10
15.6828261906
 20
12.8839579759
 30
0.0
 10
15.6926149402
 20
12.8918552109
 30
0.0
 10
15.7069289729
 20
12.9007069168
 30
0.0
 10
15.7268174524
 20
12.9086259678
 30
0.0
 10
15.7523373744
 20
12.9133811959
 30
0.0
 10
15.7787716575
 20
12.9140150505
 30
0.0
 10
15.805509446
 20
12.9110757617
 30
0.0
 10
15.8321368442
 20
12.9050696055
 30
0.0
 10
15.8583727257
 20
12.8964352853
 30
0.0
 10
15.8926685909
 20
12.8818897289
 30
0.0
 10
15.9172079217
 20
12.8681474387
 30
0.0
 10
15.9330023706
 20
12.8580767186
 30
0.0
  0
SPLINE
  5
5A0
100
AcDbEntity
  8
0
100
AcDbSpline
 62
7
  6
CONTINUOUS
 70
0
 71
3
 72
15
 73
11
 74
0
 42
0.0000001
 43
0.0000001
 44
0.0000000001
 40
0.0
 40
0.0
 40
0.0
 40
0.0
 40
0.1089527502
 40
0.2288110345
 40
0.3572276506
 40
0.4908486281
 40
0.6257820788
 40
0.758002454
 40
0.8837653479
 40
1.0
 40
1.0
 40
1.0
 40
1.0
 10
14.4942074159
 20
13.2678135053
 30
0.0
 10
14.4956324331
 20
13.2678811876
 30
0.0
 10
14.4986123881
 20
13.2683684121
 30
0.0
 10
14.5030423507
 20
13.2699252287
 30
0.0
 10
14.5074771466
 20
13.2722720904
 30
0.0
 10
14.5117173212
 20
13.2753036614
 30
0.0
 10
14.5155737081
 20
13.2788835476
 30
0.0
 10
14.5188729786
 20
13.282851432
 30
0.0
 10
14.5214660424
 20
13.287027698
 30
0.0
 10
14.5227036575
 20
13.2899654922
 30
0.0
 10
14.5231530159
 20
13.2914196166
 30
0.0
  0
SPLINE
  5
5A1
100
AcDbEntity
  8
0
100
AcDbSpline
 62
7
  6
CONTINUOUS
 70
0
 71
3
 72
14
 73
10
 74
0
 42
0.0000001
 43
0.0000001
 44
0.0000000001
 40
0.0
 40
0.0
 40
0.0
 40
0.0
 40
0.1116437098
 40
0.2303329331
 40
0.3551495171
 40
0.4844120377
 40
0.6159637984
 40
0.7474153305
 40
1.0
 40
1.0
 40
1.0
 40
1.0
 10
16.7396214499
 20
11.754219029
 30
0.0
 10
16.7409832362
 20
11.7586257712
 30
0.0
 10
16.7447879956
 20
11.7674286569
 30
0.0
 10
16.7530191921
 20
11.7796568927
 30
0.0
 10
16.7636344139
 20
11.7909036039
 30
0.0
 10
16.7762285443
 20
11.800750113
 30
0.0
 10
16.7903413412
 20
11.8088392111
 30
0.0
 10
16.8101546332
 20
11.8167577826
 30
0.0
 10
16.8261136494
 20
11.8194962715
 30
0.0
 10
16.8365487264
 20
11.8194962715
 30
0.0
  0
ENDSEC
  0
SECTION
  2
OBJECTS
  0
DICTIONARY
  5
C
100
AcDbDictionary
280
0
281
1
  3
ACAD_GROUP
350
D
  3
ACAD_MLINESTYLE
350
17
  3
ACAD_LAYOUT
350
1A
  3
ACAD_PLOTSETTINGS
350
19
  3
ACAD_PLOTSTYLENAME
350
E
  0
DICTIONARY
  5
D
102
{ACAD_REACTORS
330
C
102
}
100
AcDbDictionary
280
0
281
1
  0
ACDBDICTIONARYWDFLT
  5
E
102
{ACAD_REACTORS
330
C
102
}
100
AcDbDictionary
281
1
  3
Normal
350
F
100
AcDbDictionaryWithDefault
340
F
  0
DICTIONARY
  5
17
102
{ACAD_REACTORS
330
C
102
}
100
AcDbDictionary
280
0
281
1
  3
Standard
350
18
  0
DICTIONARY
  5
19
102
{ACAD_REACTORS
330
C
102
}
100
AcDbDictionary
281
1
  0
DICTIONARY
  5
1A
102
{ACAD_REACTORS
330
C
102
}
100
AcDbDictionary
281
1
  3
Model
350
5A2
  3
Layout1
350
5A3
  0
ACDBPLACEHOLDER
  5
F
102
{ACAD_REACTORS
330
E
102
}
  0
MLINESTYLE
  5
18
102
{ACAD_REACTORS
330
17
102
}
100
AcDbMlineStyle
  2
STANDARD
 70
0
  3

 62
256
 51
90.0
 52
90.0
 71
2
 49
0.5
 62
256
  6
BYLAYER
 49
-0.5
 62
256
  6
BYLAYER
  0
LAYOUT
  5
5A2
102
{ACAD_REACTORS
330
1A
102
}
100
AcDbPlotSettings
  1

  2
none_device
  4
ANSI_C_(22.00_x_17.00_Inches)
  6

 40
0.0
 41
0.0
 42
0.0
 43
0.0
 44
558.8
 45
431.8
 46
0.0
 47
0.0
 48
0.0
 49
0.0
140
0.0
141
0.0
142
1.0
143
1.0
 70
1024
 72
0
 73
0
 74
0
  7

 75
0
147
1.0
148
0.0
149
0.0
100
AcDbLayout
  1
Model
 70
0
 71
0
 10
0.0
 20
0.0
 11
22.0
 21
17.0
 12
0.0
 22
0.0
 32
0.0
 14
0.0
 24
0.0
 34
0.0
 15
0.0
 25
0.0
 35
0.0
146
0.0
 13
0.0
 23
0.0
 33
0.0
 16
1.0
 26
0.0
 36
0.0
 17
0.0
 27
1.0
 37
0.0
 76
0
330
217
345
0
346
0
  0
LAYOUT
  5
5A3
102
{ACAD_REACTORS
330
1A
102
}
100
AcDbPlotSettings
  1

  2
none_device
  4
ANSI_C_(22.00_x_17.00_Inches)
  6

 40
0.0
 41
0.0
 42
0.0
 43
0.0
 44
558.8
 45
431.8
 46
0.0
 47
0.0
 48
0.0
 49
0.0
140
0.0
141
0.0
142
1.0
143
1.0
 70
0
 72
0
 73
0
 74
0
  7

 75
0
147
1.0
148
0.0
149
0.0
100
AcDbLayout
  1
Layout1
 70
0
 71
1
 10
0.0
 20
0.0
 11
22.0
 21
17.0
 12
0.0
 22
0.0
 32
0.0
 14
0.0
 24
0.0
 34
0.0
 15
0.0
 25
0.0
 35
0.0
146
0.0
 13
0.0
 23
0.0
 33
0.0
 16
1.0
 26
0.0
 36
0.0
 17
0.0
 27
1.0
 37
0.0
 76
0
330
218
345
0
346
0
  0
ENDSEC
  0
EOF