999
DXF file: _cgs_temp_output.dxf
999
Pro/ENGINEER 2016360 by Parametric Technology Corporation
  0
SECTION
  2
HEADER
  9
$ACADVER
  1
AC1021
  9
$DWGCODEPAGE
  3
ANSI_1252
  9
$EXTMAX
 10
22.0
 20
17.0
 30
0.0
  9
$EXTMIN
 10
0.0
 20
0.0
 30
0.0
  9
$LIMMIN
 10
0.0
 20
0.0
  9
$LIMMAX
 10
22.0
 20
17.0
  9
$VIEWCTR
 10
11.0
 20
8.5
  9
$VIEWSIZE
 40
17.0
  9
$CLAYER
  8
0
  9
$LTSCALE
 40
1.21
  9
$CELTYPE
  6
BYLAYER
  9
$DIMSCALE
 40
1.0
  9
$DIMASZ
 40
0.1875
  9
$DIMEXO
 40
0.0625
  9
$DIMDLI
 40
0.836
  9
$DIMEXE
 40
0.125
  9
$DIMCEN
 40
0.198
  9
$DIMLFAC
 40
1.0
  9
$DIMBLK
  1
_CLOSED
  9
$DIMALT
 70
0
  9
$DIMALTF
 40
25.4
  9
$DIMTXT
 40
0.15625
  9
$DIMTOL
 70
0
  9
$DIMLIM
 70
0
  9
$DIMTFAC
 40
1.0
  9
$DIMGAP
 40
0.09
  9
$DIMDSEP
 70
46
  9
$AUNITS
 70
0
  9
$PDMODE
 70
3
  9
$PDSIZE
 40
0.3125
  9
$HANDSEED
  5
375
  9
$TILEMODE
 70
1
  9
$MEASUREMENT
 70
0
  9
$INSUNITS
 70
1
  0
ENDSEC
  0
SECTION
  2
CLASSES
  0
CLASS
  1
ACDBDICTIONARYWDFLT
  2
AcDbDictionaryWithDefault
  3
AutoCAD 2000
 90
0
 91
1
280
0
281
0
  0
CLASS
  1
ACDBPLACEHOLDER
  2
AcDbPlaceHolder
  3
AutoCAD 2000
 90
0
 91
1
280
0
281
0
  0
CLASS
  1
LAYOUT
  2
AcDbLayout
  3
AutoCAD 2000
 90
0
 91
0
280
0
281
0
  0
ENDSEC
  0
SECTION
  2
TABLES
  0
TABLE
  2
VPORT
  5
8
100
AcDbSymbolTable
 70
2
  0
VPORT
  5
1F4
100
AcDbSymbolTableRecord
100
AcDbViewportTableRecord
  2
*ACTIVE
 70
0
 10
0.0
 20
0.0
 11
1.0
 21
1.0
 12
11.0
 22
8.5
 13
0.0
 23
0.0
 14
1.0
 24
1.0
 15
0.0
 25
0.0
 16
0.0
 26
0.0
 36
1.0
 17
0.0
 27
0.0
 37
0.0
 40
17.0
 41
1.2941176471
 42
50.0
 43
0.0
 44
0.0
 50
0.0
 51
0.0
 71
0
 72
100
 73
1
 74
1
 75
0
 76
0
 77
0
 78
0
  0
ENDTAB
  0
TABLE
  2
LTYPE
  5
5
100
AcDbSymbolTable
 70
6
  0
LTYPE
  5
14
100
AcDbSymbolTableRecord
100
AcDbLinetypeTableRecord
  2
BYBLOCK
 70
0
  3

 72
65
 73
0
 40
0.0
  0
LTYPE
  5
15
100
AcDbSymbolTableRecord
100
AcDbLinetypeTableRecord
  2
BYLAYER
 70
0
  3

 72
65
 73
0
 40
0.0
  0
LTYPE
  5
16
100
AcDbSymbolTableRecord
100
AcDbLinetypeTableRecord
  2
CONTINUOUS
 70
64
  3
Solid line
 72
65
 73
0
 40
0.0
  0
LTYPE
  5
1F5
100
AcDbSymbolTableRecord
100
AcDbLinetypeTableRecord
  2
CENTER
 70
64
  3
____ _ ____ _ ____ _ ____ _ ____ _ ____ _ ____
 72
65
 73
4
 40
0.6
 49
0.375
 74
0
 49
-0.075
 74
0
 49
0.075
 74
0
 49
-0.075
 74
0
  0
LTYPE
  5
1F6
100
AcDbSymbolTableRecord
100
AcDbLinetypeTableRecord
  2
HIDDEN
 70
64
  3
- - - - - - - - - - - - - - - - - - - -
 72
65
 73
2
 40
0.2
 49
0.1
 74
0
 49
-0.1
 74
0
  0
LTYPE
  5
1F7
100
AcDbSymbolTableRecord
100
AcDbLinetypeTableRecord
  2
PHANTOM
 70
64
  3
_____ _ _ _____ _ _ _____ _ _ _____
 72
65
 73
6
 40
0.8
 49
0.45
 74
0
 49
-0.05
 74
0
 49
0.1
 74
0
 49
-0.05
 74
0
 49
0.1
 74
0
 49
-0.05
 74
0
  0
LTYPE
  5
1F8
100
AcDbSymbolTableRecord
100
AcDbLinetypeTableRecord
  2
DOT
 70
64
  3
. . . . . . . . . . . . . . . . . . . .
 72
65
 73
2
 40
0.2
 49
0.1
 74
0
 49
-0.1
 74
0
  0
LTYPE
  5
1F9
100
AcDbSymbolTableRecord
100
AcDbLinetypeTableRecord
  2
DASHED
 70
64
  3
- - - - - - - - - - - - - - - - - - - -
 72
65
 73
2
 40
0.2
 49
0.1
 74
0
 49
-0.1
 74
0
  0
ENDTAB
  0
TABLE
  2
LAYER
  5
2
100
AcDbSymbolTable
 70
36
  0
LAYER
  5
10
100
AcDbSymbolTableRecord
100
AcDbLayerTableRecord
  2
0
 70
0
 62
7
  6
CONTINUOUS
370
-3
390
F
  0
LAYER
  5
1FA
100
AcDbSymbolTableRecord
100
AcDbLayerTableRecord
  2
DEFAULT_1
 70
0
 62
7
  6
CENTER
370
-3
390
F
  0
LAYER
  5
1FB
100
AcDbSymbolTableRecord
100
AcDbLayerTableRecord
  2
DEFAULT_2
 70
0
 62
8
  6
HIDDEN
370
-3
390
F
  0
LAYER
  5
1FC
100
AcDbSymbolTableRecord
100
AcDbLayerTableRecord
  2
DEFAULT_3
 70
0
 62
7
  6
PHANTOM
370
-3
390
F
  0
LAYER
  5
1FD
100
AcDbSymbolTableRecord
100
AcDbLayerTableRecord
  2
01_ALL_DTM_PLN
 70
0
 62
7
  6
CONTINUOUS
370
-3
390
F
  0
LAYER
  5
1FE
100
AcDbSymbolTableRecord
100
AcDbLayerTableRecord
  2
01__ASM_ALL_DTM_PLN
 70
0
 62
7
  6
CONTINUOUS
370
-3
390
F
  0
LAYER
  5
1FF
100
AcDbSymbolTableRecord
100
AcDbLayerTableRecord
  2
01__ASM_DEF_DTM_PLN
 70
0
 62
7
  6
CONTINUOUS
370
-3
390
F
  0
LAYER
  5
200
100
AcDbSymbolTableRecord
100
AcDbLayerTableRecord
  2
01___PRT_ALL_DTM_PLN
 70
0
 62
7
  6
CONTINUOUS
370
-3
390
F
  0
LAYER
  5
201
100
AcDbSymbolTableRecord
100
AcDbLayerTableRecord
  2
01___PRT_DEF_DTM_PLN
 70
0
 62
7
  6
CONTINUOUS
370
-3
390
F
  0
LAYER
  5
202
100
AcDbSymbolTableRecord
100
AcDbLayerTableRecord
  2
02_ALL_AXES
 70
0
 62
7
  6
CONTINUOUS
370
-3
390
F
  0
LAYER
  5
203
100
AcDbSymbolTableRecord
100
AcDbLayerTableRecord
  2
02__ASM_ALL_AXES
 70
0
 62
7
  6
CONTINUOUS
370
-3
390
F
  0
LAYER
  5
204
100
AcDbSymbolTableRecord
100
AcDbLayerTableRecord
  2
02___PRT_ALL_AXES
 70
0
 62
7
  6
CONTINUOUS
370
-3
390
F
  0
LAYER
  5
205
100
AcDbSymbolTableRecord
100
AcDbLayerTableRecord
  2
03_ALL_CURVES
 70
0
 62
7
  6
CONTINUOUS
370
-3
390
F
  0
LAYER
  5
206
100
AcDbSymbolTableRecord
100
AcDbLayerTableRecord
  2
03__ASM_ALL_CURVES
 70
0
 62
7
  6
CONTINUOUS
370
-3
390
F
  0
LAYER
  5
207
100
AcDbSymbolTableRecord
100
AcDbLayerTableRecord
  2
03___PRT_ALL_CURVES
 70
0
 62
7
  6
CONTINUOUS
370
-3
390
F
  0
LAYER
  5
208
100
AcDbSymbolTableRecord
100
AcDbLayerTableRecord
  2
04_ALL_DTM_PNT
 70
0
 62
7
  6
CONTINUOUS
370
-3
390
F
  0
LAYER
  5
209
100
AcDbSymbolTableRecord
100
AcDbLayerTableRecord
  2
04__ASM_ALL_DTM_PNT
 70
0
 62
7
  6
CONTINUOUS
370
-3
390
F
  0
LAYER
  5
20A
100
AcDbSymbolTableRecord
100
AcDbLayerTableRecord
  2
04___PRT_ALL_DTM_PNT
 70
0
 62
7
  6
CONTINUOUS
370
-3
390
F
  0
LAYER
  5
20B
100
AcDbSymbolTableRecord
100
AcDbLayerTableRecord
  2
05_ALL_DTM_CSYS
 70
0
 62
7
  6
CONTINUOUS
370
-3
390
F
  0
LAYER
  5
20C
100
AcDbSymbolTableRecord
100
AcDbLayerTableRecord
  2
05__ASM_ALL_DTM_CSYS
 70
0
 62
7
  6
CONTINUOUS
370
-3
390
F
  0
LAYER
  5
20D
100
AcDbSymbolTableRecord
100
AcDbLayerTableRecord
  2
05__ASM_DEF_DTM_CSYS
 70
0
 62
7
  6
CONTINUOUS
370
-3
390
F
  0
LAYER
  5
20E
100
AcDbSymbolTableRecord
100
AcDbLayerTableRecord
  2
05___PRT_ALL_DTM_CSYS
 70
0
 62
7
  6
CONTINUOUS
370
-3
390
F
  0
LAYER
  5
20F
100
AcDbSymbolTableRecord
100
AcDbLayerTableRecord
  2
05___PRT_DEF_DTM_CSYS
 70
0
 62
7
  6
CONTINUOUS
370
-3
390
F
  0
LAYER
  5
210
100
AcDbSymbolTableRecord
100
AcDbLayerTableRecord
  2
06_ALL_SURFS
 70
0
 62
7
  6
CONTINUOUS
370
-3
390
F
  0
LAYER
  5
211
100
AcDbSymbolTableRecord
100
AcDbLayerTableRecord
  2
06__ASM_ALL_SURFS
 70
0
 62
7
  6
CONTINUOUS
370
-3
390
F
  0
LAYER
  5
212
100
AcDbSymbolTableRecord
100
AcDbLayerTableRecord
  2
06___PRT_ALL_SURFS
 70
0
 62
7
  6
CONTINUOUS
370
-3
390
F
  0
LAYER
  5
213
100
AcDbSymbolTableRecord
100
AcDbLayerTableRecord
  2
07__ASM_ALL_SKELETONS
 70
0
 62
7
  6
CONTINUOUS
370
-3
390
F
  0
LAYER
  5
214
100
AcDbSymbolTableRecord
100
AcDbLayerTableRecord
  2
COLOR1
 70
0
 62
7
  6
CONTINUOUS
370
-3
390
F
  0
LAYER
  5
215
100
AcDbSymbolTableRecord
100
AcDbLayerTableRecord
  2
COLOR2
 70
0
 62
7
  6
CONTINUOUS
370
-3
390
F
  0
LAYER
  5
216
100
AcDbSymbolTableRecord
100
AcDbLayerTableRecord
  2
INTFCLR_4363
 70
0
 62
7
  6
CONTINUOUS
370
-3
390
F
  0
LAYER
  5
217
100
AcDbSymbolTableRecord
100
AcDbLayerTableRecord
  2
INTFCLR_4363_1
 70
0
 62
7
  6
CONTINUOUS
370
-3
390
F
  0
LAYER
  5
218
100
AcDbSymbolTableRecord
100
AcDbLayerTableRecord
  2
INTFCLR_4363_2
 70
0
 62
7
  6
CONTINUOUS
370
-3
390
F
  0
LAYER
  5
219
100
AcDbSymbolTableRecord
100
AcDbLayerTableRecord
  2
INTFCLR_4363_3
 70
0
 62
7
  6
CONTINUOUS
370
-3
390
F
  0
LAYER
  5
21A
100
AcDbSymbolTableRecord
100
AcDbLayerTableRecord
  2
INTFCLR_4363_4
 70
0
 62
7
  6
CONTINUOUS
370
-3
390
F
  0
LAYER
  5
21B
100
AcDbSymbolTableRecord
100
AcDbLayerTableRecord
  2
INTFCLR_4363_5
 70
0
 62
7
  6
CONTINUOUS
370
-3
390
F
  0
LAYER
  5
21C
100
AcDbSymbolTableRecord
100
AcDbLayerTableRecord
  2
INTFCLR_4363_6
 70
0
 62
7
  6
CONTINUOUS
370
-3
390
F
  0
LAYER
  5
21D
100
AcDbSymbolTableRecord
100
AcDbLayerTableRecord
  2
INTFCLR_4363_7
 70
0
 62
7
  6
CONTINUOUS
370
-3
390
F
  0
LAYER
  5
21E
100
AcDbSymbolTableRecord
100
AcDbLayerTableRecord
  2
KARTHIII
 70
0
 62
7
  6
CONTINUOUS
370
-3
390
F
  0
LAYER
  5
21F
100
AcDbSymbolTableRecord
100
AcDbLayerTableRecord
  2
NONE
 70
0
 62
7
  6
CONTINUOUS
370
-3
390
F
  0
LAYER
  5
220
100
AcDbSymbolTableRecord
100
AcDbLayerTableRecord
  2
NONE_1
 70
0
 62
7
  6
CONTINUOUS
370
-3
390
F
  0
LAYER
  5
221
100
AcDbSymbolTableRecord
100
AcDbLayerTableRecord
  2
NONE_2
 70
0
 62
7
  6
CONTINUOUS
370
-3
390
F
  0
LAYER
  5
222
100
AcDbSymbolTableRecord
100
AcDbLayerTableRecord
  2
NONE_3
 70
0
 62
7
  6
CONTINUOUS
370
-3
390
F
  0
LAYER
  5
223
100
AcDbSymbolTableRecord
100
AcDbLayerTableRecord
  2
NONE_4
 70
0
 62
7
  6
CONTINUOUS
370
-3
390
F
  0
LAYER
  5
224
100
AcDbSymbolTableRecord
100
AcDbLayerTableRecord
  2
NONE_5
 70
0
 62
7
  6
CONTINUOUS
370
-3
390
F
  0
LAYER
  5
225
100
AcDbSymbolTableRecord
100
AcDbLayerTableRecord
  2
NONE_6
 70
0
 62
7
  6
CONTINUOUS
370
-3
390
F
  0
LAYER
  5
226
100
AcDbSymbolTableRecord
100
AcDbLayerTableRecord
  2
NONE_7
 70
0
 62
7
  6
CONTINUOUS
370
-3
390
F
  0
LAYER
  5
227
100
AcDbSymbolTableRecord
100
AcDbLayerTableRecord
  2
_1060
 70
0
 62
7
  6
CONTINUOUS
370
-3
390
F
  0
LAYER
  5
228
100
AcDbSymbolTableRecord
100
AcDbLayerTableRecord
  2
_1060_1
 70
0
 62
7
  6
CONTINUOUS
370
-3
390
F
  0
LAYER
  5
229
100
AcDbSymbolTableRecord
100
AcDbLayerTableRecord
  2
_1909
 70
0
 62
7
  6
CONTINUOUS
370
-3
390
F
  0
LAYER
  5
22A
100
AcDbSymbolTableRecord
100
AcDbLayerTableRecord
  2
_1909_1
 70
0
 62
7
  6
CONTINUOUS
370
-3
390
F
  0
LAYER
  5
22B
100
AcDbSymbolTableRecord
100
AcDbLayerTableRecord
  2
_2014
 70
0
 62
7
  6
CONTINUOUS
370
-3
390
F
  0
LAYER
  5
22C
100
AcDbSymbolTableRecord
100
AcDbLayerTableRecord
  2
_2014_1
 70
0
 62
7
  6
CONTINUOUS
370
-3
390
F
  0
LAYER
  5
22D
100
AcDbSymbolTableRecord
100
AcDbLayerTableRecord
  2
_2461
 70
0
 62
7
  6
CONTINUOUS
370
-3
390
F
  0
LAYER
  5
22E
100
AcDbSymbolTableRecord
100
AcDbLayerTableRecord
  2
_2461_1
 70
0
 62
7
  6
CONTINUOUS
370
-3
390
F
  0
LAYER
  5
22F
100
AcDbSymbolTableRecord
100
AcDbLayerTableRecord
  2
_5355
 70
0
 62
7
  6
CONTINUOUS
370
-3
390
F
  0
LAYER
  5
230
100
AcDbSymbolTableRecord
100
AcDbLayerTableRecord
  2
_5355_1
 70
0
 62
7
  6
CONTINUOUS
370
-3
390
F
  0
LAYER
  5
231
100
AcDbSymbolTableRecord
100
AcDbLayerTableRecord
  2
_6193
 70
0
 62
7
  6
CONTINUOUS
370
-3
390
F
  0
LAYER
  5
232
100
AcDbSymbolTableRecord
100
AcDbLayerTableRecord
  2
_6193_1
 70
0
 62
7
  6
CONTINUOUS
370
-3
390
F
  0
LAYER
  5
233
100
AcDbSymbolTableRecord
100
AcDbLayerTableRecord
  2
_7836
 70
0
 62
7
  6
CONTINUOUS
370
-3
390
F
  0
LAYER
  5
234
100
AcDbSymbolTableRecord
100
AcDbLayerTableRecord
  2
_7836_1
 70
0
 62
7
  6
CONTINUOUS
370
-3
390
F
  0
LAYER
  5
235
100
AcDbSymbolTableRecord
100
AcDbLayerTableRecord
  2
_8029
 70
0
 62
7
  6
CONTINUOUS
370
-3
390
F
  0
LAYER
  5
236
100
AcDbSymbolTableRecord
100
AcDbLayerTableRecord
  2
_9741
 70
0
 62
7
  6
CONTINUOUS
370
-3
390
F
  0
LAYER
  5
237
100
AcDbSymbolTableRecord
100
AcDbLayerTableRecord
  2
_9741_1
 70
0
 62
7
  6
CONTINUOUS
370
-3
390
F
  0
LAYER
  5
238
100
AcDbSymbolTableRecord
100
AcDbLayerTableRecord
  2
___SHELL
 70
0
 62
7
  6
CONTINUOUS
370
-3
390
F
  0
ENDTAB
  0
TABLE
  2
STYLE
  5
3
100
AcDbSymbolTable
 70
1
  0
STYLE
  5
11
100
AcDbSymbolTableRecord
100
AcDbTextStyleTableRecord
  2
STANDARD
 70
0
 40
0.0
 41
0.8
 50
0.0
 71
0
 42
0.2
  3
txt
  4

  0
STYLE
  5
239
100
AcDbSymbolTableRecord
100
AcDbTextStyleTableRecord
  2
TEXTSTYLE_1
 70
0
 40
0.0
 41
0.8
 50
0.0
 71
0
 42
0.2
  3
gdt
  4

  0
ENDTAB
  0
TABLE
  2
VIEW
  5
6
100
AcDbSymbolTable
 70
0
  0
ENDTAB
  0
TABLE
  2
UCS
  5
7
100
AcDbSymbolTable
 70
0
  0
ENDTAB
  0
TABLE
  2
APPID
  5
9
100
AcDbSymbolTable
 70
1
  0
APPID
  5
23A
100
AcDbSymbolTableRecord
100
AcDbRegAppTableRecord
  2
ACAD
 70
0
  0
ENDTAB
  0
TABLE
  2
BLOCK_RECORD
  5
1
100
AcDbSymbolTable
 70
0
  0
BLOCK_RECORD
  5
23B
100
AcDbSymbolTableRecord
100
AcDbBlockTableRecord
  2
*Model_Space
  0
BLOCK_RECORD
  5
23C
100
AcDbSymbolTableRecord
100
AcDbBlockTableRecord
  2
*Paper_Space
  0
BLOCK_RECORD
  5
23D
100
AcDbSymbolTableRecord
100
AcDbBlockTableRecord
  2
_NONE
  0
ENDTAB
  0
TABLE
  2
DIMSTYLE
  5
A
100
AcDbSymbolTable
 70
1
100
AcDbDimStyleTable
 71
0
  0
DIMSTYLE
105
23E
100
AcDbSymbolTableRecord
100
AcDbDimStyleTableRecord
  2
STANDARD
 70
0
  3

  4

 40
1.0
 41
0.1875
 42
0.0625
 43
0.38
 44
0.125
 45
0.0
 46
0.0
 47
0.0001
 48
0.0001
140
0.15625
141
0.09
142
0.0
143
25.4
144
1.0
145
0.0
146
1.0
147
0.09
 71
0.0
 72
0.0
 73
1
 74
1
 75
0
 76
0
 77
0
 78
4
 79
1
170
0
171
3
172
0
173
0
174
0
175
0
176
0
177
0
178
0
270
2
179
4
271
4
272
4
273
2
274
2
275
0
280
0
281
0
282
0
283
1
284
4
285
0
286
0
287
3
288
0
340
11
278
46
  0
ENDTAB
  0
ENDSEC
  0
SECTION
  2
BLOCKS
  0
BLOCK
  5
20
100
AcDbEntity
  8
0
100
AcDbBlockBegin
  2
*Model_Space
 70
0
 10
0.0
 20
0.0
 30
0.0
  3
*Model_Space
  1

  0
ENDBLK
  5
21
100
AcDbEntity
  8
0
100
AcDbBlockEnd
  0
BLOCK
  5
1C
100
AcDbEntity
  8
0
100
AcDbBlockBegin
  2
*Paper_Space
 70
0
 10
0.0
 20
0.0
 30
0.0
  3
*Paper_Space
  1

  0
ENDBLK
  5
1D
100
AcDbEntity
  8
0
100
AcDbBlockEnd
  0
BLOCK
  5
23F
100
AcDbEntity
  8
0
100
AcDbBlockBegin
  2
_NONE
 70
64
 10
0.0
 20
0.0
  3
_NONE
  1

  0
ENDBLK
  5
240
100
AcDbEntity
  8
0
  6
BYBLOCK
 62
0
100
AcDbBlockEnd
  0
ENDSEC
  0
SECTION
  2
ENTITIES
  0
MTEXT
  5
241
100
AcDbEntity
  8
0
100
AcDbMText
 62
7
  6
CONTINUOUS
  7
STANDARD
 71
1
 72
1
 10
15.9560215477
 20
0.9479130325
 30
0.0
 11
1.0
 21
0.0
 31
0.0
 44
0.9
  1
SCALE: 1:0.500
 40
0.3
 41
3.36
  0
LEADER
  5
242
100
AcDbEntity
  8
0
100
AcDbLeader
 62
2
  6
CONTINUOUS
  3
STANDARD
 71
1
 72
0
 73
0
 75
0
 40
0.15625
 41
1.5
 76
3
 10
3.8334922762
 20
5.0357448968
 30
0.0
 10
8.4418964161
 20
3.2512814446
 30
0.0
 10
8.6918964161
 20
3.2512814446
 30
0.0
340
243
1001
ACAD
1000
DSTYLE
1002
{
1070
77
1070
0
1070
341
1005
23D
1002
}
  0
MTEXT
  5
243
102
{ACAD_REACTORS
330
242
102
}
100
AcDbEntity
  8
0
100
AcDbMText
 62
2
  6
CONTINUOUS
  7
STANDARD
 71
1
 72
1
 10
8.6918964161
 20
3.3294064446
 30
0.0
 11
1.0
 21
0.0
 31
0.0
 44
0.9
  1
 0.375 BOLTS
 40
0.15625
 41
1.5
  0
LINE
  5
244
100
AcDbEntity
  8
0
100
AcDbLine
 62
7
  6
CONTINUOUS
 10
0.0
 20
0.0
 11
0.0
 21
17.0
  0
LINE
  5
245
100
AcDbEntity
  8
0
100
AcDbLine
 62
7
  6
CONTINUOUS
 10
0.0
 20
0.0
 11
22.0
 21
0.0
  0
LINE
  5
246
100
AcDbEntity
  8
0
100
AcDbLine
 62
7
  6
CONTINUOUS
 10
0.0
 20
17.0
 11
22.0
 21
17.0
  0
LINE
  5
247
100
AcDbEntity
  8
0
100
AcDbLine
 62
7
  6
CONTINUOUS
 10
22.0
 20
0.0
 11
22.0
 21
17.0
  0
LINE
  5
248
100
AcDbEntity
  8
0
100
AcDbLine
 62
7
  6
CONTINUOUS
 10
3.5209922762
 20
3.9107448968
 11
3.5209922762
 21
4.9482448968
  0
LINE
  5
249
100
AcDbEntity
  8
0
100
AcDbLine
 62
7
  6
CONTINUOUS
 10
3.5584922762
 20
5.0232448968
 11
3.5584922762
 21
4.9732448968
  0
LINE
  5
24A
100
AcDbEntity
  8
0
100
AcDbLine
 62
7
  6
CONTINUOUS
 10
8.7397422762
 20
3.9107448968
 11
3.5209922762
 21
3.9107448968
  0
LINE
  5
24B
100
AcDbEntity
  8
0
100
AcDbLine
 62
7
  6
CONTINUOUS
 10
4.5909229905
 20
5.9482377499
 11
4.3346394139
 21
4.9917744206
  0
LINE
  5
24C
100
AcDbEntity
  8
0
100
AcDbLine
 62
7
  6
CONTINUOUS
 10
8.7147422762
 20
4.9732448968
 11
7.9502432841
 21
4.9732448968
  0
LINE
  5
24D
100
AcDbEntity
  8
0
100
AcDbLine
 62
7
  6
CONTINUOUS
 10
3.5459922762
 20
4.9732448968
 11
4.3104912682
 21
4.9732448968
  0
LINE
  5
24E
100
AcDbEntity
  8
0
100
AcDbLine
 62
7
  6
CONTINUOUS
 10
8.6897277386
 20
5.0357448968
 11
7.9143132849
 21
5.0357448968
  0
LINE
  5
24F
100
AcDbEntity
  8
0
100
AcDbLine
 62
7
  6
CONTINUOUS
 10
3.5710068137
 20
5.0357448968
 11
4.3464212674
 21
5.0357448968
  0
LINE
  5
250
100
AcDbEntity
  8
03__ASM_ALL_CURVES
100
AcDbLine
 62
4
  6
CONTINUOUS
 10
4.1303672762
 20
5.0732448968
 11
4.3564693621
 21
5.0732448968
  0
LINE
  5
251
100
AcDbEntity
  8
0
100
AcDbLine
 62
7
  6
CONTINUOUS
 10
7.193647016
 20
6.7776332636
 11
7.171549929
 21
6.7555361767
  0
LINE
  5
252
100
AcDbEntity
  8
0
100
AcDbLine
 62
7
  6
CONTINUOUS
 10
7.1843874686
 20
6.7311864455
 11
7.1901435645
 21
6.7369425413
  0
LINE
  5
253
100
AcDbEntity
  8
0
100
AcDbLine
 62
7
  6
CONTINUOUS
 10
7.2162020858
 20
6.7108840199
 11
7.2382991727
 21
6.7329811069
  0
LINE
  5
254
100
AcDbEntity
  8
0
100
AcDbLine
 62
7
  6
CONTINUOUS
 10
7.3276034863
 20
6.6436767933
 11
7.3055063994
 21
6.6215797064
  0
LINE
  5
255
100
AcDbEntity
  8
0
100
AcDbLine
 62
7
  6
CONTINUOUS
 10
7.3315649207
 20
6.5955211851
 11
7.3258088249
 21
6.5897650892
  0
LINE
  5
256
100
AcDbEntity
  8
0
100
AcDbLine
 62
7
  6
CONTINUOUS
 10
7.372255643
 20
6.5990246365
 11
7.3501585561
 21
6.5769275496
  0
LINE
  5
257
100
AcDbEntity
  8
0
100
AcDbLine
 62
7
  6
CONTINUOUS
 10
7.3501585561
 20
6.5769275496
 11
7.171549929
 21
6.7555361767
  0
LINE
  5
258
100
AcDbEntity
  8
0
100
AcDbLine
 62
7
  6
CONTINUOUS
 10
7.372255643
 20
6.5990246365
 11
7.2912311053
 21
6.6800491743
  0
LINE
  5
259
100
AcDbEntity
  8
0
100
AcDbLine
 62
7
  6
CONTINUOUS
 10
7.2746715537
 20
6.6966087259
 11
7.193647016
 21
6.7776332636
  0
LINE
  5
25A
100
AcDbEntity
  8
0
100
AcDbLine
 62
7
  6
CONTINUOUS
 10
7.9260951385
 20
4.9917744206
 11
7.6698115618
 21
5.9482377499
  0
LINE
  5
25B
100
AcDbEntity
  8
0
100
AcDbLine
 62
7
  6
CONTINUOUS
 10
7.37205718
 20
6.6999858159
 11
7.2946081953
 21
6.7774348006
  0
LINE
  5
25C
100
AcDbEntity
  8
0
100
AcDbLine
 62
7
  6
CONTINUOUS
 10
7.4066950162
 20
6.7767172977
 11
7.3713396771
 21
6.8120726368
  0
LINE
  5
25D
100
AcDbEntity
  8
0
100
AcDbLine
 62
7
  6
CONTINUOUS
 10
8.7022422762
 20
5.0232448968
 11
8.7022422762
 21
4.9732448968
  0
LINE
  5
25E
100
AcDbEntity
  8
0
100
AcDbLine
 62
7
  6
CONTINUOUS
 10
8.7397422762
 20
3.9107448968
 11
8.7397422762
 21
4.9482448968
  0
LINE
  5
25F
100
AcDbEntity
  8
0
100
AcDbLine
 62
7
  6
CONTINUOUS
 10
3.4614970839
 20
12.1000477814
 11
3.4614970839
 21
13.6937977814
  0
LINE
  5
260
100
AcDbEntity
  8
0
100
AcDbLine
 62
7
  6
CONTINUOUS
 10
4.2869260751
 20
12.5344227814
 11
4.2869260751
 21
12.5219227814
  0
LINE
  5
261
100
AcDbEntity
  8
0
100
AcDbLine
 62
7
  6
CONTINUOUS
 10
4.2869260751
 20
13.2594227814
 11
4.2869260751
 21
13.2719227814
  0
LINE
  5
262
100
AcDbEntity
  8
0
100
AcDbLine
 62
7
  6
CONTINUOUS
 10
3.4864970839
 20
12.1250477814
 11
3.4614970839
 21
12.1000477814
  0
LINE
  5
263
100
AcDbEntity
  8
0
100
AcDbLine
 62
7
  6
CONTINUOUS
 10
4.8806942714
 20
11.5812977814
 11
4.8806942714
 21
12.1000477814
  0
LINE
  5
264
100
AcDbEntity
  8
0
100
AcDbLine
 62
7
  6
CONTINUOUS
 10
7.1860498964
 20
11.5062977814
 11
4.9556942714
 21
11.5062977814
  0
LINE
  5
265
100
AcDbEntity
  8
0
100
AcDbLine
 62
7
  6
CONTINUOUS
 10
3.4864970839
 20
13.6687977814
 11
3.4614970839
 21
13.6937977814
  0
LINE
  5
266
100
AcDbEntity
  8
0
100
AcDbLine
 62
7
  6
CONTINUOUS
 10
3.4614970839
 20
12.1000477814
 11
8.6802470839
 21
12.1000477814
  0
LINE
  5
267
100
AcDbEntity
  8
0
100
AcDbLine
 62
7
  6
CONTINUOUS
 10
8.2677470839
 20
12.5219227814
 11
7.8581674575
 21
12.5219227814
  0
LINE
  5
268
100
AcDbEntity
  8
0
100
AcDbLine
 62
7
  6
CONTINUOUS
 10
7.8548180926
 20
12.5219227814
 11
7.7896220839
 21
12.5219227814
  0
LINE
  5
269
100
AcDbEntity
  8
0
100
AcDbLine
 62
7
  6
CONTINUOUS
 10
4.3521220839
 20
12.5219227814
 11
4.2869260751
 21
12.5219227814
  0
LINE
  5
26A
100
AcDbEntity
  8
0
100
AcDbLine
 62
7
  6
CONTINUOUS
 10
3.8739970839
 20
12.5219227814
 11
4.2835767102
 21
12.5219227814
  0
LINE
  5
26B
100
AcDbEntity
  8
0
100
AcDbLine
 62
7
  6
CONTINUOUS
 10
8.1802470839
 20
12.7094227814
 11
8.0239970839
 21
12.7094227814
  0
LINE
  5
26C
100
AcDbEntity
  8
0
100
AcDbLine
 62
7
  6
CONTINUOUS
 10
4.1177470839
 20
12.7094227814
 11
3.9614970839
 21
12.7094227814
  0
LINE
  5
26D
100
AcDbEntity
  8
0
100
AcDbLine
 62
7
  6
CONTINUOUS
 10
7.1567068935
 20
12.7875477814
 11
7.268108294
 21
12.7875477814
  0
LINE
  5
26E
100
AcDbEntity
  8
0
100
AcDbLine
 62
7
  6
CONTINUOUS
 10
7.1341518237
 20
12.8969227814
 11
7.1120547367
 21
12.8969227814
  0
LINE
  5
26F
100
AcDbEntity
  8
03__ASM_ALL_CURVES
100
AcDbLine
 62
4
  6
CONTINUOUS
 10
4.0708720839
 20
12.8969227814
 11
4.7271179833
 21
12.8969227814
  0
LINE
  5
270
100
AcDbEntity
  8
03__ASM_ALL_CURVES
100
AcDbLine
 62
4
  6
CONTINUOUS
 10
7.4146263484
 20
12.8969227814
 11
7.5708720839
 21
12.8969227814
  0
LINE
  5
271
100
AcDbEntity
  8
0
100
AcDbLine
 62
7
  6
CONTINUOUS
 10
7.268108294
 20
13.0062977814
 11
7.1567068935
 21
13.0062977814
  0
LINE
  5
272
100
AcDbEntity
  8
0
100
AcDbLine
 62
7
  6
CONTINUOUS
 10
3.9614970839
 20
13.0844227814
 11
4.1177470839
 21
13.0844227814
  0
LINE
  5
273
100
AcDbEntity
  8
0
100
AcDbLine
 62
7
  6
CONTINUOUS
 10
8.0239970839
 20
13.0844227814
 11
8.1802470839
 21
13.0844227814
  0
LINE
  5
274
100
AcDbEntity
  8
0
100
AcDbLine
 62
7
  6
CONTINUOUS
 10
4.2835767102
 20
13.2719227814
 11
3.8739970839
 21
13.2719227814
  0
LINE
  5
275
100
AcDbEntity
  8
0
100
AcDbLine
 62
7
  6
CONTINUOUS
 10
4.2869260751
 20
13.2719227814
 11
4.3521220839
 21
13.2719227814
  0
LINE
  5
276
100
AcDbEntity
  8
0
100
AcDbLine
 62
7
  6
CONTINUOUS
 10
7.7896220839
 20
13.2719227814
 11
7.8548180926
 21
13.2719227814
  0
LINE
  5
277
100
AcDbEntity
  8
0
100
AcDbLine
 62
7
  6
CONTINUOUS
 10
7.8581674575
 20
13.2719227814
 11
8.2677470839
 21
13.2719227814
  0
LINE
  5
278
100
AcDbEntity
  8
0
100
AcDbLine
 62
7
  6
CONTINUOUS
 10
7.1567068935
 20
13.0062977814
 11
7.1120547367
 21
12.8969227814
  0
LINE
  5
279
100
AcDbEntity
  8
0
100
AcDbLine
 62
7
  6
CONTINUOUS
 10
7.1341518237
 20
12.8969227814
 11
7.1788039804
 21
13.0062977814
  0
LINE
  5
27A
100
AcDbEntity
  8
0
100
AcDbLine
 62
7
  6
CONTINUOUS
 10
7.2849249096
 20
12.8287399089
 11
7.268108294
 21
12.7875477814
  0
LINE
  5
27B
100
AcDbEntity
  8
0
100
AcDbLine
 62
7
  6
CONTINUOUS
 10
8.6552470839
 20
13.6687977814
 11
8.6802470839
 21
13.6937977814
  0
LINE
  5
27C
100
AcDbEntity
  8
0
100
AcDbLine
 62
7
  6
CONTINUOUS
 10
3.4614970839
 20
13.6937977814
 11
8.6802470839
 21
13.6937977814
  0
LINE
  5
27D
100
AcDbEntity
  8
0
100
AcDbLine
 62
7
  6
CONTINUOUS
 10
7.1120547367
 20
12.8969227814
 11
7.1567068935
 21
12.7875477814
  0
LINE
  5
27E
100
AcDbEntity
  8
0
100
AcDbLine
 62
7
  6
CONTINUOUS
 10
7.1788039804
 20
12.7875477814
 11
7.1341518237
 21
12.8969227814
  0
LINE
  5
27F
100
AcDbEntity
  8
0
100
AcDbLine
 62
7
  6
CONTINUOUS
 10
7.2610498964
 20
11.5812977814
 11
7.2610498964
 21
12.1000477814
  0
LINE
  5
280
100
AcDbEntity
  8
0
100
AcDbLine
 62
7
  6
CONTINUOUS
 10
7.268108294
 20
13.0062977814
 11
7.2850675252
 21
12.9647563184
  0
LINE
  5
281
100
AcDbEntity
  8
0
100
AcDbLine
 62
7
  6
CONTINUOUS
 10
8.6802470839
 20
12.1000477814
 11
8.6552470839
 21
12.1250477814
  0
LINE
  5
282
100
AcDbEntity
  8
0
100
AcDbLine
 62
7
  6
CONTINUOUS
 10
7.8548180926
 20
13.2719227814
 11
7.8548180926
 21
13.2594227814
  0
LINE
  5
283
100
AcDbEntity
  8
0
100
AcDbLine
 62
7
  6
CONTINUOUS
 10
7.8548180926
 20
12.5344227814
 11
7.8548180926
 21
12.5219227814
  0
LINE
  5
284
100
AcDbEntity
  8
0
100
AcDbLine
 62
7
  6
CONTINUOUS
 10
8.6802470839
 20
12.1000477814
 11
8.6802470839
 21
13.6937977814
  0
LINE
  5
285
100
AcDbEntity
  8
0
100
AcDbLine
 62
7
  6
CONTINUOUS
 10
16.6541052569
 20
3.8512497044
 11
15.0603552569
 21
3.8512497044
  0
LINE
  5
286
100
AcDbEntity
  8
0
100
AcDbLine
 62
7
  6
CONTINUOUS
 10
15.0603552569
 20
4.2860718919
 11
14.5416052569
 21
4.2860718919
  0
LINE
  5
287
100
AcDbEntity
  8
0
100
AcDbLine
 62
7
  6
CONTINUOUS
 10
14.4666052569
 20
4.3610815926
 11
14.4666052569
 21
6.5914178163
  0
LINE
  5
288
100
AcDbEntity
  8
0
100
AcDbLine
 62
7
  6
CONTINUOUS
 10
15.7478552569
 20
6.6734859145
 11
15.7893967199
 21
6.6904451458
  0
LINE
  5
289
100
AcDbEntity
  8
0
100
AcDbLine
 62
7
  6
CONTINUOUS
 10
15.9666052569
 20
6.584181601
 11
15.8572302569
 21
6.5395294442
  0
LINE
  5
28A
100
AcDbEntity
  8
0
100
AcDbLine
 62
7
  6
CONTINUOUS
 10
15.8572302569
 20
6.5174323573
 11
15.9666052569
 21
6.5620845141
  0
LINE
  5
28B
100
AcDbEntity
  8
0
100
AcDbLine
 62
7
  6
CONTINUOUS
 10
15.0853552569
 20
4.9137497044
 11
16.6291052569
 21
4.9137497044
  0
LINE
  5
28C
100
AcDbEntity
  8
0
100
AcDbLine
 62
7
  6
CONTINUOUS
 10
15.0603552569
 20
3.8512497044
 11
15.0603552569
 21
7.0449987172
  0
LINE
  5
28D
100
AcDbEntity
  8
0
100
AcDbLine
 62
7
  6
CONTINUOUS
 10
16.2322302569
 20
4.9762497044
 11
15.4822302569
 21
4.9762497044
  0
LINE
  5
28E
100
AcDbEntity
  8
0
100
AcDbLine
 62
7
  6
CONTINUOUS
 10
15.4822302569
 20
4.9137497044
 11
15.4822302569
 21
4.9637497044
  0
LINE
  5
28F
100
AcDbEntity
  8
0
100
AcDbLine
 62
7
  6
CONTINUOUS
 10
15.4822302569
 20
4.9762497044
 11
15.4822302569
 21
5.2195645215
  0
LINE
  5
290
100
AcDbEntity
  8
0
100
AcDbLine
 62
7
  6
CONTINUOUS
 10
15.7478552569
 20
6.6734859145
 11
15.7478552569
 21
6.5620845141
  0
LINE
  5
291
100
AcDbEntity
  8
0
100
AcDbLine
 62
7
  6
CONTINUOUS
 10
15.8572302569
 20
6.5395294442
 11
15.8572302569
 21
6.5174323573
  0
LINE
  5
292
100
AcDbEntity
  8
0
100
AcDbLine
 62
7
  6
CONTINUOUS
 10
15.9666052569
 20
6.5620845141
 11
15.9666052569
 21
6.6734859145
  0
LINE
  5
293
100
AcDbEntity
  8
0
100
AcDbLine
 62
7
  6
CONTINUOUS
 10
16.2322302569
 20
5.2195645215
 11
16.2322302569
 21
4.9762497044
  0
LINE
  5
294
100
AcDbEntity
  8
0
100
AcDbLine
 62
7
  6
CONTINUOUS
 10
16.2322302569
 20
4.9637497044
 11
16.2322302569
 21
4.9137497044
  0
LINE
  5
295
100
AcDbEntity
  8
0
100
AcDbLine
 62
7
  6
CONTINUOUS
 10
16.6541052569
 20
3.8512497044
 11
16.6541052569
 21
7.0449987172
  0
LINE
  5
296
100
AcDbEntity
  8
0
100
AcDbLine
 62
7
  6
CONTINUOUS
 10
15.7478552569
 20
6.5620845141
 11
15.8572302569
 21
6.5174323573
  0
LINE
  5
297
100
AcDbEntity
  8
0
100
AcDbLine
 62
7
  6
CONTINUOUS
 10
15.8572302569
 20
6.5395294442
 11
15.7478552569
 21
6.584181601
  0
LINE
  5
298
100
AcDbEntity
  8
0
100
AcDbLine
 62
7
  6
CONTINUOUS
 10
15.0603552569
 20
6.6664275169
 11
14.5416052569
 21
6.6664275169
  0
LINE
  5
299
100
AcDbEntity
  8
0
100
AcDbLine
 62
7
  6
CONTINUOUS
 10
15.9254131294
 20
6.6903025302
 11
15.9666052569
 21
6.6734859145
  0
LINE
  5
29A
100
AcDbEntity
  8
0
100
AcDbLine
 62
7
  6
CONTINUOUS
 10
15.0853552569
 20
7.0699997044
 11
16.6291052569
 21
7.0699997044
  0
LINE
  5
29B
100
AcDbEntity
  8
0
100
AcDbLine
 62
7
  6
CONTINUOUS
 10
13.0335153008
 20
10.9734696704
 11
12.7170343642
 21
11.6183900125
  0
LINE
  5
29C
100
AcDbEntity
  8
0
100
AcDbLine
 62
7
  6
CONTINUOUS
 10
12.7169015616
 20
11.6281211604
 11
12.9228795603
 21
12.2946662085
  0
LINE
  5
29D
100
AcDbEntity
  8
0
100
AcDbLine
 62
7
  6
CONTINUOUS
 10
12.9277754158
 20
12.3105092028
 11
13.1012423771
 21
12.8718484953
  0
LINE
  5
29E
100
AcDbEntity
  8
0
100
AcDbLine
 62
7
  6
CONTINUOUS
 10
12.9303411156
 20
12.1240208753
 11
12.9455932089
 21
12.0929403769
  0
LINE
  5
29F
100
AcDbEntity
  8
0
100
AcDbLine
 62
7
  6
CONTINUOUS
 10
13.4585510443
 20
11.658677196
 11
13.4028424909
 21
12.2532243357
  0
LINE
  5
2A0
100
AcDbEntity
  8
0
100
AcDbLine
 62
7
  6
CONTINUOUS
 10
13.4245654863
 20
12.4737195398
 11
13.5626283193
 21
12.9204910312
  0
LINE
  5
2A1
100
AcDbEntity
  8
0
100
AcDbLine
 62
7
  6
CONTINUOUS
 10
13.66019254
 20
13.2362089652
 11
13.7982553731
 21
13.6829804566
  0
LINE
  5
2A2
100
AcDbEntity
  8
0
100
AcDbLine
 62
7
  6
CONTINUOUS
 10
13.8040951083
 20
12.3349827395
 11
13.678523203
 21
11.9286319052
  0
LINE
  5
2A3
100
AcDbEntity
  8
0
100
AcDbLine
 62
7
  6
CONTINUOUS
 10
13.1017647547
 20
12.8722341019
 11
13.1012420391
 21
12.8718485208
  0
LINE
  5
2A4
100
AcDbEntity
  8
0
100
AcDbLine
 62
7
  6
CONTINUOUS
 10
17.8403023633
 20
10.9734696704
 11
15.7627037294
 21
10.9734696704
  0
LINE
  5
2A5
100
AcDbEntity
  8
0
100
AcDbLine
 62
7
  6
CONTINUOUS
 10
14.3982073045
 20
10.9734696704
 11
13.0335153008
 21
10.9734696704
  0
LINE
  5
2A6
100
AcDbEntity
  8
0
100
AcDbLine
 62
7
  6
CONTINUOUS
 10
13.8210546198
 20
12.3798865466
 11
13.8211590613
 21
12.3801188218
  0
LINE
  5
2A7
100
AcDbEntity
  8
0
100
AcDbLine
 62
7
  6
CONTINUOUS
 10
13.8223108689
 20
12.3794420829
 11
13.8224356084
 21
12.3796668697
  0
LINE
  5
2A8
100
AcDbEntity
  8
0
100
AcDbLine
 62
7
  6
CONTINUOUS
 10
14.5329515419
 20
12.7216947043
 11
14.5324292032
 21
12.7227591187
  0
LINE
  5
2A9
100
AcDbEntity
  8
0
100
AcDbLine
 62
7
  6
CONTINUOUS
 10
14.6245353026
 20
12.7227591187
 11
14.6250660132
 21
12.7216776443
  0
LINE
  5
2AA
100
AcDbEntity
  8
0
100
AcDbLine
 62
7
  6
CONTINUOUS
 10
15.7346299487
 20
13.3797696882
 11
15.7210177205
 21
13.3660339188
  0
LINE
  5
2AB
100
AcDbEntity
  8
0
100
AcDbLine
 62
7
  6
CONTINUOUS
 10
15.7346299487
 20
13.3797696882
 11
15.8158540899
 21
13.4376898432
  0
LINE
  5
2AC
100
AcDbEntity
  8
0
100
AcDbLine
 62
7
  6
CONTINUOUS
 10
17.2383794501
 20
11.9643963017
 11
16.8911403838
 21
11.9643963017
  0
LINE
  5
2AD
100
AcDbEntity
  8
0
100
AcDbLine
 62
7
  6
CONTINUOUS
 10
13.1914677077
 20
11.9643963017
 11
13.4299054282
 21
11.9643963017
  0
LINE
  5
2AE
100
AcDbEntity
  8
0
100
AcDbLine
 62
7
  6
CONTINUOUS
 10
15.2217197365
 20
12.6068230019
 11
15.2222177786
 21
12.6081884318
  0
LINE
  5
2AF
100
AcDbEntity
  8
0
100
AcDbLine
 62
7
  6
CONTINUOUS
 10
15.7492898535
 20
13.2526013123
 11
15.7629020817
 21
13.2663370818
  0
LINE
  5
2B0
100
AcDbEntity
  8
0
100
AcDbLine
 62
7
  6
CONTINUOUS
 10
15.872398356
 20
13.2108246303
 11
15.8587861278
 21
13.1970888608
  0
LINE
  5
2B1
100
AcDbEntity
  8
0
100
AcDbLine
 62
7
  6
CONTINUOUS
 10
15.9536224973
 20
13.2687447852
 11
15.9400102691
 21
13.2550090157
  0
LINE
  5
2B2
100
AcDbEntity
  8
0
100
AcDbLine
 62
7
  6
CONTINUOUS
 10
15.9536224973
 20
13.2687447852
 11
15.872398356
 21
13.2108246303
  0
LINE
  5
2B3
100
AcDbEntity
  8
0
100
AcDbLine
 62
7
  6
CONTINUOUS
 10
15.8587861278
 20
13.1970888608
 11
15.9400102691
 21
13.2550090157
  0
LINE
  5
2B4
100
AcDbEntity
  8
0
100
AcDbLine
 62
7
  6
CONTINUOUS
 10
17.1841089321
 20
12.1501207202
 11
17.0401931518
 21
12.1501207202
  0
LINE
  5
2B5
100
AcDbEntity
  8
0
100
AcDbLine
 62
7
  6
CONTINUOUS
 10
13.4125032106
 20
12.1501207202
 11
13.2983828637
 21
12.1501207202
  0
LINE
  5
2B6
100
AcDbEntity
  8
03__ASM_ALL_CURVES
100
AcDbLine
 62
4
  6
CONTINUOUS
 10
16.5638239768
 20
12.3203048896
 11
16.6567857545
 21
12.3203048896
  0
LINE
  5
2B7
100
AcDbEntity
  8
0
100
AcDbLine
 62
7
  6
CONTINUOUS
 10
17.3360500395
 20
12.3401662344
 11
17.1921342592
 21
12.3401662344
  0
LINE
  5
2B8
100
AcDbEntity
  8
0
100
AcDbLine
 62
7
  6
CONTINUOUS
 10
13.3891577349
 20
12.4438683113
 11
13.4175077277
 21
12.4438683113
  0
LINE
  5
2B9
100
AcDbEntity
  8
0
100
AcDbLine
 62
7
  6
CONTINUOUS
 10
17.1309680231
 20
12.4438683113
 11
17.2748838034
 21
12.4438683113
  0
LINE
  5
2BA
100
AcDbEntity
  8
0
100
AcDbLine
 62
7
  6
CONTINUOUS
 10
15.6712966619
 20
12.3796848497
 11
15.6717017126
 21
12.3794215625
  0
LINE
  5
2BB
100
AcDbEntity
  8
0
100
AcDbLine
 62
7
  6
CONTINUOUS
 10
15.6720941474
 20
12.3801175428
 11
15.6724836961
 21
12.3798453274
  0
LINE
  5
2BC
100
AcDbEntity
  8
0
100
AcDbLine
 62
7
  6
CONTINUOUS
 10
15.7446060009
 20
12.3262559926
 11
15.7434777785
 21
12.3271204188
  0
LINE
  5
2BD
100
AcDbEntity
  8
0
100
AcDbLine
 62
7
  6
CONTINUOUS
 10
15.7446060009
 20
12.3262559926
 11
15.7434995283
 21
12.3271297322
  0
LINE
  5
2BE
100
AcDbEntity
  8
0
100
AcDbLine
 62
7
  6
CONTINUOUS
 10
15.6721355507
 20
12.3800889949
 11
15.6712966619
 21
12.3796848497
  0
LINE
  5
2BF
100
AcDbEntity
  8
0
100
AcDbLine
 62
7
  6
CONTINUOUS
 10
14.5336855568
 20
12.7227947661
 11
14.5324292032
 21
12.7227591187
  0
LINE
  5
2C0
100
AcDbEntity
  8
0
100
AcDbLine
 62
7
  6
CONTINUOUS
 10
14.5336952369
 20
12.7227772076
 11
14.5324292032
 21
12.7227591187
  0
LINE
  5
2C1
100
AcDbEntity
  8
0
100
AcDbLine
 62
7
  6
CONTINUOUS
 10
13.3547395279
 20
12.5856803959
 11
13.4591640076
 21
12.5856803959
  0
LINE
  5
2C2
100
AcDbEntity
  8
0
100
AcDbLine
 62
7
  6
CONTINUOUS
 10
17.0224858048
 20
12.5856803959
 11
17.4016512703
 21
12.5856803959
  0
LINE
  5
2C3
100
AcDbEntity
  8
0
100
AcDbLine
 62
7
  6
CONTINUOUS
 10
17.0205312889
 20
12.5907421069
 11
16.9604817882
 21
12.5907421069
  0
LINE
  5
2C4
100
AcDbEntity
  8
0
100
AcDbLine
 62
7
  6
CONTINUOUS
 10
14.6245351024
 20
12.7216777426
 11
14.6250660132
 21
12.7216776443
  0
LINE
  5
2C5
100
AcDbEntity
  8
0
100
AcDbLine
 62
7
  6
CONTINUOUS
 10
14.624065752
 20
12.7227715858
 11
14.6246038279
 21
12.7227565976
  0
LINE
  5
2C6
100
AcDbEntity
  8
0
100
AcDbLine
 62
7
  6
CONTINUOUS
 10
16.0190322215
 20
12.0146663672
 11
16.0196010424
 21
12.0137060578
  0
LINE
  5
2C7
100
AcDbEntity
  8
0
100
AcDbLine
 62
7
  6
CONTINUOUS
 10
16.0368151742
 20
11.9846443713
 11
16.0374421578
 21
11.9835858688
  0
LINE
  5
2C8
100
AcDbEntity
  8
0
100
AcDbLine
 62
7
  6
CONTINUOUS
 10
16.0211863446
 20
12.0147285446
 11
16.021718321
 21
12.0137652553
  0
LINE
  5
2C9
100
AcDbEntity
  8
0
100
AcDbLine
 62
7
  6
CONTINUOUS
 10
15.7428220911
 20
12.3253965714
 11
15.7446060009
 21
12.3262559926
  0
LINE
  5
2CA
100
AcDbEntity
  8
0
100
AcDbLine
 62
7
  6
CONTINUOUS
 10
17.8985737432
 20
12.8722341019
 11
17.1763862451
 21
12.8722341019
  0
LINE
  5
2CB
100
AcDbEntity
  8
0
100
AcDbLine
 62
7
  6
CONTINUOUS
 10
13.5477158003
 20
12.8722341019
 11
13.1017651373
 21
12.8722341019
  0
LINE
  5
2CC
100
AcDbEntity
  8
0
100
AcDbLine
 62
7
  6
CONTINUOUS
 10
16.036921544
 20
11.9846444744
 11
16.0379615851
 21
11.9825250839
  0
LINE
  5
2CD
100
AcDbEntity
  8
0
100
AcDbLine
 62
7
  6
CONTINUOUS
 10
16.0374421578
 20
11.9835858688
 11
16.0378551187
 21
11.9825251872
  0
LINE
  5
2CE
100
AcDbEntity
  8
0
100
AcDbLine
 62
7
  6
CONTINUOUS
 10
15.7210177205
 20
13.3660339188
 11
15.7492898535
 21
13.2526013123
  0
LINE
  5
2CF
100
AcDbEntity
  8
0
100
AcDbLine
 62
7
  6
CONTINUOUS
 10
15.7629020817
 20
13.2663370818
 11
15.7346299487
 21
13.3797696882
  0
LINE
  5
2D0
100
AcDbEntity
  8
0
100
AcDbLine
 62
7
  6
CONTINUOUS
 10
15.9421076583
 20
13.3149442779
 11
15.9536224973
 21
13.2687447852
  0
LINE
  5
2D1
100
AcDbEntity
  8
0
100
AcDbLine
 62
7
  6
CONTINUOUS
 10
16.0783364892
 20
11.6321889981
 11
15.9527645839
 21
11.2258381637
  0
LINE
  5
2D2
100
AcDbEntity
  8
0
100
AcDbLine
 62
7
  6
CONTINUOUS
 10
15.8587861278
 20
13.1970888608
 11
15.7492898535
 21
13.2526013123
  0
LINE
  5
2D3
100
AcDbEntity
  8
0
100
AcDbLine
 62
7
  6
CONTINUOUS
 10
15.7629020817
 20
13.2663370818
 11
15.807498362
 21
13.2437276472
  0
LINE
  5
2D4
100
AcDbEntity
  8
0
100
AcDbLine
 62
7
  6
CONTINUOUS
 10
15.8278020757
 20
13.2334340648
 11
15.872398356
 21
13.2108246303
  0
LINE
  5
2D5
100
AcDbEntity
  8
0
100
AcDbLine
 62
7
  6
CONTINUOUS
 10
16.8632461882
 20
11.9759144384
 11
16.845879539
 21
11.9954768001
  0
LINE
  5
2D6
100
AcDbEntity
  8
0
100
AcDbLine
 62
7
  6
CONTINUOUS
 10
16.8389815463
 20
12.0032469247
 11
16.7047108397
 21
12.1544938404
  0
LINE
  5
2D7
100
AcDbEntity
  8
0
100
AcDbLine
 62
7
  6
CONTINUOUS
 10
15.8447347955
 20
13.4230478951
 11
15.8158540899
 21
13.4376898432
  0
LINE
  5
2D8
100
AcDbEntity
  8
0
100
AcDbLine
 62
7
  6
CONTINUOUS
 10
16.8862605823
 20
12.7419890226
 11
17.0205312889
 21
12.5907421069
  0
LINE
  5
2D9
100
AcDbEntity
  8
0
100
AcDbLine
 62
7
  6
CONTINUOUS
 10
17.0205312889
 20
12.5907421069
 11
17.0175054598
 21
12.5809505205
  0
LINE
  5
2DA
100
AcDbEntity
  8
0
100
AcDbLine
 62
7
  6
CONTINUOUS
 10
16.8420073754
 20
12.013038511
 11
16.8389815463
 21
12.0032469247
  0
LINE
  5
2DB
100
AcDbEntity
  8
0
100
AcDbLine
 62
7
  6
CONTINUOUS
 10
17.1392935787
 20
12.8868676605
 11
16.6114794136
 21
13.4814148003
  0
LINE
  5
2DC
100
AcDbEntity
  8
0
100
AcDbLine
 62
7
  6
CONTINUOUS
 10
17.8403023633
 20
10.9734696704
 11
17.5238214266
 21
11.6183900125
  0
LINE
  5
2DD
100
AcDbEntity
  8
0
100
AcDbLine
 62
7
  6
CONTINUOUS
 10
17.6505515981
 20
12.454427907
 11
17.6658036914
 21
12.4233474086
  0
LINE
  5
2DE
100
AcDbEntity
  8
0
100
AcDbLine
 62
7
  6
CONTINUOUS
 10
17.9096146295
 20
12.8668172747
 11
18.2260955662
 21
12.2218969326
  0
LINE
  5
2DF
100
AcDbEntity
  8
0
100
AcDbLine
 62
7
  6
CONTINUOUS
 10
18.2260955662
 20
12.2218969326
 11
17.8403023633
 21
10.9734696704
  0
ARC
  5
2E0
100
AcDbEntity
  8
0
100
AcDbCircle
 62
7
  6
CONTINUOUS
 10
6.1303672762
 20
5.5357448968
 40
1.59375
100
AcDbArc
 50
15.0
 51
165.0
  0
CIRCLE
  5
2E1
100
AcDbEntity
  8
0
100
AcDbCircle
 62
7
  6
CONTINUOUS
 10
6.1303672762
 20
5.5357448968
 40
1.1901778125
  0
ARC
  5
2E2
100
AcDbEntity
  8
0
100
AcDbCircle
 62
7
  6
CONTINUOUS
 10
7.003659741
 20
6.4090373615
 40
0.3951514801
100
AcDbArc
 50
43.3019277138
 51
46.6980722845
  0
ARC
  5
2E3
100
AcDbEntity
  8
0
100
AcDbCircle
 62
7
  6
CONTINUOUS
 10
7.4258630407
 20
6.6477370901
 40
0.075
100
AcDbArc
 50
135.8411786233
 51
209.7268152428
  0
ARC
  5
2E4
100
AcDbEntity
  8
0
100
AcDbCircle
 62
7
  6
CONTINUOUS
 10
7.2423594695
 20
6.8312406613
 40
0.075
100
AcDbArc
 50
240.2731847572
 51
314.1588213768
  0
ARC
  5
2E5
100
AcDbEntity
  8
0
100
AcDbCircle
 62
7
  6
CONTINUOUS
 10
7.339519872
 20
6.7802528316
 40
0.045
100
AcDbArc
 50
44.9999999999
 51
183.5903778911
  0
ARC
  5
2E6
100
AcDbEntity
  8
0
100
AcDbCircle
 62
7
  6
CONTINUOUS
 10
7.3748752111
 20
6.7448974926
 40
0.045
100
AcDbArc
 50
266.4096221093
 51
45.0000000001
  0
ARC
  5
2E7
100
AcDbEntity
  8
0
100
AcDbCircle
 62
7
  6
CONTINUOUS
 10
7.9502432841
 20
4.9982448968
 40
0.025
100
AcDbArc
 50
195.0
 51
270.0
  0
ARC
  5
2E8
100
AcDbEntity
  8
0
100
AcDbCircle
 62
7
  6
CONTINUOUS
 10
4.3104912682
 20
4.9982448968
 40
0.025
100
AcDbArc
 50
270.0
 51
345.0
  0
ARC
  5
2E9
100
AcDbEntity
  8
0
100
AcDbCircle
 62
7
  6
CONTINUOUS
 10
3.5459922762
 20
4.9482448968
 40
0.025
100
AcDbArc
 50
90.0
 51
180.0
  0
ARC
  5
2EA
100
AcDbEntity
  8
0
100
AcDbCircle
 62
7
  6
CONTINUOUS
 10
8.7147422762
 20
4.9482448968
 40
0.025
100
AcDbArc
 50
0.0
 51
90.0
  0
ARC
  5
2EB
100
AcDbEntity
  8
0
100
AcDbCircle
 62
7
  6
CONTINUOUS
 10
3.5709922762
 20
5.0232448968
 40
0.0125
100
AcDbArc
 50
90.0
 51
180.0
  0
ARC
  5
2EC
100
AcDbEntity
  8
0
100
AcDbCircle
 62
7
  6
CONTINUOUS
 10
8.6897422762
 20
5.0232448968
 40
0.0125
100
AcDbArc
 50
0.0
 51
90.0
  0
ARC
  5
2ED
100
AcDbEntity
  8
0
100
AcDbCircle
 62
7
  6
CONTINUOUS
 10
3.8739970839
 20
12.8969227814
 40
0.375
100
AcDbArc
 50
90.0
 51
270.0
  0
ARC
  5
2EE
100
AcDbEntity
  8
0
100
AcDbCircle
 62
7
  6
CONTINUOUS
 10
8.2677470839
 20
12.8969227814
 40
0.375
100
AcDbArc
 50
270.0
 51
90.0
  0
ARC
  5
2EF
100
AcDbEntity
  8
0
100
AcDbCircle
 62
7
  6
CONTINUOUS
 10
7.7896220839
 20
12.8969227814
 40
0.375
100
AcDbArc
 50
90.0
 51
270.0
  0
ARC
  5
2F0
100
AcDbEntity
  8
0
100
AcDbCircle
 62
7
  6
CONTINUOUS
 10
4.3521220839
 20
12.8969227814
 40
0.375
100
AcDbArc
 50
270.0
 51
90.0
  0
ARC
  5
2F1
100
AcDbEntity
  8
0
100
AcDbCircle
 62
7
  6
CONTINUOUS
 10
4.1177470839
 20
12.8969227814
 40
0.1875
100
AcDbArc
 50
270.0
 51
90.0
  0
ARC
  5
2F2
100
AcDbEntity
  8
0
100
AcDbCircle
 62
7
  6
CONTINUOUS
 10
3.9614970839
 20
12.8969227814
 40
0.1875
100
AcDbArc
 50
90.0
 51
270.0
  0
ARC
  5
2F3
100
AcDbEntity
  8
0
100
AcDbCircle
 62
7
  6
CONTINUOUS
 10
8.0239970839
 20
12.8969227814
 40
0.1875
100
AcDbArc
 50
90.0
 51
270.0
  0
ARC
  5
2F4
100
AcDbEntity
  8
0
100
AcDbCircle
 62
7
  6
CONTINUOUS
 10
8.1802470839
 20
12.8969227814
 40
0.1875
100
AcDbArc
 50
270.0
 51
90.0
  0
ARC
  5
2F5
100
AcDbEntity
  8
0
100
AcDbCircle
 62
7
  6
CONTINUOUS
 10
4.9556942714
 20
11.5812977814
 40
0.075
100
AcDbArc
 50
180.0
 51
270.0
  0
ARC
  5
2F6
100
AcDbEntity
  8
0
100
AcDbCircle
 62
7
  6
CONTINUOUS
 10
7.1860498964
 20
11.5812977814
 40
0.075
100
AcDbArc
 50
270.0
 51
360.0
  0
ARC
  5
2F7
100
AcDbEntity
  8
0
100
AcDbCircle
 62
7
  6
CONTINUOUS
 10
7.2987766789
 20
12.9066553671
 40
0.0604919551
100
AcDbArc
 50
118.8506835292
 51
120.6639265059
  0
ARC
  5
2F8
100
AcDbEntity
  8
0
100
AcDbCircle
 62
7
  6
CONTINUOUS
 10
7.2986773983
 20
12.8870885385
 40
0.0603541916
100
AcDbArc
 50
240.1185904419
 51
242.0639389417
  0
ARC
  5
2F9
100
AcDbEntity
  8
0
100
AcDbCircle
 62
7
  6
CONTINUOUS
 10
14.5416052569
 20
6.5914275169
 40
0.075
100
AcDbArc
 50
90.0
 51
180.0
  0
ARC
  5
2FA
100
AcDbEntity
  8
0
100
AcDbCircle
 62
7
  6
CONTINUOUS
 10
14.5416052569
 20
4.3610718919
 40
0.075
100
AcDbArc
 50
180.0
 51
270.0
  0
ARC
  5
2FB
100
AcDbEntity
  8
0
100
AcDbCircle
 62
7
  6
CONTINUOUS
 10
15.8474976712
 20
6.7041542995
 40
0.0604919552
100
AcDbArc
 50
208.8506835293
 51
210.6639265059
  0
ARC
  5
2FC
100
AcDbEntity
  8
0
100
AcDbCircle
 62
7
  6
CONTINUOUS
 10
15.8670644998
 20
6.7040550189
 40
0.0603541916
100
AcDbArc
 50
330.118590442
 51
332.0639389415
  0
ARC
  5
2FD
100
AcDbEntity
  8
0
100
AcDbCircle
 62
7
  6
CONTINUOUS
 10
16.6291052569
 20
7.0449997044
 40
0.025
100
AcDbArc
 50
0.0000000005
 51
90.0
  0
ARC
  5
2FE
100
AcDbEntity
  8
0
100
AcDbCircle
 62
7
  6
CONTINUOUS
 10
15.0853552569
 20
7.0449997044
 40
0.025
100
AcDbArc
 50
90.0
 51
179.9999999995
  0
ARC
  5
2FF
100
AcDbEntity
  8
0
100
AcDbCircle
 62
7
  6
CONTINUOUS
 10
16.6291052569
 20
4.8887497044
 40
0.025
100
AcDbArc
 50
0.0
 51
90.0
  0
ARC
  5
300
100
AcDbEntity
  8
0
100
AcDbCircle
 62
7
  6
CONTINUOUS
 10
15.0853552569
 20
4.8887497044
 40
0.025
100
AcDbArc
 50
90.0
 51
180.0
  0
ARC
  5
301
100
AcDbEntity
  8
0
100
AcDbCircle
 62
7
  6
CONTINUOUS
 10
15.4947302569
 20
4.9637497044
 40
0.0125
100
AcDbArc
 50
90.0
 51
180.0
  0
ARC
  5
302
100
AcDbEntity
  8
0
100
AcDbCircle
 62
7
  6
CONTINUOUS
 10
16.2197302569
 20
4.9637497044
 40
0.0125
100
AcDbArc
 50
0.0
 51
90.0
  0
ARC
  5
303
100
AcDbEntity
  8
0
100
AcDbCircle
 62
7
  6
CONTINUOUS
 10
14.5290182386
 20
10.6497776192
 40
2.0774733068
100
AcDbArc
 50
70.5042943235
 51
73.2657528914
  0
ARC
  5
304
100
AcDbEntity
  8
0
100
AcDbCircle
 62
7
  6
CONTINUOUS
 10
14.5296506909
 20
10.65167801
 40
2.0754715612
100
AcDbArc
 50
70.5070154623
 51
73.2671349905
  0
ARC
  5
305
100
AcDbEntity
  8
0
100
AcDbCircle
 62
7
  6
CONTINUOUS
 10
14.5296450411
 20
10.6518477903
 40
2.0753103292
100
AcDbArc
 50
73.2658684931
 51
73.3816375901
  0
ARC
  5
306
100
AcDbEntity
  8
0
100
AcDbCircle
 62
7
  6
CONTINUOUS
 10
14.5784687904
 20
11.0875192656
 40
1.6358885967
100
AcDbArc
 50
88.3863414107
 51
91.5686953766
  0
ARC
  5
307
100
AcDbEntity
  8
0
100
AcDbCircle
 62
7
  6
CONTINUOUS
 10
14.578479614
 20
11.1107809041
 40
1.6126351273
100
AcDbArc
 50
88.380141145
 51
91.6569755363
  0
ARC
  5
308
100
AcDbEntity
  8
0
100
AcDbCircle
 62
7
  6
CONTINUOUS
 10
14.7630841365
 20
11.0788589713
 40
1.5873163068
100
AcDbArc
 50
54.4581992276
 51
55.046152705
  0
ARC
  5
309
100
AcDbEntity
  8
0
100
AcDbCircle
 62
7
  6
CONTINUOUS
 10
14.7645979908
 20
11.0810313078
 40
1.5846688288
100
AcDbArc
 50
54.4570772712
 51
55.0613801007
  0
ARC
  5
30A
100
AcDbEntity
  8
0
100
AcDbCircle
 62
7
  6
CONTINUOUS
 10
14.7737163523
 20
11.0938066433
 40
1.5689731713
100
AcDbArc
 50
54.2045999222
 51
54.4568204135
  0
ARC
  5
30B
100
AcDbEntity
  8
0
100
AcDbCircle
 62
7
  6
CONTINUOUS
 10
14.7750931098
 20
11.0957193798
 40
1.5666163564
100
AcDbArc
 50
54.2045274293
 51
54.4571276627
  0
ARC
  5
30C
100
AcDbEntity
  8
0
100
AcDbCircle
 62
7
  6
CONTINUOUS
 10
14.803207563
 20
11.1343915
 40
1.5188050595
100
AcDbArc
 50
51.6598750486
 51
54.2115003873
  0
ARC
  5
30D
100
AcDbEntity
  8
0
100
AcDbCircle
 62
7
  6
CONTINUOUS
 10
14.8125719033
 20
11.1467554406
 40
1.5032996079
100
AcDbArc
 50
51.7381603373
 51
54.2254402511
  0
ARC
  5
30E
100
AcDbEntity
  8
0
100
AcDbCircle
 62
7
  6
CONTINUOUS
 10
14.434458359
 20
11.8825857176
 40
0.8226404193
100
AcDbArc
 50
112.8989386902
 51
113.1068604783
  0
ARC
  5
30F
100
AcDbEntity
  8
0
100
AcDbCircle
 62
7
  6
CONTINUOUS
 10
15.3841750259
 20
11.6623041053
 40
0.7280030003
100
AcDbArc
 50
27.1005837647
 51
28.9477682303
  0
ARC
  5
310
100
AcDbEntity
  8
0
100
AcDbCircle
 62
7
  6
CONTINUOUS
 10
15.39121803
 20
11.6660680056
 40
0.7200166626
100
AcDbArc
 50
26.2607577877
 51
28.8750868569
  0
ARC
  5
311
100
AcDbEntity
  8
0
100
AcDbCircle
 62
7
  6
CONTINUOUS
 10
14.3861978713
 20
11.9832587733
 40
0.7109580814
100
AcDbArc
 50
118.2505447939
 51
118.4784533814
  0
ARC
  5
312
100
AcDbEntity
  8
0
100
AcDbCircle
 62
7
  6
CONTINUOUS
 10
15.4083177857
 20
11.6748056616
 40
0.700815797
100
AcDbArc
 50
26.2386890746
 51
27.0899017766
  0
ARC
  5
313
100
AcDbEntity
  8
0
100
AcDbCircle
 62
7
  6
CONTINUOUS
 10
15.4179117423
 20
11.6795650495
 40
0.6901062211
100
AcDbArc
 50
26.0404091184
 51
26.2364157799
  0
ARC
  5
314
100
AcDbEntity
  8
0
100
AcDbCircle
 62
7
  6
CONTINUOUS
 10
15.4251507191
 20
11.6830925721
 40
0.6820535118
100
AcDbArc
 50
25.1745769938
 51
26.0411249732
  0
ARC
  5
315
100
AcDbEntity
  8
0
100
AcDbCircle
 62
7
  6
CONTINUOUS
 10
15.4387454871
 20
11.6896414409
 40
0.6669638375
100
AcDbArc
 50
23.1361237881
 51
26.048367015
  0
ARC
  5
316
100
AcDbEntity
  8
0
100
AcDbCircle
 62
7
  6
CONTINUOUS
 10
15.4436800259
 20
11.6917943378
 40
0.6615826572
100
AcDbArc
 50
23.4726987183
 51
25.175158873
  0
ARC
  5
317
100
AcDbEntity
  8
0
100
AcDbCircle
 62
7
  6
CONTINUOUS
 10
15.4604557915
 20
11.6991882172
 40
0.6432500232
100
AcDbArc
 50
23.1916671356
 51
23.4637873717
  0
ARC
  5
318
100
AcDbEntity
  8
0
100
AcDbCircle
 62
7
  6
CONTINUOUS
 10
15.5288816392
 20
12.6689954253
 40
0.6387052568
100
AcDbArc
 50
62.0948024196
 51
64.1369788457
  0
ARC
  5
319
100
AcDbEntity
  8
0
100
AcDbCircle
 62
7
  6
CONTINUOUS
 10
13.3547434038
 20
12.181376544
 40
0.404303852
100
AcDbArc
 50
90.0005492689
 51
90.5825706822
  0
ARC
  5
31A
100
AcDbEntity
  8
0
100
AcDbCircle
 62
7
  6
CONTINUOUS
 10
14.1812541414
 20
12.2180741331
 40
0.3948763563
100
AcDbArc
 50
155.7767808338
 51
157.3914081628
  0
ARC
  5
31B
100
AcDbEntity
  8
0
100
AcDbCircle
 62
7
  6
CONTINUOUS
 10
14.1807065605
 20
12.2182992535
 40
0.3942841256
100
AcDbArc
 50
155.8061896075
 51
157.3910156479
  0
ARC
  5
31C
100
AcDbEntity
  8
0
100
AcDbCircle
 62
7
  6
CONTINUOUS
 10
14.1795310895
 20
12.2187952193
 40
0.3930085067
100
AcDbArc
 50
157.391885368
 51
158.6134818396
  0
ARC
  5
31D
100
AcDbEntity
  8
0
100
AcDbCircle
 62
7
  6
CONTINUOUS
 10
14.1790336493
 20
12.2189969959
 40
0.3924715376
100
AcDbArc
 50
157.3911596966
 51
158.6144275896
  0
ARC
  5
31E
100
AcDbEntity
  8
0
100
AcDbCircle
 62
7
  6
CONTINUOUS
 10
14.1777236217
 20
12.2194980708
 40
0.391069198
100
AcDbArc
 50
158.6128001585
 51
162.2238883933
  0
ARC
  5
31F
100
AcDbEntity
  8
0
100
AcDbCircle
 62
7
  6
CONTINUOUS
 10
14.1773369592
 20
12.2196465418
 40
0.390654817
100
AcDbArc
 50
158.6123945194
 51
162.8282251929
  0
ARC
  5
320
100
AcDbEntity
  8
0
100
AcDbCircle
 62
7
  6
CONTINUOUS
 10
15.7052582339
 20
11.7474711913
 40
0.3904825696
100
AcDbArc
 50
342.8287090736
 51
344.1587109331
  0
ARC
  5
321
100
AcDbEntity
  8
0
100
AcDbCircle
 62
7
  6
CONTINUOUS
 10
14.1768970058
 20
12.2197776481
 40
0.3901966931
100
AcDbArc
 50
162.2259242981
 51
162.8275455424
  0
ARC
  5
322
100
AcDbEntity
  8
0
100
AcDbCircle
 62
7
  6
CONTINUOUS
 10
15.7055602961
 20
11.7473860565
 40
0.3901697629
100
AcDbArc
 50
342.8275581217
 51
344.1640909844
  0
ARC
  5
323
100
AcDbEntity
  8
0
100
AcDbCircle
 62
7
  6
CONTINUOUS
 10
15.8725992221
 20
13.2957073922
 40
0.0696960261
100
AcDbArc
 50
323.365429198
 51
333.3414614337
  0
ARC
  5
324
100
AcDbEntity
  8
0
100
AcDbCircle
 62
7
  6
CONTINUOUS
 10
15.8739323231
 20
13.294717459
 40
0.0680355669
100
AcDbArc
 50
313.2406582275
 51
323.3645077525
  0
SPLINE
  5
325
100
AcDbEntity
  8
0
100
AcDbSpline
 62
7
  6
CONTINUOUS
 70
0
 71
3
 72
12
 73
8
 74
0
 42
0.0000001
 43
0.0000001
 44
0.0000000001
 40
0.0
 40
0.0
 40
0.0
 40
0.0
 40
0.2528207121
 40
0.5037214591
 40
0.752122058
 40
0.8760983847
 40
1.0
 40
1.0
 40
1.0
 40
1.0
 10
7.2350246797
 20
12.8969227814
 30
0.0
 10
7.2350246797
 20
12.903076955
 30
0.0
 10
7.2364416944
 20
12.9153872926
 30
0.0
 10
7.242779348
 20
12.9327443791
 30
0.0
 10
7.2515430082
 20
12.9453762732
 30
0.0
 10
7.2603619891
 20
12.9536811208
 30
0.0
 10
7.265331365
 20
12.9571508215
 30
0.0
 10
7.2679256939
 20
12.9586889463
 30
0.0
  0
SPLINE
  5
326
100
AcDbEntity
  8
0
100
AcDbSpline
 62
7
  6
CONTINUOUS
 70
0
 71
3
 72
18
 73
14
 74
0
 42
0.0000001
 43
0.0000001
 44
0.0000000001
 40
0.0
 40
0.0
 40
0.0
 40
0.0
 40
0.0621619659
 40
0.1243531162
 40
0.1865559564
 40
0.2487803015
 40
0.3110187827
 40
0.3732327101
 40
0.4973869112
 40
0.6217548855
 40
0.746788077
 40
0.8730462143
 40
1.0
 40
1.0
 40
1.0
 40
1.0
 10
7.2695875768
 20
12.9596390717
 30
0.0
 10
7.2720114185
 20
12.9609743172
 30
0.0
 10
7.2770527148
 20
12.9633133745
 30
0.0
 10
7.2850318212
 20
12.9657114014
 30
0.0
 10
7.2932755685
 20
12.9669557529
 30
0.0
 10
7.3016141855
 20
12.966985918
 30
0.0
 10
7.3098731761
 20
12.9658253415
 30
0.0
 10
7.3205284311
 20
12.962717069
 30
0.0
 10
7.3328673697
 20
12.9560406161
 30
0.0
 10
7.3449651831
 20
12.9443622641
 30
0.0
 10
7.3538329448
 20
12.9299898991
 30
0.0
 10
7.3591830456
 20
12.9138831812
 30
0.0
 10
7.3603800187
 20
12.9025744339
 30
0.0
 10
7.3603800187
 20
12.8969227814
 30
0.0
  0
SPLINE
  5
327
100
AcDbEntity
  8
0
100
AcDbSpline
 62
7
  6
CONTINUOUS
 70
0
 71
3
 72
17
 73
13
 74
0
 42
0.0000001
 43
0.0000001
 44
0.0000000001
 40
0.0
 40
0.0
 40
0.0
 40
0.0
 40
0.1270349606
 40
0.2533006051
 40
0.3783241919
 40
0.4406690246
 40
0.5029218654
 40
0.6270652097
 40
0.7512371621
 40
0.8754730559
 40
0.9377336701
 40
1.0
 40
1.0
 40
1.0
 40
1.0
 10
7.3603800187
 20
12.8969227814
 30
0.0
 10
7.3603800187
 20
12.8913085512
 30
0.0
 10
7.3591990459
 20
12.880077623
 30
0.0
 10
7.3539254103
 20
12.8640779029
 30
0.0
 10
7.3466186238
 20
12.8521273189
 30
0.0
 10
7.3392031811
 20
12.8439232365
 30
0.0
 10
7.3308227404
 20
12.8367685424
 30
0.0
 10
7.3186538713
 20
12.830023021
 30
0.0
 10
7.3023889923
 20
12.8263114564
 30
0.0
 10
7.2884796709
 20
12.8272033136
 30
0.0
 10
7.2778803845
 20
12.8302289047
 30
0.0
 10
7.2728334759
 20
12.8324782008
 30
0.0
 10
7.2704023075
 20
12.8337673636
 30
0.0
  0
SPLINE
  5
328
100
AcDbEntity
  8
0
100
AcDbSpline
 62
7
  6
CONTINUOUS
 70
0
 71
3
 72
13
 73
9
 74
0
 42
0.0000001
 43
0.0000001
 44
0.0000000001
 40
0.0
 40
0.0
 40
0.0
 40
0.0
 40
0.1238303374
 40
0.247783945
 40
0.3720488649
 40
0.4966745294
 40
0.7474475543
 40
1.0
 40
1.0
 40
1.0
 40
1.0
 10
7.2686085516
 20
12.8347579269
 30
0.0
 10
7.2659653856
 20
12.8362766436
 30
0.0
 10
7.2609002357
 20
12.8397246539
 30
0.0
 10
7.2541507809
 20
12.8459599369
 30
0.0
 10
7.248325949
 20
12.8530925345
 30
0.0
 10
7.2418909677
 20
12.8636134683
 30
0.0
 10
7.2364675132
 20
12.8782691995
 30
0.0
 10
7.2350246797
 20
12.8907055297
 30
0.0
 10
7.2350246797
 20
12.8969227814
 30
0.0
  0
SPLINE
  5
329
100
AcDbEntity
  8
0
100
AcDbSpline
 62
7
  6
CONTINUOUS
 70
0
 71
3
 72
11
 73
7
 74
0
 42
0.0000001
 43
0.0000001
 44
0.0000000001
 40
0.0
 40
0.0
 40
0.0
 40
0.0
 40
0.226647653
 40
0.4662995668
 40
0.7237558018
 40
1.0
 40
1.0
 40
1.0
 40
1.0
 10
7.2151763614
 20
13.0062977814
 30
0.0
 10
7.2097278206
 20
13.0054728635
 30
0.0
 10
7.1987248436
 20
13.0020677974
 30
0.0
 10
7.183767184
 20
12.9924615204
 30
0.0
 10
7.1706612088
 20
12.9787740192
 30
0.0
 10
7.1636968703
 20
12.967720043
 30
0.0
 10
7.1606177899
 20
12.9617508943
 30
0.0
  0
SPLINE
  5
32A
100
AcDbEntity
  8
0
100
AcDbSpline
 62
7
  6
CONTINUOUS
 70
0
 71
3
 72
11
 73
7
 74
0
 42
0.0000001
 43
0.0000001
 44
0.0000000001
 40
0.0
 40
0.0
 40
0.0
 40
0.0
 40
0.2762441982
 40
0.5337004332
 40
0.773352347
 40
1.0
 40
1.0
 40
1.0
 40
1.0
 10
7.1606177899
 20
12.8320946684
 30
0.0
 10
7.1636968703
 20
12.8261255197
 30
0.0
 10
7.1706612088
 20
12.8150715435
 30
0.0
 10
7.183767184
 20
12.8013840424
 30
0.0
 10
7.1987248436
 20
12.7917777654
 30
0.0
 10
7.2097278206
 20
12.7883726992
 30
0.0
 10
7.2151763614
 20
12.7875477814
 30
0.0
  0
SPLINE
  5
32B
100
AcDbEntity
  8
0
100
AcDbSpline
 62
7
  6
CONTINUOUS
 70
0
 71
3
 72
11
 73
7
 74
0
 42
0.0000001
 43
0.0000001
 44
0.0000000001
 40
0.0
 40
0.0
 40
0.0
 40
0.0
 40
0.2279576867
 40
0.4680990252
 40
0.7249178963
 40
1.0
 40
1.0
 40
1.0
 40
1.0
 10
7.231735913
 20
12.7875477814
 30
0.0
 10
7.2369101444
 20
12.7883311684
 30
0.0
 10
7.2473480253
 20
12.7914749979
 30
0.0
 10
7.2616598932
 20
12.8002697439
 30
0.0
 10
7.2743667944
 20
12.8128125101
 30
0.0
 10
7.2812588696
 20
12.8229880122
 30
0.0
 10
7.2843539433
 20
12.8284925649
 30
0.0
  0
SPLINE
  5
32C
100
AcDbEntity
  8
0
100
AcDbSpline
 62
7
  6
CONTINUOUS
 70
0
 71
3
 72
9
 73
5
 74
0
 42
0.0000001
 43
0.0000001
 44
0.0000000001
 40
0.0
 40
0.0
 40
0.0
 40
0.0
 40
0.2537149426
 40
1.0
 40
1.0
 40
1.0
 40
1.0
 10
7.1456743913
 20
12.8969227814
 30
0.0
 10
7.1456743913
 20
12.8931053924
 30
0.0
 10
7.1462272184
 20
12.8780667545
 30
0.0
 10
7.1489820779
 20
12.8630912507
 30
0.0
 10
7.1523380141
 20
12.8523758943
 30
0.0
  0
SPLINE
  5
32D
100
AcDbEntity
  8
0
100
AcDbSpline
 62
7
  6
CONTINUOUS
 70
0
 71
3
 72
9
 73
5
 74
0
 42
0.0000001
 43
0.0000001
 44
0.0000000001
 40
0.0
 40
0.0
 40
0.0
 40
0.0
 40
0.2456639173
 40
1.0
 40
1.0
 40
1.0
 40
1.0
 10
7.1523380141
 20
12.9414696684
 30
0.0
 10
7.1512332478
 20
12.9379421984
 30
0.0
 10
7.1473186521
 20
12.9234053364
 30
0.0
 10
7.1456743913
 20
12.908273029
 30
0.0
 10
7.1456743913
 20
12.8969227814
 30
0.0
  0
SPLINE
  5
32E
100
AcDbEntity
  8
0
100
AcDbSpline
 62
7
  6
CONTINUOUS
 70
0
 71
3
 72
11
 73
7
 74
0
 42
0.0000001
 43
0.0000001
 44
0.0000000001
 40
0.0
 40
0.0
 40
0.0
 40
0.0
 40
0.2752429234
 40
0.5321443114
 40
0.7722178245
 40
1.0
 40
1.0
 40
1.0
 40
1.0
 10
7.2846170167
 20
12.9648824848
 30
0.0
 10
7.2815226829
 20
12.9704480565
 30
0.0
 10
7.2746190297
 20
12.9807387007
 30
0.0
 10
7.2618571712
 20
12.9934308935
 30
0.0
 10
7.2474589505
 20
13.0023311202
 30
0.0
 10
7.2369464235
 20
13.0055089017
 30
0.0
 10
7.231735913
 20
13.0062977814
 30
0.0
  0
SPLINE
  5
32F
100
AcDbEntity
  8
0
100
AcDbSpline
 62
7
  6
CONTINUOUS
 70
0
 71
3
 72
17
 73
13
 74
0
 42
0.0000001
 43
0.0000001
 44
0.0000000001
 40
0.0
 40
0.0
 40
0.0
 40
0.0
 40
0.1270349606
 40
0.2533006051
 40
0.3783241919
 40
0.4406690246
 40
0.5029218654
 40
0.6270652097
 40
0.7512371621
 40
0.8754730559
 40
0.9377336701
 40
1.0
 40
1.0
 40
1.0
 40
1.0
 10
15.8572302569
 20
6.7657576393
 30
0.0
 10
15.8628444871
 20
6.7657576393
 30
0.0
 10
15.8740754153
 20
6.7645766665
 30
0.0
 10
15.8900751354
 20
6.7593030309
 30
0.0
 10
15.9020257195
 20
6.7519962444
 30
0.0
 10
15.9102298018
 20
6.7445808017
 30
0.0
 10
15.9173844959
 20
6.736200361
 30
0.0
 10
15.9241300173
 20
6.7240314919
 30
0.0
 10
15.9278415819
 20
6.7077666129
 30
0.0
 10
15.9269497247
 20
6.6938572915
 30
0.0
 10
15.9239241336
 20
6.6832580051
 30
0.0
 10
15.9216748375
 20
6.6782110964
 30
0.0
 10
15.9203856747
 20
6.6757799281
 30
0.0
  0
SPLINE
  5
330
100
AcDbEntity
  8
0
100
AcDbSpline
 62
7
  6
CONTINUOUS
 70
0
 71
3
 72
13
 73
9
 74
0
 42
0.0000001
 43
0.0000001
 44
0.0000000001
 40
0.0
 40
0.0
 40
0.0
 40
0.0
 40
0.1238303374
 40
0.247783945
 40
0.3720488649
 40
0.4966745294
 40
0.7474475543
 40
1.0
 40
1.0
 40
1.0
 40
1.0
 10
15.9193951114
 20
6.6739861721
 30
0.0
 10
15.9178763947
 20
6.6713430061
 30
0.0
 10
15.9144283844
 20
6.6662778563
 30
0.0
 10
15.9081931014
 20
6.6595284015
 30
0.0
 10
15.9010605038
 20
6.6537035696
 30
0.0
 10
15.89053957
 20
6.6472685883
 30
0.0
 10
15.8758838388
 20
6.6418451337
 30
0.0
 10
15.8634475086
 20
6.6404023003
 30
0.0
 10
15.8572302569
 20
6.6404023003
 30
0.0
  0
SPLINE
  5
331
100
AcDbEntity
  8
0
100
AcDbSpline
 62
7
  6
CONTINUOUS
 70
0
 71
3
 72
12
 73
8
 74
0
 42
0.0000001
 43
0.0000001
 44
0.0000000001
 40
0.0
 40
0.0
 40
0.0
 40
0.0
 40
0.2528207121
 40
0.5037214591
 40
0.752122058
 40
0.8760983847
 40
1.0
 40
1.0
 40
1.0
 40
1.0
 10
15.8572302569
 20
6.6404023003
 30
0.0
 10
15.8510760833
 20
6.6404023003
 30
0.0
 10
15.8387657457
 20
6.641819315
 30
0.0
 10
15.8214086592
 20
6.6481569685
 30
0.0
 10
15.8087767651
 20
6.6569206288
 30
0.0
 10
15.8004719175
 20
6.6657396097
 30
0.0
 10
15.7970022168
 20
6.6707089856
 30
0.0
 10
15.795464092
 20
6.6733033145
 30
0.0
  0
SPLINE
  5
332
100
AcDbEntity
  8
0
100
AcDbSpline
 62
7
  6
CONTINUOUS
 70
0
 71
3
 72
18
 73
14
 74
0
 42
0.0000001
 43
0.0000001
 44
0.0000000001
 40
0.0
 40
0.0
 40
0.0
 40
0.0
 40
0.0621619659
 40
0.1243531162
 40
0.1865559564
 40
0.2487803015
 40
0.3110187827
 40
0.3732327101
 40
0.4973869112
 40
0.6217548855
 40
0.746788077
 40
0.8730462143
 40
1.0
 40
1.0
 40
1.0
 40
1.0
 10
15.7945139666
 20
6.6749651974
 30
0.0
 10
15.7931787211
 20
6.6773890391
 30
0.0
 10
15.7908396638
 20
6.6824303354
 30
0.0
 10
15.7884416369
 20
6.6904094418
 30
0.0
 10
15.7871972854
 20
6.6986531891
 30
0.0
 10
15.7871671203
 20
6.7069918061
 30
0.0
 10
15.7883276968
 20
6.7152507967
 30
0.0
 10
15.7914359693
 20
6.7259060516
 30
0.0
 10
15.7981124222
 20
6.7382449903
 30
0.0
 10
15.8097907742
 20
6.7503428037
 30
0.0
 10
15.8241631392
 20
6.7592105654
 30
0.0
 10
15.8402698571
 20
6.7645606662
 30
0.0
 10
15.8515786044
 20
6.7657576393
 30
0.0
 10
15.8572302569
 20
6.7657576393
 30
0.0
  0
SPLINE
  5
333
100
AcDbEntity
  8
0
100
AcDbSpline
 62
7
  6
CONTINUOUS
 70
0
 71
3
 72
11
 73
7
 74
0
 42
0.0000001
 43
0.0000001
 44
0.0000000001
 40
0.0
 40
0.0
 40
0.0
 40
0.0
 40
0.2279576867
 40
0.4680990252
 40
0.7249178963
 40
1.0
 40
1.0
 40
1.0
 40
1.0
 10
15.9666052569
 20
6.6371135336
 30
0.0
 10
15.96582187
 20
6.642287765
 30
0.0
 10
15.9626780404
 20
6.6527256458
 30
0.0
 10
15.9538832944
 20
6.6670375137
 30
0.0
 10
15.9413405282
 20
6.679744415
 30
0.0
 10
15.9311650261
 20
6.6866364902
 30
0.0
 10
15.9256604734
 20
6.6897315639
 30
0.0
  0
SPLINE
  5
334
100
AcDbEntity
  8
0
100
AcDbSpline
 62
7
  6
CONTINUOUS
 70
0
 71
3
 72
11
 73
7
 74
0
 42
0.0000001
 43
0.0000001
 44
0.0000000001
 40
0.0
 40
0.0
 40
0.0
 40
0.0
 40
0.2752429234
 40
0.5321443114
 40
0.7722178245
 40
1.0
 40
1.0
 40
1.0
 40
1.0
 10
15.7892705535
 20
6.6899946373
 30
0.0
 10
15.7837049818
 20
6.6869003035
 30
0.0
 10
15.7734143376
 20
6.6799966502
 30
0.0
 10
15.7607221448
 20
6.6672347917
 30
0.0
 10
15.7518219181
 20
6.6528365711
 30
0.0
 10
15.7486441366
 20
6.6423240441
 30
0.0
 10
15.7478552569
 20
6.6371135336
 30
0.0
  0
SPLINE
  5
335
100
AcDbEntity
  8
0
100
AcDbSpline
 62
7
  6
CONTINUOUS
 70
0
 71
3
 72
11
 73
7
 74
0
 42
0.0000001
 43
0.0000001
 44
0.0000000001
 40
0.0
 40
0.0
 40
0.0
 40
0.0
 40
0.226647653
 40
0.4662995668
 40
0.7237558018
 40
1.0
 40
1.0
 40
1.0
 40
1.0
 10
15.7478552569
 20
6.620553982
 30
0.0
 10
15.7486801748
 20
6.6151054412
 30
0.0
 10
15.7520852409
 20
6.6041024642
 30
0.0
 10
15.7616915179
 20
6.5891448046
 30
0.0
 10
15.7753790191
 20
6.5760388294
 30
0.0
 10
15.7864329953
 20
6.5690744909
 30
0.0
 10
15.792402144
 20
6.5659954105
 30
0.0
  0
SPLINE
  5
336
100
AcDbEntity
  8
0
100
AcDbSpline
 62
7
  6
CONTINUOUS
 70
0
 71
3
 72
9
 73
5
 74
0
 42
0.0000001
 43
0.0000001
 44
0.0000000001
 40
0.0
 40
0.0
 40
0.0
 40
0.0
 40
0.2537149426
 40
1.0
 40
1.0
 40
1.0
 40
1.0
 10
15.8572302569
 20
6.5510520118
 30
0.0
 10
15.8610476459
 20
6.5510520118
 30
0.0
 10
15.8760862838
 20
6.551604839
 30
0.0
 10
15.8910617876
 20
6.5543596985
 30
0.0
 10
15.901777144
 20
6.5577156347
 30
0.0
  0
SPLINE
  5
337
100
AcDbEntity
  8
0
100
AcDbSpline
 62
7
  6
CONTINUOUS
 70
0
 71
3
 72
9
 73
5
 74
0
 42
0.0000001
 43
0.0000001
 44
0.0000000001
 40
0.0
 40
0.0
 40
0.0
 40
0.0
 40
0.2456639173
 40
1.0
 40
1.0
 40
1.0
 40
1.0
 10
15.8126833699
 20
6.5577156347
 30
0.0
 10
15.8162108399
 20
6.5566108684
 30
0.0
 10
15.8307477019
 20
6.5526962727
 30
0.0
 10
15.8458800093
 20
6.5510520118
 30
0.0
 10
15.8572302569
 20
6.5510520118
 30
0.0
  0
SPLINE
  5
338
100
AcDbEntity
  8
0
100
AcDbSpline
 62
7
  6
CONTINUOUS
 70
0
 71
3
 72
31
 73
27
 74
0
 42
0.0000001
 43
0.0000001
 44
0.0000000001
 40
0.0
 40
0.0
 40
0.0
 40
0.0
 40
0.063389536
 40
0.1259008077
 40
0.1875446315
 40
0.2181061844
 40
0.2485473825
 40
0.3093289892
 40
0.3399716879
 40
0.3709576366
 40
0.4024328226
 40
0.4344847029
 40
0.467075825
 40
0.499999809
 40
0.5329238134
 40
0.5655149188
 40
0.5975667315
 40
0.6290419494
 40
0.6600279258
 40
0.6906706129
 40
0.7514522497
 40
0.7818934743
 40
0.8124550951
 40
0.8740990165
 40
0.9366104141
 40
1.0
 40
1.0
 40
1.0
 40
1.0
 10
15.5278756444
 20
5.8887425576
 30
0.0
 10
15.5315605667
 20
5.9140032648
 30
0.0
 10
15.5401024621
 20
5.9640132463
 30
0.0
 10
15.5576765303
 20
6.0375330588
 30
0.0
 10
15.57746996
 20
6.0967426121
 30
0.0
 10
15.597272725
 20
6.1420321985
 30
0.0
 10
15.6199969699
 20
6.1855185979
 30
0.0
 10
15.6479896186
 20
6.2262442967
 30
0.0
 10
15.6820671924
 20
6.2619971546
 30
0.0
 10
15.7110971886
 20
6.2858913088
 30
0.0
 10
15.7435805741
 20
6.3059714549
 30
0.0
 10
15.7792836018
 20
6.3213157626
 30
0.0
 10
15.8175415039
 20
6.3309984756
 30
0.0
 10
15.8572300332
 20
6.3343161427
 30
0.0
 10
15.896918565
 20
6.3309985674
 30
0.0
 10
15.9351764575
 20
6.3213159146
 30
0.0
 10
15.9708794855
 20
6.3059716687
 30
0.0
 10
16.0033629254
 20
6.285891615
 30
0.0
 10
16.0323929645
 20
6.2619974804
 30
0.0
 10
16.0664706087
 20
6.2262446634
 30
0.0
 10
16.094463293
 20
6.1855189686
 30
0.0
 10
16.117187652
 20
6.1420325709
 30
0.0
 10
16.1369904086
 20
6.0967428956
 30
0.0
 10
16.1567839658
 20
6.0375332639
 30
0.0
 10
16.1743580343
 20
5.9640133343
 30
0.0
 10
16.1828999442
 20
5.9140032847
 30
0.0
 10
16.1865848695
 20
5.8887425576
 30
0.0
  0
SPLINE
  5
339
100
AcDbEntity
  8
0
100
AcDbSpline
 62
7
  6
CONTINUOUS
 70
0
 71
3
 72
11
 73
7
 74
0
 42
0.0000001
 43
0.0000001
 44
0.0000000001
 40
0.0
 40
0.0
 40
0.0
 40
0.0
 40
0.2762441982
 40
0.5337004332
 40
0.773352347
 40
1.0
 40
1.0
 40
1.0
 40
1.0
 10
15.9220583699
 20
6.5659954105
 30
0.0
 10
15.9280275186
 20
6.5690744909
 30
0.0
 10
15.9390814948
 20
6.5760388294
 30
0.0
 10
15.952768996
 20
6.5891448046
 30
0.0
 10
15.9623752729
 20
6.6041024642
 30
0.0
 10
15.9657803391
 20
6.6151054412
 30
0.0
 10
15.9666052569
 20
6.620553982
 30
0.0
  0
SPLINE
  5
33A
100
AcDbEntity
  8
0
100
AcDbSpline
 62
7
  6
CONTINUOUS
 70
0
 71
3
 72
14
 73
10
 74
0
 42
0.0000001
 43
0.0000001
 44
0.0000000001
 40
0.0
 40
0.0
 40
0.0
 40
0.0
 40
0.268257787
 40
0.3966426912
 40
0.5216967453
 40
0.6439473766
 40
0.7639817242
 40
0.8824371329
 40
1.0
 40
1.0
 40
1.0
 40
1.0
 10
16.0520680604
 20
11.9517028488
 30
0.0
 10
16.0632364956
 20
11.925532296
 30
0.0
 10
16.0772114153
 20
11.8856350481
 30
0.0
 10
16.089211427
 20
11.8315685693
 30
0.0
 10
16.0946312108
 20
11.7920392826
 30
0.0
 10
16.0965700847
 20
11.7530740416
 30
0.0
 10
16.0950252995
 20
11.7147871571
 30
0.0
 10
16.0899969454
 20
11.6773033786
 30
0.0
 10
16.0843148263
 20
11.652876038
 30
0.0
 10
16.0809108731
 20
11.6408797665
 30
0.0
  0
SPLINE
  5
33B
100
AcDbEntity
  8
0
100
AcDbSpline
 62
7
  6
CONTINUOUS
 70
0
 71
3
 72
14
 73
10
 74
0
 42
0.0000001
 43
0.0000001
 44
0.0000000001
 40
0.0
 40
0.0
 40
0.0
 40
0.0
 40
0.1196352966
 40
0.2396812235
 40
0.3608369608
 40
0.4836143085
 40
0.6084644955
 40
0.7359060543
 40
1.0
 40
1.0
 40
1.0
 40
1.0
 10
13.678523203
 20
11.9286319052
 30
0.0
 10
13.6738592048
 20
11.9135392013
 30
0.0
 10
13.6661399998
 20
11.8827726673
 30
0.0
 10
13.6595313889
 20
11.8355017085
 30
0.0
 10
13.6578882394
 20
11.7873830358
 30
0.0
 10
13.6611280041
 20
11.7387180076
 30
0.0
 10
13.6691809906
 20
11.6897745364
 30
0.0
 10
13.686335678
 20
11.623711578
 30
0.0
 10
13.7058048208
 20
11.5754996401
 30
0.0
 10
13.721167235
 20
11.5441943313
 30
0.0
  0
SPLINE
  5
33C
100
AcDbEntity
  8
0
100
AcDbSpline
 62
7
  6
CONTINUOUS
 70
0
 71
3
 72
42
 73
38
 74
0
 42
0.0000001
 43
0.0000001
 44
0.0000000001
 40
0.0
 40
0.0
 40
0.0
 40
0.0
 40
0.0272044116
 40
0.0554665856
 40
0.0847994571
 40
0.1152221346
 40
0.1467155345
 40
0.1792262966
 40
0.2126775887
 40
0.2469734365
 40
0.2819978791
 40
0.3176211177
 40
0.3537015826
 40
0.3900891626
 40
0.4266284442
 40
0.4631609469
 40
0.4995286645
 40
0.5355761583
 40
0.5711543473
 40
0.6061220437
 40
0.6403508938
 40
0.6737266593
 40
0.7061536155
 40
0.7375581363
 40
0.7678909964
 40
0.7971329015
 40
0.8252948973
 40
0.8389877415
 40
0.8524310828
 40
0.8786055491
 40
0.9039401421
 40
0.9285769408
 40
0.952679732
 40
0.9645852398
 40
0.9764200268
 40
0.9882142262
 40
1.0
 40
1.0
 40
1.0
 40
1.0
 10
13.721167235
 20
11.5441943313
 30
0.0
 10
13.7317317437
 20
11.5226661261
 30
0.0
 10
13.75547387
 20
11.4798264602
 30
0.0
 10
13.7974193825
 20
11.4178523996
 30
0.0
 10
13.8460338834
 20
11.3572813688
 30
0.0
 10
13.9009519115
 20
11.298418708
 30
0.0
 10
13.9618095768
 20
11.2415431158
 30
0.0
 10
14.0282188508
 20
11.1869620762
 30
0.0
 10
14.0997485942
 20
11.1349745435
 30
0.0
 10
14.1759414969
 20
11.0858835221
 30
0.0
 10
14.2563049558
 20
11.0399796586
 30
0.0
 10
14.340317035
 20
10.9975453808
 30
0.0
 10
14.4274296012
 20
10.9588489089
 30
0.0
 10
14.5170689619
 20
10.924132921
 30
0.0
 10
14.6086468083
 20
10.8936273942
 30
0.0
 10
14.7015580621
 20
10.8675275249
 30
0.0
 10
14.7951918555
 20
10.8460090075
 30
0.0
 10
14.888934227
 20
10.8292173013
 30
0.0
 10
14.982173346
 20
10.8172655721
 30
0.0
 10
15.0743075444
 20
10.8102464627
 30
0.0
 10
15.1647475316
 20
10.8082141253
 30
0.0
 10
15.2529239642
 20
10.8112059745
 30
0.0
 10
15.3382903738
 20
10.8192293141
 30
0.0
 10
15.420326327
 20
10.8322732149
 30
0.0
 10
15.4985404719
 20
10.8503140462
 30
0.0
 10
15.5724621679
 20
10.8733097814
 30
0.0
 10
15.6306610525
 20
10.8967892775
 30
0.0
 10
15.6745375961
 20
10.9180620991
 30
0.0
 10
15.7158231556
 20
10.9405389328
 30
0.0
 10
15.7640606951
 20
10.9715835672
 30
0.0
 10
15.816362017
 20
11.0138810138
 30
0.0
 10
15.8620616521
 20
11.0607429555
 30
0.0
 10
15.8943222696
 20
11.1035812306
 30
0.0
 10
15.916176021
 20
11.1396833107
 30
0.0
 10
15.9305255716
 20
11.1675565881
 30
0.0
 10
15.9428539401
 20
11.1962634469
 30
0.0
 10
15.9496972144
 20
11.2159121525
 30
0.0
 10
15.9527645839
 20
11.2258381637
 30
0.0
  0
SPLINE
  5
33D
100
AcDbEntity
  8
0
100
AcDbSpline
 62
7
  6
CONTINUOUS
 70
0
 71
3
 72
14
 73
10
 74
0
 42
0.0000001
 43
0.0000001
 44
0.0000000001
 40
0.0
 40
0.0
 40
0.0
 40
0.0
 40
0.1157173647
 40
0.2330057762
 40
0.3524919448
 40
0.4747401928
 40
0.6002474456
 40
0.7294371993
 40
1.0
 40
1.0
 40
1.0
 40
1.0
 10
13.8211590613
 20
12.3801188218
 30
0.0
 10
13.8263143898
 20
12.3915742951
 30
0.0
 10
13.8378017534
 20
12.4141594729
 30
0.0
 10
13.8582628939
 20
12.4465553701
 30
0.0
 10
13.8819844741
 20
12.4775446022
 30
0.0
 10
13.9088816351
 20
12.5070337345
 30
0.0
 10
13.9388751478
 20
12.534937485
 30
0.0
 10
13.9835401003
 20
12.5704514275
 30
0.0
 10
14.020446362
 20
12.5936264946
 30
0.0
 10
14.0462428326
 20
12.6076708442
 30
0.0
  0
SPLINE
  5
33E
100
AcDbEntity
  8
0
100
AcDbSpline
 62
7
  6
CONTINUOUS
 70
0
 71
3
 72
9
 73
5
 74
0
 42
0.0000001
 43
0.0000001
 44
0.0000000001
 40
0.0
 40
0.0
 40
0.0
 40
0.0
 40
0.2453761718
 40
1.0
 40
1.0
 40
1.0
 40
1.0
 10
14.0462428326
 20
12.6076708442
 30
0.0
 10
14.0514586191
 20
12.6105104701
 30
0.0
 10
14.0728600401
 20
12.6218152035
 30
0.0
 10
14.0948169455
 20
12.6320618541
 30
0.0
 10
14.1116153876
 20
12.6392294086
 30
0.0
  0
SPLINE
  5
33F
100
AcDbEntity
  8
0
100
AcDbSpline
 62
7
  6
CONTINUOUS
 70
0
 71
3
 72
11
 73
7
 74
0
 42
0.0000001
 43
0.0000001
 44
0.0000000001
 40
0.0
 40
0.0
 40
0.0
 40
0.0
 40
0.2297672373
 40
0.473520257
 40
0.7306364745
 40
1.0
 40
1.0
 40
1.0
 40
1.0
 10
14.1143633066
 20
12.6403959952
 30
0.0
 10
14.1445437864
 20
12.6531441315
 30
0.0
 10
14.2083368685
 20
12.6757419282
 30
0.0
 10
14.3097048408
 20
12.7004247896
 30
0.0
 10
14.4184608155
 20
12.7166593497
 30
0.0
 10
14.4934570765
 20
12.7216230604
 30
0.0
 10
14.5318492247
 20
12.7227417165
 30
0.0
  0
SPLINE
  5
340
100
AcDbEntity
  8
0
100
AcDbSpline
 62
7
  6
CONTINUOUS
 70
0
 71
3
 72
11
 73
7
 74
0
 42
0.0000001
 43
0.0000001
 44
0.0000000001
 40
0.0
 40
0.0
 40
0.0
 40
0.0
 40
0.2426162563
 40
0.4914170833
 40
0.7445359583
 40
1.0
 40
1.0
 40
1.0
 40
1.0
 10
14.6246038279
 20
12.7227565976
 30
0.0
 10
14.6655617958
 20
12.7216091799
 30
0.0
 10
14.7484618591
 20
12.7162725989
 30
0.0
 10
14.8732008329
 20
12.6997640455
 30
0.0
 10
14.9987414336
 20
12.6748251778
 30
0.0
 10
15.0818326665
 20
12.6528133493
 30
0.0
 10
15.1231744154
 20
12.640474413
 30
0.0
  0
SPLINE
  5
341
100
AcDbEntity
  8
0
100
AcDbSpline
 62
7
  6
CONTINUOUS
 70
0
 71
3
 72
11
 73
7
 74
0
 42
0.0000001
 43
0.0000001
 44
0.0000000001
 40
0.0
 40
0.0
 40
0.0
 40
0.0
 40
0.2570497461
 40
0.5106936128
 40
0.7589565969
 40
1.0
 40
1.0
 40
1.0
 40
1.0
 10
15.2223463007
 20
12.6081421254
 30
0.0
 10
15.2631885476
 20
12.5936813782
 30
0.0
 10
15.3434539913
 20
12.5623956644
 30
0.0
 10
15.4595057716
 20
12.5083658346
 30
0.0
 10
15.5693613176
 20
12.4480625786
 30
0.0
 10
15.6387874945
 20
12.4033847595
 30
0.0
 10
15.6720941474
 20
12.3801175428
 30
0.0
  0
SPLINE
  5
342
100
AcDbEntity
  8
0
100
AcDbSpline
 62
7
  6
CONTINUOUS
 70
0
 71
3
 72
13
 73
9
 74
0
 42
0.0000001
 43
0.0000001
 44
0.0000000001
 40
0.0
 40
0.0
 40
0.0
 40
0.0
 40
0.2707606932
 40
0.4012298549
 40
0.5282187311
 40
0.6516303635
 40
0.7714217792
 40
1.0
 40
1.0
 40
1.0
 40
1.0
 10
15.7453655794
 20
12.3256543092
 30
0.0
 10
15.7749603113
 20
12.3022292217
 30
0.0
 10
15.817504958
 20
12.2657888907
 30
0.0
 10
15.8701506272
 20
12.2142814839
 30
0.0
 10
15.9063680894
 20
12.1754323141
 30
0.0
 10
15.9396935479
 20
12.1359996281
 30
0.0
 10
15.9795104207
 20
12.083637245
 30
0.0
 10
16.005761937
 20
12.0426098729
 30
0.0
 10
16.0211863446
 20
12.0147285446
 30
0.0
  0
SPLINE
  5
343
100
AcDbEntity
  8
0
100
AcDbSpline
 62
7
  6
CONTINUOUS
 70
0
 71
3
 72
25
 73
21
 74
0
 42
0.0000001
 43
0.0000001
 44
0.0000000001
 40
0.0
 40
0.0
 40
0.0
 40
0.0
 40
0.0620442403
 40
0.1240669254
 40
0.1860852704
 40
0.2481109857
 40
0.2791899125
 40
0.310283686
 40
0.3414134735
 40
0.3725903047
 40
0.4350123348
 40
0.4977249376
 40
0.5607295853
 40
0.6239454145
 40
0.6872029972
 40
0.7503063333
 40
0.8131224897
 40
0.8756306441
 40
0.9379086238
 40
1.0
 40
1.0
 40
1.0
 40
1.0
 10
15.8251947305
 20
13.3946841696
 30
0.0
 10
15.8264857682
 20
13.3988619691
 30
0.0
 10
15.8299621724
 20
13.4069703492
 30
0.0
 10
15.8376447828
 20
13.4177209591
 30
0.0
 10
15.8474643489
 20
13.426567931
 30
0.0
 10
15.8570569146
 20
13.4320007708
 30
0.0
 10
15.8652715523
 20
13.435061853
 30
0.0
 10
15.8716537231
 20
13.4366972783
 30
0.0
 10
15.8781765576
 20
13.4376652955
 30
0.0
 10
15.8869700814
 20
13.4380769352
 30
0.0
 10
15.8980041396
 20
13.4369327684
 30
0.0
 10
15.9107685371
 20
13.4330765656
 30
0.0
 10
15.9226670223
 20
13.4269402413
 30
0.0
 10
15.9333311295
 20
13.4187902082
 30
0.0
 10
15.9424268689
 20
13.4089110865
 30
0.0
 10
15.9496486569
 20
13.3976209861
 30
0.0
 10
15.9547257459
 20
13.3852704726
 30
0.0
 10
15.9574157636
 20
13.3722418897
 30
0.0
 10
15.9575291307
 20
13.3589891771
 30
0.0
 10
15.9558239074
 20
13.3503156484
 30
0.0
 10
15.9545318889
 20
13.3461346749
 30
0.0
  0
SPLINE
  5
344
100
AcDbEntity
  8
0
100
AcDbSpline
 62
7
  6
CONTINUOUS
 70
0
 71
3
 72
25
 73
21
 74
0
 42
0.0000001
 43
0.0000001
 44
0.0000000001
 40
0.0
 40
0.0
 40
0.0
 40
0.0
 40
0.0620442403
 40
0.1240669254
 40
0.1860852704
 40
0.2481109857
 40
0.2791899125
 40
0.310283686
 40
0.3414134735
 40
0.3725903047
 40
0.4350123348
 40
0.4977249376
 40
0.5607295853
 40
0.6239454145
 40
0.6872029972
 40
0.7503063333
 40
0.8131224897
 40
0.8756306441
 40
0.9379086238
 40
1.0
 40
1.0
 40
1.0
 40
1.0
 10
15.9545318889
 20
13.3461346749
 30
0.0
 10
15.9532408512
 20
13.3419568754
 30
0.0
 10
15.949764447
 20
13.3338484952
 30
0.0
 10
15.9420818366
 20
13.3230978854
 30
0.0
 10
15.9322622705
 20
13.3142509135
 30
0.0
 10
15.9226697048
 20
13.3088180737
 30
0.0
 10
15.9144550671
 20
13.3057569915
 30
0.0
 10
15.9080728963
 20
13.3041215662
 30
0.0
 10
15.9015500618
 20
13.3031535489
 30
0.0
 10
15.892756538
 20
13.3027419093
 30
0.0
 10
15.8817224798
 20
13.3038860761
 30
0.0
 10
15.8689580823
 20
13.3077422788
 30
0.0
 10
15.8570595971
 20
13.3138786031
 30
0.0
 10
15.84639549
 20
13.3220286363
 30
0.0
 10
15.8372997505
 20
13.331907758
 30
0.0
 10
15.8300779626
 20
13.3431978584
 30
0.0
 10
15.8250008735
 20
13.3555483719
 30
0.0
 10
15.8223108559
 20
13.3685769548
 30
0.0
 10
15.8221974887
 20
13.3818296674
 30
0.0
 10
15.823902712
 20
13.3905031961
 30
0.0
 10
15.8251947305
 20
13.3946841696
 30
0.0
  0
SPLINE
  5
345
100
AcDbEntity
  8
0
100
AcDbSpline
 62
7
  6
CONTINUOUS
 70
0
 71
3
 72
15
 73
11
 74
0
 42
0.0000001
 43
0.0000001
 44
0.0000000001
 40
0.0
 40
0.0
 40
0.0
 40
0.0
 40
0.1101419469
 40
0.2264728765
 40
0.3485672561
 40
0.4754479658
 40
0.6057358385
 40
0.7377860846
 40
0.8697889335
 40
1.0
 40
1.0
 40
1.0
 40
1.0
 10
13.2114540941
 20
12.1745028461
 30
0.0
 10
13.2139036696
 20
12.1837341105
 30
0.0
 10
13.2207594881
 20
12.2022656434
 30
0.0
 10
13.2358428681
 20
12.2285917372
 30
0.0
 10
13.2555581491
 20
12.253524306
 30
0.0
 10
13.2793421794
 20
12.2763738422
 30
0.0
 10
13.3065327865
 20
12.2965158032
 30
0.0
 10
13.3363728178
 20
12.3133886382
 30
0.0
 10
13.3680186794
 20
12.3265338798
 30
0.0
 10
13.3899970422
 20
12.3326318631
 30
0.0
 10
13.4010499842
 20
12.3349381711
 30
0.0
  0
SPLINE
  5
346
100
AcDbEntity
  8
0
100
AcDbSpline
 62
7
  6
CONTINUOUS
 70
0
 71
3
 72
15
 73
11
 74
0
 42
0.0000001
 43
0.0000001
 44
0.0000000001
 40
0.0
 40
0.0
 40
0.0
 40
0.0
 40
0.1135907055
 40
0.2277611612
 40
0.3442798249
 40
0.4646463645
 40
0.5899416119
 40
0.7208787536
 40
0.8577376252
 40
1.0
 40
1.0
 40
1.0
 40
1.0
 10
13.1707157438
 20
12.2258086888
 30
0.0
 10
13.1726590609
 20
12.2201333958
 30
0.0
 10
13.1776129721
 20
12.2090837619
 30
0.0
 10
13.1880420738
 20
12.1940714264
 30
0.0
 10
13.201248569
 20
12.1809221527
 30
0.0
 10
13.2169673557
 20
12.1698741302
 30
0.0
 10
13.2349042675
 20
12.1611084278
 30
0.0
 10
13.2547399807
 20
12.1547607509
 30
0.0
 10
13.2761130864
 20
12.1509443645
 30
0.0
 10
13.2908699116
 20
12.1501207202
 30
0.0
 10
13.2983828637
 20
12.1501207202
 30
0.0
  0
SPLINE
  5
347
100
AcDbEntity
  8
0
100
AcDbSpline
 62
7
  6
CONTINUOUS
 70
0
 71
3
 72
11
 73
7
 74
0
 42
0.0000001
 43
0.0000001
 44
0.0000000001
 40
0.0
 40
0.0
 40
0.0
 40
0.0
 40
0.2730144743
 40
0.5305462963
 40
0.7721473806
 40
1.0
 40
1.0
 40
1.0
 40
1.0
 10
12.71690159
 20
11.6281211628
 30
0.0
 10
12.7166343311
 20
11.6272559417
 30
0.0
 10
12.7162117384
 20
11.6255416027
 30
0.0
 10
12.7159735778
 20
11.6229797395
 30
0.0
 10
12.7162008976
 20
11.6205628063
 30
0.0
 10
12.7167014191
 20
11.6190684831
 30
0.0
 10
12.7170343642
 20
11.6183900125
 30
0.0
  0
SPLINE
  5
348
100
AcDbEntity
  8
0
100
AcDbSpline
 62
7
  6
CONTINUOUS
 70
0
 71
3
 72
23
 73
19
 74
0
 42
0.0000001
 43
0.0000001
 44
0.0000000001
 40
0.0
 40
0.0
 40
0.0
 40
0.0
 40
0.0652816921
 40
0.1323444583
 40
0.2006505871
 40
0.2697169274
 40
0.4076922667
 40
0.475630206
 40
0.5421259989
 40
0.6067511668
 40
0.6691919851
 40
0.7292711888
 40
0.7869744854
 40
0.842465307
 40
0.8960933466
 40
0.922393532
 40
0.9484376741
 40
1.0
 40
1.0
 40
1.0
 40
1.0
 10
13.3506326034
 20
12.5856594969
 30
0.0
 10
13.334865182
 20
12.5854993219
 30
0.0
 10
13.3028951457
 20
12.5833235179
 30
0.0
 10
13.2550861326
 20
12.5748950664
 30
0.0
 10
13.2074960964
 20
12.5613889241
 30
0.0
 10
13.1455447785
 20
12.5369853947
 30
0.0
 10
13.0874686899
 20
12.5037147104
 30
0.0
 10
13.0358141472
 20
12.4628169523
 30
0.0
 10
13.0013232722
 20
12.4291824145
 30
0.0
 10
12.9715397248
 20
12.3930174011
 30
0.0
 10
12.9469860584
 20
12.3549327936
 30
0.0
 10
12.9281249573
 20
12.3155608433
 30
0.0
 10
12.915341719
 20
12.2755561793
 30
0.0
 10
12.9089178477
 20
12.2356146803
 30
0.0
 10
12.9090540921
 20
12.2027343144
 30
0.0
 10
12.9125314299
 20
12.17734262
 30
0.0
 10
12.9181590191
 20
12.1528597974
 30
0.0
 10
12.9248544032
 20
12.1352016197
 30
0.0
 10
12.9303411156
 20
12.1240208753
 30
0.0
  0
SPLINE
  5
349
100
AcDbEntity
  8
0
100
AcDbSpline
 62
7
  6
CONTINUOUS
 70
0
 71
3
 72
39
 73
35
 74
0
 42
0.0000001
 43
0.0000001
 44
0.0000000001
 40
0.0
 40
0.0
 40
0.0
 40
0.0
 40
0.0302437643
 40
0.0615722106
 40
0.0939020548
 40
0.1271594645
 40
0.1612634991
 40
0.1961118514
 40
0.2315922118
 40
0.267584712
 40
0.3039644475
 40
0.3406005168
 40
0.377359328
 40
0.4141057584
 40
0.4507047777
 40
0.4870234308
 40
0.5229314963
 40
0.5583047133
 40
0.593024416
 40
0.6269819186
 40
0.6600773638
 40
0.6922252677
 40
0.7233528521
 40
0.7534066072
 40
0.7823504995
 40
0.8101730193
 40
0.8368858132
 40
0.8625298777
 40
0.8871751341
 40
0.9109230223
 40
0.9339068318
 40
0.9562867824
 40
0.9782500476
 40
1.0
 40
1.0
 40
1.0
 40
1.0
 10
16.6114794136
 20
13.4814148003
 30
0.0
 10
16.5899653735
 20
13.5056489187
 30
0.0
 10
16.5444913007
 20
13.5535207818
 30
0.0
 10
16.4708275634
 20
13.6221368353
 30
0.0
 10
16.3908671051
 20
13.6884790539
 30
0.0
 10
16.305071527
 20
13.7521944778
 30
0.0
 10
16.2138955068
 20
13.812946495
 30
0.0
 10
16.1178384477
 20
13.8704256544
 30
0.0
 10
16.0174182661
 20
13.9243071449
 30
0.0
 10
15.9131915903
 20
13.9743122319
 30
0.0
 10
15.8057231874
 20
14.0201577006
 30
0.0
 10
15.6956068648
 20
14.0616067149
 30
0.0
 10
15.5834419019
 20
14.0984194097
 30
0.0
 10
15.4698480144
 20
14.1304072032
 30
0.0
 10
15.3554443232
 20
14.157381188
 30
0.0
 10
15.2408611135
 20
14.1792060506
 30
0.0
 10
15.1267224171
 20
14.1957472657
 30
0.0
 10
15.0136540519
 20
14.2069259666
 30
0.0
 10
14.9022698102
 20
14.2126641453
 30
0.0
 10
14.7931757881
 20
14.212940326
 30
0.0
 10
14.6869609407
 20
14.2077326752
 30
0.0
 10
14.5841971891
 20
14.1970754341
 30
0.0
 10
14.4854355333
 20
14.1810000708
 30
0.0
 10
14.3912014309
 20
14.1595917068
 30
0.0
 10
14.3019984737
 20
14.1329295023
 30
0.0
 10
14.2182986806
 20
14.1011420128
 30
0.0
 10
14.1405566768
 20
14.064349396
 30
0.0
 10
14.0691937713
 20
14.0227182634
 30
0.0
 10
14.0046263804
 20
13.9764096226
 30
0.0
 10
13.9472373232
 20
13.9256377409
 30
0.0
 10
13.8974227354
 20
13.8706276303
 30
0.0
 10
13.8555240385
 20
13.8116805072
 30
0.0
 10
13.8219047881
 20
13.7491458051
 30
0.0
 10
13.8051360859
 20
13.7052464515
 30
0.0
 10
13.7982553731
 20
13.6829804566
 30
0.0
  0
SPLINE
  5
34A
100
AcDbEntity
  8
0
100
AcDbSpline
 62
7
  6
CONTINUOUS
 70
0
 71
3
 72
11
 73
7
 74
0
 42
0.0000001
 43
0.0000001
 44
0.0000000001
 40
0.0
 40
0.0
 40
0.0
 40
0.0
 40
0.2725232664
 40
0.5266738819
 40
0.7655188776
 40
1.0
 40
1.0
 40
1.0
 40
1.0
 10
17.8985737384
 20
12.8722340898
 30
0.0
 10
17.8997493892
 20
12.8722340891
 30
0.0
 10
17.9020287157
 20
12.8720633256
 30
0.0
 10
17.9052300542
 20
12.8711301726
 30
0.0
 10
17.9079202226
 20
12.869410483
 30
0.0
 10
17.9091690034
 20
12.8677253653
 30
0.0
 10
17.9096146295
 20
12.8668172747
 30
0.0
  0
SPLINE
  5
34B
100
AcDbEntity
  8
0
100
AcDbSpline
 62
7
  6
CONTINUOUS
 70
0
 71
3
 72
11
 73
7
 74
0
 42
0.0000001
 43
0.0000001
 44
0.0000000001
 40
0.0
 40
0.0
 40
0.0
 40
0.0
 40
0.1945618168
 40
0.4317767376
 40
0.7031479461
 40
1.0
 40
1.0
 40
1.0
 40
1.0
 10
17.1392935787
 20
12.8868676605
 30
0.0
 10
17.1398717493
 20
12.8862163903
 30
0.0
 10
17.1412483424
 20
12.884853854
 30
0.0
 10
17.1436838588
 20
12.8828540426
 30
0.0
 10
17.1466689578
 20
12.8808246796
 30
0.0
 10
17.1488796258
 20
12.8795611709
 30
0.0
 10
17.1500570877
 20
12.8789454236
 30
0.0
  0
SPLINE
  5
34C
100
AcDbEntity
  8
0
100
AcDbSpline
 62
7
  6
CONTINUOUS
 70
0
 71
3
 72
11
 73
7
 74
0
 42
0.0000001
 43
0.0000001
 44
0.0000000001
 40
0.0
 40
0.0
 40
0.0
 40
0.0
 40
0.2526900957
 40
0.5130126121
 40
0.7670960701
 40
1.0
 40
1.0
 40
1.0
 40
1.0
 10
17.1500570877
 20
12.8789454236
 30
0.0
 10
17.1521023444
 20
12.8778758678
 30
0.0
 10
17.1563960747
 20
12.875967505
 30
0.0
 10
17.1630928424
 20
12.8738589078
 30
0.0
 10
17.1698081068
 20
12.8725578913
 30
0.0
 10
17.1742589343
 20
12.8722341019
 30
0.0
 10
17.1763862451
 20
12.8722341019
 30
0.0
  0
SPLINE
  5
34D
100
AcDbEntity
  8
0
100
AcDbSpline
 62
7
  6
CONTINUOUS
 70
0
 71
3
 72
16
 73
12
 74
0
 42
0.0000001
 43
0.0000001
 44
0.0000000001
 40
0.0
 40
0.0
 40
0.0
 40
0.0
 40
0.1106207646
 40
0.1687642366
 40
0.2286671953
 40
0.353062969
 40
0.4822532295
 40
0.6140255279
 40
0.7458549788
 40
0.8752950467
 40
1.0
 40
1.0
 40
1.0
 40
1.0
 10
16.9532643822
 20
12.1745028461
 30
0.0
 10
16.9561930842
 20
12.1855397059
 30
0.0
 10
16.9625977755
 20
12.2019148106
 30
0.0
 10
16.9742469651
 20
12.2224653929
 30
0.0
 10
16.9885230622
 20
12.2430602441
 30
0.0
 10
17.0103602294
 20
12.2671547548
 30
0.0
 10
17.0414280714
 20
12.2922288095
 30
0.0
 10
17.0764892872
 20
12.3128747237
 30
0.0
 10
17.1141708658
 20
12.3282972966
 30
0.0
 10
17.1529895379
 20
12.3378733101
 30
0.0
 10
17.1792615939
 20
12.3401662344
 30
0.0
 10
17.1921342592
 20
12.3401662344
 30
0.0
  0
SPLINE
  5
34E
100
AcDbEntity
  8
0
100
AcDbSpline
 62
7
  6
CONTINUOUS
 70
0
 71
3
 72
15
 73
11
 74
0
 42
0.0000001
 43
0.0000001
 44
0.0000000001
 40
0.0
 40
0.0
 40
0.0
 40
0.0
 40
0.1135907055
 40
0.2277611612
 40
0.3442798249
 40
0.4646463645
 40
0.5899416119
 40
0.7208787536
 40
0.8577376252
 40
1.0
 40
1.0
 40
1.0
 40
1.0
 10
16.9125260319
 20
12.2258086888
 30
0.0
 10
16.9144693491
 20
12.2201333958
 30
0.0
 10
16.9194232602
 20
12.2090837619
 30
0.0
 10
16.929852362
 20
12.1940714264
 30
0.0
 10
16.9430588572
 20
12.1809221527
 30
0.0
 10
16.9587776438
 20
12.1698741302
 30
0.0
 10
16.9767145556
 20
12.1611084278
 30
0.0
 10
16.9965502689
 20
12.1547607509
 30
0.0
 10
17.0179233745
 20
12.1509443645
 30
0.0
 10
17.0326801998
 20
12.1501207202
 30
0.0
 10
17.0401931518
 20
12.1501207202
 30
0.0
  0
SPLINE
  5
34F
100
AcDbEntity
  8
0
100
AcDbSpline
 62
7
  6
CONTINUOUS
 70
0
 71
3
 72
15
 73
11
 74
0
 42
0.0000001
 43
0.0000001
 44
0.0000000001
 40
0.0
 40
0.0
 40
0.0
 40
0.0
 40
0.1141777141
 40
0.2296836334
 40
0.3476504059
 40
0.4691012523
 40
0.5947609918
 40
0.7250775477
 40
0.8602683506
 40
1.0
 40
1.0
 40
1.0
 40
1.0
 10
17.6505515981
 20
12.454427907
 30
0.0
 10
17.6455820056
 20
12.4645548718
 30
0.0
 10
17.6338342508
 20
12.4841171518
 30
0.0
 10
17.6114217264
 20
12.5103371965
 30
0.0
 10
17.5845619536
 20
12.5331044337
 30
0.0
 10
17.553739165
 20
12.5520817383
 30
0.0
 10
17.5194611934
 20
12.5670469103
 30
0.0
 10
17.4822413831
 20
12.5778217733
 30
0.0
 10
17.4426438041
 20
12.5842875566
 30
0.0
 10
17.4154565815
 20
12.5856803959
 30
0.0
 10
17.4016512703
 20
12.5856803959
 30
0.0
  0
SPLINE
  5
350
100
AcDbEntity
  8
0
100
AcDbSpline
 62
7
  6
CONTINUOUS
 70
0
 71
3
 72
24
 73
20
 74
0
 42
0.0000001
 43
0.0000001
 44
0.0000000001
 40
0.0
 40
0.0
 40
0.0
 40
0.0
 40
0.0022715574
 40
0.006342617
 40
0.0123174828
 40
0.0202995409
 40
0.0303927833
 40
0.0426976917
 40
0.0573078347
 40
0.074310375
 40
0.1157507292
 40
0.1673170198
 40
0.2288223702
 40
0.2994745024
 40
0.3778857543
 40
0.4622446004
 40
0.6411255768
 40
0.8230061888
 40
1.0
 40
1.0
 40
1.0
 40
1.0
 10
13.660192564
 20
13.23620896
 30
0.0
 10
13.6601187149
 20
13.2359697521
 30
0.0
 10
13.6599713284
 20
13.2352852057
 30
0.0
 10
13.6596965365
 20
13.2339566227
 30
0.0
 10
13.659312577
 20
13.232006806
 30
0.0
 10
13.6587907897
 20
13.2294082666
 30
0.0
 10
13.658114929
 20
13.2261289065
 30
0.0
 10
13.6572623691
 20
13.2221403069
 30
0.0
 10
13.6562114534
 20
13.2174155528
 30
0.0
 10
13.6543939365
 20
13.2095721219
 30
0.0
 10
13.6514846082
 20
13.197801472
 30
0.0
 10
13.647097083
 20
13.1813467494
 30
0.0
 10
13.641541704
 20
13.1618746077
 30
0.0
 10
13.6348278661
 20
13.1396594115
 30
0.0
 10
13.6270626996
 20
13.1151333087
 30
0.0
 10
13.6153327089
 20
13.0793532089
 30
0.0
 10
13.5995710661
 20
13.0328969935
 30
0.0
 10
13.5805598155
 20
12.9767632694
 30
0.0
 10
13.5683877173
 20
12.9391278414
 30
0.0
 10
13.5626283333
 20
12.9204910108
 30
0.0
  0
SPLINE
  5
351
100
AcDbEntity
  8
0
100
AcDbSpline
 62
7
  6
CONTINUOUS
 70
0
 71
3
 72
11
 73
7
 74
0
 42
0.0000001
 43
0.0000001
 44
0.0000000001
 40
0.0
 40
0.0
 40
0.0
 40
0.0
 40
0.2463211388
 40
0.4941345035
 40
0.7449060239
 40
1.0
 40
1.0
 40
1.0
 40
1.0
 10
13.4245654863
 20
12.4737195398
 30
0.0
 10
13.4191615107
 20
12.4562322685
 30
0.0
 10
13.4101051357
 20
12.4205722333
 30
0.0
 10
13.401965874
 20
12.3657322038
 30
0.0
 10
13.399268716
 20
12.3097072772
 30
0.0
 10
13.4010741609
 20
12.2720967615
 30
0.0
 10
13.4028424909
 20
12.2532243357
 30
0.0
  0
SPLINE
  5
352
100
AcDbEntity
  8
0
100
AcDbSpline
 62
7
  6
CONTINUOUS
 70
0
 71
3
 72
23
 73
19
 74
0
 42
0.0000001
 43
0.0000001
 44
0.0000000001
 40
0.0
 40
0.0
 40
0.0
 40
0.0
 40
0.0659097368
 40
0.1338734026
 40
0.2032220564
 40
0.2733772619
 40
0.4133149493
 40
0.5486646598
 40
0.6133557198
 40
0.6754809802
 40
0.7348604887
 40
0.7635449643
 40
0.7915747896
 40
0.84579989
 40
0.8980923328
 40
0.9237638187
 40
0.9492401044
 40
1.0
 40
1.0
 40
1.0
 40
1.0
 10
17.1841089321
 20
12.1501207202
 30
0.0
 10
17.1923715626
 20
12.1501207202
 30
0.0
 10
17.2091675143
 20
12.151149798
 30
0.0
 10
17.234311865
 20
12.1555306696
 30
0.0
 10
17.2593617501
 20
12.1627128188
 30
0.0
 10
17.2919123087
 20
12.1757974576
 30
0.0
 10
17.3294758883
 20
12.1979666896
 30
0.0
 10
17.3612226683
 20
12.2269534563
 30
0.0
 10
17.3813078345
 20
12.2530584206
 30
0.0
 10
17.3931628288
 20
12.2732414916
 30
0.0
 10
17.4004305555
 20
12.2906868159
 30
0.0
 10
17.4044757952
 20
12.3046810874
 30
0.0
 10
17.4072831206
 20
12.3183147681
 30
0.0
 10
17.4086535434
 20
12.3352126473
 30
0.0
 10
17.4070258039
 20
12.3518065266
 30
0.0
 10
17.4039175347
 20
12.3644154694
 30
0.0
 10
17.3996803829
 20
12.3764828746
 30
0.0
 10
17.3951861741
 20
12.3850084485
 30
0.0
 10
17.3916856766
 20
12.3903225264
 30
0.0
  0
SPLINE
  5
353
100
AcDbEntity
  8
0
100
AcDbSpline
 62
7
  6
CONTINUOUS
 70
0
 71
3
 72
13
 73
9
 74
0
 42
0.0000001
 43
0.0000001
 44
0.0000000001
 40
0.0
 40
0.0
 40
0.0
 40
0.0
 40
0.2347142296
 40
0.480320785
 40
0.6070570787
 40
0.7361818796
 40
0.8673508875
 40
1.0
 40
1.0
 40
1.0
 40
1.0
 10
16.3464812341
 20
12.6062168385
 30
0.0
 10
16.3304321682
 20
12.6290813553
 30
0.0
 10
16.297355081
 20
12.6757051437
 30
0.0
 10
16.2560028729
 20
12.7349574794
 30
0.0
 10
16.2229931299
 20
12.7846853032
 30
0.0
 10
16.1984177623
 20
12.8236521718
 30
0.0
 10
16.1747699803
 20
12.8640107311
 30
0.0
 10
16.1601023951
 20
12.8917923791
 30
0.0
 10
16.1531476728
 20
12.9059654342
 30
0.0
  0
SPLINE
  5
354
100
AcDbEntity
  8
0
100
AcDbSpline
 62
7
  6
CONTINUOUS
 70
0
 71
3
 72
10
 73
6
 74
0
 42
0.0000001
 43
0.0000001
 44
0.0000000001
 40
0.0
 40
0.0
 40
0.0
 40
0.0
 40
0.2619840836
 40
0.5165513902
 40
1.0
 40
1.0
 40
1.0
 40
1.0
 10
17.3360500395
 20
12.3401662344
 30
0.0
 10
17.3424192713
 20
12.3401662344
 30
0.0
 10
17.3549885884
 20
12.3396170147
 30
0.0
 10
17.3790930224
 20
12.3363247385
 30
0.0
 10
17.3964969325
 20
12.3312818404
 30
0.0
 10
17.4073272564
 20
12.3267161174
 30
0.0
  0
LINE
  5
355
100
AcDbEntity
  8
0
100
AcDbLine
 62
7
  6
CONTINUOUS
 10
15.9401454326
 20
13.3228516475
 11
15.9421076583
 21
13.3149442779
  0
SPLINE
  5
356
100
AcDbEntity
  8
0
100
AcDbSpline
 62
7
  6
CONTINUOUS
 70
0
 71
3
 72
15
 73
11
 74
0
 42
0.0000001
 43
0.0000001
 44
0.0000000001
 40
0.0
 40
0.0
 40
0.0
 40
0.0
 40
0.1125427699
 40
0.2272673056
 40
0.3451559366
 40
0.4669474036
 40
0.5931828069
 40
0.7241855803
 40
0.8599574355
 40
1.0
 40
1.0
 40
1.0
 40
1.0
 10
17.3916856766
 20
12.3903225264
 30
0.0
 10
17.3889250225
 20
12.3945134538
 30
0.0
 10
17.3826947958
 20
12.402563663
 30
0.0
 10
17.3715411844
 20
12.4132435465
 30
0.0
 10
17.3586662
 20
12.4224935497
 30
0.0
 10
17.3442350945
 20
12.4302028525
 30
0.0
 10
17.3284216228
 20
12.4362813071
 30
0.0
 10
17.3114163485
 20
12.4406648417
 30
0.0
 10
17.2934365475
 20
12.4432959753
 30
0.0
 10
17.2811285404
 20
12.4438683113
 30
0.0
 10
17.2748838034
 20
12.4438683113
 30
0.0
  0
SPLINE
  5
357
100
AcDbEntity
  8
0
100
AcDbSpline
 62
7
  6
CONTINUOUS
 70
0
 71
3
 72
17
 73
13
 74
0
 42
0.0000001
 43
0.0000001
 44
0.0000000001
 40
0.0
 40
0.0
 40
0.0
 40
0.0
 40
0.1155616616
 40
0.1755935201
 40
0.2369308829
 40
0.2994152417
 40
0.3628570858
 40
0.4916978177
 40
0.6217095596
 40
0.7509567054
 40
0.8776234451
 40
1.0
 40
1.0
 40
1.0
 40
1.0
 10
16.5435058812
 20
12.3444358402
 30
0.0
 10
16.5522641881
 20
12.3618988927
 30
0.0
 10
16.567906066
 20
12.3873259082
 30
0.0
 10
16.5926200343
 20
12.4188725084
 30
0.0
 10
16.6135320791
 20
12.4419068836
 30
0.0
 10
16.6364228039
 20
12.4638116978
 30
0.0
 10
16.6694990118
 20
12.4914395121
 30
0.0
 10
16.7147062828
 20
12.5221505854
 30
0.0
 10
16.7733600502
 20
12.5519261174
 30
0.0
 10
16.8349670078
 20
12.573949502
 30
0.0
 10
16.8976421264
 20
12.5875262117
 30
0.0
 10
16.9397934189
 20
12.5907421069
 30
0.0
 10
16.9604817882
 20
12.5907421069
 30
0.0
  0
SPLINE
  5
358
100
AcDbEntity
  8
0
100
AcDbSpline
 62
7
  6
CONTINUOUS
 70
0
 71
3
 72
30
 73
26
 74
0
 42
0.0000001
 43
0.0000001
 44
0.0000000001
 40
0.0
 40
0.0
 40
0.0
 40
0.0
 40
0.0785800873
 40
0.1176944661
 40
0.1564387246
 40
0.1945809712
 40
0.2318625999
 40
0.2680190099
 40
0.3028182856
 40
0.3361111491
 40
0.3678778027
 40
0.3982467448
 40
0.4274717329
 40
0.4558726452
 40
0.483768885
 40
0.5114302287
 40
0.5390567792
 40
0.5667807323
 40
0.5946781851
 40
0.6510541941
 40
0.7082673292
 40
0.7661440005
 40
0.8244644292
 40
0.8830129655
 40
1.0
 40
1.0
 40
1.0
 40
1.0
 10
16.1531476728
 20
12.9059654342
 30
0.0
 10
16.1449354887
 20
12.9227010755
 30
0.0
 10
16.1334925609
 20
12.9482177524
 30
0.0
 10
16.1208224753
 20
12.9831167021
 30
0.0
 10
16.1129439007
 20
13.0095037968
 30
0.0
 10
16.1069902741
 20
13.0359516146
 30
0.0
 10
16.103288514
 20
13.0621968818
 30
0.0
 10
16.1021483723
 20
13.0878951637
 30
0.0
 10
16.1038234315
 20
13.112629647
 30
0.0
 10
16.1084651001
 20
13.1359364484
 30
0.0
 10
16.1160822641
 20
13.1573486188
 30
0.0
 10
16.1265199266
 20
13.1764532192
 30
0.0
 10
16.1394721076
 20
13.1929481116
 30
0.0
 10
16.1545315101
 20
13.2066786278
 30
0.0
 10
16.171258327
 20
13.2176368032
 30
0.0
 10
16.1892386024
 20
13.2259276855
 30
0.0
 10
16.2081146934
 20
13.2317238315
 30
0.0
 10
16.2275942314
 20
13.2352273239
 30
0.0
 10
16.2541373537
 20
13.2371218751
 30
0.0
 10
16.2877986975
 20
13.234731198
 30
0.0
 10
16.3275967874
 20
13.2257777469
 30
0.0
 10
16.3664093055
 20
13.2118806968
 30
0.0
 10
16.4038574212
 20
13.1939502316
 30
0.0
 10
16.4516378403
 20
13.1656572742
 30
0.0
 10
16.4849326863
 20
13.1403469303
 30
0.0
 10
16.5059325544
 20
13.1222015001
 30
0.0
  0
SPLINE
  5
359
100
AcDbEntity
  8
0
100
AcDbSpline
 62
7
  6
CONTINUOUS
 70
0
 71
3
 72
23
 73
19
 74
0
 42
0.0000001
 43
0.0000001
 44
0.0000000001
 40
0.0
 40
0.0
 40
0.0
 40
0.0
 40
0.0653505498
 40
0.132647788
 40
0.2013183312
 40
0.2708429489
 40
0.4098651929
 40
0.4783217768
 40
0.5452752357
 40
0.6102521493
 40
0.6728867597
 40
0.7329559681
 40
0.7904030997
 40
0.8453700661
 40
0.8982133652
 40
0.9494939469
 40
0.9747998675
 40
1.0
 40
1.0
 40
1.0
 40
1.0
 10
17.2383794501
 20
11.9643963017
 30
0.0
 10
17.2542305077
 20
11.9643963017
 30
0.0
 10
17.28642887
 20
11.9662842435
 30
0.0
 10
17.3346701826
 20
11.9743630239
 30
0.0
 10
17.3828149469
 20
11.9876126625
 30
0.0
 10
17.4456341819
 20
12.0118101289
 30
0.0
 10
17.5046243744
 20
12.0450445721
 30
0.0
 10
17.5571752421
 20
12.0860439862
 30
0.0
 10
17.5922842886
 20
12.1197942112
 30
0.0
 10
17.622614241
 20
12.1560780018
 30
0.0
 10
17.6476170896
 20
12.1942526919
 30
0.0
 10
17.6668350625
 20
12.233636257
 30
0.0
 10
17.6798941648
 20
12.2735345053
 30
0.0
 10
17.6865261565
 20
12.313235193
 30
0.0
 10
17.686578262
 20
12.3520063107
 30
0.0
 10
17.6810470829
 20
12.3831023699
 30
0.0
 10
17.67337899
 20
12.4066003627
 30
0.0
 10
17.6684946301
 20
12.4178592042
 30
0.0
 10
17.6658014746
 20
12.4233463124
 30
0.0
  0
SPLINE
  5
35A
100
AcDbEntity
  8
0
100
AcDbSpline
 62
7
  6
CONTINUOUS
 70
0
 71
3
 72
11
 73
7
 74
0
 42
0.0000001
 43
0.0000001
 44
0.0000000001
 40
0.0
 40
0.0
 40
0.0
 40
0.0
 40
0.2538166803
 40
0.5171449549
 40
0.7713918757
 40
1.0
 40
1.0
 40
1.0
 40
1.0
 10
16.8911403838
 20
11.9643963017
 30
0.0
 10
16.8885236704
 20
11.9643963017
 30
0.0
 10
16.8831834275
 20
11.9649986896
 30
0.0
 10
16.8755400703
 20
11.9673436183
 30
0.0
 10
16.8686857554
 20
11.970929388
 30
0.0
 10
16.8648108652
 20
11.9741519351
 30
0.0
 10
16.8632461882
 20
11.9759144384
 30
0.0
  0
SPLINE
  5
35B
100
AcDbEntity
  8
0
100
AcDbSpline
 62
7
  6
CONTINUOUS
 70
0
 71
3
 72
21
 73
17
 74
0
 42
0.0000001
 43
0.0000001
 44
0.0000000001
 40
0.0
 40
0.0
 40
0.0
 40
0.0
 40
0.0647476899
 40
0.1314049283
 40
0.1994008948
 40
0.2682548378
 40
0.4062834086
 40
0.5412492843
 40
0.6064390572
 40
0.6695200177
 40
0.7302372312
 40
0.7884628236
 40
0.8442420507
 40
0.8977900797
 40
0.9495173629
 40
1.0
 40
1.0
 40
1.0
 40
1.0
 10
17.1309680231
 20
12.4438683113
 30
0.0
 10
17.123383214
 20
12.4438683113
 30
0.0
 10
17.1079795259
 20
12.443000793
 30
0.0
 10
17.0848793636
 20
12.4392963543
 30
0.0
 10
17.0617901632
 20
12.4332047095
 30
0.0
 10
17.0315399471
 20
12.4220533001
 30
0.0
 10
16.9960443913
 20
12.4029914989
 30
0.0
 10
16.9650465837
 20
12.3778858989
 30
0.0
 10
16.9443129031
 20
12.3549919715
 30
0.0
 10
16.9312922439
 20
12.3370280267
 30
0.0
 10
16.9208413415
 20
12.3183820314
 30
0.0
 10
16.9131499147
 20
12.2993503785
 30
0.0
 10
16.908342422
 20
12.2802506475
 30
0.0
 10
16.9065311619
 20
12.2613926336
 30
0.0
 10
16.9077455673
 20
12.2431051085
 30
0.0
 10
16.9106102647
 20
12.2314035245
 30
0.0
 10
16.9125260319
 20
12.2258086888
 30
0.0
  0
SPLINE
  5
35C
100
AcDbEntity
  8
0
100
AcDbSpline
 62
7
  6
CONTINUOUS
 70
0
 71
3
 72
13
 73
9
 74
0
 42
0.0000001
 43
0.0000001
 44
0.0000000001
 40
0.0
 40
0.0
 40
0.0
 40
0.0
 40
0.1108564248
 40
0.2416343941
 40
0.3798420915
 40
0.5174808381
 40
0.7758796676
 40
1.0
 40
1.0
 40
1.0
 40
1.0
 10
17.5238214266
 20
11.6183900125
 30
0.0
 10
17.5231220495
 20
11.6198151933
 30
0.0
 10
17.5214503795
 20
11.6228486927
 30
0.0
 10
17.5186066422
 20
11.6274865413
 30
0.0
 10
17.5153977172
 20
11.632346957
 30
0.0
 10
17.5110163491
 20
11.6386196423
 30
0.0
 10
17.5056927019
 20
11.6457314375
 30
0.0
 10
17.5013227408
 20
11.651088185
 30
0.0
 10
17.4992205132
 20
11.6535134344
 30
0.0
  0
SPLINE
  5
35D
100
AcDbEntity
  8
0
100
AcDbSpline
 62
7
  6
CONTINUOUS
 70
0
 71
3
 72
11
 73
7
 74
0
 42
0.0000001
 43
0.0000001
 44
0.0000000001
 40
0.0
 40
0.0
 40
0.0
 40
0.0
 40
0.2650390258
 40
0.5229734503
 40
0.7697243538
 40
1.0
 40
1.0
 40
1.0
 40
1.0
 10
17.8729103999
 20
12.8627743511
 30
0.0
 10
17.8749394404
 20
12.8641408412
 30
0.0
 10
17.8790833961
 20
12.8666359168
 30
0.0
 10
17.8855506694
 20
12.8696176085
 30
0.0
 10
17.8920439933
 20
12.8716449764
 30
0.0
 10
17.8964483178
 20
12.8722340912
 30
0.0
 10
17.8985737384
 20
12.8722340898
 30
0.0
  0
SPLINE
  5
35E
100
AcDbEntity
  8
0
100
AcDbSpline
 62
7
  6
CONTINUOUS
 70
0
 71
3
 72
21
 73
17
 74
0
 42
0.0000001
 43
0.0000001
 44
0.0000000001
 40
0.0
 40
0.0
 40
0.0
 40
0.0
 40
0.0647476899
 40
0.1314049283
 40
0.1994008948
 40
0.2682548378
 40
0.4062834086
 40
0.5412492843
 40
0.6064390572
 40
0.6695200177
 40
0.7302372312
 40
0.7884628236
 40
0.8442420507
 40
0.8977900797
 40
0.9495173629
 40
1.0
 40
1.0
 40
1.0
 40
1.0
 10
13.3891577349
 20
12.4438683113
 30
0.0
 10
13.3815729258
 20
12.4438683113
 30
0.0
 10
13.3661692377
 20
12.443000793
 30
0.0
 10
13.3430690755
 20
12.4392963543
 30
0.0
 10
13.3199798751
 20
12.4332047095
 30
0.0
 10
13.289729659
 20
12.4220533001
 30
0.0
 10
13.2542341032
 20
12.4029914989
 30
0.0
 10
13.2232362956
 20
12.3778858989
 30
0.0
 10
13.202502615
 20
12.3549919715
 30
0.0
 10
13.1894819557
 20
12.3370280267
 30
0.0
 10
13.1790310533
 20
12.3183820314
 30
0.0
 10
13.1713396266
 20
12.2993503785
 30
0.0
 10
13.1665321339
 20
12.2802506475
 30
0.0
 10
13.1647208738
 20
12.2613926336
 30
0.0
 10
13.1659352792
 20
12.2431051085
 30
0.0
 10
13.1687999765
 20
12.2314035245
 30
0.0
 10
13.1707157438
 20
12.2258086888
 30
0.0
  0
SPLINE
  5
35F
100
AcDbEntity
  8
0
100
AcDbSpline
 62
7
  6
CONTINUOUS
 70
0
 71
3
 72
12
 73
8
 74
0
 42
0.0000001
 43
0.0000001
 44
0.0000000001
 40
0.0
 40
0.0
 40
0.0
 40
0.0
 40
0.2568059204
 40
0.5134777654
 40
0.7642269453
 40
0.8847948874
 40
1.0
 40
1.0
 40
1.0
 40
1.0
 10
12.7384865004
 20
11.6535134344
 30
0.0
 10
12.7360819341
 20
11.6518940403
 30
0.0
 10
12.731463333
 20
11.6483633722
 30
0.0
 10
12.7252864884
 20
11.6423118676
 30
0.0
 10
12.7209506979
 20
11.6366544876
 30
0.0
 10
12.7182837422
 20
11.6318429844
 30
0.0
 10
12.7172854171
 20
11.6293637601
 30
0.0
 10
12.71690159
 20
11.6281211628
 30
0.0
  0
SPLINE
  5
360
100
AcDbEntity
  8
0
100
AcDbSpline
 62
7
  6
CONTINUOUS
 70
0
 71
3
 72
14
 73
10
 74
0
 42
0.0000001
 43
0.0000001
 44
0.0000000001
 40
0.0
 40
0.0
 40
0.0
 40
0.0
 40
0.3577776368
 40
0.5140537368
 40
0.6531558941
 40
0.7733725724
 40
0.8725356024
 40
0.9484646714
 40
1.0
 40
1.0
 40
1.0
 40
1.0
 10
13.1121763872
 20
12.8627743511
 30
0.0
 10
13.1110667196
 20
12.8640545269
 30
0.0
 10
13.1094428273
 20
12.8658693222
 30
0.0
 10
13.1072927384
 20
12.8680928516
 30
0.0
 10
13.1058789615
 20
12.8694630628
 30
0.0
 10
13.1046103493
 20
12.8705901636
 30
0.0
 10
13.1035032071
 20
12.8714525191
 30
0.0
 10
13.10259651
 20
12.8720158679
 30
0.0
 10
13.1020091784
 20
12.872234091
 30
0.0
 10
13.1017651452
 20
12.8722340899
 30
0.0
  0
SPLINE
  5
361
100
AcDbEntity
  8
0
100
AcDbSpline
 62
7
  6
CONTINUOUS
 70
0
 71
3
 72
11
 73
7
 74
0
 42
0.0000001
 43
0.0000001
 44
0.0000000001
 40
0.0
 40
0.0
 40
0.0
 40
0.0
 40
0.2643812721
 40
0.5184949009
 40
0.7633399305
 40
1.0
 40
1.0
 40
1.0
 40
1.0
 10
15.8416307744
 20
13.4208069091
 30
0.0
 10
15.8364260063
 20
13.4219108535
 30
0.0
 10
15.8260400138
 20
13.4233331276
 30
0.0
 10
15.8106120453
 20
13.4229479374
 30
0.0
 10
15.7960269239
 20
13.4199984006
 30
0.0
 10
15.7869824551
 20
13.4163270328
 30
0.0
 10
15.7827726486
 20
13.4140997852
 30
0.0
  0
SPLINE
  5
362
100
AcDbEntity
  8
0
100
AcDbSpline
 62
7
  6
CONTINUOUS
 70
0
 71
3
 72
11
 73
7
 74
0
 42
0.0000001
 43
0.0000001
 44
0.0000000001
 40
0.0
 40
0.0
 40
0.0
 40
0.0
 40
0.2440736246
 40
0.4948052456
 40
0.7482247994
 40
1.0
 40
1.0
 40
1.0
 40
1.0
 10
15.7513872427
 20
13.3125365744
 30
0.0
 10
15.7538376312
 20
13.3056073153
 30
0.0
 10
15.7601266561
 20
13.2919990609
 30
0.0
 10
15.7729477649
 20
13.2733506013
 30
0.0
 10
15.7888090071
 20
13.2568878286
 30
0.0
 10
15.8010613344
 20
13.2477334633
 30
0.0
 10
15.807498362
 20
13.2437276472
 30
0.0
  0
SPLINE
  5
363
100
AcDbEntity
  8
0
100
AcDbSpline
 62
7
  6
CONTINUOUS
 70
0
 71
3
 72
11
 73
7
 74
0
 42
0.0000001
 43
0.0000001
 44
0.0000000001
 40
0.0
 40
0.0
 40
0.0
 40
0.0
 40
0.2680358988
 40
0.5240339494
 40
0.7674194494
 40
1.0
 40
1.0
 40
1.0
 40
1.0
 10
15.8278020757
 20
13.2334340648
 30
0.0
 10
15.8344413246
 20
13.2307893425
 30
0.0
 10
15.8479140363
 20
13.2267492274
 30
0.0
 10
15.8684166948
 20
13.2247335469
 30
0.0
 10
15.8879559023
 20
13.2270445832
 30
0.0
 10
15.8999983903
 20
13.2315146855
 30
0.0
 10
15.9054797973
 20
13.2344146883
 30
0.0
  0
SPLINE
  5
364
100
AcDbEntity
  8
0
100
AcDbSpline
 62
7
  6
CONTINUOUS
 70
0
 71
3
 72
9
 73
5
 74
0
 42
0.0000001
 43
0.0000001
 44
0.0000000001
 40
0.0
 40
0.0
 40
0.0
 40
0.0
 40
0.4875339393
 40
1.0
 40
1.0
 40
1.0
 40
1.0
 10
15.9394946442
 20
13.2759073281
 30
0.0
 10
15.9413834696
 20
13.2820195694
 30
0.0
 10
15.9436960942
 20
13.2950758418
 30
0.0
 10
15.943073465
 20
13.3082894019
 30
0.0
 10
15.9421076583
 20
13.3149442779
 30
0.0
  0
SPLINE
  5
365
100
AcDbEntity
  8
0
100
AcDbSpline
 62
7
  6
CONTINUOUS
 70
0
 71
3
 72
9
 73
5
 74
0
 42
0.0000001
 43
0.0000001
 44
0.0000000001
 40
0.0
 40
0.0
 40
0.0
 40
0.0
 40
0.2479673694
 40
1.0
 40
1.0
 40
1.0
 40
1.0
 10
15.9348863027
 20
13.2644367087
 30
0.0
 10
15.9353459503
 20
13.2653499986
 30
0.0
 10
15.9371207293
 20
13.2690723896
 30
0.0
 10
15.938579132
 20
13.2729447295
 30
0.0
 10
15.9394946442
 20
13.2759073281
 30
0.0
  0
SPLINE
  5
366
100
AcDbEntity
  8
0
100
AcDbSpline
 62
7
  6
CONTINUOUS
 70
0
 71
3
 72
15
 73
11
 74
0
 42
0.0000001
 43
0.0000001
 44
0.0000000001
 40
0.0
 40
0.0
 40
0.0
 40
0.0
 40
0.1127906517
 40
0.2270836854
 40
0.3442433566
 40
0.4653779353
 40
0.5912379077
 40
0.7222866165
 40
0.8586853847
 40
1.0
 40
1.0
 40
1.0
 40
1.0
 10
12.9455954258
 20
12.0929414731
 30
0.0
 10
12.9504360892
 20
12.083078974
 30
0.0
 10
12.9618865964
 20
12.0640094664
 30
0.0
 10
12.9837981366
 20
12.0384380609
 30
0.0
 10
13.0101309441
 20
12.0161708805
 30
0.0
 10
13.0404690443
 20
11.9975516113
 30
0.0
 10
13.0743380753
 20
11.9828190501
 30
0.0
 10
13.1112444858
 20
11.972176821
 30
0.0
 10
13.1506273324
 20
11.9657774606
 30
0.0
 10
13.1777029285
 20
11.9643963017
 30
0.0
 10
13.1914677077
 20
11.9643963017
 30
0.0
  0
SPLINE
  5
367
100
AcDbEntity
  8
0
100
AcDbSpline
 62
7
  6
CONTINUOUS
 70
0
 71
3
 72
9
 73
5
 74
0
 42
0.0000001
 43
0.0000001
 44
0.0000000001
 40
0.0
 40
0.0
 40
0.0
 40
0.0
 40
0.4944671808
 40
1.0
 40
1.0
 40
1.0
 40
1.0
 10
15.76771139
 20
13.4033597463
 30
0.0
 10
15.7633367435
 20
13.3992465961
 30
0.0
 10
15.7555723188
 20
13.3896983509
 30
0.0
 10
15.7505703264
 20
13.3784724771
 30
0.0
 10
15.7487578018
 20
13.3726071454
 30
0.0
  0
SPLINE
  5
368
100
AcDbEntity
  8
0
100
AcDbSpline
 62
7
  6
CONTINUOUS
 70
0
 71
3
 72
9
 73
5
 74
0
 42
0.0000001
 43
0.0000001
 44
0.0000000001
 40
0.0
 40
0.0
 40
0.0
 40
0.0
 40
0.4875339393
 40
1.0
 40
1.0
 40
1.0
 40
1.0
 10
15.7487578018
 20
13.3726071454
 30
0.0
 10
15.7468689764
 20
13.3664949041
 30
0.0
 10
15.7445563517
 20
13.3534386317
 30
0.0
 10
15.745178981
 20
13.3402250716
 30
0.0
 10
15.7461447877
 20
13.3335701956
 30
0.0
  0
ELLIPSE
  5
369
100
AcDbEntity
  8
0
100
AcDbEllipse
 62
7
  6
CONTINUOUS
 10
4.2835767102
 20
12.5344227814
 30
0.0
 11
-0.0
 21
0.0125
 31
0.0
 40
0.2679491924
 41
-3.1415926536
 42
-1.5707963268
  0
ELLIPSE
  5
36A
100
AcDbEntity
  8
0
100
AcDbEllipse
 62
7
  6
CONTINUOUS
 10
4.2835767102
 20
13.2594227814
 30
0.0
 11
0.0
 21
0.0125
 31
0.0
 40
0.2679491924
 41
-1.5707963268
 42
0.0
  0
ELLIPSE
  5
36B
100
AcDbEntity
  8
0
100
AcDbEllipse
 62
7
  6
CONTINUOUS
 10
7.8581674575
 20
12.5344227814
 30
0.0
 11
0.0
 21
0.0125
 31
0.0
 40
0.2679491924
 41
-4.7123889804
 42
-3.1415926536
  0
ELLIPSE
  5
36C
100
AcDbEntity
  8
0
100
AcDbEllipse
 62
7
  6
CONTINUOUS
 10
7.8581674575
 20
13.2594227814
 30
0.0
 11
0.0
 21
0.0125
 31
0.0
 40
0.2679491924
 41
-0.0
 42
1.5707963268
  0
ELLIPSE
  5
36D
100
AcDbEntity
  8
0
100
AcDbEllipse
 62
7
  6
CONTINUOUS
 10
15.8572302569
 20
5.2195645215
 30
0.0
 11
0.0
 21
1.3995190528
 31
0.0
 40
0.2679491924
 41
1.0722508456
 42
1.5707963268
  0
ELLIPSE
  5
36E
100
AcDbEntity
  8
0
100
AcDbEllipse
 62
7
  6
CONTINUOUS
 10
15.8572302569
 20
5.2195645215
 30
0.0
 11
-0.0
 21
1.3995190528
 31
0.0
 40
0.2679491924
 41
-1.5707963268
 42
-1.0722508456
  0
ELLIPSE
  5
36F
100
AcDbEntity
  8
0
100
AcDbEllipse
 62
7
  6
CONTINUOUS
 10
16.795485711
 20
12.4482414315
 30
0.0
 11
-0.7514367864
 21
0.902982622
 31
0.0
 40
0.2216133796
 41
1.2155175553
 42
1.7140630365
  0
ELLIPSE
  5
370
100
AcDbEntity
  8
0
100
AcDbEllipse
 62
7
  6
CONTINUOUS
 10
16.8489053681
 20
12.0052683864
 30
0.0
 11
-0.0028307534
 21
0.0123979794
 31
0.0
 40
0.5630202753
 41
0.7721502657
 42
2.3429465925
  0
ELLIPSE
  5
371
100
AcDbEntity
  8
0
100
AcDbEllipse
 62
7
  6
CONTINUOUS
 10
17.0244034525
 20
12.5731803959
 30
0.0
 11
-0.0028307534
 21
0.0123979794
 31
0.0
 40
0.5630202753
 41
-0.127849959
 42
0.7721502657
  0
ELLIPSE
  5
372
100
AcDbEntity
  8
0
100
AcDbEllipse
 62
7
  6
CONTINUOUS
 10
16.795485711
 20
12.4482414315
 30
0.0
 11
-0.7514367864
 21
0.902982622
 31
0.0
 40
0.2216133796
 41
-1.4275296171
 42
-0.9289841358
  0
ENDSEC
  0
SECTION
  2
OBJECTS
  0
DICTIONARY
  5
C
100
AcDbDictionary
280
0
281
1
  3
ACAD_GROUP
350
D
  3
ACAD_MLINESTYLE
350
17
  3
ACAD_LAYOUT
350
1A
  3
ACAD_PLOTSETTINGS
350
19
  3
ACAD_PLOTSTYLENAME
350
E
  0
DICTIONARY
  5
D
102
{ACAD_REACTORS
330
C
102
}
100
AcDbDictionary
280
0
281
1
  0
ACDBDICTIONARYWDFLT
  5
E
102
{ACAD_REACTORS
330
C
102
}
100
AcDbDictionary
281
1
  3
Normal
350
F
100
AcDbDictionaryWithDefault
340
F
  0
DICTIONARY
  5
17
102
{ACAD_REACTORS
330
C
102
}
100
AcDbDictionary
280
0
281
1
  3
Standard
350
18
  0
DICTIONARY
  5
19
102
{ACAD_REACTORS
330
C
102
}
100
AcDbDictionary
281
1
  0
DICTIONARY
  5
1A
102
{ACAD_REACTORS
330
C
102
}
100
AcDbDictionary
281
1
  3
Model
350
373
  3
Layout1
350
374
  0
ACDBPLACEHOLDER
  5
F
102
{ACAD_REACTORS
330
E
102
}
  0
MLINESTYLE
  5
18
102
{ACAD_REACTORS
330
17
102
}
100
AcDbMlineStyle
  2
STANDARD
 70
0
  3

 62
256
 51
90.0
 52
90.0
 71
2
 49
0.5
 62
256
  6
BYLAYER
 49
-0.5
 62
256
  6
BYLAYER
  0
LAYOUT
  5
373
102
{ACAD_REACTORS
330
1A
102
}
100
AcDbPlotSettings
  1

  2
none_device
  4
ANSI_C_(22.00_x_17.00_Inches)
  6

 40
0.0
 41
0.0
 42
0.0
 43
0.0
 44
558.8
 45
431.8
 46
0.0
 47
0.0
 48
0.0
 49
0.0
140
0.0
141
0.0
142
1.0
143
1.0
 70
1024
 72
0
 73
0
 74
0
  7

 75
0
147
1.0
148
0.0
149
0.0
100
AcDbLayout
  1
Model
 70
0
 71
0
 10
0.0
 20
0.0
 11
22.0
 21
17.0
 12
0.0
 22
0.0
 32
0.0
 14
0.0
 24
0.0
 34
0.0
 15
0.0
 25
0.0
 35
0.0
146
0.0
 13
0.0
 23
0.0
 33
0.0
 16
1.0
 26
0.0
 36
0.0
 17
0.0
 27
1.0
 37
0.0
 76
0
330
23B
345
0
346
0
  0
LAYOUT
  5
374
102
{ACAD_REACTORS
330
1A
102
}
100
AcDbPlotSettings
  1

  2
none_device
  4
ANSI_C_(22.00_x_17.00_Inches)
  6

 40
0.0
 41
0.0
 42
0.0
 43
0.0
 44
558.8
 45
431.8
 46
0.0
 47
0.0
 48
0.0
 49
0.0
140
0.0
141
0.0
142
1.0
143
1.0
 70
0
 72
0
 73
0
 74
0
  7

 75
0
147
1.0
148
0.0
149
0.0
100
AcDbLayout
  1
Layout1
 70
0
 71
1
 10
0.0
 20
0.0
 11
22.0
 21
17.0
 12
0.0
 22
0.0
 32
0.0
 14
0.0
 24
0.0
 34
0.0
 15
0.0
 25
0.0
 35
0.0
146
0.0
 13
0.0
 23
0.0
 33
0.0
 16
1.0
 26
0.0
 36
0.0
 17
0.0
 27
1.0
 37
0.0
 76
0
330
23C
345
0
346
0
  0
ENDSEC
  0
EOF