999
DXF file: _cgs_temp_output.dxf
999
Pro/ENGINEER 2016360 by Parametric Technology Corporation
  0
SECTION
  2
HEADER
  9
$ACADVER
  1
AC1021
  9
$DWGCODEPAGE
  3
ANSI_1252
  9
$EXTMAX
 10
22.0
 20
17.0
 30
0.0
  9
$EXTMIN
 10
0.0
 20
0.0
 30
0.0
  9
$LIMMIN
 10
0.0
 20
0.0
  9
$LIMMAX
 10
22.0
 20
17.0
  9
$VIEWCTR
 10
11.0
 20
8.5
  9
$VIEWSIZE
 40
17.0
  9
$CLAYER
  8
0
  9
$LTSCALE
 40
1.21
  9
$CELTYPE
  6
BYLAYER
  9
$DIMSCALE
 40
1.0
  9
$DIMASZ
 40
0.1875
  9
$DIMEXO
 40
0.0625
  9
$DIMDLI
 40
0.836
  9
$DIMEXE
 40
0.125
  9
$DIMCEN
 40
0.198
  9
$DIMLFAC
 40
1.0
  9
$DIMBLK
  1
_CLOSED
  9
$DIMALT
 70
0
  9
$DIMALTF
 40
25.4
  9
$DIMTXT
 40
0.15625
  9
$DIMTOL
 70
0
  9
$DIMLIM
 70
0
  9
$DIMTFAC
 40
1.0
  9
$DIMGAP
 40
0.09
  9
$DIMDSEP
 70
46
  9
$AUNITS
 70
0
  9
$PDMODE
 70
3
  9
$PDSIZE
 40
0.3125
  9
$HANDSEED
  5
4C2
  9
$TILEMODE
 70
1
  9
$MEASUREMENT
 70
0
  9
$INSUNITS
 70
1
  0
ENDSEC
  0
SECTION
  2
CLASSES
  0
CLASS
  1
ACDBDICTIONARYWDFLT
  2
AcDbDictionaryWithDefault
  3
AutoCAD 2000
 90
0
 91
1
280
0
281
0
  0
CLASS
  1
ACDBPLACEHOLDER
  2
AcDbPlaceHolder
  3
AutoCAD 2000
 90
0
 91
1
280
0
281
0
  0
CLASS
  1
LAYOUT
  2
AcDbLayout
  3
AutoCAD 2000
 90
0
 91
0
280
0
281
0
  0
ENDSEC
  0
SECTION
  2
TABLES
  0
TABLE
  2
VPORT
  5
8
100
AcDbSymbolTable
 70
2
  0
VPORT
  5
1F4
100
AcDbSymbolTableRecord
100
AcDbViewportTableRecord
  2
*ACTIVE
 70
0
 10
0.0
 20
0.0
 11
1.0
 21
1.0
 12
11.0
 22
8.5
 13
0.0
 23
0.0
 14
1.0
 24
1.0
 15
0.0
 25
0.0
 16
0.0
 26
0.0
 36
1.0
 17
0.0
 27
0.0
 37
0.0
 40
17.0
 41
1.2941176471
 42
50.0
 43
0.0
 44
0.0
 50
0.0
 51
0.0
 71
0
 72
100
 73
1
 74
1
 75
0
 76
0
 77
0
 78
0
  0
ENDTAB
  0
TABLE
  2
LTYPE
  5
5
100
AcDbSymbolTable
 70
6
  0
LTYPE
  5
14
100
AcDbSymbolTableRecord
100
AcDbLinetypeTableRecord
  2
BYBLOCK
 70
0
  3

 72
65
 73
0
 40
0.0
  0
LTYPE
  5
15
100
AcDbSymbolTableRecord
100
AcDbLinetypeTableRecord
  2
BYLAYER
 70
0
  3

 72
65
 73
0
 40
0.0
  0
LTYPE
  5
16
100
AcDbSymbolTableRecord
100
AcDbLinetypeTableRecord
  2
CONTINUOUS
 70
64
  3
Solid line
 72
65
 73
0
 40
0.0
  0
LTYPE
  5
1F5
100
AcDbSymbolTableRecord
100
AcDbLinetypeTableRecord
  2
CENTER
 70
64
  3
____ _ ____ _ ____ _ ____ _ ____ _ ____ _ ____
 72
65
 73
4
 40
0.6
 49
0.375
 74
0
 49
-0.075
 74
0
 49
0.075
 74
0
 49
-0.075
 74
0
  0
LTYPE
  5
1F6
100
AcDbSymbolTableRecord
100
AcDbLinetypeTableRecord
  2
HIDDEN
 70
64
  3
- - - - - - - - - - - - - - - - - - - -
 72
65
 73
2
 40
0.2
 49
0.1
 74
0
 49
-0.1
 74
0
  0
LTYPE
  5
1F7
100
AcDbSymbolTableRecord
100
AcDbLinetypeTableRecord
  2
PHANTOM
 70
64
  3
_____ _ _ _____ _ _ _____ _ _ _____
 72
65
 73
6
 40
0.8
 49
0.45
 74
0
 49
-0.05
 74
0
 49
0.1
 74
0
 49
-0.05
 74
0
 49
0.1
 74
0
 49
-0.05
 74
0
  0
LTYPE
  5
1F8
100
AcDbSymbolTableRecord
100
AcDbLinetypeTableRecord
  2
DOT
 70
64
  3
. . . . . . . . . . . . . . . . . . . .
 72
65
 73
2
 40
0.2
 49
0.1
 74
0
 49
-0.1
 74
0
  0
LTYPE
  5
1F9
100
AcDbSymbolTableRecord
100
AcDbLinetypeTableRecord
  2
DASHED
 70
64
  3
- - - - - - - - - - - - - - - - - - - -
 72
65
 73
2
 40
0.2
 49
0.1
 74
0
 49
-0.1
 74
0
  0
ENDTAB
  0
TABLE
  2
LAYER
  5
2
100
AcDbSymbolTable
 70
36
  0
LAYER
  5
10
100
AcDbSymbolTableRecord
100
AcDbLayerTableRecord
  2
0
 70
0
 62
7
  6
CONTINUOUS
370
-3
390
F
  0
LAYER
  5
1FA
100
AcDbSymbolTableRecord
100
AcDbLayerTableRecord
  2
DEFAULT_1
 70
0
 62
7
  6
CENTER
370
-3
390
F
  0
LAYER
  5
1FB
100
AcDbSymbolTableRecord
100
AcDbLayerTableRecord
  2
DEFAULT_2
 70
0
 62
8
  6
HIDDEN
370
-3
390
F
  0
LAYER
  5
1FC
100
AcDbSymbolTableRecord
100
AcDbLayerTableRecord
  2
DEFAULT_3
 70
0
 62
7
  6
PHANTOM
370
-3
390
F
  0
LAYER
  5
1FD
100
AcDbSymbolTableRecord
100
AcDbLayerTableRecord
  2
01_ALL_DTM_PLN
 70
0
 62
7
  6
CONTINUOUS
370
-3
390
F
  0
LAYER
  5
1FE
100
AcDbSymbolTableRecord
100
AcDbLayerTableRecord
  2
01__ASM_ALL_DTM_PLN
 70
0
 62
7
  6
CONTINUOUS
370
-3
390
F
  0
LAYER
  5
1FF
100
AcDbSymbolTableRecord
100
AcDbLayerTableRecord
  2
01__ASM_DEF_DTM_PLN
 70
0
 62
7
  6
CONTINUOUS
370
-3
390
F
  0
LAYER
  5
200
100
AcDbSymbolTableRecord
100
AcDbLayerTableRecord
  2
01___PRT_ALL_DTM_PLN
 70
0
 62
7
  6
CONTINUOUS
370
-3
390
F
  0
LAYER
  5
201
100
AcDbSymbolTableRecord
100
AcDbLayerTableRecord
  2
01___PRT_DEF_DTM_PLN
 70
0
 62
7
  6
CONTINUOUS
370
-3
390
F
  0
LAYER
  5
202
100
AcDbSymbolTableRecord
100
AcDbLayerTableRecord
  2
02_ALL_AXES
 70
0
 62
7
  6
CONTINUOUS
370
-3
390
F
  0
LAYER
  5
203
100
AcDbSymbolTableRecord
100
AcDbLayerTableRecord
  2
02__ASM_ALL_AXES
 70
0
 62
7
  6
CONTINUOUS
370
-3
390
F
  0
LAYER
  5
204
100
AcDbSymbolTableRecord
100
AcDbLayerTableRecord
  2
02___PRT_ALL_AXES
 70
0
 62
7
  6
CONTINUOUS
370
-3
390
F
  0
LAYER
  5
205
100
AcDbSymbolTableRecord
100
AcDbLayerTableRecord
  2
03_ALL_CURVES
 70
0
 62
7
  6
CONTINUOUS
370
-3
390
F
  0
LAYER
  5
206
100
AcDbSymbolTableRecord
100
AcDbLayerTableRecord
  2
03__ASM_ALL_CURVES
 70
0
 62
7
  6
CONTINUOUS
370
-3
390
F
  0
LAYER
  5
207
100
AcDbSymbolTableRecord
100
AcDbLayerTableRecord
  2
03___PRT_ALL_CURVES
 70
0
 62
7
  6
CONTINUOUS
370
-3
390
F
  0
LAYER
  5
208
100
AcDbSymbolTableRecord
100
AcDbLayerTableRecord
  2
04_ALL_DTM_PNT
 70
0
 62
7
  6
CONTINUOUS
370
-3
390
F
  0
LAYER
  5
209
100
AcDbSymbolTableRecord
100
AcDbLayerTableRecord
  2
04__ASM_ALL_DTM_PNT
 70
0
 62
7
  6
CONTINUOUS
370
-3
390
F
  0
LAYER
  5
20A
100
AcDbSymbolTableRecord
100
AcDbLayerTableRecord
  2
04___PRT_ALL_DTM_PNT
 70
0
 62
7
  6
CONTINUOUS
370
-3
390
F
  0
LAYER
  5
20B
100
AcDbSymbolTableRecord
100
AcDbLayerTableRecord
  2
05_ALL_DTM_CSYS
 70
0
 62
7
  6
CONTINUOUS
370
-3
390
F
  0
LAYER
  5
20C
100
AcDbSymbolTableRecord
100
AcDbLayerTableRecord
  2
05__ASM_ALL_DTM_CSYS
 70
0
 62
7
  6
CONTINUOUS
370
-3
390
F
  0
LAYER
  5
20D
100
AcDbSymbolTableRecord
100
AcDbLayerTableRecord
  2
05__ASM_DEF_DTM_CSYS
 70
0
 62
7
  6
CONTINUOUS
370
-3
390
F
  0
LAYER
  5
20E
100
AcDbSymbolTableRecord
100
AcDbLayerTableRecord
  2
05___PRT_ALL_DTM_CSYS
 70
0
 62
7
  6
CONTINUOUS
370
-3
390
F
  0
LAYER
  5
20F
100
AcDbSymbolTableRecord
100
AcDbLayerTableRecord
  2
05___PRT_DEF_DTM_CSYS
 70
0
 62
7
  6
CONTINUOUS
370
-3
390
F
  0
LAYER
  5
210
100
AcDbSymbolTableRecord
100
AcDbLayerTableRecord
  2
06_ALL_SURFS
 70
0
 62
7
  6
CONTINUOUS
370
-3
390
F
  0
LAYER
  5
211
100
AcDbSymbolTableRecord
100
AcDbLayerTableRecord
  2
06__ASM_ALL_SURFS
 70
0
 62
7
  6
CONTINUOUS
370
-3
390
F
  0
LAYER
  5
212
100
AcDbSymbolTableRecord
100
AcDbLayerTableRecord
  2
06___PRT_ALL_SURFS
 70
0
 62
7
  6
CONTINUOUS
370
-3
390
F
  0
LAYER
  5
213
100
AcDbSymbolTableRecord
100
AcDbLayerTableRecord
  2
07__ASM_ALL_SKELETONS
 70
0
 62
7
  6
CONTINUOUS
370
-3
390
F
  0
LAYER
  5
214
100
AcDbSymbolTableRecord
100
AcDbLayerTableRecord
  2
COLOR1
 70
0
 62
7
  6
CONTINUOUS
370
-3
390
F
  0
LAYER
  5
215
100
AcDbSymbolTableRecord
100
AcDbLayerTableRecord
  2
COLOR2
 70
0
 62
7
  6
CONTINUOUS
370
-3
390
F
  0
LAYER
  5
216
100
AcDbSymbolTableRecord
100
AcDbLayerTableRecord
  2
INTFCLR_11137
 70
0
 62
7
  6
CONTINUOUS
370
-3
390
F
  0
LAYER
  5
217
100
AcDbSymbolTableRecord
100
AcDbLayerTableRecord
  2
INTFCLR_11137_1
 70
0
 62
7
  6
CONTINUOUS
370
-3
390
F
  0
LAYER
  5
218
100
AcDbSymbolTableRecord
100
AcDbLayerTableRecord
  2
INTFCLR_11137_10
 70
0
 62
7
  6
CONTINUOUS
370
-3
390
F
  0
LAYER
  5
219
100
AcDbSymbolTableRecord
100
AcDbLayerTableRecord
  2
INTFCLR_11137_11
 70
0
 62
7
  6
CONTINUOUS
370
-3
390
F
  0
LAYER
  5
21A
100
AcDbSymbolTableRecord
100
AcDbLayerTableRecord
  2
INTFCLR_11137_2
 70
0
 62
7
  6
CONTINUOUS
370
-3
390
F
  0
LAYER
  5
21B
100
AcDbSymbolTableRecord
100
AcDbLayerTableRecord
  2
INTFCLR_11137_3
 70
0
 62
7
  6
CONTINUOUS
370
-3
390
F
  0
LAYER
  5
21C
100
AcDbSymbolTableRecord
100
AcDbLayerTableRecord
  2
INTFCLR_11137_4
 70
0
 62
7
  6
CONTINUOUS
370
-3
390
F
  0
LAYER
  5
21D
100
AcDbSymbolTableRecord
100
AcDbLayerTableRecord
  2
INTFCLR_11137_5
 70
0
 62
7
  6
CONTINUOUS
370
-3
390
F
  0
LAYER
  5
21E
100
AcDbSymbolTableRecord
100
AcDbLayerTableRecord
  2
INTFCLR_11137_6
 70
0
 62
7
  6
CONTINUOUS
370
-3
390
F
  0
LAYER
  5
21F
100
AcDbSymbolTableRecord
100
AcDbLayerTableRecord
  2
INTFCLR_11137_7
 70
0
 62
7
  6
CONTINUOUS
370
-3
390
F
  0
LAYER
  5
220
100
AcDbSymbolTableRecord
100
AcDbLayerTableRecord
  2
INTFCLR_11137_8
 70
0
 62
7
  6
CONTINUOUS
370
-3
390
F
  0
LAYER
  5
221
100
AcDbSymbolTableRecord
100
AcDbLayerTableRecord
  2
INTFCLR_11137_9
 70
0
 62
7
  6
CONTINUOUS
370
-3
390
F
  0
LAYER
  5
222
100
AcDbSymbolTableRecord
100
AcDbLayerTableRecord
  2
INTFCLR_7757
 70
0
 62
7
  6
CONTINUOUS
370
-3
390
F
  0
LAYER
  5
223
100
AcDbSymbolTableRecord
100
AcDbLayerTableRecord
  2
INTFCLR_7757_1
 70
0
 62
7
  6
CONTINUOUS
370
-3
390
F
  0
LAYER
  5
224
100
AcDbSymbolTableRecord
100
AcDbLayerTableRecord
  2
INTFCLR_7757_2
 70
0
 62
7
  6
CONTINUOUS
370
-3
390
F
  0
LAYER
  5
225
100
AcDbSymbolTableRecord
100
AcDbLayerTableRecord
  2
INTFCLR_7757_3
 70
0
 62
7
  6
CONTINUOUS
370
-3
390
F
  0
LAYER
  5
226
100
AcDbSymbolTableRecord
100
AcDbLayerTableRecord
  2
INTFCLR_7757_4
 70
0
 62
7
  6
CONTINUOUS
370
-3
390
F
  0
LAYER
  5
227
100
AcDbSymbolTableRecord
100
AcDbLayerTableRecord
  2
INTFCLR_7757_5
 70
0
 62
7
  6
CONTINUOUS
370
-3
390
F
  0
LAYER
  5
228
100
AcDbSymbolTableRecord
100
AcDbLayerTableRecord
  2
INTFCLR_7757_6
 70
0
 62
7
  6
CONTINUOUS
370
-3
390
F
  0
LAYER
  5
229
100
AcDbSymbolTableRecord
100
AcDbLayerTableRecord
  2
INTFCLR_7757_7
 70
0
 62
7
  6
CONTINUOUS
370
-3
390
F
  0
LAYER
  5
22A
100
AcDbSymbolTableRecord
100
AcDbLayerTableRecord
  2
KARTHIII
 70
0
 62
7
  6
CONTINUOUS
370
-3
390
F
  0
LAYER
  5
22B
100
AcDbSymbolTableRecord
100
AcDbLayerTableRecord
  2
NONE
 70
0
 62
7
  6
CONTINUOUS
370
-3
390
F
  0
LAYER
  5
22C
100
AcDbSymbolTableRecord
100
AcDbLayerTableRecord
  2
NONE_1
 70
0
 62
7
  6
CONTINUOUS
370
-3
390
F
  0
LAYER
  5
22D
100
AcDbSymbolTableRecord
100
AcDbLayerTableRecord
  2
NONE_10
 70
0
 62
7
  6
CONTINUOUS
370
-3
390
F
  0
LAYER
  5
22E
100
AcDbSymbolTableRecord
100
AcDbLayerTableRecord
  2
NONE_11
 70
0
 62
7
  6
CONTINUOUS
370
-3
390
F
  0
LAYER
  5
22F
100
AcDbSymbolTableRecord
100
AcDbLayerTableRecord
  2
NONE_2
 70
0
 62
7
  6
CONTINUOUS
370
-3
390
F
  0
LAYER
  5
230
100
AcDbSymbolTableRecord
100
AcDbLayerTableRecord
  2
NONE_3
 70
0
 62
7
  6
CONTINUOUS
370
-3
390
F
  0
LAYER
  5
231
100
AcDbSymbolTableRecord
100
AcDbLayerTableRecord
  2
NONE_4
 70
0
 62
7
  6
CONTINUOUS
370
-3
390
F
  0
LAYER
  5
232
100
AcDbSymbolTableRecord
100
AcDbLayerTableRecord
  2
NONE_5
 70
0
 62
7
  6
CONTINUOUS
370
-3
390
F
  0
LAYER
  5
233
100
AcDbSymbolTableRecord
100
AcDbLayerTableRecord
  2
NONE_6
 70
0
 62
7
  6
CONTINUOUS
370
-3
390
F
  0
LAYER
  5
234
100
AcDbSymbolTableRecord
100
AcDbLayerTableRecord
  2
NONE_7
 70
0
 62
7
  6
CONTINUOUS
370
-3
390
F
  0
LAYER
  5
235
100
AcDbSymbolTableRecord
100
AcDbLayerTableRecord
  2
NONE_8
 70
0
 62
7
  6
CONTINUOUS
370
-3
390
F
  0
LAYER
  5
236
100
AcDbSymbolTableRecord
100
AcDbLayerTableRecord
  2
NONE_9
 70
0
 62
7
  6
CONTINUOUS
370
-3
390
F
  0
LAYER
  5
237
100
AcDbSymbolTableRecord
100
AcDbLayerTableRecord
  2
_1245
 70
0
 62
7
  6
CONTINUOUS
370
-3
390
F
  0
LAYER
  5
238
100
AcDbSymbolTableRecord
100
AcDbLayerTableRecord
  2
_1245_1
 70
0
 62
7
  6
CONTINUOUS
370
-3
390
F
  0
LAYER
  5
239
100
AcDbSymbolTableRecord
100
AcDbLayerTableRecord
  2
_1923
 70
0
 62
7
  6
CONTINUOUS
370
-3
390
F
  0
LAYER
  5
23A
100
AcDbSymbolTableRecord
100
AcDbLayerTableRecord
  2
_1923_1
 70
0
 62
7
  6
CONTINUOUS
370
-3
390
F
  0
LAYER
  5
23B
100
AcDbSymbolTableRecord
100
AcDbLayerTableRecord
  2
_1953
 70
0
 62
7
  6
CONTINUOUS
370
-3
390
F
  0
LAYER
  5
23C
100
AcDbSymbolTableRecord
100
AcDbLayerTableRecord
  2
_1953_1
 70
0
 62
7
  6
CONTINUOUS
370
-3
390
F
  0
LAYER
  5
23D
100
AcDbSymbolTableRecord
100
AcDbLayerTableRecord
  2
_3191
 70
0
 62
7
  6
CONTINUOUS
370
-3
390
F
  0
LAYER
  5
23E
100
AcDbSymbolTableRecord
100
AcDbLayerTableRecord
  2
_3191_1
 70
0
 62
7
  6
CONTINUOUS
370
-3
390
F
  0
LAYER
  5
23F
100
AcDbSymbolTableRecord
100
AcDbLayerTableRecord
  2
_3223
 70
0
 62
7
  6
CONTINUOUS
370
-3
390
F
  0
LAYER
  5
240
100
AcDbSymbolTableRecord
100
AcDbLayerTableRecord
  2
_3223_1
 70
0
 62
7
  6
CONTINUOUS
370
-3
390
F
  0
LAYER
  5
241
100
AcDbSymbolTableRecord
100
AcDbLayerTableRecord
  2
_3289
 70
0
 62
7
  6
CONTINUOUS
370
-3
390
F
  0
LAYER
  5
242
100
AcDbSymbolTableRecord
100
AcDbLayerTableRecord
  2
_3289_1
 70
0
 62
7
  6
CONTINUOUS
370
-3
390
F
  0
LAYER
  5
243
100
AcDbSymbolTableRecord
100
AcDbLayerTableRecord
  2
_3988
 70
0
 62
7
  6
CONTINUOUS
370
-3
390
F
  0
LAYER
  5
244
100
AcDbSymbolTableRecord
100
AcDbLayerTableRecord
  2
_3988_1
 70
0
 62
7
  6
CONTINUOUS
370
-3
390
F
  0
LAYER
  5
245
100
AcDbSymbolTableRecord
100
AcDbLayerTableRecord
  2
_407
 70
0
 62
7
  6
CONTINUOUS
370
-3
390
F
  0
LAYER
  5
246
100
AcDbSymbolTableRecord
100
AcDbLayerTableRecord
  2
_407_1
 70
0
 62
7
  6
CONTINUOUS
370
-3
390
F
  0
LAYER
  5
247
100
AcDbSymbolTableRecord
100
AcDbLayerTableRecord
  2
_4418
 70
0
 62
7
  6
CONTINUOUS
370
-3
390
F
  0
LAYER
  5
248
100
AcDbSymbolTableRecord
100
AcDbLayerTableRecord
  2
_4418_1
 70
0
 62
7
  6
CONTINUOUS
370
-3
390
F
  0
LAYER
  5
249
100
AcDbSymbolTableRecord
100
AcDbLayerTableRecord
  2
_4942
 70
0
 62
7
  6
CONTINUOUS
370
-3
390
F
  0
LAYER
  5
24A
100
AcDbSymbolTableRecord
100
AcDbLayerTableRecord
  2
_4942_1
 70
0
 62
7
  6
CONTINUOUS
370
-3
390
F
  0
LAYER
  5
24B
100
AcDbSymbolTableRecord
100
AcDbLayerTableRecord
  2
_6054
 70
0
 62
7
  6
CONTINUOUS
370
-3
390
F
  0
LAYER
  5
24C
100
AcDbSymbolTableRecord
100
AcDbLayerTableRecord
  2
_6054_1
 70
0
 62
7
  6
CONTINUOUS
370
-3
390
F
  0
LAYER
  5
24D
100
AcDbSymbolTableRecord
100
AcDbLayerTableRecord
  2
_6082
 70
0
 62
7
  6
CONTINUOUS
370
-3
390
F
  0
LAYER
  5
24E
100
AcDbSymbolTableRecord
100
AcDbLayerTableRecord
  2
_6082_1
 70
0
 62
7
  6
CONTINUOUS
370
-3
390
F
  0
LAYER
  5
24F
100
AcDbSymbolTableRecord
100
AcDbLayerTableRecord
  2
_6481
 70
0
 62
7
  6
CONTINUOUS
370
-3
390
F
  0
LAYER
  5
250
100
AcDbSymbolTableRecord
100
AcDbLayerTableRecord
  2
_6481_1
 70
0
 62
7
  6
CONTINUOUS
370
-3
390
F
  0
LAYER
  5
251
100
AcDbSymbolTableRecord
100
AcDbLayerTableRecord
  2
_6733
 70
0
 62
7
  6
CONTINUOUS
370
-3
390
F
  0
LAYER
  5
252
100
AcDbSymbolTableRecord
100
AcDbLayerTableRecord
  2
_6733_1
 70
0
 62
7
  6
CONTINUOUS
370
-3
390
F
  0
LAYER
  5
253
100
AcDbSymbolTableRecord
100
AcDbLayerTableRecord
  2
_7015
 70
0
 62
7
  6
CONTINUOUS
370
-3
390
F
  0
LAYER
  5
254
100
AcDbSymbolTableRecord
100
AcDbLayerTableRecord
  2
_7015_1
 70
0
 62
7
  6
CONTINUOUS
370
-3
390
F
  0
LAYER
  5
255
100
AcDbSymbolTableRecord
100
AcDbLayerTableRecord
  2
_7697
 70
0
 62
7
  6
CONTINUOUS
370
-3
390
F
  0
LAYER
  5
256
100
AcDbSymbolTableRecord
100
AcDbLayerTableRecord
  2
_7697_1
 70
0
 62
7
  6
CONTINUOUS
370
-3
390
F
  0
LAYER
  5
257
100
AcDbSymbolTableRecord
100
AcDbLayerTableRecord
  2
_7798
 70
0
 62
7
  6
CONTINUOUS
370
-3
390
F
  0
LAYER
  5
258
100
AcDbSymbolTableRecord
100
AcDbLayerTableRecord
  2
_7798_1
 70
0
 62
7
  6
CONTINUOUS
370
-3
390
F
  0
LAYER
  5
259
100
AcDbSymbolTableRecord
100
AcDbLayerTableRecord
  2
_8688
 70
0
 62
7
  6
CONTINUOUS
370
-3
390
F
  0
LAYER
  5
25A
100
AcDbSymbolTableRecord
100
AcDbLayerTableRecord
  2
_8688_1
 70
0
 62
7
  6
CONTINUOUS
370
-3
390
F
  0
LAYER
  5
25B
100
AcDbSymbolTableRecord
100
AcDbLayerTableRecord
  2
_8827
 70
0
 62
7
  6
CONTINUOUS
370
-3
390
F
  0
LAYER
  5
25C
100
AcDbSymbolTableRecord
100
AcDbLayerTableRecord
  2
_8827_1
 70
0
 62
7
  6
CONTINUOUS
370
-3
390
F
  0
LAYER
  5
25D
100
AcDbSymbolTableRecord
100
AcDbLayerTableRecord
  2
_9583
 70
0
 62
7
  6
CONTINUOUS
370
-3
390
F
  0
LAYER
  5
25E
100
AcDbSymbolTableRecord
100
AcDbLayerTableRecord
  2
_9583_1
 70
0
 62
7
  6
CONTINUOUS
370
-3
390
F
  0
LAYER
  5
25F
100
AcDbSymbolTableRecord
100
AcDbLayerTableRecord
  2
___SHELL
 70
0
 62
7
  6
CONTINUOUS
370
-3
390
F
  0
ENDTAB
  0
TABLE
  2
STYLE
  5
3
100
AcDbSymbolTable
 70
1
  0
STYLE
  5
11
100
AcDbSymbolTableRecord
100
AcDbTextStyleTableRecord
  2
STANDARD
 70
0
 40
0.0
 41
0.8
 50
0.0
 71
0
 42
0.2
  3
txt
  4

  0
STYLE
  5
260
100
AcDbSymbolTableRecord
100
AcDbTextStyleTableRecord
  2
TEXTSTYLE_1
 70
0
 40
0.0
 41
0.8
 50
0.0
 71
0
 42
0.2
  3
gdt
  4

  0
ENDTAB
  0
TABLE
  2
VIEW
  5
6
100
AcDbSymbolTable
 70
0
  0
ENDTAB
  0
TABLE
  2
UCS
  5
7
100
AcDbSymbolTable
 70
0
  0
ENDTAB
  0
TABLE
  2
APPID
  5
9
100
AcDbSymbolTable
 70
1
  0
APPID
  5
261
100
AcDbSymbolTableRecord
100
AcDbRegAppTableRecord
  2
ACAD
 70
0
  0
ENDTAB
  0
TABLE
  2
BLOCK_RECORD
  5
1
100
AcDbSymbolTable
 70
0
  0
BLOCK_RECORD
  5
262
100
AcDbSymbolTableRecord
100
AcDbBlockTableRecord
  2
*Model_Space
  0
BLOCK_RECORD
  5
263
100
AcDbSymbolTableRecord
100
AcDbBlockTableRecord
  2
*Paper_Space
  0
BLOCK_RECORD
  5
264
100
AcDbSymbolTableRecord
100
AcDbBlockTableRecord
  2
_NONE
  0
ENDTAB
  0
TABLE
  2
DIMSTYLE
  5
A
100
AcDbSymbolTable
 70
1
100
AcDbDimStyleTable
 71
0
  0
DIMSTYLE
105
265
100
AcDbSymbolTableRecord
100
AcDbDimStyleTableRecord
  2
STANDARD
 70
0
  3

  4

 40
1.0
 41
0.1875
 42
0.0625
 43
0.38
 44
0.125
 45
0.0
 46
0.0
 47
0.0001
 48
0.0001
140
0.15625
141
0.09
142
0.0
143
25.4
144
1.0
145
0.0
146
1.0
147
0.09
 71
0.0
 72
0.0
 73
1
 74
1
 75
0
 76
0
 77
0
 78
4
 79
1
170
0
171
3
172
0
173
0
174
0
175
0
176
0
177
0
178
0
270
2
179
4
271
4
272
4
273
2
274
2
275
0
280
0
281
0
282
0
283
1
284
4
285
0
286
0
287
3
288
0
340
11
278
46
  0
ENDTAB
  0
ENDSEC
  0
SECTION
  2
BLOCKS
  0
BLOCK
  5
20
100
AcDbEntity
  8
0
100
AcDbBlockBegin
  2
*Model_Space
 70
0
 10
0.0
 20
0.0
 30
0.0
  3
*Model_Space
  1

  0
ENDBLK
  5
21
100
AcDbEntity
  8
0
100
AcDbBlockEnd
  0
BLOCK
  5
1C
100
AcDbEntity
  8
0
100
AcDbBlockBegin
  2
*Paper_Space
 70
0
 10
0.0
 20
0.0
 30
0.0
  3
*Paper_Space
  1

  0
ENDBLK
  5
1D
100
AcDbEntity
  8
0
100
AcDbBlockEnd
  0
BLOCK
  5
266
100
AcDbEntity
  8
0
100
AcDbBlockBegin
  2
_NONE
 70
64
 10
0.0
 20
0.0
  3
_NONE
  1

  0
ENDBLK
  5
267
100
AcDbEntity
  8
0
  6
BYBLOCK
 62
0
100
AcDbBlockEnd
  0
ENDSEC
  0
SECTION
  2
ENTITIES
  0
MTEXT
  5
268
100
AcDbEntity
  8
0
100
AcDbMText
 62
7
  6
CONTINUOUS
  7
STANDARD
 71
1
 72
1
 10
15.9560215477
 20
0.9479130325
 30
0.0
 11
1.0
 21
0.0
 31
0.0
 44
0.9
  1
SCALE: 1:0.500
 40
0.3
 41
3.36
  0
LEADER
  5
269
100
AcDbEntity
  8
0
100
AcDbLeader
 62
2
  6
CONTINUOUS
  3
STANDARD
 71
1
 72
0
 73
0
 75
0
 40
0.15625
 41
1.5
 76
3
 10
4.3334922762
 20
5.0669948968
 30
0.0
 10
8.4418964161
 20
3.7200314446
 30
0.0
 10
8.6918964161
 20
3.7200314446
 30
0.0
340
26A
1001
ACAD
1000
DSTYLE
1002
{
1070
77
1070
0
1070
341
1005
264
1002
}
  0
MTEXT
  5
26A
102
{ACAD_REACTORS
330
269
102
}
100
AcDbEntity
  8
0
100
AcDbMText
 62
2
  6
CONTINUOUS
  7
STANDARD
 71
1
 72
1
 10
8.6918964161
 20
3.7981564446
 30
0.0
 11
1.0
 21
0.0
 31
0.0
 44
0.9
  1
 0.375 BOLTS
 40
0.15625
 41
1.5
  0
LINE
  5
26B
100
AcDbEntity
  8
0
100
AcDbLine
 62
7
  6
CONTINUOUS
 10
0.0
 20
0.0
 11
0.0
 21
17.0
  0
LINE
  5
26C
100
AcDbEntity
  8
0
100
AcDbLine
 62
7
  6
CONTINUOUS
 10
0.0
 20
0.0
 11
22.0
 21
0.0
  0
LINE
  5
26D
100
AcDbEntity
  8
0
100
AcDbLine
 62
7
  6
CONTINUOUS
 10
0.0
 20
17.0
 11
22.0
 21
17.0
  0
LINE
  5
26E
100
AcDbEntity
  8
0
100
AcDbLine
 62
7
  6
CONTINUOUS
 10
22.0
 20
0.0
 11
22.0
 21
17.0
  0
LINE
  5
26F
100
AcDbEntity
  8
0
100
AcDbLine
 62
7
  6
CONTINUOUS
 10
4.0366172762
 20
4.3794948968
 11
4.0366172762
 21
4.9794948968
  0
LINE
  5
270
100
AcDbEntity
  8
0
100
AcDbLine
 62
7
  6
CONTINUOUS
 10
4.0678672762
 20
5.0544948968
 11
4.0678672762
 21
5.0044948968
  0
LINE
  5
271
100
AcDbEntity
  8
0
100
AcDbLine
 62
7
  6
CONTINUOUS
 10
5.0135155395
 20
5.8037544177
 11
4.8043195673
 21
5.0230244206
  0
LINE
  5
272
100
AcDbEntity
  8
0
100
AcDbLine
 62
7
  6
CONTINUOUS
 10
8.2241172762
 20
4.3794948968
 11
4.0366172762
 21
4.3794948968
  0
LINE
  5
273
100
AcDbEntity
  8
0
100
AcDbLine
 62
7
  6
CONTINUOUS
 10
6.0466172762
 20
6.2282448968
 11
6.0366172762
 21
6.2182448968
  0
LINE
  5
274
100
AcDbEntity
  8
0
100
AcDbLine
 62
7
  6
CONTINUOUS
 10
8.1991172762
 20
5.0044948968
 11
7.4805631307
 21
5.0044948968
  0
LINE
  5
275
100
AcDbEntity
  8
0
100
AcDbLine
 62
7
  6
CONTINUOUS
 10
4.0616172762
 20
5.0044948968
 11
4.7801714217
 21
5.0044948968
  0
LINE
  5
276
100
AcDbEntity
  8
0
100
AcDbLine
 62
7
  6
CONTINUOUS
 10
8.1803556678
 20
5.0669948968
 11
7.4446331315
 21
5.0669948968
  0
LINE
  5
277
100
AcDbEntity
  8
0
100
AcDbLine
 62
7
  6
CONTINUOUS
 10
4.0803788845
 20
5.0669948968
 11
4.8161014209
 21
5.0669948968
  0
LINE
  5
278
100
AcDbEntity
  8
03__ASM_ALL_CURVES
100
AcDbLine
 62
4
  6
CONTINUOUS
 10
4.1303672762
 20
5.1044948968
 11
4.8261495156
 21
5.1044948968
  0
LINE
  5
279
100
AcDbEntity
  8
03__ASM_ALL_CURVES
100
AcDbLine
 62
4
  6
CONTINUOUS
 10
7.4345850367
 20
5.1044948968
 11
7.6303672762
 21
5.1044948968
  0
LINE
  5
27A
100
AcDbEntity
  8
0
100
AcDbLine
 62
7
  6
CONTINUOUS
 10
6.932226366
 20
6.5715190296
 11
6.8153769704
 21
6.454669634
  0
LINE
  5
27B
100
AcDbEntity
  8
0
100
AcDbLine
 62
7
  6
CONTINUOUS
 10
6.0366172762
 20
6.2171045378
 11
6.0366172762
 21
6.2182448968
  0
LINE
  5
27C
100
AcDbEntity
  8
0
100
AcDbLine
 62
7
  6
CONTINUOUS
 10
6.0803672762
 20
4.7874861363
 11
6.0803672762
 21
4.6635177643
  0
LINE
  5
27D
100
AcDbEntity
  8
0
100
AcDbLine
 62
7
  6
CONTINUOUS
 10
6.0803672762
 20
6.2282448968
 11
6.0803672762
 21
6.3454720292
  0
LINE
  5
27E
100
AcDbEntity
  8
0
100
AcDbLine
 62
7
  6
CONTINUOUS
 10
6.5075545722
 20
6.2578024575
 11
6.4455703862
 21
6.150442698
  0
LINE
  5
27F
100
AcDbEntity
  8
0
100
AcDbLine
 62
7
  6
CONTINUOUS
 10
5.7285616258
 20
4.9085470955
 11
5.6665774397
 21
4.801187336
  0
LINE
  5
280
100
AcDbEntity
  8
0
100
AcDbLine
 62
7
  6
CONTINUOUS
 10
6.9974248842
 20
6.5501611318
 11
6.975504574
 21
6.5282408216
  0
LINE
  5
281
100
AcDbEntity
  8
0
100
AcDbLine
 62
7
  6
CONTINUOUS
 10
6.8772488138
 20
6.3927977906
 11
6.8741853153
 21
6.3897342921
  0
LINE
  5
282
100
AcDbEntity
  8
0
100
AcDbLine
 62
7
  6
CONTINUOUS
 10
6.8816682312
 20
6.3883783732
 11
6.9985176268
 21
6.5052277688
  0
LINE
  5
283
100
AcDbEntity
  8
0
100
AcDbLine
 62
7
  6
CONTINUOUS
 10
7.0201567307
 20
6.4835886649
 11
7.042077041
 21
6.5055089751
  0
LINE
  5
284
100
AcDbEntity
  8
0
100
AcDbLine
 62
7
  6
CONTINUOUS
 10
6.8336748369
 20
5.9682847332
 11
6.7263150774
 21
5.9063005471
  0
LINE
  5
285
100
AcDbEntity
  8
0
100
AcDbLine
 62
7
  6
CONTINUOUS
 10
5.4844194749
 20
5.1892917867
 11
5.3770597154
 21
5.1273076007
  0
LINE
  5
286
100
AcDbEntity
  8
0
100
AcDbLine
 62
7
  6
CONTINUOUS
 10
6.8429769169
 20
5.4107448968
 11
6.8441172762
 21
5.4107448968
  0
LINE
  5
287
100
AcDbEntity
  8
0
100
AcDbLine
 62
7
  6
CONTINUOUS
 10
5.4133585158
 20
5.4544948968
 11
5.2893901437
 21
5.4544948968
  0
LINE
  5
288
100
AcDbEntity
  8
0
100
AcDbLine
 62
7
  6
CONTINUOUS
 10
6.8541172762
 20
5.4544948968
 11
6.9713444087
 21
5.4544948968
  0
LINE
  5
289
100
AcDbEntity
  8
0
100
AcDbLine
 62
7
  6
CONTINUOUS
 10
5.3770597154
 20
5.8816821928
 11
5.4844194749
 21
5.8196980068
  0
LINE
  5
28A
100
AcDbEntity
  8
0
100
AcDbLine
 62
7
  6
CONTINUOUS
 10
6.7263150774
 20
5.1026892464
 11
6.8336748369
 21
5.0407050603
  0
LINE
  5
28B
100
AcDbEntity
  8
0
100
AcDbLine
 62
7
  6
CONTINUOUS
 10
5.6665774397
 20
6.2078024575
 11
5.7285616258
 21
6.100442698
  0
LINE
  5
28C
100
AcDbEntity
  8
0
100
AcDbLine
 62
7
  6
CONTINUOUS
 10
6.4455703862
 20
4.8585470955
 11
6.5075545722
 21
4.751187336
  0
LINE
  5
28D
100
AcDbEntity
  8
0
100
AcDbLine
 62
7
  6
CONTINUOUS
 10
6.1803672762
 20
6.3454720292
 11
6.1803672762
 21
6.2282448968
  0
LINE
  5
28E
100
AcDbEntity
  8
0
100
AcDbLine
 62
7
  6
CONTINUOUS
 10
6.1803672762
 20
4.7874861363
 11
6.1803672762
 21
4.6635177643
  0
LINE
  5
28F
100
AcDbEntity
  8
0
100
AcDbLine
 62
7
  6
CONTINUOUS
 10
6.2241172762
 20
6.2171045378
 11
6.2241172762
 21
6.2182448968
  0
LINE
  5
290
100
AcDbEntity
  8
0
100
AcDbLine
 62
7
  6
CONTINUOUS
 10
5.7531799801
 20
4.751187336
 11
5.8151641662
 21
4.8585470955
  0
LINE
  5
291
100
AcDbEntity
  8
0
100
AcDbLine
 62
7
  6
CONTINUOUS
 10
6.5321729266
 20
6.100442698
 11
6.5941571126
 21
6.2078024575
  0
LINE
  5
292
100
AcDbEntity
  8
0
100
AcDbLine
 62
7
  6
CONTINUOUS
 10
7.1313813545
 20
6.4162046615
 11
7.1094610443
 21
6.3942843513
  0
LINE
  5
293
100
AcDbEntity
  8
0
100
AcDbLine
 62
7
  6
CONTINUOUS
 10
7.1311001482
 20
6.3726452474
 11
7.0142507526
 21
6.2557958518
  0
LINE
  5
294
100
AcDbEntity
  8
0
100
AcDbLine
 62
7
  6
CONTINUOUS
 10
7.0156066716
 20
6.2483129359
 11
7.01867017
 21
6.2513764344
  0
LINE
  5
295
100
AcDbEntity
  8
0
100
AcDbLine
 62
7
  6
CONTINUOUS
 10
7.1760335113
 20
6.3715525048
 11
7.154113201
 21
6.3496321946
  0
LINE
  5
296
100
AcDbEntity
  8
0
100
AcDbLine
 62
7
  6
CONTINUOUS
 10
5.4270597154
 20
5.0407050603
 11
5.5344194749
 21
5.1026892464
  0
LINE
  5
297
100
AcDbEntity
  8
0
100
AcDbLine
 62
7
  6
CONTINUOUS
 10
6.7763150774
 20
5.8196980068
 11
6.8836748369
 21
5.8816821928
  0
LINE
  5
298
100
AcDbEntity
  8
0
100
AcDbLine
 62
7
  6
CONTINUOUS
 10
5.4133585158
 20
5.5544948968
 11
5.2893901437
 21
5.5544948968
  0
LINE
  5
299
100
AcDbEntity
  8
0
100
AcDbLine
 62
7
  6
CONTINUOUS
 10
6.8541172762
 20
5.5544948968
 11
6.9713444087
 21
5.5544948968
  0
LINE
  5
29A
100
AcDbEntity
  8
0
100
AcDbLine
 62
7
  6
CONTINUOUS
 10
6.8429769169
 20
5.5982448968
 11
6.8441172762
 21
5.5982448968
  0
LINE
  5
29B
100
AcDbEntity
  8
0
100
AcDbLine
 62
7
  6
CONTINUOUS
 10
6.8836748369
 20
5.1273076007
 11
6.7763150774
 21
5.1892917867
  0
LINE
  5
29C
100
AcDbEntity
  8
0
100
AcDbLine
 62
7
  6
CONTINUOUS
 10
5.5344194749
 20
5.9063005471
 11
5.4270597154
 21
5.9682847332
  0
LINE
  5
29D
100
AcDbEntity
  8
0
100
AcDbLine
 62
7
  6
CONTINUOUS
 10
6.5941571126
 20
4.801187336
 11
6.5321729266
 21
4.9085470955
  0
LINE
  5
29E
100
AcDbEntity
  8
0
100
AcDbLine
 62
7
  6
CONTINUOUS
 10
5.8151641662
 20
6.150442698
 11
5.7531799801
 21
6.2578024575
  0
LINE
  5
29F
100
AcDbEntity
  8
0
100
AcDbLine
 62
7
  6
CONTINUOUS
 10
7.197391409
 20
6.3063539866
 11
7.0805420134
 21
6.189504591
  0
LINE
  5
2A0
100
AcDbEntity
  8
0
100
AcDbLine
 62
7
  6
CONTINUOUS
 10
6.8541172762
 20
5.4207448968
 11
6.8441172762
 21
5.4107448968
  0
LINE
  5
2A1
100
AcDbEntity
  8
0
100
AcDbLine
 62
7
  6
CONTINUOUS
 10
6.2141172762
 20
6.2282448968
 11
6.2241172762
 21
6.2182448968
  0
LINE
  5
2A2
100
AcDbEntity
  8
0
100
AcDbLine
 62
7
  6
CONTINUOUS
 10
6.8541172762
 20
5.5882448968
 11
6.8441172762
 21
5.5982448968
  0
LINE
  5
2A3
100
AcDbEntity
  8
0
100
AcDbLine
 62
7
  6
CONTINUOUS
 10
6.8441172762
 20
5.5982448968
 11
6.8441172762
 21
5.5891264512
  0
LINE
  5
2A4
100
AcDbEntity
  8
0
100
AcDbLine
 62
7
  6
CONTINUOUS
 10
6.8441172762
 20
5.4198633424
 11
6.8441172762
 21
5.4107448968
  0
LINE
  5
2A5
100
AcDbEntity
  8
0
100
AcDbLine
 62
7
  6
CONTINUOUS
 10
6.8541172762
 20
5.420756088
 11
6.8541172762
 21
5.5882337055
  0
LINE
  5
2A6
100
AcDbEntity
  8
0
100
AcDbLine
 62
7
  6
CONTINUOUS
 10
6.2241172762
 20
6.2182448968
 11
6.2149988306
 21
6.2182448968
  0
LINE
  5
2A7
100
AcDbEntity
  8
0
100
AcDbLine
 62
7
  6
CONTINUOUS
 10
6.0457357218
 20
6.2182448968
 11
6.0366172762
 21
6.2182448968
  0
LINE
  5
2A8
100
AcDbEntity
  8
0
100
AcDbLine
 62
7
  6
CONTINUOUS
 10
6.214106085
 20
6.2282448968
 11
6.0466284674
 21
6.2282448968
  0
LINE
  5
2A9
100
AcDbEntity
  8
0
100
AcDbLine
 62
7
  6
CONTINUOUS
 10
7.0805420134
 20
6.189504591
 11
6.8153769704
 21
6.454669634
  0
LINE
  5
2AA
100
AcDbEntity
  8
0
100
AcDbLine
 62
7
  6
CONTINUOUS
 10
7.456414985
 20
5.0230244206
 11
7.2472190128
 21
5.8037544177
  0
LINE
  5
2AB
100
AcDbEntity
  8
0
100
AcDbLine
 62
7
  6
CONTINUOUS
 10
7.197391409
 20
6.3063539866
 11
6.932226366
 21
6.5715190296
  0
LINE
  5
2AC
100
AcDbEntity
  8
0
100
AcDbLine
 62
7
  6
CONTINUOUS
 10
7.1760335113
 20
6.3715525048
 11
6.9974248842
 21
6.5501611318
  0
LINE
  5
2AD
100
AcDbEntity
  8
0
100
AcDbLine
 62
7
  6
CONTINUOUS
 10
7.1758350482
 20
6.4725136841
 11
7.0983860636
 21
6.5499626688
  0
LINE
  5
2AE
100
AcDbEntity
  8
0
100
AcDbLine
 62
7
  6
CONTINUOUS
 10
7.2104728844
 20
6.549245166
 11
7.1751175454
 21
6.584600505
  0
LINE
  5
2AF
100
AcDbEntity
  8
0
100
AcDbLine
 62
7
  6
CONTINUOUS
 10
8.1928672762
 20
5.0544948968
 11
8.1928672762
 21
5.0044948968
  0
LINE
  5
2B0
100
AcDbEntity
  8
0
100
AcDbLine
 62
7
  6
CONTINUOUS
 10
8.2241172762
 20
4.3794948968
 11
8.2241172762
 21
4.9794948968
  0
LINE
  5
2B1
100
AcDbEntity
  8
0
100
AcDbLine
 62
7
  6
CONTINUOUS
 10
3.9771220839
 20
12.1312977814
 11
3.9771220839
 21
13.3812977814
  0
LINE
  5
2B2
100
AcDbEntity
  8
0
100
AcDbLine
 62
7
  6
CONTINUOUS
 10
4.7566062286
 20
12.4562977814
 11
4.7566062286
 21
12.4437977814
  0
LINE
  5
2B3
100
AcDbEntity
  8
0
100
AcDbLine
 62
7
  6
CONTINUOUS
 10
4.7566062286
 20
13.0562977814
 11
4.7566062286
 21
13.0687977814
  0
LINE
  5
2B4
100
AcDbEntity
  8
0
100
AcDbLine
 62
7
  6
CONTINUOUS
 10
4.0021220839
 20
12.1562977814
 11
3.9771220839
 21
12.1312977814
  0
LINE
  5
2B5
100
AcDbEntity
  8
0
100
AcDbLine
 62
7
  6
CONTINUOUS
 10
5.3614970839
 20
11.8187977814
 11
5.3521220839
 21
11.8281727814
  0
LINE
  5
2B6
100
AcDbEntity
  8
0
100
AcDbLine
 62
7
  6
CONTINUOUS
 10
4.0021220839
 20
13.3562977814
 11
3.9771220839
 21
13.3812977814
  0
LINE
  5
2B7
100
AcDbEntity
  8
0
100
AcDbLine
 62
7
  6
CONTINUOUS
 10
5.3614970839
 20
11.8187977814
 11
6.7802470839
 21
11.8187977814
  0
LINE
  5
2B8
100
AcDbEntity
  8
0
100
AcDbLine
 62
7
  6
CONTINUOUS
 10
5.3521220839
 20
11.8281727814
 11
6.7896220839
 21
11.8281727814
  0
LINE
  5
2B9
100
AcDbEntity
  8
0
100
AcDbLine
 62
7
  6
CONTINUOUS
 10
5.3521220839
 20
12.1212977814
 11
5.3521220839
 21
11.8281727814
  0
LINE
  5
2BA
100
AcDbEntity
  8
0
100
AcDbLine
 62
7
  6
CONTINUOUS
 10
6.0121220839
 20
11.9283159531
 11
6.0708720839
 21
11.8943966247
  0
LINE
  5
2BB
100
AcDbEntity
  8
0
100
AcDbLine
 62
7
  6
CONTINUOUS
 10
5.5114970839
 20
12.1312977814
 11
5.5114970839
 21
12.1212977814
  0
LINE
  5
2BC
100
AcDbEntity
  8
0
100
AcDbLine
 62
7
  6
CONTINUOUS
 10
6.7896220839
 20
12.1212977814
 11
5.3521220839
 21
12.1212977814
  0
LINE
  5
2BD
100
AcDbEntity
  8
0
100
AcDbLine
 62
7
  6
CONTINUOUS
 10
3.9771220839
 20
12.1312977814
 11
8.1646220839
 21
12.1312977814
  0
LINE
  5
2BE
100
AcDbEntity
  8
0
100
AcDbLine
 62
7
  6
CONTINUOUS
 10
6.1296220839
 20
11.9961546097
 11
6.0708720839
 21
12.030073938
  0
LINE
  5
2BF
100
AcDbEntity
  8
0
100
AcDbLine
 62
7
  6
CONTINUOUS
 10
7.3851379391
 20
12.4437977814
 11
7.3833720839
 21
12.4437977814
  0
LINE
  5
2C0
100
AcDbEntity
  8
0
100
AcDbLine
 62
7
  6
CONTINUOUS
 10
7.8208720839
 20
12.4437977814
 11
7.3884873041
 21
12.4437977814
  0
LINE
  5
2C1
100
AcDbEntity
  8
0
100
AcDbLine
 62
7
  6
CONTINUOUS
 10
4.7583720839
 20
12.4437977814
 11
4.7566062286
 21
12.4437977814
  0
LINE
  5
2C2
100
AcDbEntity
  8
0
100
AcDbLine
 62
7
  6
CONTINUOUS
 10
4.3208720839
 20
12.4437977814
 11
4.7532568637
 21
12.4437977814
  0
LINE
  5
2C3
100
AcDbEntity
  8
0
100
AcDbLine
 62
7
  6
CONTINUOUS
 10
6.0121220839
 20
11.9283159531
 11
6.0121220839
 21
11.9961546097
  0
LINE
  5
2C4
100
AcDbEntity
  8
0
100
AcDbLine
 62
7
  6
CONTINUOUS
 10
6.8221730389
 20
12.5939180182
 11
7.0716049559
 21
12.5939180182
  0
LINE
  5
2C5
100
AcDbEntity
  8
0
100
AcDbLine
 62
7
  6
CONTINUOUS
 10
7.7114970839
 20
12.6000477814
 11
7.5552470839
 21
12.6000477814
  0
LINE
  5
2C6
100
AcDbEntity
  8
0
100
AcDbLine
 62
7
  6
CONTINUOUS
 10
4.5864970839
 20
12.6000477814
 11
4.4302470839
 21
12.6000477814
  0
LINE
  5
2C7
100
AcDbEntity
  8
0
100
AcDbLine
 62
7
  6
CONTINUOUS
 10
6.1296220839
 20
11.9961546097
 11
6.1296220839
 21
11.9283159531
  0
LINE
  5
2C8
100
AcDbEntity
  8
0
100
AcDbLine
 62
7
  6
CONTINUOUS
 10
6.9606615384
 20
12.6469227814
 11
7.0189542296
 21
12.6469227814
  0
LINE
  5
2C9
100
AcDbEntity
  8
0
100
AcDbLine
 62
7
  6
CONTINUOUS
 10
7.0355137812
 20
12.6469227814
 11
7.0718861622
 21
12.6469227814
  0
LINE
  5
2CA
100
AcDbEntity
  8
0
100
AcDbLine
 62
7
  6
CONTINUOUS
 10
6.9379296919
 20
12.7562977814
 11
6.9160093817
 21
12.7562977814
  0
LINE
  5
2CB
100
AcDbEntity
  8
0
100
AcDbLine
 62
7
  6
CONTINUOUS
 10
6.8727311737
 20
12.7562977814
 11
6.7558817781
 21
12.7562977814
  0
LINE
  5
2CC
100
AcDbEntity
  8
03__ASM_ALL_CURVES
100
AcDbLine
 62
4
  6
CONTINUOUS
 10
4.0708720839
 20
12.7562977814
 11
5.0708703786
 21
12.7562977814
  0
LINE
  5
2CD
100
AcDbEntity
  8
03__ASM_ALL_CURVES
100
AcDbLine
 62
4
  6
CONTINUOUS
 10
7.164157887
 20
12.7562977814
 11
7.5708720839
 21
12.7562977814
  0
LINE
  5
2CE
100
AcDbEntity
  8
0
100
AcDbLine
 62
7
  6
CONTINUOUS
 10
6.7946220839
 20
12.0459852814
 11
6.7890618391
 21
12.0515455261
  0
LINE
  5
2CF
100
AcDbEntity
  8
0
100
AcDbLine
 62
7
  6
CONTINUOUS
 10
7.0718861622
 20
12.8656727814
 11
7.0355137812
 21
12.8656727814
  0
LINE
  5
2D0
100
AcDbEntity
  8
0
100
AcDbLine
 62
7
  6
CONTINUOUS
 10
7.0189542296
 20
12.8656727814
 11
6.9606615384
 21
12.8656727814
  0
LINE
  5
2D1
100
AcDbEntity
  8
0
100
AcDbLine
 62
7
  6
CONTINUOUS
 10
4.4302470839
 20
12.9125477814
 11
4.5864970839
 21
12.9125477814
  0
LINE
  5
2D2
100
AcDbEntity
  8
0
100
AcDbLine
 62
7
  6
CONTINUOUS
 10
7.5552470839
 20
12.9125477814
 11
7.7114970839
 21
12.9125477814
  0
LINE
  5
2D3
100
AcDbEntity
  8
0
100
AcDbLine
 62
7
  6
CONTINUOUS
 10
7.0716049559
 20
12.9186775446
 11
6.8221730389
 21
12.9186775446
  0
LINE
  5
2D4
100
AcDbEntity
  8
0
100
AcDbLine
 62
7
  6
CONTINUOUS
 10
6.6302470839
 20
12.1212977814
 11
6.6302470839
 21
12.1312977814
  0
LINE
  5
2D5
100
AcDbEntity
  8
0
100
AcDbLine
 62
7
  6
CONTINUOUS
 10
6.8221730389
 20
12.9186775446
 11
6.7558817781
 21
12.7562977814
  0
LINE
  5
2D6
100
AcDbEntity
  8
0
100
AcDbLine
 62
7
  6
CONTINUOUS
 10
6.0708720839
 20
12.030073938
 11
6.0121220839
 21
11.9961546097
  0
LINE
  5
2D7
100
AcDbEntity
  8
0
100
AcDbLine
 62
7
  6
CONTINUOUS
 10
6.0708720839
 20
11.8943966247
 11
6.1296220839
 21
11.9283159531
  0
LINE
  5
2D8
100
AcDbEntity
  8
0
100
AcDbLine
 62
7
  6
CONTINUOUS
 10
4.7532568637
 20
13.0687977814
 11
4.3208720839
 21
13.0687977814
  0
LINE
  5
2D9
100
AcDbEntity
  8
0
100
AcDbLine
 62
7
  6
CONTINUOUS
 10
4.7566062286
 20
13.0687977814
 11
4.7583720839
 21
13.0687977814
  0
LINE
  5
2DA
100
AcDbEntity
  8
0
100
AcDbLine
 62
7
  6
CONTINUOUS
 10
7.3833720839
 20
13.0687977814
 11
7.3851379391
 21
13.0687977814
  0
LINE
  5
2DB
100
AcDbEntity
  8
0
100
AcDbLine
 62
7
  6
CONTINUOUS
 10
7.3884873041
 20
13.0687977814
 11
7.8208720839
 21
13.0687977814
  0
LINE
  5
2DC
100
AcDbEntity
  8
0
100
AcDbLine
 62
7
  6
CONTINUOUS
 10
6.7846220839
 20
12.0025659459
 11
6.7846220839
 21
11.9219046169
  0
LINE
  5
2DD
100
AcDbEntity
  8
0
100
AcDbLine
 62
7
  6
CONTINUOUS
 10
6.7896220839
 20
11.8281727814
 11
6.7896220839
 21
11.8684852814
  0
LINE
  5
2DE
100
AcDbEntity
  8
0
100
AcDbLine
 62
7
  6
CONTINUOUS
 10
6.7896220839
 20
12.0559852814
 11
6.7896220839
 21
12.1212977814
  0
LINE
  5
2DF
100
AcDbEntity
  8
0
100
AcDbLine
 62
7
  6
CONTINUOUS
 10
6.7946220839
 20
11.8784852814
 11
6.7946220839
 21
12.0459852814
  0
LINE
  5
2E0
100
AcDbEntity
  8
0
100
AcDbLine
 62
7
  6
CONTINUOUS
 10
6.8727311737
 20
12.7562977814
 11
6.9390224345
 21
12.9186775446
  0
LINE
  5
2E1
100
AcDbEntity
  8
0
100
AcDbLine
 62
7
  6
CONTINUOUS
 10
6.9606615384
 20
12.8656727814
 11
6.9160093817
 21
12.7562977814
  0
LINE
  5
2E2
100
AcDbEntity
  8
0
100
AcDbLine
 62
7
  6
CONTINUOUS
 10
6.9379296919
 20
12.7562977814
 11
6.9561158824
 21
12.8008446684
  0
LINE
  5
2E3
100
AcDbEntity
  8
0
100
AcDbLine
 62
7
  6
CONTINUOUS
 10
6.9643956582
 20
12.8211258943
 11
6.9825818486
 21
12.8656727814
  0
LINE
  5
2E4
100
AcDbEntity
  8
0
100
AcDbLine
 62
7
  6
CONTINUOUS
 10
6.7558817781
 20
12.7562977814
 11
6.8221730389
 21
12.5939180182
  0
LINE
  5
2E5
100
AcDbEntity
  8
0
100
AcDbLine
 62
7
  6
CONTINUOUS
 10
6.7896220839
 20
11.8684852814
 11
6.7891579833
 21
11.8721124024
  0
LINE
  5
2E6
100
AcDbEntity
  8
0
100
AcDbLine
 62
7
  6
CONTINUOUS
 10
6.7891538514
 20
12.0523252231
 11
6.7896220839
 21
12.0559852814
  0
LINE
  5
2E7
100
AcDbEntity
  8
0
100
AcDbLine
 62
7
  6
CONTINUOUS
 10
7.0885653948
 20
12.6877783906
 11
7.0718861622
 21
12.6469227814
  0
LINE
  5
2E8
100
AcDbEntity
  8
0
100
AcDbLine
 62
7
  6
CONTINUOUS
 10
3.9771220839
 20
13.3812977814
 11
8.1646220839
 21
13.3812977814
  0
LINE
  5
2E9
100
AcDbEntity
  8
0
100
AcDbLine
 62
7
  6
CONTINUOUS
 10
6.9390224345
 20
12.5939180182
 11
6.8727311737
 21
12.7562977814
  0
LINE
  5
2EA
100
AcDbEntity
  8
0
100
AcDbLine
 62
7
  6
CONTINUOUS
 10
6.9160093817
 20
12.7562977814
 11
6.9606615384
 21
12.6469227814
  0
LINE
  5
2EB
100
AcDbEntity
  8
0
100
AcDbLine
 62
7
  6
CONTINUOUS
 10
6.9825818486
 20
12.6469227814
 11
6.9643956582
 21
12.6914696684
  0
LINE
  5
2EC
100
AcDbEntity
  8
0
100
AcDbLine
 62
7
  6
CONTINUOUS
 10
6.9561158824
 20
12.7117508943
 11
6.9379296919
 21
12.7562977814
  0
LINE
  5
2ED
100
AcDbEntity
  8
0
100
AcDbLine
 62
7
  6
CONTINUOUS
 10
7.1096053065
 20
12.686999487
 11
7.0716049559
 21
12.5939180182
  0
LINE
  5
2EE
100
AcDbEntity
  8
0
100
AcDbLine
 62
7
  6
CONTINUOUS
 10
8.1396220839
 20
13.3562977814
 11
8.1646220839
 21
13.3812977814
  0
LINE
  5
2EF
100
AcDbEntity
  8
0
100
AcDbLine
 62
7
  6
CONTINUOUS
 10
6.7890619955
 20
11.872925193
 11
6.7946220839
 21
11.8784852814
  0
LINE
  5
2F0
100
AcDbEntity
  8
0
100
AcDbLine
 62
7
  6
CONTINUOUS
 10
6.7896220839
 20
11.8281727814
 11
6.7802470839
 21
11.8187977814
  0
LINE
  5
2F1
100
AcDbEntity
  8
0
100
AcDbLine
 62
7
  6
CONTINUOUS
 10
7.0718861622
 20
12.8656727814
 11
7.0886440271
 21
12.824624563
  0
LINE
  5
2F2
100
AcDbEntity
  8
0
100
AcDbLine
 62
7
  6
CONTINUOUS
 10
7.0716049559
 20
12.9186775446
 11
7.1096742062
 21
12.8254273065
  0
LINE
  5
2F3
100
AcDbEntity
  8
0
100
AcDbLine
 62
7
  6
CONTINUOUS
 10
8.1646220839
 20
12.1312977814
 11
8.1396220839
 21
12.1562977814
  0
LINE
  5
2F4
100
AcDbEntity
  8
0
100
AcDbLine
 62
7
  6
CONTINUOUS
 10
7.3851379391
 20
13.0687977814
 11
7.3851379391
 21
13.0562977814
  0
LINE
  5
2F5
100
AcDbEntity
  8
0
100
AcDbLine
 62
7
  6
CONTINUOUS
 10
7.3851379391
 20
12.4562977814
 11
7.3851379391
 21
12.4437977814
  0
LINE
  5
2F6
100
AcDbEntity
  8
0
100
AcDbLine
 62
7
  6
CONTINUOUS
 10
8.1646220839
 20
12.1312977814
 11
8.1646220839
 21
13.3812977814
  0
LINE
  5
2F7
100
AcDbEntity
  8
0
100
AcDbLine
 62
7
  6
CONTINUOUS
 10
16.3416052569
 20
4.3199997044
 11
15.0916052569
 21
4.3199997044
  0
LINE
  5
2F8
100
AcDbEntity
  8
0
100
AcDbLine
 62
7
  6
CONTINUOUS
 10
14.7791052569
 20
6.1543747044
 11
14.7884802569
 21
6.1637497044
  0
LINE
  5
2F9
100
AcDbEntity
  8
0
100
AcDbLine
 62
7
  6
CONTINUOUS
 10
14.8332324518
 20
6.1631893993
 11
14.8387927569
 21
6.1687497044
  0
LINE
  5
2FA
100
AcDbEntity
  8
0
100
AcDbLine
 62
7
  6
CONTINUOUS
 10
14.7791052569
 20
4.7356247044
 11
14.7884802569
 21
4.7262497044
  0
LINE
  5
2FB
100
AcDbEntity
  8
0
100
AcDbLine
 62
7
  6
CONTINUOUS
 10
15.5542254937
 20
6.4457325765
 11
15.6474757318
 21
6.4838018268
  0
LINE
  5
2FC
100
AcDbEntity
  8
0
100
AcDbLine
 62
7
  6
CONTINUOUS
 10
15.6072302569
 20
6.4460137828
 11
15.6482784753
 21
6.4627716477
  0
LINE
  5
2FD
100
AcDbEntity
  8
0
100
AcDbLine
 62
7
  6
CONTINUOUS
 10
14.7791052569
 20
6.1543633031
 11
14.7791052569
 21
4.7356361058
  0
LINE
  5
2FE
100
AcDbEntity
  8
0
100
AcDbLine
 62
7
  6
CONTINUOUS
 10
14.7884802569
 20
6.1637497044
 11
14.7884802569
 21
4.7262497044
  0
LINE
  5
2FF
100
AcDbEntity
  8
0
100
AcDbLine
 62
7
  6
CONTINUOUS
 10
15.8259802569
 20
6.3567094692
 11
15.7814333699
 21
6.3385232788
  0
LINE
  5
300
100
AcDbEntity
  8
0
100
AcDbLine
 62
7
  6
CONTINUOUS
 10
15.761152144
 20
6.3302435029
 11
15.7166052569
 21
6.3120573125
  0
LINE
  5
301
100
AcDbEntity
  8
0
100
AcDbLine
 62
7
  6
CONTINUOUS
 10
15.0816052569
 20
4.7262497044
 11
14.7884802569
 21
4.7262497044
  0
LINE
  5
302
100
AcDbEntity
  8
0
100
AcDbLine
 62
7
  6
CONTINUOUS
 10
15.7166052569
 20
6.2901370022
 11
15.8259802569
 21
6.334789159
  0
LINE
  5
303
100
AcDbEntity
  8
0
100
AcDbLine
 62
7
  6
CONTINUOUS
 10
15.8789850201
 20
6.313150055
 11
15.7166052569
 21
6.2468587943
  0
LINE
  5
304
100
AcDbEntity
  8
0
100
AcDbLine
 62
7
  6
CONTINUOUS
 10
14.8886234286
 20
5.5037497044
 11
14.8547041003
 21
5.4449997044
  0
LINE
  5
305
100
AcDbEntity
  8
0
100
AcDbLine
 62
7
  6
CONTINUOUS
 10
15.8789850201
 20
6.1963006595
 11
15.7166052569
 21
6.1300093987
  0
LINE
  5
306
100
AcDbEntity
  8
0
100
AcDbLine
 62
7
  6
CONTINUOUS
 10
15.0916052569
 20
4.8856247044
 11
15.0816052569
 21
4.8856247044
  0
LINE
  5
307
100
AcDbEntity
  8
0
100
AcDbLine
 62
7
  6
CONTINUOUS
 10
14.8547041003
 20
5.4449997044
 11
14.8886234286
 21
5.3862497044
  0
LINE
  5
308
100
AcDbEntity
  8
0
100
AcDbLine
 62
7
  6
CONTINUOUS
 10
15.0816052569
 20
4.726261265
 11
15.0816052569
 21
6.1637381439
  0
LINE
  5
309
100
AcDbEntity
  8
0
100
AcDbLine
 62
7
  6
CONTINUOUS
 10
15.0916052569
 20
4.3199997044
 11
15.0916052569
 21
6.5762350143
  0
LINE
  5
30A
100
AcDbEntity
  8
0
100
AcDbLine
 62
7
  6
CONTINUOUS
 10
14.9564620853
 20
5.3862497044
 11
14.9903814136
 21
5.4449997044
  0
LINE
  5
30B
100
AcDbEntity
  8
0
100
AcDbLine
 62
7
  6
CONTINUOUS
 10
15.1166052569
 20
4.9449997044
 11
16.3166052569
 21
4.9449997044
  0
LINE
  5
30C
100
AcDbEntity
  8
0
100
AcDbLine
 62
7
  6
CONTINUOUS
 10
16.0291052569
 20
5.0074997044
 11
15.4041052569
 21
5.0074997044
  0
LINE
  5
30D
100
AcDbEntity
  8
0
100
AcDbLine
 62
7
  6
CONTINUOUS
 10
14.9903814136
 20
5.4449997044
 11
14.9564620853
 21
5.5037497044
  0
LINE
  5
30E
100
AcDbEntity
  8
0
100
AcDbLine
 62
7
  6
CONTINUOUS
 10
15.4041052569
 20
4.9449997044
 11
15.4041052569
 21
4.9949997044
  0
LINE
  5
30F
100
AcDbEntity
  8
0
100
AcDbLine
 62
7
  6
CONTINUOUS
 10
15.4041052569
 20
5.0074997044
 11
15.4041052569
 21
5.0140899661
  0
LINE
  5
310
100
AcDbEntity
  8
0
100
AcDbLine
 62
7
  6
CONTINUOUS
 10
15.5542254937
 20
6.4457325765
 11
15.5542254937
 21
6.1963006595
  0
LINE
  5
311
100
AcDbEntity
  8
0
100
AcDbLine
 62
7
  6
CONTINUOUS
 10
14.9564620853
 20
5.3862497044
 11
14.8886234286
 21
5.3862497044
  0
LINE
  5
312
100
AcDbEntity
  8
0
100
AcDbLine
 62
7
  6
CONTINUOUS
 10
15.6072302569
 20
6.4460137828
 11
15.6072302569
 21
6.4096414018
  0
LINE
  5
313
100
AcDbEntity
  8
0
100
AcDbLine
 62
7
  6
CONTINUOUS
 10
15.6072302569
 20
6.3930818502
 11
15.6072302569
 21
6.334789159
  0
LINE
  5
314
100
AcDbEntity
  8
0
100
AcDbLine
 62
7
  6
CONTINUOUS
 10
14.8886234286
 20
5.5037497044
 11
14.9564620853
 21
5.5037497044
  0
LINE
  5
315
100
AcDbEntity
  8
0
100
AcDbLine
 62
7
  6
CONTINUOUS
 10
15.7166052569
 20
6.3120573125
 11
15.7166052569
 21
6.2901370022
  0
LINE
  5
316
100
AcDbEntity
  8
0
100
AcDbLine
 62
7
  6
CONTINUOUS
 10
15.7166052569
 20
6.2468587943
 11
15.7166052569
 21
6.1300093987
  0
LINE
  5
317
100
AcDbEntity
  8
0
100
AcDbLine
 62
7
  6
CONTINUOUS
 10
15.0062927569
 20
6.1687497044
 11
15.0118530604
 21
6.163189401
  0
LINE
  5
318
100
AcDbEntity
  8
0
100
AcDbLine
 62
7
  6
CONTINUOUS
 10
15.8259802569
 20
6.334789159
 11
15.8259802569
 21
6.3930818502
  0
LINE
  5
319
100
AcDbEntity
  8
0
100
AcDbLine
 62
7
  6
CONTINUOUS
 10
15.8259802569
 20
6.4096414018
 11
15.8259802569
 21
6.4460137828
  0
LINE
  5
31A
100
AcDbEntity
  8
0
100
AcDbLine
 62
7
  6
CONTINUOUS
 10
15.8789850201
 20
6.1963006595
 11
15.8789850201
 21
6.4457325765
  0
LINE
  5
31B
100
AcDbEntity
  8
0
100
AcDbLine
 62
7
  6
CONTINUOUS
 10
16.0291052569
 20
5.0140899661
 11
16.0291052569
 21
5.0074997044
  0
LINE
  5
31C
100
AcDbEntity
  8
0
100
AcDbLine
 62
7
  6
CONTINUOUS
 10
16.0291052569
 20
4.9949997044
 11
16.0291052569
 21
4.9449997044
  0
LINE
  5
31D
100
AcDbEntity
  8
0
100
AcDbLine
 62
7
  6
CONTINUOUS
 10
15.0916052569
 20
6.0043747044
 11
15.0816052569
 21
6.0043747044
  0
LINE
  5
31E
100
AcDbEntity
  8
0
100
AcDbLine
 62
7
  6
CONTINUOUS
 10
14.8287927569
 20
6.1637497044
 11
14.8324593985
 21
6.1632806463
  0
LINE
  5
31F
100
AcDbEntity
  8
0
100
AcDbLine
 62
7
  6
CONTINUOUS
 10
14.9628734214
 20
6.1587497044
 11
14.8822120924
 21
6.1587497044
  0
LINE
  5
320
100
AcDbEntity
  8
0
100
AcDbLine
 62
7
  6
CONTINUOUS
 10
15.0816052569
 20
6.1637497044
 11
15.0162927569
 21
6.1637497044
  0
LINE
  5
321
100
AcDbEntity
  8
0
100
AcDbLine
 62
7
  6
CONTINUOUS
 10
14.8287927569
 20
6.1637497044
 11
14.7884802569
 21
6.1637497044
  0
LINE
  5
322
100
AcDbEntity
  8
0
100
AcDbLine
 62
7
  6
CONTINUOUS
 10
15.0062927569
 20
6.1687497044
 11
14.8387927569
 21
6.1687497044
  0
LINE
  5
323
100
AcDbEntity
  8
0
100
AcDbLine
 62
7
  6
CONTINUOUS
 10
15.7166052569
 20
6.1300093987
 11
15.5542254937
 21
6.1963006595
  0
LINE
  5
324
100
AcDbEntity
  8
0
100
AcDbLine
 62
7
  6
CONTINUOUS
 10
16.3416052569
 20
4.3199997044
 11
16.3416052569
 21
6.5762350143
  0
LINE
  5
325
100
AcDbEntity
  8
0
100
AcDbLine
 62
7
  6
CONTINUOUS
 10
15.0126258636
 20
6.1632806147
 11
15.0162927569
 21
6.1637497044
  0
LINE
  5
326
100
AcDbEntity
  8
0
100
AcDbLine
 62
7
  6
CONTINUOUS
 10
15.7166052569
 20
6.2468587943
 11
15.5542254937
 21
6.313150055
  0
LINE
  5
327
100
AcDbEntity
  8
0
100
AcDbLine
 62
7
  6
CONTINUOUS
 10
15.6072302569
 20
6.334789159
 11
15.7166052569
 21
6.2901370022
  0
LINE
  5
328
100
AcDbEntity
  8
0
100
AcDbLine
 62
7
  6
CONTINUOUS
 10
15.7166052569
 20
6.3120573125
 11
15.6720583699
 21
6.3302435029
  0
LINE
  5
329
100
AcDbEntity
  8
0
100
AcDbLine
 62
7
  6
CONTINUOUS
 10
15.651777144
 20
6.3385232788
 11
15.6072302569
 21
6.3567094692
  0
LINE
  5
32A
100
AcDbEntity
  8
0
100
AcDbLine
 62
7
  6
CONTINUOUS
 10
15.7851246477
 20
6.4626930154
 11
15.8259802569
 21
6.4460137828
  0
LINE
  5
32B
100
AcDbEntity
  8
0
100
AcDbLine
 62
7
  6
CONTINUOUS
 10
15.7859035513
 20
6.4837329271
 11
15.8789850201
 21
6.4457325765
  0
LINE
  5
32C
100
AcDbEntity
  8
0
100
AcDbLine
 62
7
  6
CONTINUOUS
 10
15.1166052569
 20
6.6012497044
 11
16.3166052569
 21
6.6012497044
  0
LINE
  5
32D
100
AcDbEntity
  8
0
100
AcDbLine
 62
7
  6
CONTINUOUS
 10
13.4833453945
 20
11.3172635153
 11
13.3003202746
 21
11.6902294963
  0
LINE
  5
32E
100
AcDbEntity
  8
0
100
AcDbLine
 62
7
  6
CONTINUOUS
 10
13.4648071617
 20
12.0887599659
 11
13.480059255
 21
12.0576794675
  0
LINE
  5
32F
100
AcDbEntity
  8
0
100
AcDbLine
 62
7
  6
CONTINUOUS
 10
13.300187472
 20
11.6999606442
 11
13.4475073185
 21
12.1766878423
  0
LINE
  5
330
100
AcDbEntity
  8
0
100
AcDbLine
 62
7
  6
CONTINUOUS
 10
13.4797277291
 20
12.2809531292
 11
13.6013179889
 21
12.6744193539
  0
LINE
  5
331
100
AcDbEntity
  8
0
100
AcDbLine
 62
7
  6
CONTINUOUS
 10
13.9995189487
 20
11.7305166798
 11
13.9540458632
 21
12.2158262285
  0
LINE
  5
332
100
AcDbEntity
  8
0
100
AcDbLine
 62
7
  6
CONTINUOUS
 10
13.9248795141
 20
12.1985062886
 11
13.9130514076
 21
12.2500541018
  0
LINE
  5
333
100
AcDbEntity
  8
0
100
AcDbLine
 62
7
  6
CONTINUOUS
 10
13.9699910577
 20
12.3775376756
 11
14.0902711899
 21
12.7667643262
  0
LINE
  5
334
100
AcDbEntity
  8
0
100
AcDbLine
 62
7
  6
CONTINUOUS
 10
14.1401905135
 20
12.9283033166
 11
14.2604706458
 21
13.3175299672
  0
LINE
  5
335
100
AcDbEntity
  8
0
100
AcDbLine
 62
7
  6
CONTINUOUS
 10
13.9248795141
 20
12.1985062886
 11
13.8980867454
 21
12.1118048574
  0
LINE
  5
336
100
AcDbEntity
  8
0
100
AcDbLine
 62
7
  6
CONTINUOUS
 10
17.3402883069
 20
11.3172635153
 11
13.4833453945
 21
11.3172635153
  0
LINE
  5
337
100
AcDbEntity
  8
0
100
AcDbLine
 62
7
  6
CONTINUOUS
 10
14.2637396407
 20
12.2653092213
 11
14.2597446232
 21
12.2510381127
  0
LINE
  5
338
100
AcDbEntity
  8
0
100
AcDbLine
 62
7
  6
CONTINUOUS
 10
14.3795153557
 20
12.2209505088
 11
14.3085596647
 21
11.9913378084
  0
LINE
  5
339
100
AcDbEntity
  8
0
100
AcDbLine
 62
7
  6
CONTINUOUS
 10
14.5179785409
 20
12.390938458
 11
14.5167682093
 21
12.3870218234
  0
LINE
  5
33A
100
AcDbEntity
  8
0
100
AcDbLine
 62
7
  6
CONTINUOUS
 10
14.4269277719
 20
12.4537577201
 11
14.5167682093
 21
12.3870218234
  0
LINE
  5
33B
100
AcDbEntity
  8
0
100
AcDbLine
 62
7
  6
CONTINUOUS
 10
14.5179785409
 20
12.390938458
 11
14.430728899
 21
12.455749842
  0
LINE
  5
33C
100
AcDbEntity
  8
0
100
AcDbLine
 62
7
  6
CONTINUOUS
 10
14.7656203837
 20
12.3512795116
 11
14.7610447557
 21
12.3606036611
  0
LINE
  5
33D
100
AcDbEntity
  8
0
100
AcDbLine
 62
7
  6
CONTINUOUS
 10
14.7255777141
 20
12.2870399085
 11
14.7222832614
 21
12.296225544
  0
LINE
  5
33E
100
AcDbEntity
  8
0
100
AcDbLine
 62
7
  6
CONTINUOUS
 10
14.7446233015
 20
12.3074638159
 11
14.7610447557
 21
12.3606036611
  0
LINE
  5
33F
100
AcDbEntity
  8
0
100
AcDbLine
 62
7
  6
CONTINUOUS
 10
14.7509488216
 20
12.3038023192
 11
14.7656203837
 21
12.3512795116
  0
LINE
  5
340
100
AcDbEntity
  8
0
100
AcDbLine
 62
7
  6
CONTINUOUS
 10
14.805084342
 20
12.466191157
 11
14.8038740104
 21
12.4622745224
  0
LINE
  5
341
100
AcDbEntity
  8
0
100
AcDbLine
 62
7
  6
CONTINUOUS
 10
14.8692694225
 20
12.3606036611
 11
14.8528479683
 21
12.3074638159
  0
LINE
  5
342
100
AcDbEntity
  8
0
100
AcDbLine
 62
7
  6
CONTINUOUS
 10
15.7066543292
 20
11.8741938609
 11
15.7204702441
 21
11.8741938609
  0
LINE
  5
343
100
AcDbEntity
  8
0
100
AcDbLine
 62
7
  6
CONTINUOUS
 10
15.6969438467
 20
11.9372833692
 11
15.7107597616
 21
11.9372833692
  0
LINE
  5
344
100
AcDbEntity
  8
0
100
AcDbLine
 62
7
  6
CONTINUOUS
 10
16.9086681497
 20
11.9505594047
 11
16.540424146
 21
11.9505594047
  0
LINE
  5
345
100
AcDbEntity
  8
0
100
AcDbLine
 62
7
  6
CONTINUOUS
 10
13.6849546706
 20
11.9505594047
 11
13.9789011354
 21
11.9505594047
  0
LINE
  5
346
100
AcDbEntity
  8
0
100
AcDbLine
 62
7
  6
CONTINUOUS
 10
15.7443056457
 20
11.9854942312
 11
15.8584880777
 21
11.9854942312
  0
LINE
  5
347
100
AcDbEntity
  8
0
100
AcDbLine
 62
7
  6
CONTINUOUS
 10
15.7455159773
 20
11.9894108657
 11
15.8567959491
 21
11.9894108657
  0
LINE
  5
348
100
AcDbEntity
  8
0
100
AcDbLine
 62
7
  6
CONTINUOUS
 10
14.2597446232
 20
12.2510381127
 11
14.3768310243
 21
12.2127391417
  0
LINE
  5
349
100
AcDbEntity
  8
0
100
AcDbLine
 62
7
  6
CONTINUOUS
 10
15.7434140676
 20
11.7657297205
 11
15.8579092292
 21
11.7282783441
  0
LINE
  5
34A
100
AcDbEntity
  8
0
100
AcDbLine
 62
7
  6
CONTINUOUS
 10
14.3781053127
 20
12.216634856
 11
14.2609549548
 21
12.2549547473
  0
LINE
  5
34B
100
AcDbEntity
  8
0
100
AcDbLine
 62
7
  6
CONTINUOUS
 10
15.7446243993
 20
11.769646355
 11
15.8591195608
 21
11.7321949786
  0
LINE
  5
34C
100
AcDbEntity
  8
0
100
AcDbLine
 62
7
  6
CONTINUOUS
 10
15.8775448783
 20
11.7821113465
 11
15.7597522197
 21
11.8206413344
  0
LINE
  5
34D
100
AcDbEntity
  8
0
100
AcDbLine
 62
7
  6
CONTINUOUS
 10
14.397172931
 20
12.2663411272
 11
14.2793802724
 21
12.3048711151
  0
LINE
  5
34E
100
AcDbEntity
  8
0
100
AcDbLine
 62
7
  6
CONTINUOUS
 10
15.6779168532
 20
11.8310036787
 11
15.7040487899
 21
11.8210540157
  0
LINE
  5
34F
100
AcDbEntity
  8
0
100
AcDbLine
 62
7
  6
CONTINUOUS
 10
14.7446233015
 20
12.3074638159
 11
14.7905249078
 21
12.2808938932
  0
LINE
  5
350
100
AcDbEntity
  8
0
100
AcDbLine
 62
7
  6
CONTINUOUS
 10
15.7103617297
 20
11.5793917391
 11
15.6904109869
 21
11.5942116882
  0
LINE
  5
351
100
AcDbEntity
  8
0
100
AcDbLine
 62
7
  6
CONTINUOUS
 10
14.5812823379
 20
12.4181023218
 11
14.4914419005
 21
12.4848382185
  0
LINE
  5
352
100
AcDbEntity
  8
0
100
AcDbLine
 62
7
  6
CONTINUOUS
 10
14.8279434442
 20
12.3778494342
 11
14.8233678162
 21
12.3871735837
  0
LINE
  5
353
100
AcDbEntity
  8
0
100
AcDbLine
 62
7
  6
CONTINUOUS
 10
14.8038740104
 20
12.4622745224
 11
14.7660584668
 21
12.5393344983
  0
LINE
  5
354
100
AcDbEntity
  8
0
100
AcDbLine
 62
7
  6
CONTINUOUS
 10
14.805084342
 20
12.466191157
 11
14.7691599886
 21
12.5393972923
  0
LINE
  5
355
100
AcDbEntity
  8
0
100
AcDbLine
 62
7
  6
CONTINUOUS
 10
14.8581645662
 20
12.5393344983
 11
14.8959801098
 21
12.4622745224
  0
LINE
  5
356
100
AcDbEntity
  8
0
100
AcDbLine
 62
7
  6
CONTINUOUS
 10
15.6330103
 20
13.1694268855
 11
15.5610288373
 21
13.0967921364
  0
LINE
  5
357
100
AcDbEntity
  8
0
100
AcDbLine
 62
7
  6
CONTINUOUS
 10
15.6330103
 20
13.1694268855
 11
15.7535968767
 21
13.2554160151
  0
LINE
  5
358
100
AcDbEntity
  8
0
100
AcDbLine
 62
7
  6
CONTINUOUS
 10
15.699577165
 20
13.1561506033
 11
15.7326586063
 21
13.1797406614
  0
LINE
  5
359
100
AcDbEntity
  8
0
100
AcDbLine
 62
7
  6
CONTINUOUS
 10
15.7477198649
 20
13.1904807003
 11
15.7808013062
 21
13.2140707583
  0
LINE
  5
35A
100
AcDbEntity
  8
0
100
AcDbLine
 62
7
  6
CONTINUOUS
 10
14.5207175842
 20
12.3828439086
 11
14.5200537515
 21
12.3823745866
  0
LINE
  5
35B
100
AcDbEntity
  8
0
100
AcDbLine
 62
7
  6
CONTINUOUS
 10
14.5213703662
 20
12.3832101405
 11
14.5199774328
 21
12.3824267958
  0
LINE
  5
35C
100
AcDbEntity
  8
0
100
AcDbLine
 62
7
  6
CONTINUOUS
 10
14.3259630636
 20
12.047655228
 11
14.2788014239
 21
12.047655228
  0
LINE
  5
35D
100
AcDbEntity
  8
0
100
AcDbLine
 62
7
  6
CONTINUOUS
 10
15.713801459
 20
12.047655228
 11
15.827983891
 21
12.047655228
  0
LINE
  5
35E
100
AcDbEntity
  8
0
100
AcDbLine
 62
7
  6
CONTINUOUS
 10
16.8266848498
 20
12.1118048574
 11
16.6827690695
 21
12.1118048574
  0
LINE
  5
35F
100
AcDbEntity
  8
0
100
AcDbLine
 62
7
  6
CONTINUOUS
 10
13.9483692435
 20
12.1118048574
 11
13.8044534632
 21
12.1118048574
  0
LINE
  5
360
100
AcDbEntity
  8
0
100
AcDbLine
 62
7
  6
CONTINUOUS
 10
13.9556687266
 20
12.1985062886
 11
13.9248795141
 21
12.1985062886
  0
LINE
  5
361
100
AcDbEntity
  8
0
100
AcDbLine
 62
7
  6
CONTINUOUS
 10
16.6761798859
 20
12.1985062886
 11
16.990258408
 21
12.1985062886
  0
LINE
  5
362
100
AcDbEntity
  8
0
100
AcDbLine
 62
7
  6
CONTINUOUS
 10
15.6831733771
 20
11.9425264376
 11
15.6969438467
 21
11.9372833692
  0
LINE
  5
363
100
AcDbEntity
  8
0
100
AcDbLine
 62
7
  6
CONTINUOUS
 10
15.7107597616
 20
11.9372833692
 11
15.6846278248
 21
11.9472330322
  0
LINE
  5
364
100
AcDbEntity
  8
0
100
AcDbLine
 62
7
  6
CONTINUOUS
 10
14.8279434442
 20
12.3778494342
 11
14.8675195304
 21
12.3549410083
  0
LINE
  5
365
100
AcDbEntity
  8
0
100
AcDbLine
 62
7
  6
CONTINUOUS
 10
14.8692694225
 20
12.3606036611
 11
14.8233678162
 21
12.3871735837
  0
LINE
  5
366
100
AcDbEntity
  8
0
100
AcDbLine
 62
7
  6
CONTINUOUS
 10
15.2581535644
 20
12.390938458
 11
15.2569432328
 21
12.3870218234
  0
LINE
  5
367
100
AcDbEntity
  8
0
100
AcDbLine
 62
7
  6
CONTINUOUS
 10
15.1862669121
 20
12.4848382185
 11
15.1619249176
 21
12.4181023218
  0
LINE
  5
368
100
AcDbEntity
  8
0
100
AcDbLine
 62
7
  6
CONTINUOUS
 10
15.2581535644
 20
12.390938458
 11
15.2810925911
 21
12.4538279844
  0
LINE
  5
369
100
AcDbEntity
  8
0
100
AcDbLine
 62
7
  6
CONTINUOUS
 10
15.2569432328
 20
12.3870218234
 11
15.2812852274
 21
12.4537577201
  0
LINE
  5
36A
100
AcDbEntity
  8
0
100
AcDbLine
 62
7
  6
CONTINUOUS
 10
15.699577165
 20
13.1561506033
 11
15.6860738346
 21
13.14252472
  0
LINE
  5
36B
100
AcDbEntity
  8
0
100
AcDbLine
 62
7
  6
CONTINUOUS
 10
15.6030020695
 20
12.9283883898
 11
15.6749835322
 21
13.0010231389
  0
LINE
  5
36C
100
AcDbEntity
  8
0
100
AcDbLine
 62
7
  6
CONTINUOUS
 10
15.7143459676
 20
13.0290921135
 11
15.727849298
 21
13.0427179969
  0
LINE
  5
36D
100
AcDbEntity
  8
0
100
AcDbLine
 62
7
  6
CONTINUOUS
 10
15.9185697136
 20
13.0451257003
 11
15.8854882722
 21
13.0215356423
  0
LINE
  5
36E
100
AcDbEntity
  8
0
100
AcDbLine
 62
7
  6
CONTINUOUS
 10
15.8704270136
 20
13.0107956034
 11
15.8373455723
 21
12.9872055453
  0
LINE
  5
36F
100
AcDbEntity
  8
0
100
AcDbLine
 62
7
  6
CONTINUOUS
 10
15.8238422419
 20
12.973579662
 11
15.9050663832
 21
13.031499817
  0
LINE
  5
370
100
AcDbEntity
  8
0
100
AcDbLine
 62
7
  6
CONTINUOUS
 10
14.5214373258
 20
12.38316412
 11
14.5207175842
 21
12.3828439086
  0
LINE
  5
371
100
AcDbEntity
  8
0
100
AcDbLine
 62
7
  6
CONTINUOUS
 10
16.9634968119
 20
12.2528924397
 11
16.8195810316
 21
12.2528924397
  0
LINE
  5
372
100
AcDbEntity
  8
0
100
AcDbLine
 62
7
  6
CONTINUOUS
 10
13.9412654254
 20
12.2528924397
 11
13.9529004626
 21
12.2528924397
  0
LINE
  5
373
100
AcDbEntity
  8
03__ASM_ALL_CURVES
100
AcDbLine
 62
4
  6
CONTINUOUS
 10
13.4998309615
 20
12.2575100608
 11
13.9527577713
 21
12.2575100608
  0
LINE
  5
374
100
AcDbEntity
  8
03__ASM_ALL_CURVES
100
AcDbLine
 62
4
  6
CONTINUOUS
 10
16.2680996399
 20
12.2575100608
 11
16.7235444406
 21
12.2575100608
  0
LINE
  5
375
100
AcDbEntity
  8
0
100
AcDbLine
 62
7
  6
CONTINUOUS
 10
13.8800991893
 20
12.3565945166
 11
13.9650375379
 21
12.3565945166
  0
LINE
  5
376
100
AcDbEntity
  8
0
100
AcDbLine
 62
7
  6
CONTINUOUS
 10
16.7584147956
 20
12.3565945166
 11
16.9023305759
 21
12.3565945166
  0
LINE
  5
377
100
AcDbEntity
  8
0
100
AcDbLine
 62
7
  6
CONTINUOUS
 10
15.491099497
 20
12.259485956
 11
15.4900784863
 21
12.2601677978
  0
LINE
  5
378
100
AcDbEntity
  8
0
100
AcDbLine
 62
7
  6
CONTINUOUS
 10
15.4897245266
 20
12.2586745358
 11
15.4887210504
 21
12.2593626156
  0
LINE
  5
379
100
AcDbEntity
  8
0
100
AcDbLine
 62
7
  6
CONTINUOUS
 10
15.5628997462
 20
12.2064241412
 11
15.5615778778
 21
12.2075039348
  0
LINE
  5
37A
100
AcDbEntity
  8
0
100
AcDbLine
 62
7
  6
CONTINUOUS
 10
15.5617003243
 20
12.2059468272
 11
15.560443285
 21
12.2070487424
  0
LINE
  5
37B
100
AcDbEntity
  8
0
100
AcDbLine
 62
7
  6
CONTINUOUS
 10
15.708127195
 20
11.9600399668
 11
15.7005630194
 21
11.9691022286
  0
LINE
  5
37C
100
AcDbEntity
  8
0
100
AcDbLine
 62
7
  6
CONTINUOUS
 10
15.6015877546
 20
11.8447174278
 11
15.6018849151
 21
11.8443150121
  0
LINE
  5
37D
100
AcDbEntity
  8
0
100
AcDbLine
 62
7
  6
CONTINUOUS
 10
15.6015877546
 20
11.8447174278
 11
15.6018382938
 21
11.8443094605
  0
LINE
  5
37E
100
AcDbEntity
  8
0
100
AcDbLine
 62
7
  6
CONTINUOUS
 10
15.8373455723
 20
12.9872055453
 11
15.8238422419
 21
12.973579662
  0
LINE
  5
37F
100
AcDbEntity
  8
0
100
AcDbLine
 62
7
  6
CONTINUOUS
 10
15.9185697136
 20
13.0451257003
 11
15.9050663832
 21
13.031499817
  0
LINE
  5
380
100
AcDbEntity
  8
0
100
AcDbLine
 62
7
  6
CONTINUOUS
 10
15.837543341
 20
12.9186085219
 11
15.7655618783
 21
12.8459737728
  0
LINE
  5
381
100
AcDbEntity
  8
0
100
AcDbLine
 62
7
  6
CONTINUOUS
 10
15.9581299177
 20
13.0045976515
 11
15.886148455
 21
12.9319629024
  0
LINE
  5
382
100
AcDbEntity
  8
0
100
AcDbLine
 62
7
  6
CONTINUOUS
 10
15.9581299177
 20
13.0045976515
 11
15.837543341
 21
12.9186085219
  0
LINE
  5
383
100
AcDbEntity
  8
0
100
AcDbLine
 62
7
  6
CONTINUOUS
 10
15.886148455
 20
12.9319629024
 11
15.7655618783
 21
12.8459737728
  0
LINE
  5
384
100
AcDbEntity
  8
0
100
AcDbLine
 62
7
  6
CONTINUOUS
 10
14.8233678162
 20
12.3871735837
 11
14.7610447557
 21
12.3606036611
  0
LINE
  5
385
100
AcDbEntity
  8
0
100
AcDbLine
 62
7
  6
CONTINUOUS
 10
14.7656203837
 20
12.3512795116
 11
14.8279434442
 21
12.3778494342
  0
LINE
  5
386
100
AcDbEntity
  8
0
100
AcDbLine
 62
7
  6
CONTINUOUS
 10
14.7905249078
 20
12.2808938932
 11
14.8528479683
 21
12.3074638159
  0
LINE
  5
387
100
AcDbEntity
  8
0
100
AcDbLine
 62
7
  6
CONTINUOUS
 10
13.8179682004
 20
12.4739276353
 11
13.9997778081
 21
12.4739276353
  0
LINE
  5
388
100
AcDbEntity
  8
0
100
AcDbLine
 62
7
  6
CONTINUOUS
 10
16.6415112766
 20
12.4739276353
 11
17.0416816794
 21
12.4739276353
  0
LINE
  5
389
100
AcDbEntity
  8
0
100
AcDbLine
 62
7
  6
CONTINUOUS
 10
16.6395567607
 20
12.4789893463
 11
16.6379303002
 21
12.4789893463
  0
LINE
  5
38A
100
AcDbEntity
  8
0
100
AcDbLine
 62
7
  6
CONTINUOUS
 10
15.6474290446
 20
12.2510381127
 11
15.6462873709
 21
12.2519241503
  0
LINE
  5
38B
100
AcDbEntity
  8
0
100
AcDbLine
 62
7
  6
CONTINUOUS
 10
15.6474290446
 20
12.2510381127
 11
15.6463192584
 21
12.2519371423
  0
LINE
  5
38C
100
AcDbEntity
  8
0
100
AcDbLine
 62
7
  6
CONTINUOUS
 10
15.5686622612
 20
12.2164247594
 11
15.5674519296
 21
12.2125081248
  0
LINE
  5
38D
100
AcDbEntity
  8
0
100
AcDbLine
 62
7
  6
CONTINUOUS
 10
14.7673329778
 20
12.5393859116
 11
14.7660584668
 21
12.5393344983
  0
LINE
  5
38E
100
AcDbEntity
  8
0
100
AcDbLine
 62
7
  6
CONTINUOUS
 10
14.767347567
 20
12.5393605976
 11
14.7660584668
 21
12.5393344983
  0
LINE
  5
38F
100
AcDbEntity
  8
0
100
AcDbLine
 62
7
  6
CONTINUOUS
 10
17.4488052048
 20
12.6748049606
 11
16.7689357128
 21
12.6748049606
  0
LINE
  5
390
100
AcDbEntity
  8
0
100
AcDbLine
 62
7
  6
CONTINUOUS
 10
14.0618535966
 20
12.6748049606
 11
13.601840749
 21
12.6748049606
  0
LINE
  5
391
100
AcDbEntity
  8
0
100
AcDbLine
 62
7
  6
CONTINUOUS
 10
15.6682063706
 20
11.894093187
 11
15.6779168532
 21
11.8310036787
  0
LINE
  5
392
100
AcDbEntity
  8
0
100
AcDbLine
 62
7
  6
CONTINUOUS
 10
15.6969438467
 20
11.9372833692
 11
15.7066543292
 21
11.8741938609
  0
LINE
  5
393
100
AcDbEntity
  8
0
100
AcDbLine
 62
7
  6
CONTINUOUS
 10
15.7204702441
 20
11.8741938609
 11
15.7107597616
 21
11.9372833692
  0
LINE
  5
394
100
AcDbEntity
  8
0
100
AcDbLine
 62
7
  6
CONTINUOUS
 10
15.5749585943
 20
12.3048711151
 11
15.4949814793
 21
12.2663411272
  0
LINE
  5
395
100
AcDbEntity
  8
0
100
AcDbLine
 62
7
  6
CONTINUOUS
 10
15.5686622612
 20
12.2164247594
 11
15.6447788524
 21
12.2530948911
  0
LINE
  5
396
100
AcDbEntity
  8
0
100
AcDbLine
 62
7
  6
CONTINUOUS
 10
15.5674519296
 20
12.2125081248
 11
15.6474290446
 21
12.2510381127
  0
LINE
  5
397
100
AcDbEntity
  8
0
100
AcDbLine
 62
7
  6
CONTINUOUS
 10
15.5610288373
 20
13.0967921364
 11
15.6030020695
 21
12.9283883898
  0
LINE
  5
398
100
AcDbEntity
  8
0
100
AcDbLine
 62
7
  6
CONTINUOUS
 10
15.6749835322
 20
13.0010231389
 11
15.6330103
 21
13.1694268855
  0
LINE
  5
399
100
AcDbEntity
  8
0
100
AcDbLine
 62
7
  6
CONTINUOUS
 10
15.7597522197
 20
11.8206413344
 11
15.7553528628
 21
11.8043658729
  0
LINE
  5
39A
100
AcDbEntity
  8
0
100
AcDbLine
 62
7
  6
CONTINUOUS
 10
15.6682063706
 20
11.894093187
 11
15.6846278248
 21
11.9472330322
  0
LINE
  5
39B
100
AcDbEntity
  8
0
100
AcDbLine
 62
7
  6
CONTINUOUS
 10
15.7066543292
 20
11.8741938609
 11
15.6916873228
 21
11.8257606103
  0
LINE
  5
39C
100
AcDbEntity
  8
0
100
AcDbLine
 62
7
  6
CONTINUOUS
 10
15.7455159773
 20
11.9894108657
 11
15.7443056457
 21
11.9854942312
  0
LINE
  5
39D
100
AcDbEntity
  8
0
100
AcDbLine
 62
7
  6
CONTINUOUS
 10
15.7204702441
 20
11.8741938609
 11
15.7040487899
 21
11.8210540157
  0
LINE
  5
39E
100
AcDbEntity
  8
0
100
AcDbLine
 62
7
  6
CONTINUOUS
 10
15.7529328193
 20
11.7965324123
 11
15.6819771283
 21
11.5669197119
  0
LINE
  5
39F
100
AcDbEntity
  8
0
100
AcDbLine
 62
7
  6
CONTINUOUS
 10
15.7655618783
 20
12.8459737728
 11
15.6030020695
 21
12.9283883898
  0
LINE
  5
3A0
100
AcDbEntity
  8
0
100
AcDbLine
 62
7
  6
CONTINUOUS
 10
16.4882653085
 20
11.9894100277
 11
16.4846285424
 21
11.9935066001
  0
LINE
  5
3A1
100
AcDbEntity
  8
0
100
AcDbLine
 62
7
  6
CONTINUOUS
 10
16.5125299504
 20
11.9620775415
 11
16.4951633012
 21
11.9816399031
  0
LINE
  5
3A2
100
AcDbEntity
  8
0
100
AcDbLine
 62
7
  6
CONTINUOUS
 10
15.6860738346
 20
13.14252472
 11
15.7143459676
 21
13.0290921135
  0
LINE
  5
3A3
100
AcDbEntity
  8
0
100
AcDbLine
 62
7
  6
CONTINUOUS
 10
15.727849298
 20
13.0427179969
 11
15.716334459
 21
13.0889174895
  0
LINE
  5
3A4
100
AcDbEntity
  8
0
100
AcDbLine
 62
7
  6
CONTINUOUS
 10
15.711092004
 20
13.1099511107
 11
15.699577165
 21
13.1561506033
  0
LINE
  5
3A5
100
AcDbEntity
  8
0
100
AcDbLine
 62
7
  6
CONTINUOUS
 10
15.8591195608
 20
11.7321949786
 11
15.8579092292
 21
11.7282783441
  0
LINE
  5
3A6
100
AcDbEntity
  8
0
100
AcDbLine
 62
7
  6
CONTINUOUS
 10
15.708127195
 20
11.8082470811
 11
15.7005630194
 21
11.7991848193
  0
LINE
  5
3A7
100
AcDbEntity
  8
0
100
AcDbLine
 62
7
  6
CONTINUOUS
 10
15.6749835322
 20
13.0010231389
 11
15.837543341
 21
12.9186085219
  0
LINE
  5
3A8
100
AcDbEntity
  8
0
100
AcDbLine
 62
7
  6
CONTINUOUS
 10
15.7143459676
 20
13.0290921135
 11
15.8238422419
 21
12.973579662
  0
LINE
  5
3A9
100
AcDbEntity
  8
0
100
AcDbLine
 62
7
  6
CONTINUOUS
 10
15.727849298
 20
13.0427179969
 11
15.7724455783
 21
13.0201085623
  0
LINE
  5
3AA
100
AcDbEntity
  8
0
100
AcDbLine
 62
7
  6
CONTINUOUS
 10
15.792749292
 20
13.0098149799
 11
15.8373455723
 21
12.9872055453
  0
LINE
  5
3AB
100
AcDbEntity
  8
0
100
AcDbLine
 62
7
  6
CONTINUOUS
 10
15.9070548746
 20
13.091325193
 11
15.9185697136
 21
13.0451257003
  0
LINE
  5
3AC
100
AcDbEntity
  8
0
100
AcDbLine
 62
7
  6
CONTINUOUS
 10
15.9161566856
 20
13.1730013981
 11
15.9189843363
 21
13.1616563824
  0
LINE
  5
3AD
100
AcDbEntity
  8
0
100
AcDbLine
 62
7
  6
CONTINUOUS
 10
15.9209303179
 20
13.1538487734
 11
15.9581299177
 21
13.0045976515
  0
LINE
  5
3AE
100
AcDbEntity
  8
0
100
AcDbLine
 62
7
  6
CONTINUOUS
 10
15.8091248413
 20
13.1997112847
 11
15.7808013062
 21
13.2140707583
  0
LINE
  5
3AF
100
AcDbEntity
  8
0
100
AcDbLine
 62
7
  6
CONTINUOUS
 10
15.9161566856
 20
13.1730013981
 11
15.9137166592
 21
13.1742384434
  0
LINE
  5
3B0
100
AcDbEntity
  8
0
100
AcDbLine
 62
7
  6
CONTINUOUS
 10
15.8375817379
 20
13.2128373469
 11
15.7535968767
 21
13.2554160151
  0
LINE
  5
3B1
100
AcDbEntity
  8
0
100
AcDbLine
 62
7
  6
CONTINUOUS
 10
16.6359199945
 20
12.4830859186
 11
16.6395567607
 21
12.4789893463
  0
LINE
  5
3B2
100
AcDbEntity
  8
0
100
AcDbLine
 62
7
  6
CONTINUOUS
 10
16.6395567607
 20
12.4789893463
 11
16.6365309316
 21
12.4691977599
  0
LINE
  5
3B3
100
AcDbEntity
  8
0
100
AcDbLine
 62
7
  6
CONTINUOUS
 10
16.4912911376
 20
11.9992016141
 11
16.4882653085
 21
11.9894100277
  0
LINE
  5
3B4
100
AcDbEntity
  8
0
100
AcDbLine
 62
7
  6
CONTINUOUS
 10
16.7318430464
 20
12.6894385192
 11
16.3010054607
 21
13.1747480678
  0
LINE
  5
3B5
100
AcDbEntity
  8
0
100
AcDbLine
 62
7
  6
CONTINUOUS
 10
17.3402883069
 20
11.3172635153
 11
17.1572631869
 21
11.6902294963
  0
LINE
  5
3B6
100
AcDbEntity
  8
0
100
AcDbLine
 62
7
  6
CONTINUOUS
 10
17.2496029241
 20
12.3640991589
 11
17.2648550174
 21
12.3330186605
  0
LINE
  5
3B7
100
AcDbEntity
  8
0
100
AcDbLine
 62
7
  6
CONTINUOUS
 10
17.4598460912
 20
12.6693881333
 11
17.6428712112
 21
12.2964221523
  0
LINE
  5
3B8
100
AcDbEntity
  8
0
100
AcDbLine
 62
7
  6
CONTINUOUS
 10
17.6428712112
 20
12.2964221523
 11
17.3402883069
 21
11.3172635153
  0
ARC
  5
3B9
100
AcDbEntity
  8
0
100
AcDbCircle
 62
7
  6
CONTINUOUS
 10
6.1303672762
 20
5.5044948968
 40
1.15625
100
AcDbArc
 50
15.0
 51
165.0
  0
ARC
  5
3BA
100
AcDbEntity
  8
0
100
AcDbCircle
 62
7
  6
CONTINUOUS
 10
6.1303672762
 20
5.5044948968
 40
0.8424621875
100
AcDbArc
 50
356.5975048926
 51
3.4024951074
  0
ARC
  5
3BB
100
AcDbEntity
  8
0
100
AcDbCircle
 62
7
  6
CONTINUOUS
 10
6.1303672762
 20
5.5044948968
 40
0.8424621875
100
AcDbArc
 50
176.5975048926
 51
183.4024951074
  0
ARC
  5
3BC
100
AcDbEntity
  8
0
100
AcDbCircle
 62
7
  6
CONTINUOUS
 10
6.1303672762
 20
5.5044948968
 40
0.8424621875
100
AcDbArc
 50
146.5975048926
 51
153.4024951074
  0
ARC
  5
3BD
100
AcDbEntity
  8
0
100
AcDbCircle
 62
7
  6
CONTINUOUS
 10
6.1303672762
 20
5.5044948968
 40
0.8424621875
100
AcDbArc
 50
116.5975048926
 51
123.4024951074
  0
ARC
  5
3BE
100
AcDbEntity
  8
0
100
AcDbCircle
 62
7
  6
CONTINUOUS
 10
6.1303672762
 20
5.5044948968
 40
0.8424621875
100
AcDbArc
 50
56.5975048926
 51
63.4024951074
  0
ARC
  5
3BF
100
AcDbEntity
  8
0
100
AcDbCircle
 62
7
  6
CONTINUOUS
 10
6.1303672762
 20
5.5044948968
 40
0.8424621875
100
AcDbArc
 50
26.5975048926
 51
33.4024951074
  0
ARC
  5
3C0
100
AcDbEntity
  8
0
100
AcDbCircle
 62
7
  6
CONTINUOUS
 10
6.1303672762
 20
5.5044948968
 40
0.8424621875
100
AcDbArc
 50
326.5975048926
 51
333.4024951074
  0
ARC
  5
3C1
100
AcDbEntity
  8
0
100
AcDbCircle
 62
7
  6
CONTINUOUS
 10
6.1303672762
 20
5.5044948968
 40
0.8424621875
100
AcDbArc
 50
296.5975048926
 51
303.4024951074
  0
ARC
  5
3C2
100
AcDbEntity
  8
0
100
AcDbCircle
 62
7
  6
CONTINUOUS
 10
6.1303672762
 20
5.5044948968
 40
0.8424621875
100
AcDbArc
 50
266.5975048926
 51
273.4024951074
  0
ARC
  5
3C3
100
AcDbEntity
  8
0
100
AcDbCircle
 62
7
  6
CONTINUOUS
 10
6.1303672762
 20
5.5044948968
 40
0.8424621875
100
AcDbArc
 50
236.5975048926
 51
243.4024951074
  0
ARC
  5
3C4
100
AcDbEntity
  8
0
100
AcDbCircle
 62
7
  6
CONTINUOUS
 10
6.1303672762
 20
5.5044948968
 40
0.8424621875
100
AcDbArc
 50
206.5975048926
 51
213.4024951074
  0
ARC
  5
3C5
100
AcDbEntity
  8
0
100
AcDbCircle
 62
7
  6
CONTINUOUS
 10
6.1303672762
 20
5.5044948968
 40
0.8424621875
100
AcDbArc
 50
86.5975048926
 51
93.4024951074
  0
CIRCLE
  5
3C6
100
AcDbEntity
  8
0
100
AcDbCircle
 62
7
  6
CONTINUOUS
 10
6.1303672762
 20
5.5044948968
 40
0.71875
  0
CIRCLE
  5
3C7
100
AcDbEntity
  8
0
100
AcDbCircle
 62
7
  6
CONTINUOUS
 10
6.1303672762
 20
5.5044948968
 40
0.709375
  0
CIRCLE
  5
3C8
100
AcDbEntity
  8
0
100
AcDbCircle
 62
7
  6
CONTINUOUS
 10
6.1303672762
 20
5.5044948968
 40
0.5
  0
ARC
  5
3C9
100
AcDbEntity
  8
0
100
AcDbCircle
 62
7
  6
CONTINUOUS
 10
7.229640909
 20
6.4202649583
 40
0.075
100
AcDbArc
 50
135.8411786232
 51
209.7268152428
  0
ARC
  5
3CA
100
AcDbEntity
  8
0
100
AcDbCircle
 62
7
  6
CONTINUOUS
 10
7.0461373377
 20
6.6037685296
 40
0.075
100
AcDbArc
 50
240.2731847572
 51
314.1588213772
  0
ARC
  5
3CB
100
AcDbEntity
  8
0
100
AcDbCircle
 62
7
  6
CONTINUOUS
 10
7.1432977402
 20
6.5527806999
 40
0.045
100
AcDbArc
 50
44.9999999998
 51
183.5903778905
  0
ARC
  5
3CC
100
AcDbEntity
  8
0
100
AcDbCircle
 62
7
  6
CONTINUOUS
 10
7.1786530793
 20
6.5174253608
 40
0.045
100
AcDbArc
 50
266.4096221093
 51
45.0000000002
  0
ARC
  5
3CD
100
AcDbEntity
  8
0
100
AcDbCircle
 62
7
  6
CONTINUOUS
 10
7.4805631307
 20
5.0294948968
 40
0.025
100
AcDbArc
 50
195.0
 51
270.0
  0
ARC
  5
3CE
100
AcDbEntity
  8
0
100
AcDbCircle
 62
7
  6
CONTINUOUS
 10
4.7801714217
 20
5.0294948968
 40
0.025
100
AcDbArc
 50
270.0
 51
345.0
  0
ARC
  5
3CF
100
AcDbEntity
  8
0
100
AcDbCircle
 62
7
  6
CONTINUOUS
 10
4.0616172762
 20
4.9794948968
 40
0.025
100
AcDbArc
 50
90.0
 51
180.0
  0
ARC
  5
3D0
100
AcDbEntity
  8
0
100
AcDbCircle
 62
7
  6
CONTINUOUS
 10
8.1991172762
 20
4.9794948968
 40
0.025
100
AcDbArc
 50
0.0
 51
90.0
  0
ARC
  5
3D1
100
AcDbEntity
  8
0
100
AcDbCircle
 62
7
  6
CONTINUOUS
 10
4.0803672762
 20
5.0544948968
 40
0.0125
100
AcDbArc
 50
90.0
 51
180.0
  0
ARC
  5
3D2
100
AcDbEntity
  8
0
100
AcDbCircle
 62
7
  6
CONTINUOUS
 10
8.1803672762
 20
5.0544948968
 40
0.0125
100
AcDbArc
 50
0.0
 51
90.0
  0
ARC
  5
3D3
100
AcDbEntity
  8
0
100
AcDbCircle
 62
7
  6
CONTINUOUS
 10
7.5182841896
 20
11.9636652922
 40
0.734851656
100
AcDbArc
 50
186.3135757647
 51
187.1569004082
  0
ARC
  5
3D4
100
AcDbEntity
  8
0
100
AcDbCircle
 62
7
  6
CONTINUOUS
 10
7.5160265114
 20
11.9610710483
 40
0.732578452
100
AcDbArc
 50
172.8443216598
 51
173.6949475724
  0
ARC
  5
3D5
100
AcDbEntity
  8
0
100
AcDbCircle
 62
7
  6
CONTINUOUS
 10
7.5125529699
 20
11.9631484134
 40
0.7290983648
100
AcDbArc
 50
183.2428513186
 51
186.3227322105
  0
ARC
  5
3D6
100
AcDbEntity
  8
0
100
AcDbCircle
 62
7
  6
CONTINUOUS
 10
7.512432633
 20
11.9613320535
 40
0.7289776603
100
AcDbArc
 50
173.6843164597
 51
176.7573908454
  0
ARC
  5
3D7
100
AcDbEntity
  8
0
100
AcDbCircle
 62
7
  6
CONTINUOUS
 10
7.4972317316
 20
11.9622352814
 40
0.7137500071
100
AcDbArc
 50
176.7607589922
 51
183.2392410078
  0
ARC
  5
3D8
100
AcDbEntity
  8
0
100
AcDbCircle
 62
7
  6
CONTINUOUS
 10
4.3208720839
 20
12.7562977814
 40
0.3125
100
AcDbArc
 50
90.0
 51
270.0
  0
ARC
  5
3D9
100
AcDbEntity
  8
0
100
AcDbCircle
 62
7
  6
CONTINUOUS
 10
4.7583720839
 20
12.7562977814
 40
0.3125
100
AcDbArc
 50
270.0
 51
90.0
  0
ARC
  5
3DA
100
AcDbEntity
  8
0
100
AcDbCircle
 62
7
  6
CONTINUOUS
 10
7.3833720839
 20
12.7562977814
 40
0.3125
100
AcDbArc
 50
90.0
 51
158.9054224194
  0
ARC
  5
3DB
100
AcDbEntity
  8
0
100
AcDbCircle
 62
7
  6
CONTINUOUS
 10
7.3833720839
 20
12.7562977814
 40
0.3125
100
AcDbArc
 50
201.0945522254
 51
270.0
  0
ARC
  5
3DC
100
AcDbEntity
  8
0
100
AcDbCircle
 62
7
  6
CONTINUOUS
 10
7.8208720839
 20
12.7562977814
 40
0.3125
100
AcDbArc
 50
270.0
 51
90.0
  0
ARC
  5
3DD
100
AcDbEntity
  8
0
100
AcDbCircle
 62
7
  6
CONTINUOUS
 10
4.5864970839
 20
12.7562977814
 40
0.15625
100
AcDbArc
 50
270.0
 51
90.0
  0
ARC
  5
3DE
100
AcDbEntity
  8
0
100
AcDbCircle
 62
7
  6
CONTINUOUS
 10
4.4302470839
 20
12.7562977814
 40
0.15625
100
AcDbArc
 50
90.0
 51
270.0
  0
ARC
  5
3DF
100
AcDbEntity
  8
0
100
AcDbCircle
 62
7
  6
CONTINUOUS
 10
7.7114970839
 20
12.7562977814
 40
0.15625
100
AcDbArc
 50
270.0
 51
90.0
  0
ARC
  5
3E0
100
AcDbEntity
  8
0
100
AcDbCircle
 62
7
  6
CONTINUOUS
 10
7.5552470839
 20
12.7562977814
 40
0.15625
100
AcDbArc
 50
90.0
 51
270.0
  0
CIRCLE
  5
3E1
100
AcDbEntity
  8
0
100
AcDbCircle
 62
7
  6
CONTINUOUS
 10
6.0708720839
 20
11.9622352814
 40
0.09375
  0
CIRCLE
  5
3E2
100
AcDbEntity
  8
0
100
AcDbCircle
 62
7
  6
CONTINUOUS
 10
6.0708720839
 20
11.9622352814
 40
0.08375
  0
ARC
  5
3E3
100
AcDbEntity
  8
0
100
AcDbCircle
 62
7
  6
CONTINUOUS
 10
7.0272340054
 20
12.7014535832
 40
0.055155807
100
AcDbArc
 50
261.3663439789
 51
278.6336560211
  0
ARC
  5
3E4
100
AcDbEntity
  8
0
100
AcDbCircle
 62
7
  6
CONTINUOUS
 10
7.0272340054
 20
12.8111419795
 40
0.055155807
100
AcDbArc
 50
81.3663439789
 51
98.6336560211
  0
ARC
  5
3E5
100
AcDbEntity
  8
0
100
AcDbCircle
 62
7
  6
CONTINUOUS
 10
14.9210655457
 20
6.8928074253
 40
0.7352500658
100
AcDbArc
 50
276.3097243936
 51
277.1536155509
  0
ARC
  5
3E6
100
AcDbEntity
  8
0
100
AcDbCircle
 62
7
  6
CONTINUOUS
 10
14.9237262331
 20
6.8903187993
 40
0.732744233
100
AcDbArc
 50
262.8449664331
 51
263.6917616907
  0
ARC
  5
3E7
100
AcDbEntity
  8
0
100
AcDbCircle
 62
7
  6
CONTINUOUS
 10
14.9216296931
 20
6.8866787086
 40
0.7290964821
100
AcDbArc
 50
273.2428543354
 51
276.3185914496
  0
ARC
  5
3E8
100
AcDbEntity
  8
0
100
AcDbCircle
 62
7
  6
CONTINUOUS
 10
14.9234469789
 20
6.886572975
 40
0.7289904177
100
AcDbArc
 50
263.6812284479
 51
266.7573693939
  0
ARC
  5
3E9
100
AcDbEntity
  8
0
100
AcDbCircle
 62
7
  6
CONTINUOUS
 10
14.9225427569
 20
6.8713593549
 40
0.7137500097
100
AcDbArc
 50
266.7607590042
 51
273.2392409958
  0
CIRCLE
  5
3EA
100
AcDbEntity
  8
0
100
AcDbCircle
 62
7
  6
CONTINUOUS
 10
14.9225427569
 20
5.4449997044
 40
0.09375
  0
CIRCLE
  5
3EB
100
AcDbEntity
  8
0
100
AcDbCircle
 62
7
  6
CONTINUOUS
 10
14.9225427569
 20
5.4449997044
 40
0.08375
  0
ARC
  5
3EC
100
AcDbEntity
  8
0
100
AcDbCircle
 62
7
  6
CONTINUOUS
 10
15.6617610588
 20
6.401361626
 40
0.055155807
100
AcDbArc
 50
171.3663439789
 51
188.6336560211
  0
ARC
  5
3ED
100
AcDbEntity
  8
0
100
AcDbCircle
 62
7
  6
CONTINUOUS
 10
15.7714494551
 20
6.401361626
 40
0.055155807
100
AcDbArc
 50
351.3663439789
 51
8.6336560211
  0
ARC
  5
3EE
100
AcDbEntity
  8
0
100
AcDbCircle
 62
7
  6
CONTINUOUS
 10
16.3166052569
 20
6.5762497044
 40
0.025
100
AcDbArc
 50
0.0
 51
90.0
  0
ARC
  5
3EF
100
AcDbEntity
  8
0
100
AcDbCircle
 62
7
  6
CONTINUOUS
 10
15.1166052569
 20
6.5762497044
 40
0.025
100
AcDbArc
 50
90.0
 51
180.0000000004
  0
ARC
  5
3F0
100
AcDbEntity
  8
0
100
AcDbCircle
 62
7
  6
CONTINUOUS
 10
16.3166052569
 20
4.9199997044
 40
0.025
100
AcDbArc
 50
0.0
 51
90.0
  0
ARC
  5
3F1
100
AcDbEntity
  8
0
100
AcDbCircle
 62
7
  6
CONTINUOUS
 10
15.1166052569
 20
4.9199997044
 40
0.025
100
AcDbArc
 50
90.0
 51
180.0
  0
ARC
  5
3F2
100
AcDbEntity
  8
0
100
AcDbCircle
 62
7
  6
CONTINUOUS
 10
16.0166052569
 20
4.9949997044
 40
0.0125
100
AcDbArc
 50
0.0
 51
90.0
  0
ARC
  5
3F3
100
AcDbEntity
  8
0
100
AcDbCircle
 62
7
  6
CONTINUOUS
 10
15.4166052569
 20
4.9949997044
 40
0.0125
100
AcDbArc
 50
90.0
 51
180.0
  0
ARC
  5
3F4
100
AcDbEntity
  8
0
100
AcDbCircle
 62
7
  6
CONTINUOUS
 10
14.7775439459
 20
11.0745195718
 40
1.4683504856
100
AcDbArc
 50
69.9362117682
 51
73.8379386846
  0
ARC
  5
3F5
100
AcDbEntity
  8
0
100
AcDbCircle
 62
7
  6
CONTINUOUS
 10
14.8198998736
 20
11.2116904504
 40
1.2539580273
100
AcDbArc
 50
69.602503635
 51
74.1716468178
  0
ARC
  5
3F6
100
AcDbEntity
  8
0
100
AcDbCircle
 62
7
  6
CONTINUOUS
 10
14.8216335526
 20
11.2172070459
 40
1.2522759874
100
AcDbArc
 50
69.5994333992
 51
74.1747170536
  0
ARC
  5
3F7
100
AcDbEntity
  8
0
100
AcDbCircle
 62
7
  6
CONTINUOUS
 10
14.818018581
 20
11.2054869664
 40
1.2522420942
100
AcDbArc
 50
69.6338930811
 51
74.1784503544
  0
ARC
  5
3F8
100
AcDbEntity
  8
0
100
AcDbCircle
 62
7
  6
CONTINUOUS
 10
14.8120920339
 20
11.3791065033
 40
1.1611424023
100
AcDbArc
 50
87.7259853685
 51
92.2091524109
  0
ARC
  5
3F9
100
AcDbEntity
  8
0
100
AcDbCircle
 62
7
  6
CONTINUOUS
 10
14.7132415451
 20
11.6533794478
 40
0.5526529626
100
AcDbArc
 50
108.7706104877
 51
109.0049412663
  0
ARC
  5
3FA
100
AcDbEntity
  8
0
100
AcDbCircle
 62
7
  6
CONTINUOUS
 10
14.7119812072
 20
11.6570390288
 40
0.5487824349
100
AcDbArc
 50
109.0049521183
 51
109.2417854804
  0
ARC
  5
3FB
100
AcDbEntity
  8
0
100
AcDbCircle
 62
7
  6
CONTINUOUS
 10
14.7728074185
 20
11.9164149726
 40
0.5305713215
100
AcDbArc
 50
110.6198160711
 51
110.9204381376
  0
ARC
  5
3FC
100
AcDbEntity
  8
0
100
AcDbCircle
 62
7
  6
CONTINUOUS
 10
14.6687208629
 20
12.0291100039
 40
0.4886610091
100
AcDbArc
 50
119.3236518414
 51
119.6570519124
  0
ARC
  5
3FD
100
AcDbEntity
  8
0
100
AcDbCircle
 62
7
  6
CONTINUOUS
 10
14.7133518701
 20
11.9656975719
 40
0.4234157987
100
AcDbArc
 50
206.1439501141
 51
207.3842788134
  0
ARC
  5
3FE
100
AcDbEntity
  8
0
100
AcDbCircle
 62
7
  6
CONTINUOUS
 10
14.7024305864
 20
11.9498397308
 40
0.4041459895
100
AcDbArc
 50
204.7987095766
 51
206.1402647963
  0
ARC
  5
3FF
100
AcDbEntity
  8
0
100
AcDbCircle
 62
7
  6
CONTINUOUS
 10
14.5370620421
 20
11.9126849799
 40
0.232162764
100
AcDbArc
 50
161.2986795325
 51
162.7016452941
  0
ARC
  5
400
100
AcDbEntity
  8
0
100
AcDbCircle
 62
7
  6
CONTINUOUS
 10
14.7730011853
 20
12.253919682
 40
0.5357851711
100
AcDbArc
 50
209.4745013283
 51
209.7748212078
  0
ARC
  5
401
100
AcDbEntity
  8
0
100
AcDbCircle
 62
7
  6
CONTINUOUS
 10
13.8179726793
 20
12.1364144323
 40
0.337513203
100
AcDbArc
 50
90.000760334
 51
90.6948167962
  0
ARC
  5
402
100
AcDbEntity
  8
0
100
AcDbCircle
 62
7
  6
CONTINUOUS
 10
14.5302332953
 20
12.1828061614
 40
0.2789750742
100
AcDbArc
 50
154.0524690756
 51
161.9566314129
  0
ARC
  5
403
100
AcDbEntity
  8
0
100
AcDbCircle
 62
7
  6
CONTINUOUS
 10
14.5276642232
 20
12.1837503831
 40
0.2762399018
100
AcDbArc
 50
161.9777981235
 51
162.8276337879
  0
ARC
  5
404
100
AcDbEntity
  8
0
100
AcDbCircle
 62
7
  6
CONTINUOUS
 10
14.6145225735
 20
12.1467165713
 40
0.2465687473
100
AcDbArc
 50
150.237486952
 51
151.1894637136
  0
ARC
  5
405
100
AcDbEntity
  8
0
100
AcDbCircle
 62
7
  6
CONTINUOUS
 10
14.6094101992
 20
12.1494492381
 40
0.24077229
100
AcDbArc
 50
151.1729686174
 51
159.8509592458
  0
ARC
  5
406
100
AcDbEntity
  8
0
100
AcDbCircle
 62
7
  6
CONTINUOUS
 10
14.6089709392
 20
12.1585461979
 40
0.2376513057
100
AcDbArc
 50
153.0261098302
 51
162.8095504027
  0
ARC
  5
407
100
AcDbEntity
  8
0
100
AcDbCircle
 62
7
  6
CONTINUOUS
 10
14.6048379833
 20
12.1513068501
 40
0.235840076
100
AcDbArc
 50
159.8920081451
 51
160.871112776
  0
ARC
  5
408
100
AcDbEntity
  8
0
100
AcDbCircle
 62
7
  6
CONTINUOUS
 10
14.6071760145
 20
12.1591807296
 40
0.2357490416
100
AcDbArc
 50
162.8279477851
 51
164.4307608041
  0
ARC
  5
409
100
AcDbEntity
  8
0
100
AcDbCircle
 62
7
  6
CONTINUOUS
 10
14.6043472819
 20
12.1514766905
 40
0.2353208135
100
AcDbArc
 50
160.8710305615
 51
162.4375162071
  0
ARC
  5
40A
100
AcDbEntity
  8
0
100
AcDbCircle
 62
7
  6
CONTINUOUS
 10
14.6041016294
 20
12.1515558965
 40
0.2350627112
100
AcDbArc
 50
162.4378549106
 51
162.829443843
  0
ARC
  5
40B
100
AcDbEntity
  8
0
100
AcDbCircle
 62
7
  6
CONTINUOUS
 10
13.9483082769
 20
12.2863330442
 40
0.1745281974
100
AcDbArc
 50
270.0200147057
 51
274.9890739866
  0
ARC
  5
40C
100
AcDbEntity
  8
0
100
AcDbCircle
 62
7
  6
CONTINUOUS
 10
14.7857767034
 20
12.371281519
 40
0.113792719
100
AcDbArc
 50
269.8247247514
 51
270.9751351158
  0
ARC
  5
40D
100
AcDbEntity
  8
0
100
AcDbCircle
 62
7
  6
CONTINUOUS
 10
14.8154598565
 20
12.3018241858
 40
0.0920439846
100
AcDbArc
 50
139.9947022413
 51
141.9433909846
  0
ARC
  5
40E
100
AcDbEntity
  8
0
100
AcDbCircle
 62
7
  6
CONTINUOUS
 10
14.7701711122
 20
12.3082536628
 40
0.0493753167
100
AcDbArc
 50
194.0994621223
 51
205.4481635639
  0
ARC
  5
40F
100
AcDbEntity
  8
0
100
AcDbCircle
 62
7
  6
CONTINUOUS
 10
14.7699359608
 20
12.3081564958
 40
0.0491212307
100
AcDbArc
 50
205.463681396
 51
206.1362640479
  0
ARC
  5
410
100
AcDbEntity
  8
0
100
AcDbCircle
 62
7
  6
CONTINUOUS
 10
14.7713241356
 20
12.3165947329
 40
0.0440891878
100
AcDbArc
 50
214.9234857423
 51
215.4821193476
  0
ARC
  5
411
100
AcDbEntity
  8
0
100
AcDbCircle
 62
7
  6
CONTINUOUS
 10
14.7646553582
 20
12.3061894756
 40
0.0435139686
100
AcDbArc
 50
206.1372363668
 51
206.8978043752
  0
ARC
  5
412
100
AcDbEntity
  8
0
100
AcDbCircle
 62
7
  6
CONTINUOUS
 10
14.972823553
 20
11.4185607025
 40
1.0715002359
100
AcDbArc
 50
51.0564840357
 51
55.8088847091
  0
ARC
  5
413
100
AcDbEntity
  8
0
100
AcDbCircle
 62
7
  6
CONTINUOUS
 10
14.9055044162
 20
12.0905966707
 40
0.6520764742
100
AcDbArc
 50
221.720847661
 51
222.4213824416
  0
ARC
  5
414
100
AcDbEntity
  8
0
100
AcDbCircle
 62
7
  6
CONTINUOUS
 10
15.2455496663
 20
11.9837630615
 40
0.6501339482
100
AcDbArc
 50
283.2336893417
 51
283.9357473531
  0
ARC
  5
415
100
AcDbEntity
  8
0
100
AcDbCircle
 62
7
  6
CONTINUOUS
 10
15.1585815622
 20
11.5172650705
 40
0.5508897646
100
AcDbArc
 50
36.4703215069
 51
36.8758226276
  0
ARC
  5
416
100
AcDbEntity
  8
0
100
AcDbCircle
 62
7
  6
CONTINUOUS
 10
15.4466993807
 20
12.0456417832
 40
0.53566827
100
AcDbArc
 50
295.8776864919
 51
296.1856624935
  0
ARC
  5
417
100
AcDbEntity
  8
0
100
AcDbCircle
 62
7
  6
CONTINUOUS
 10
15.4556434146
 20
12.0339028045
 40
0.5182069471
100
AcDbArc
 50
295.9450664204
 51
299.1285230197
  0
ARC
  5
418
100
AcDbEntity
  8
0
100
AcDbCircle
 62
7
  6
CONTINUOUS
 10
15.4565478002
 20
12.0258755672
 40
0.5135847735
100
AcDbArc
 50
296.1728103995
 51
299.6170541736
  0
ARC
  5
419
100
AcDbEntity
  8
0
100
AcDbCircle
 62
7
  6
CONTINUOUS
 10
15.2976217741
 20
11.7939384683
 40
0.4813036431
100
AcDbArc
 50
31.2421293444
 51
31.5649751321
  0
ARC
  5
41A
100
AcDbEntity
  8
0
100
AcDbCircle
 62
7
  6
CONTINUOUS
 10
15.4480818835
 20
11.8202485989
 40
0.4424244152
100
AcDbArc
 50
21.9316497816
 51
22.3311111015
  0
ARC
  5
41B
100
AcDbEntity
  8
0
100
AcDbCircle
 62
7
  6
CONTINUOUS
 10
15.3686426877
 20
11.8387625978
 40
0.4033248614
100
AcDbArc
 50
24.5294103926
 51
25.3032776251
  0
ARC
  5
41C
100
AcDbEntity
  8
0
100
AcDbCircle
 62
7
  6
CONTINUOUS
 10
15.3711914989
 20
11.8432928526
 40
0.4018524313
100
AcDbArc
 50
24.5290461903
 51
24.8841887468
  0
ARC
  5
41D
100
AcDbEntity
  8
0
100
AcDbCircle
 62
7
  6
CONTINUOUS
 10
15.3734885606
 20
11.8343710176
 40
0.3952863234
100
AcDbArc
 50
22.5642482989
 51
26.1756444211
  0
ARC
  5
41E
100
AcDbEntity
  8
0
100
AcDbCircle
 62
7
  6
CONTINUOUS
 10
15.3848056994
 20
11.8494251074
 40
0.3869210735
100
AcDbArc
 50
21.2104182912
 51
24.5398816129
  0
ARC
  5
41F
100
AcDbEntity
  8
0
100
AcDbCircle
 62
7
  6
CONTINUOUS
 10
15.3883594865
 20
11.8475184808
 40
0.3817525061
100
AcDbArc
 50
21.1878729302
 51
24.5624266709
  0
ARC
  5
420
100
AcDbEntity
  8
0
100
AcDbCircle
 62
7
  6
CONTINUOUS
 10
15.3880107217
 20
11.8404926705
 40
0.3795268491
100
AcDbArc
 50
22.0506074308
 51
22.5520792624
  0
ARC
  5
421
100
AcDbEntity
  8
0
100
AcDbCircle
 62
7
  6
CONTINUOUS
 10
15.6073005997
 20
11.8502338982
 40
0.2787074494
100
AcDbArc
 50
334.050708877
 51
342.8047630817
  0
ARC
  5
422
100
AcDbEntity
  8
0
100
AcDbCircle
 62
7
  6
CONTINUOUS
 10
15.6093466384
 20
11.8494781472
 40
0.2765295314
100
AcDbArc
 50
343.6779015813
 51
345.8999881049
  0
ARC
  5
423
100
AcDbEntity
  8
0
100
AcDbCircle
 62
7
  6
CONTINUOUS
 10
15.6096218616
 20
11.8493999532
 40
0.2762434251
100
AcDbArc
 50
342.8276692061
 51
343.6774234239
  0
ARC
  5
424
100
AcDbEntity
  8
0
100
AcDbCircle
 62
7
  6
CONTINUOUS
 10
15.5245258819
 20
11.8668264288
 40
0.2389896352
100
AcDbArc
 50
348.8287369802
 51
349.8023156445
  0
ARC
  5
425
100
AcDbEntity
  8
0
100
AcDbCircle
 62
7
  6
CONTINUOUS
 10
15.5264171287
 20
11.8664383179
 40
0.2370590298
100
AcDbArc
 50
345.7692976554
 51
348.8322035005
  0
ARC
  5
426
100
AcDbEntity
  8
0
100
AcDbCircle
 62
7
  6
CONTINUOUS
 10
15.5274775612
 20
11.8661734591
 40
0.2359660286
100
AcDbArc
 50
344.7888506071
 51
345.7683381804
  0
ARC
  5
427
100
AcDbEntity
  8
0
100
AcDbCircle
 62
7
  6
CONTINUOUS
 10
15.5279980155
 20
11.8660314724
 40
0.2354265542
100
AcDbArc
 50
343.1269092212
 51
344.7889618453
  0
ARC
  5
428
100
AcDbEntity
  8
0
100
AcDbCircle
 62
7
  6
CONTINUOUS
 10
15.5282872862
 20
11.8659453239
 40
0.2351247317
100
AcDbArc
 50
342.8294464159
 51
343.1265383725
  0
ARC
  5
429
100
AcDbEntity
  8
0
100
AcDbCircle
 62
7
  6
CONTINUOUS
 10
15.4489048355
 20
11.6308924778
 40
0.2321947017
100
AcDbArc
 50
342.7022085948
 51
344.3642347455
  0
ARC
  5
42A
100
AcDbEntity
  8
0
100
AcDbCircle
 62
7
  6
CONTINUOUS
 10
15.5295901084
 20
11.882956131
 40
0.1973170232
100
AcDbArc
 50
353.9830101726
 51
354.5801178726
  0
ARC
  5
42B
100
AcDbEntity
  8
0
100
AcDbCircle
 62
7
  6
CONTINUOUS
 10
15.6655334457
 20
11.8244830358
 40
0.0432775177
100
AcDbArc
 50
323.9331651378
 51
325.456986571
  0
ARC
  5
42C
100
AcDbEntity
  8
0
100
AcDbCircle
 62
7
  6
CONTINUOUS
 10
15.8024649627
 20
13.0761277368
 40
0.105688279
100
AcDbArc
 50
8.2675120375
 51
12.5106683807
  0
ARC
  5
42D
100
AcDbEntity
  8
0
100
AcDbCircle
 62
7
  6
CONTINUOUS
 10
15.8381837508
 20
13.0719424113
 40
0.0691271301
100
AcDbArc
 50
297.8030854408
 51
313.1815201919
  0
ARC
  5
42E
100
AcDbEntity
  8
0
100
AcDbCircle
 62
7
  6
CONTINUOUS
 10
15.7799631277
 20
13.1293338924
 40
0.0691271301
100
AcDbArc
 50
117.8030854408
 51
133.1815201919
  0
ARC
  5
42F
100
AcDbEntity
  8
0
100
AcDbCircle
 62
7
  6
CONTINUOUS
 10
14.8445175768
 20
12.3453823426
 40
0.055018115
100
AcDbArc
 50
25.5382187396
 51
26.1374895977
  0
ARC
  5
430
100
AcDbEntity
  8
0
100
AcDbCircle
 62
7
  6
CONTINUOUS
 10
14.8449539732
 20
12.3455813745
 40
0.0545385508
100
AcDbArc
 50
14.6878017503
 51
25.5472010597
  0
ARC
  5
431
100
AcDbEntity
  8
0
100
AcDbCircle
 62
7
  6
CONTINUOUS
 10
14.8500600091
 20
12.3474799544
 40
0.0491185519
100
AcDbArc
 50
26.1362738279
 51
26.8077597723
  0
SPLINE
  5
432
100
AcDbEntity
  8
0
100
AcDbSpline
 62
7
  6
CONTINUOUS
 70
0
 71
3
 72
9
 73
5
 74
0
 42
0.0000001
 43
0.0000001
 44
0.0000000001
 40
0.0
 40
0.0
 40
0.0
 40
0.0
 40
0.2549277235
 40
1.0
 40
1.0
 40
1.0
 40
1.0
 10
6.9561158824
 20
12.7117508943
 30
0.0
 10
6.9566726204
 20
12.7099732544
 30
0.0
 10
6.958998475
 20
12.7030458295
 30
0.0
 10
6.9618997928
 20
12.6963081882
 30
0.0
 10
6.9643956582
 20
12.6914696684
 30
0.0
  0
SPLINE
  5
433
100
AcDbEntity
  8
0
100
AcDbSpline
 62
7
  6
CONTINUOUS
 70
0
 71
3
 72
23
 73
19
 74
0
 42
0.0000001
 43
0.0000001
 44
0.0000000001
 40
0.0
 40
0.0
 40
0.0
 40
0.0
 40
0.0634855871
 40
0.1266733044
 40
0.1894175291
 40
0.2517656351
 40
0.3138740599
 40
0.3758953791
 40
0.4379062551
 40
0.4999407018
 40
0.5619805226
 40
0.624007433
 40
0.6860494365
 40
0.7481824863
 40
0.8105504089
 40
0.873312267
 40
0.9365116449
 40
1.0
 40
1.0
 40
1.0
 40
1.0
 10
7.164157887
 20
12.7562977814
 30
0.0
 10
7.164157887
 20
12.7518841609
 30
0.0
 10
7.1634312452
 20
12.7430600211
 30
0.0
 10
7.1601669115
 20
12.7302397441
 30
0.0
 10
7.15475705
 20
12.7182425085
 30
0.0
 10
7.1472682082
 20
12.7075015813
 30
0.0
 10
7.1378452601
 20
12.6984674011
 30
0.0
 10
7.1267643869
 20
12.6915930118
 30
0.0
 10
7.1144559219
 20
12.6872807616
 30
0.0
 10
7.1014923382
 20
12.6858077293
 30
0.0
 10
7.0885269008
 20
12.6872751236
 30
0.0
 10
7.0762141233
 20
12.6915841168
 30
0.0
 10
7.0651272177
 20
12.6984570766
 30
0.0
 10
7.0556993037
 20
12.7074928395
 30
0.0
 10
7.0482065952
 20
12.7182363854
 30
0.0
 10
7.0427944117
 20
12.7302364042
 30
0.0
 10
7.0395293552
 20
12.7430588324
 30
0.0
 10
7.0388025479
 20
12.7518839685
 30
0.0
 10
7.0388025479
 20
12.7562977814
 30
0.0
  0
SPLINE
  5
434
100
AcDbEntity
  8
0
100
AcDbSpline
 62
7
  6
CONTINUOUS
 70
0
 71
3
 72
23
 73
19
 74
0
 42
0.0000001
 43
0.0000001
 44
0.0000000001
 40
0.0
 40
0.0
 40
0.0
 40
0.0
 40
0.0634855871
 40
0.1266733044
 40
0.1894175291
 40
0.2517656351
 40
0.3138740599
 40
0.3758953791
 40
0.4379062551
 40
0.4999407018
 40
0.5619805226
 40
0.624007433
 40
0.6860494365
 40
0.7481824863
 40
0.8105504089
 40
0.873312267
 40
0.9365116449
 40
1.0
 40
1.0
 40
1.0
 40
1.0
 10
7.0388025479
 20
12.7562977814
 30
0.0
 10
7.0388025479
 20
12.7607114018
 30
0.0
 10
7.0395291897
 20
12.7695355416
 30
0.0
 10
7.0427935234
 20
12.7823558186
 30
0.0
 10
7.0482033848
 20
12.7943530542
 30
0.0
 10
7.0556922267
 20
12.8050939814
 30
0.0
 10
7.0651151748
 20
12.8141281616
 30
0.0
 10
7.076196048
 20
12.821002551
 30
0.0
 10
7.088504513
 20
12.8253148012
 30
0.0
 10
7.1014680967
 20
12.8267878334
 30
0.0
 10
7.1144335341
 20
12.8253204392
 30
0.0
 10
7.1267463116
 20
12.821011446
 30
0.0
 10
7.1378332171
 20
12.8141384862
 30
0.0
 10
7.1472611312
 20
12.8051027232
 30
0.0
 10
7.1547538397
 20
12.7943591773
 30
0.0
 10
7.1601660232
 20
12.7823591585
 30
0.0
 10
7.1634310797
 20
12.7695367303
 30
0.0
 10
7.164157887
 20
12.7607115943
 30
0.0
 10
7.164157887
 20
12.7562977814
 30
0.0
  0
SPLINE
  5
435
100
AcDbEntity
  8
0
100
AcDbSpline
 62
7
  6
CONTINUOUS
 70
0
 71
3
 72
9
 73
5
 74
0
 42
0.0000001
 43
0.0000001
 44
0.0000000001
 40
0.0
 40
0.0
 40
0.0
 40
0.0
 40
0.2450481775
 40
1.0
 40
1.0
 40
1.0
 40
1.0
 10
6.9643956582
 20
12.8211258943
 30
0.0
 10
6.9635747734
 20
12.8195345155
 30
0.0
 10
6.9603743657
 20
12.812963906
 30
0.0
 10
6.957764656
 20
12.8061091299
 30
0.0
 10
6.9561158824
 20
12.8008446684
 30
0.0
  0
SPLINE
  5
436
100
AcDbEntity
  8
0
100
AcDbSpline
 62
7
  6
CONTINUOUS
 70
0
 71
3
 72
9
 73
5
 74
0
 42
0.0000001
 43
0.0000001
 44
0.0000000001
 40
0.0
 40
0.0
 40
0.0
 40
0.0
 40
0.2456639173
 40
1.0
 40
1.0
 40
1.0
 40
1.0
 10
6.9561158824
 20
12.8008446684
 30
0.0
 10
6.9550111161
 20
12.7973171984
 30
0.0
 10
6.9510965203
 20
12.7827803364
 30
0.0
 10
6.9494522595
 20
12.767648029
 30
0.0
 10
6.9494522595
 20
12.7562977814
 30
0.0
  0
SPLINE
  5
437
100
AcDbEntity
  8
0
100
AcDbSpline
 62
7
  6
CONTINUOUS
 70
0
 71
3
 72
9
 73
5
 74
0
 42
0.0000001
 43
0.0000001
 44
0.0000000001
 40
0.0
 40
0.0
 40
0.0
 40
0.0
 40
0.2537149426
 40
1.0
 40
1.0
 40
1.0
 40
1.0
 10
6.9494522595
 20
12.7562977814
 30
0.0
 10
6.9494522595
 20
12.7524803924
 30
0.0
 10
6.9500050866
 20
12.7374417545
 30
0.0
 10
6.9527599461
 20
12.7224662507
 30
0.0
 10
6.9561158824
 20
12.7117508943
 30
0.0
  0
SPLINE
  5
438
100
AcDbEntity
  8
0
100
AcDbSpline
 62
7
  6
CONTINUOUS
 70
0
 71
3
 72
12
 73
8
 74
0
 42
0.0000001
 43
0.0000001
 44
0.0000000001
 40
0.0
 40
0.0
 40
0.0
 40
0.0
 40
0.2749763799
 40
0.5316171099
 40
0.7715748385
 40
0.8869360649
 40
1.0
 40
1.0
 40
1.0
 40
1.0
 10
7.088163005
 20
12.8246733579
 30
0.0
 10
7.0850688327
 20
12.8301860519
 30
0.0
 10
7.0781747969
 20
12.8403765826
 30
0.0
 10
7.0654668077
 20
12.8529271285
 30
0.0
 10
7.0533498537
 20
12.8603803866
 30
0.0
 10
7.0432275008
 20
12.8641303051
 30
0.0
 10
7.038083823
 20
12.8652836729
 30
0.0
 10
7.0355137812
 20
12.8656727814
 30
0.0
  0
SPLINE
  5
439
100
AcDbEntity
  8
0
100
AcDbSpline
 62
7
  6
CONTINUOUS
 70
0
 71
3
 72
12
 73
8
 74
0
 42
0.0000001
 43
0.0000001
 44
0.0000000001
 40
0.0
 40
0.0
 40
0.0
 40
0.0
 40
0.2761846483
 40
0.5333929392
 40
0.7728515528
 40
0.8876445452
 40
1.0
 40
1.0
 40
1.0
 40
1.0
 10
6.9643956582
 20
12.6914696684
 30
0.0
 10
6.9674758593
 20
12.6854983471
 30
0.0
 10
6.974438232
 20
12.6744400078
 30
0.0
 10
6.9875408542
 20
12.6607644104
 30
0.0
 10
7.0002091113
 20
12.6526292786
 30
0.0
 10
7.010841435
 20
12.6485656707
 30
0.0
 10
7.0162516729
 20
12.6473319528
 30
0.0
 10
7.0189542296
 20
12.6469227814
 30
0.0
  0
SPLINE
  5
43A
100
AcDbEntity
  8
0
100
AcDbSpline
 62
7
  6
CONTINUOUS
 70
0
 71
3
 72
12
 73
8
 74
0
 42
0.0000001
 43
0.0000001
 44
0.0000000001
 40
0.0
 40
0.0
 40
0.0
 40
0.0
 40
0.113099062
 40
0.2284885889
 40
0.4684719723
 40
0.7250857366
 40
1.0
 40
1.0
 40
1.0
 40
1.0
 10
7.0355137812
 20
12.6469227814
 30
0.0
 10
7.0380773329
 20
12.6473109072
 30
0.0
 10
7.0432079615
 20
12.6484603935
 30
0.0
 10
7.0533052947
 20
12.6521952589
 30
0.0
 10
7.0653949655
 20
12.6596158424
 30
0.0
 10
7.0780826862
 20
12.6721122083
 30
0.0
 10
7.0849725149
 20
12.6822607101
 30
0.0
 10
7.0880667966
 20
12.687751146
 30
0.0
  0
SPLINE
  5
43B
100
AcDbEntity
  8
0
100
AcDbSpline
 62
7
  6
CONTINUOUS
 70
0
 71
3
 72
12
 73
8
 74
0
 42
0.0000001
 43
0.0000001
 44
0.0000000001
 40
0.0
 40
0.0
 40
0.0
 40
0.0
 40
0.1123554548
 40
0.2271484472
 40
0.4666070608
 40
0.7238153517
 40
1.0
 40
1.0
 40
1.0
 40
1.0
 10
7.0189542296
 20
12.8656727814
 30
0.0
 10
7.0162516729
 20
12.8652636099
 30
0.0
 10
7.010841435
 20
12.8640298921
 30
0.0
 10
7.0002091113
 20
12.8599662842
 30
0.0
 10
6.9875408542
 20
12.8518311524
 30
0.0
 10
6.974438232
 20
12.8381555549
 30
0.0
 10
6.9674758593
 20
12.8270972157
 30
0.0
 10
6.9643956582
 20
12.8211258943
 30
0.0
  0
SPLINE
  5
43C
100
AcDbEntity
  8
0
100
AcDbSpline
 62
7
  6
CONTINUOUS
 70
0
 71
3
 72
23
 73
19
 74
0
 42
0.0000001
 43
0.0000001
 44
0.0000000001
 40
0.0
 40
0.0
 40
0.0
 40
0.0
 40
0.0634855871
 40
0.1266733044
 40
0.1894175291
 40
0.2517656351
 40
0.3138740599
 40
0.3758953791
 40
0.4379062551
 40
0.4999407018
 40
0.5619805226
 40
0.624007433
 40
0.6860494365
 40
0.7481824863
 40
0.8105504089
 40
0.873312267
 40
0.9365116449
 40
1.0
 40
1.0
 40
1.0
 40
1.0
 10
15.7166052569
 20
6.4129301685
 30
0.0
 10
15.7121916365
 20
6.4129301685
 30
0.0
 10
15.7033674967
 20
6.4136568103
 30
0.0
 10
15.6905472197
 20
6.416921144
 30
0.0
 10
15.6785499841
 20
6.4223310054
 30
0.0
 10
15.6678090569
 20
6.4298198473
 30
0.0
 10
15.6587748767
 20
6.4392427954
 30
0.0
 10
15.6519004873
 20
6.4503236685
 30
0.0
 10
15.6475882371
 20
6.4626321335
 30
0.0
 10
15.6461152049
 20
6.4755957173
 30
0.0
 10
15.6475825991
 20
6.4885611547
 30
0.0
 10
15.6518915924
 20
6.5008739322
 30
0.0
 10
15.6587645521
 20
6.5119608377
 30
0.0
 10
15.6678003151
 20
6.5213887517
 30
0.0
 10
15.678543861
 20
6.5288814602
 30
0.0
 10
15.6905438798
 20
6.5342936438
 30
0.0
 10
15.703366308
 20
6.5375587003
 30
0.0
 10
15.712191444
 20
6.5382855076
 30
0.0
 10
15.7166052569
 20
6.5382855076
 30
0.0
  0
SPLINE
  5
43D
100
AcDbEntity
  8
0
100
AcDbSpline
 62
7
  6
CONTINUOUS
 70
0
 71
3
 72
23
 73
19
 74
0
 42
0.0000001
 43
0.0000001
 44
0.0000000001
 40
0.0
 40
0.0
 40
0.0
 40
0.0
 40
0.0634855871
 40
0.1266733044
 40
0.1894175291
 40
0.2517656351
 40
0.3138740599
 40
0.3758953791
 40
0.4379062551
 40
0.4999407018
 40
0.5619805226
 40
0.624007433
 40
0.6860494365
 40
0.7481824863
 40
0.8105504089
 40
0.873312267
 40
0.9365116449
 40
1.0
 40
1.0
 40
1.0
 40
1.0
 10
15.7166052569
 20
6.5382855076
 30
0.0
 10
15.7210188774
 20
6.5382855076
 30
0.0
 10
15.7298430172
 20
6.5375588658
 30
0.0
 10
15.7426632942
 20
6.5342945321
 30
0.0
 10
15.7546605298
 20
6.5288846706
 30
0.0
 10
15.765401457
 20
6.5213958288
 30
0.0
 10
15.7744356372
 20
6.5119728807
 30
0.0
 10
15.7813100265
 20
6.5008920075
 30
0.0
 10
15.7856222767
 20
6.4885835425
 30
0.0
 10
15.787095309
 20
6.4756199588
 30
0.0
 10
15.7856279147
 20
6.4626545214
 30
0.0
 10
15.7813189215
 20
6.4503417439
 30
0.0
 10
15.7744459617
 20
6.4392548383
 30
0.0
 10
15.7654101988
 20
6.4298269243
 30
0.0
 10
15.7546666529
 20
6.4223342158
 30
0.0
 10
15.7426666341
 20
6.4169220323
 30
0.0
 10
15.7298442059
 20
6.4136569758
 30
0.0
 10
15.7210190698
 20
6.4129301685
 30
0.0
 10
15.7166052569
 20
6.4129301685
 30
0.0
  0
SPLINE
  5
43E
100
AcDbEntity
  8
0
100
AcDbSpline
 62
7
  6
CONTINUOUS
 70
0
 71
3
 72
9
 73
5
 74
0
 42
0.0000001
 43
0.0000001
 44
0.0000000001
 40
0.0
 40
0.0
 40
0.0
 40
0.0
 40
0.2450481775
 40
1.0
 40
1.0
 40
1.0
 40
1.0
 10
15.651777144
 20
6.3385232788
 30
0.0
 10
15.6533685228
 20
6.3377023939
 30
0.0
 10
15.6599391323
 20
6.3345019863
 30
0.0
 10
15.6667939084
 20
6.3318922766
 30
0.0
 10
15.6720583699
 20
6.3302435029
 30
0.0
  0
SPLINE
  5
43F
100
AcDbEntity
  8
0
100
AcDbSpline
 62
7
  6
CONTINUOUS
 70
0
 71
3
 72
9
 73
5
 74
0
 42
0.0000001
 43
0.0000001
 44
0.0000000001
 40
0.0
 40
0.0
 40
0.0
 40
0.0
 40
0.2549277235
 40
1.0
 40
1.0
 40
1.0
 40
1.0
 10
15.761152144
 20
6.3302435029
 30
0.0
 10
15.7629297839
 20
6.3308002409
 30
0.0
 10
15.7698572088
 20
6.3331260956
 30
0.0
 10
15.7765948501
 20
6.3360274134
 30
0.0
 10
15.7814333699
 20
6.3385232788
 30
0.0
  0
SPLINE
  5
440
100
AcDbEntity
  8
0
100
AcDbSpline
 62
7
  6
CONTINUOUS
 70
0
 71
3
 72
12
 73
8
 74
0
 42
0.0000001
 43
0.0000001
 44
0.0000000001
 40
0.0
 40
0.0
 40
0.0
 40
0.0
 40
0.2761846483
 40
0.5333929392
 40
0.7728515528
 40
0.8876445452
 40
1.0
 40
1.0
 40
1.0
 40
1.0
 10
15.7814333699
 20
6.3385232788
 30
0.0
 10
15.7874046912
 20
6.3416034799
 30
0.0
 10
15.7984630305
 20
6.3485658526
 30
0.0
 10
15.8121386279
 20
6.3616684748
 30
0.0
 10
15.8202737597
 20
6.3743367319
 30
0.0
 10
15.8243373676
 20
6.3849690555
 30
0.0
 10
15.8255710855
 20
6.3903792935
 30
0.0
 10
15.8259802569
 20
6.3930818502
 30
0.0
  0
SPLINE
  5
441
100
AcDbEntity
  8
0
100
AcDbSpline
 62
7
  6
CONTINUOUS
 70
0
 71
3
 72
12
 73
8
 74
0
 42
0.0000001
 43
0.0000001
 44
0.0000000001
 40
0.0
 40
0.0
 40
0.0
 40
0.0
 40
0.2749763799
 40
0.5316171099
 40
0.7715748385
 40
0.8869360649
 40
1.0
 40
1.0
 40
1.0
 40
1.0
 10
15.6482296804
 20
6.4622906255
 30
0.0
 10
15.6427169864
 20
6.4591964533
 30
0.0
 10
15.6325264557
 20
6.4523024175
 30
0.0
 10
15.6199759098
 20
6.4395944283
 30
0.0
 10
15.6125226517
 20
6.4274774743
 30
0.0
 10
15.6087727332
 20
6.4173551214
 30
0.0
 10
15.6076193654
 20
6.4122114436
 30
0.0
 10
15.6072302569
 20
6.4096414018
 30
0.0
  0
SPLINE
  5
442
100
AcDbEntity
  8
0
100
AcDbSpline
 62
7
  6
CONTINUOUS
 70
0
 71
3
 72
12
 73
8
 74
0
 42
0.0000001
 43
0.0000001
 44
0.0000000001
 40
0.0
 40
0.0
 40
0.0
 40
0.0
 40
0.113099062
 40
0.2284885889
 40
0.4684719723
 40
0.7250857366
 40
1.0
 40
1.0
 40
1.0
 40
1.0
 10
15.8259802569
 20
6.4096414018
 30
0.0
 10
15.8255921311
 20
6.4122049535
 30
0.0
 10
15.8244426448
 20
6.417335582
 30
0.0
 10
15.8207077794
 20
6.4274329153
 30
0.0
 10
15.8132871959
 20
6.4395225861
 30
0.0
 10
15.80079083
 20
6.4522103068
 30
0.0
 10
15.7906423282
 20
6.4591001354
 30
0.0
 10
15.7851518923
 20
6.4621944172
 30
0.0
  0
SPLINE
  5
443
100
AcDbEntity
  8
0
100
AcDbSpline
 62
7
  6
CONTINUOUS
 70
0
 71
3
 72
12
 73
8
 74
0
 42
0.0000001
 43
0.0000001
 44
0.0000000001
 40
0.0
 40
0.0
 40
0.0
 40
0.0
 40
0.1123554548
 40
0.2271484472
 40
0.4666070608
 40
0.7238153517
 40
1.0
 40
1.0
 40
1.0
 40
1.0
 10
15.6072302569
 20
6.3930818502
 30
0.0
 10
15.6076394284
 20
6.3903792935
 30
0.0
 10
15.6088731462
 20
6.3849690555
 30
0.0
 10
15.6129367541
 20
6.3743367319
 30
0.0
 10
15.6210718859
 20
6.3616684748
 30
0.0
 10
15.6347474834
 20
6.3485658526
 30
0.0
 10
15.6458058226
 20
6.3416034799
 30
0.0
 10
15.651777144
 20
6.3385232788
 30
0.0
  0
SPLINE
  5
444
100
AcDbEntity
  8
0
100
AcDbSpline
 62
7
  6
CONTINUOUS
 70
0
 71
3
 72
9
 73
5
 74
0
 42
0.0000001
 43
0.0000001
 44
0.0000000001
 40
0.0
 40
0.0
 40
0.0
 40
0.0
 40
0.2456639173
 40
1.0
 40
1.0
 40
1.0
 40
1.0
 10
15.6720583699
 20
6.3302435029
 30
0.0
 10
15.6755858399
 20
6.3291387367
 30
0.0
 10
15.6901227019
 20
6.3252241409
 30
0.0
 10
15.7052550093
 20
6.3235798801
 30
0.0
 10
15.7166052569
 20
6.3235798801
 30
0.0
  0
SPLINE
  5
445
100
AcDbEntity
  8
0
100
AcDbSpline
 62
7
  6
CONTINUOUS
 70
0
 71
3
 72
9
 73
5
 74
0
 42
0.0000001
 43
0.0000001
 44
0.0000000001
 40
0.0
 40
0.0
 40
0.0
 40
0.0
 40
0.2537149426
 40
1.0
 40
1.0
 40
1.0
 40
1.0
 10
15.7166052569
 20
6.3235798801
 30
0.0
 10
15.7204226459
 20
6.3235798801
 30
0.0
 10
15.7354612838
 20
6.3241327072
 30
0.0
 10
15.7504367876
 20
6.3268875667
 30
0.0
 10
15.761152144
 20
6.3302435029
 30
0.0
  0
SPLINE
  5
446
100
AcDbEntity
  8
0
100
AcDbSpline
 62
7
  6
CONTINUOUS
 70
0
 71
3
 72
31
 73
27
 74
0
 42
0.0000001
 43
0.0000001
 44
0.0000000001
 40
0.0
 40
0.0
 40
0.0
 40
0.0
 40
0.062864695
 40
0.1250394637
 40
0.1865986134
 40
0.2477803714
 40
0.2783934172
 40
0.3091171251
 40
0.3400500495
 40
0.3712921315
 40
0.402922858
 40
0.4349701421
 40
0.4673786377
 40
0.4999998729
 40
0.532621123
 40
0.5650295716
 40
0.5970767776
 40
0.6287075138
 40
0.6599495384
 40
0.6908825413
 40
0.7216062613
 40
0.752219309
 40
0.8134011293
 40
0.874960344
 40
0.9371352491
 40
1.0
 40
1.0
 40
1.0
 40
1.0
 10
15.4729292281
 20
5.7442592253
 30
0.0
 10
15.4764826866
 20
5.7607763945
 30
0.0
 10
15.4845235382
 20
5.793433865
 30
0.0
 10
15.5001620366
 20
5.8411452097
 30
0.0
 10
15.5201538017
 20
5.8867433133
 30
0.0
 10
15.5413434646
 20
5.9222754286
 30
0.0
 10
15.5614962924
 20
5.9483613249
 30
0.0
 10
15.5783903275
 20
5.9665663459
 30
0.0
 10
15.5971683736
 20
5.9830913642
 30
0.0
 10
15.6178843192
 20
5.9975601193
 30
0.0
 10
15.6404872393
 20
6.0095349683
 30
0.0
 10
15.6647712384
 20
6.0185491355
 30
0.0
 10
15.6903383088
 20
6.0241692614
 30
0.0
 10
15.7166051585
 20
6.0260814827
 30
0.0
 10
15.7428719994
 20
6.0241692961
 30
0.0
 10
15.7684390434
 20
6.0185491938
 30
0.0
 10
15.7927230325
 20
6.0095350899
 30
0.0
 10
15.8153259343
 20
5.9975602768
 30
0.0
 10
15.8360419091
 20
5.9830915504
 30
0.0
 10
15.8548199828
 20
5.9665665488
 30
0.0
 10
15.8717140511
 20
5.9483615246
 30
0.0
 10
15.891866911
 20
5.922275627
 30
0.0
 10
15.913056616
 20
5.8867434965
 30
0.0
 10
15.9330484459
 20
5.841145343
 30
0.0
 10
15.94868696
 20
5.7934339295
 30
0.0
 10
15.9567278241
 20
5.7607764092
 30
0.0
 10
15.9602812858
 20
5.7442592253
 30
0.0
  0
SPLINE
  5
447
100
AcDbEntity
  8
0
100
AcDbSpline
 62
7
  6
CONTINUOUS
 70
0
 71
3
 72
9
 73
5
 74
0
 42
0.0000001
 43
0.0000001
 44
0.0000000001
 40
0.0
 40
0.0
 40
0.0
 40
0.0
 40
0.245773414
 40
1.0
 40
1.0
 40
1.0
 40
1.0
 10
15.711092004
 20
13.1099511107
 30
0.0
 10
15.7113472936
 20
13.1081920417
 30
0.0
 10
15.712570435
 20
13.1010622859
 30
0.0
 10
15.714515858
 20
13.0940601668
 30
0.0
 10
15.716334459
 20
13.0889174895
 30
0.0
  0
SPLINE
  5
448
100
AcDbEntity
  8
0
100
AcDbSpline
 62
7
  6
CONTINUOUS
 70
0
 71
3
 72
23
 73
19
 74
0
 42
0.0000001
 43
0.0000001
 44
0.0000000001
 40
0.0
 40
0.0
 40
0.0
 40
0.0
 40
0.0620518321
 40
0.1240728336
 40
0.1860899514
 40
0.2481215872
 40
0.3102133803
 40
0.3724271804
 40
0.4348485277
 40
0.4975580486
 40
0.5605703376
 40
0.6238021887
 40
0.6870774504
 40
0.7502047744
 40
0.8130501703
 40
0.8755886054
 40
0.9378705017
 40
1.0
 40
1.0
 40
1.0
 40
1.0
 10
15.9194791052
 20
13.12251559
 30
0.0
 10
15.9181881083
 20
13.1183379226
 30
0.0
 10
15.9147143959
 20
13.1102294818
 30
0.0
 10
15.9070334573
 20
13.0994796002
 30
0.0
 10
15.8972109295
 20
13.0906365287
 30
0.0
 10
15.8857145724
 20
13.0841128415
 30
0.0
 10
15.873089059
 20
13.0801666581
 30
0.0
 10
15.859901278
 20
13.0788960591
 30
0.0
 10
15.8466865709
 20
13.0802625569
 30
0.0
 10
15.8339213663
 20
13.0841174438
 30
0.0
 10
15.8220216646
 20
13.0902486818
 30
0.0
 10
15.8113553009
 20
13.098397692
 30
0.0
 10
15.8022563326
 20
13.1082763539
 30
0.0
 10
15.7950296789
 20
13.119566945
 30
0.0
 10
15.7899504699
 20
13.1319210173
 30
0.0
 10
15.7872596849
 20
13.1449515393
 30
0.0
 10
15.7871399452
 20
13.1582075833
 30
0.0
 10
15.7888493341
 20
13.1668821883
 30
0.0
 10
15.7901419468
 20
13.1710650847
 30
0.0
  0
SPLINE
  5
449
100
AcDbEntity
  8
0
100
AcDbSpline
 62
7
  6
CONTINUOUS
 70
0
 71
3
 72
9
 73
5
 74
0
 42
0.0000001
 43
0.0000001
 44
0.0000000001
 40
0.0
 40
0.0
 40
0.0
 40
0.0
 40
0.2528483002
 40
1.0
 40
1.0
 40
1.0
 40
1.0
 10
15.7724455783
 20
13.0201085623
 30
0.0
 10
15.774075718
 20
13.0190941128
 30
0.0
 10
15.7806081107
 20
13.015221216
 30
0.0
 10
15.7874785478
 20
13.011914563
 30
0.0
 10
15.792749292
 20
13.0098149799
 30
0.0
  0
SPLINE
  5
44A
100
AcDbEntity
  8
0
100
AcDbSpline
 62
7
  6
CONTINUOUS
 70
0
 71
3
 72
23
 73
19
 74
0
 42
0.0000001
 43
0.0000001
 44
0.0000000001
 40
0.0
 40
0.0
 40
0.0
 40
0.0
 40
0.0620518321
 40
0.1240728336
 40
0.1860899514
 40
0.2481215872
 40
0.3102133803
 40
0.3724271804
 40
0.4348485277
 40
0.4975580486
 40
0.5605703376
 40
0.6238021887
 40
0.6870774504
 40
0.7502047744
 40
0.8130501703
 40
0.8755886054
 40
0.9378705017
 40
1.0
 40
1.0
 40
1.0
 40
1.0
 10
15.7901419468
 20
13.1710650847
 30
0.0
 10
15.7914329437
 20
13.1752427521
 30
0.0
 10
15.7949066561
 20
13.1833511929
 30
0.0
 10
15.8025875947
 20
13.1941010744
 30
0.0
 10
15.8124101226
 20
13.202944146
 30
0.0
 10
15.8239064796
 20
13.2094678332
 30
0.0
 10
15.836531993
 20
13.2134140165
 30
0.0
 10
15.849719774
 20
13.2146846156
 30
0.0
 10
15.8629344811
 20
13.2133181178
 30
0.0
 10
15.8756996857
 20
13.2094632309
 30
0.0
 10
15.8875993874
 20
13.2033319928
 30
0.0
 10
15.8982657511
 20
13.1951829826
 30
0.0
 10
15.9073647194
 20
13.1853043208
 30
0.0
 10
15.9145913731
 20
13.1740137296
 30
0.0
 10
15.9196705822
 20
13.1616596573
 30
0.0
 10
15.9223613671
 20
13.1486291354
 30
0.0
 10
15.9224811068
 20
13.1353730914
 30
0.0
 10
15.9207717179
 20
13.1266984864
 30
0.0
 10
15.9194791052
 20
13.12251559
 30
0.0
  0
SPLINE
  5
44B
100
AcDbEntity
  8
0
100
AcDbSpline
 62
7
  6
CONTINUOUS
 70
0
 71
3
 72
11
 73
7
 74
0
 42
0.0000001
 43
0.0000001
 44
0.0000000001
 40
0.0
 40
0.0
 40
0.0
 40
0.0
 40
0.2466321275
 40
0.4945132792
 40
0.745181898
 40
1.0
 40
1.0
 40
1.0
 40
1.0
 10
15.8854882722
 20
13.0215356423
 30
0.0
 10
15.8876748378
 20
13.0235915049
 30
0.0
 10
15.8917897372
 20
13.0280110392
 30
0.0
 10
15.897052798
 20
13.0354265749
 30
0.0
 10
15.9013522886
 20
13.0435514665
 30
0.0
 10
15.9035263313
 20
13.0493255898
 30
0.0
 10
15.9044418605
 20
13.0522882432
 30
0.0
  0
SPLINE
  5
44C
100
AcDbEntity
  8
0
100
AcDbSpline
 62
7
  6
CONTINUOUS
 70
0
 71
3
 72
9
 73
5
 74
0
 42
0.0000001
 43
0.0000001
 44
0.0000000001
 40
0.0
 40
0.0
 40
0.0
 40
0.0
 40
0.4875339393
 40
1.0
 40
1.0
 40
1.0
 40
1.0
 10
15.9044418605
 20
13.0522882432
 30
0.0
 10
15.9063306859
 20
13.0584004845
 30
0.0
 10
15.9086433105
 20
13.0714567568
 30
0.0
 10
15.9080206813
 20
13.084670317
 30
0.0
 10
15.9070548746
 20
13.091325193
 30
0.0
  0
SPLINE
  5
44D
100
AcDbEntity
  8
0
100
AcDbSpline
 62
7
  6
CONTINUOUS
 70
0
 71
3
 72
11
 73
7
 74
0
 42
0.0000001
 43
0.0000001
 44
0.0000000001
 40
0.0
 40
0.0
 40
0.0
 40
0.0
 40
0.2642523521
 40
0.5183853275
 40
0.7631638633
 40
1.0
 40
1.0
 40
1.0
 40
1.0
 10
15.8064806482
 20
13.197211706
 30
0.0
 10
15.801285843
 20
13.1983079552
 30
0.0
 10
15.790917309
 20
13.199714307
 30
0.0
 10
15.7755195976
 20
13.1993202522
 30
0.0
 10
15.7609546809
 20
13.1963794225
 30
0.0
 10
15.7519258751
 20
13.1927059394
 30
0.0
 10
15.7477198649
 20
13.1904807003
 30
0.0
  0
SPLINE
  5
44E
100
AcDbEntity
  8
0
100
AcDbSpline
 62
7
  6
CONTINUOUS
 70
0
 71
3
 72
12
 73
8
 74
0
 42
0.0000001
 43
0.0000001
 44
0.0000000001
 40
0.0
 40
0.0
 40
0.0
 40
0.0
 40
0.2440950588
 40
0.4947009587
 40
0.621351469
 40
0.7481999949
 40
1.0
 40
1.0
 40
1.0
 40
1.0
 10
15.716334459
 20
13.0889174895
 30
0.0
 10
15.7187856038
 20
13.0819860917
 30
0.0
 10
15.725069171
 20
13.0683762487
 30
0.0
 10
15.7357289078
 20
13.0528869955
 30
0.0
 10
15.7458124806
 20
13.0415144589
 30
0.0
 10
15.756812937
 20
13.030980087
 30
0.0
 10
15.766006495
 20
13.0241156576
 30
0.0
 10
15.7724455783
 20
13.0201085623
 30
0.0
  0
SPLINE
  5
44F
100
AcDbEntity
  8
0
100
AcDbSpline
 62
7
  6
CONTINUOUS
 70
0
 71
3
 72
11
 73
7
 74
0
 42
0.0000001
 43
0.0000001
 44
0.0000000001
 40
0.0
 40
0.0
 40
0.0
 40
0.0
 40
0.268126188
 40
0.5240292746
 40
0.7673514679
 40
1.0
 40
1.0
 40
1.0
 40
1.0
 10
15.792749292
 20
13.0098149799
 30
0.0
 10
15.7993908679
 20
13.0071693307
 30
0.0
 10
15.8128626196
 20
13.003123263
 30
0.0
 10
15.8333643353
 20
13.0011198361
 30
0.0
 10
15.8529027084
 20
13.0034184595
 30
0.0
 10
15.8649439298
 20
13.0078947134
 30
0.0
 10
15.8704270136
 20
13.0107956034
 30
0.0
  0
SPLINE
  5
450
100
AcDbEntity
  8
0
100
AcDbSpline
 62
7
  6
CONTINUOUS
 70
0
 71
3
 72
11
 73
7
 74
0
 42
0.0000001
 43
0.0000001
 44
0.0000000001
 40
0.0
 40
0.0
 40
0.0
 40
0.0
 40
0.2466321275
 40
0.4945132792
 40
0.745181898
 40
1.0
 40
1.0
 40
1.0
 40
1.0
 10
15.7326586063
 20
13.1797406614
 30
0.0
 10
15.7304720408
 20
13.1776847987
 30
0.0
 10
15.7263571414
 20
13.1732652645
 30
0.0
 10
15.7210940805
 20
13.1658497287
 30
0.0
 10
15.71679459
 20
13.1577248372
 30
0.0
 10
15.7146205472
 20
13.1519507139
 30
0.0
 10
15.7137050181
 20
13.1489880605
 30
0.0
  0
SPLINE
  5
451
100
AcDbEntity
  8
0
100
AcDbSpline
 62
7
  6
CONTINUOUS
 70
0
 71
3
 72
9
 73
5
 74
0
 42
0.0000001
 43
0.0000001
 44
0.0000000001
 40
0.0
 40
0.0
 40
0.0
 40
0.0
 40
0.4875339393
 40
1.0
 40
1.0
 40
1.0
 40
1.0
 10
15.7137050181
 20
13.1489880605
 30
0.0
 10
15.7118161927
 20
13.1428758192
 30
0.0
 10
15.709503568
 20
13.1298195468
 30
0.0
 10
15.7101261973
 20
13.1166059867
 30
0.0
 10
15.711092004
 20
13.1099511107
 30
0.0
  0
SPLINE
  5
452
100
AcDbEntity
  8
0
100
AcDbSpline
 62
7
  6
CONTINUOUS
 70
0
 71
3
 72
9
 73
5
 74
0
 42
0.0000001
 43
0.0000001
 44
0.0000000001
 40
0.0
 40
0.0
 40
0.0
 40
0.0
 40
0.2456228986
 40
1.0
 40
1.0
 40
1.0
 40
1.0
 10
15.728236677
 20
12.0087414605
 30
0.0
 10
15.7268035428
 20
12.0116618809
 30
0.0
 10
15.7208291267
 20
12.0234828516
 30
0.0
 10
15.7143102345
 20
12.0350270556
 30
0.0
 10
15.7091282673
 20
12.0435694016
 30
0.0
  0
SPLINE
  5
453
100
AcDbEntity
  8
0
100
AcDbSpline
 62
7
  6
CONTINUOUS
 70
0
 71
3
 72
11
 73
7
 74
0
 42
0.0000001
 43
0.0000001
 44
0.0000000001
 40
0.0
 40
0.0
 40
0.0
 40
0.0
 40
0.2318419652
 40
0.4760276708
 40
0.7322844745
 40
1.0
 40
1.0
 40
1.0
 40
1.0
 10
15.7077151412
 20
12.0458841511
 30
0.0
 10
15.6989313031
 20
12.0601817897
 30
0.0
 10
15.6793619463
 20
12.0886159647
 30
0.0
 10
15.6454248278
 20
12.1294079499
 30
0.0
 10
15.6064407066
 20
12.1691267934
 30
0.0
 10
15.5778939619
 20
12.1941509105
 30
0.0
 10
15.5628997462
 20
12.2064241412
 30
0.0
  0
SPLINE
  5
454
100
AcDbEntity
  8
0
100
AcDbSpline
 62
7
  6
CONTINUOUS
 70
0
 71
3
 72
9
 73
5
 74
0
 42
0.0000001
 43
0.0000001
 44
0.0000000001
 40
0.0
 40
0.0
 40
0.0
 40
0.0
 40
0.2453482574
 40
1.0
 40
1.0
 40
1.0
 40
1.0
 10
15.5615778778
 20
12.2075039348
 30
0.0
 10
15.5560254691
 20
12.2120303246
 30
0.0
 10
15.5331643657
 20
12.2301954592
 30
0.0
 10
15.5094157902
 20
12.2472378224
 30
0.0
 10
15.491099497
 20
12.259485956
 30
0.0
  0
SPLINE
  5
455
100
AcDbEntity
  8
0
100
AcDbSpline
 62
7
  6
CONTINUOUS
 70
0
 71
3
 72
11
 73
7
 74
0
 42
0.0000001
 43
0.0000001
 44
0.0000000001
 40
0.0
 40
0.0
 40
0.0
 40
0.0
 40
0.2423975172
 40
0.4908088049
 40
0.743836156
 40
1.0
 40
1.0
 40
1.0
 40
1.0
 10
15.4900784863
 20
12.2601677978
 30
0.0
 10
15.4722504267
 20
12.2720577067
 30
0.0
 10
15.4353684003
 20
12.2949760211
 30
0.0
 10
15.3775026284
 20
12.3262891277
 30
0.0
 10
15.3168328644
 20
12.3547425238
 30
0.0
 10
15.2750508041
 20
12.3715662466
 30
0.0
 10
15.2538207955
 20
12.3794489301
 30
0.0
  0
SPLINE
  5
456
100
AcDbEntity
  8
0
100
AcDbSpline
 62
7
  6
CONTINUOUS
 70
0
 71
3
 72
15
 73
11
 74
0
 42
0.0000001
 43
0.0000001
 44
0.0000000001
 40
0.0
 40
0.0
 40
0.0
 40
0.0
 40
0.1373616936
 40
0.2731564105
 40
0.4062801781
 40
0.5356991995
 40
0.6604833946
 40
0.779836368
 40
0.8931397121
 40
1.0
 40
1.0
 40
1.0
 40
1.0
 10
15.1594325326
 20
12.4102885169
 30
0.0
 10
15.1337763657
 20
12.4175611206
 30
0.0
 10
15.0822795478
 20
12.430399154
 30
0.0
 10
15.0046213316
 20
12.4445001944
 30
0.0
 10
14.9277203426
 20
12.4532123111
 30
0.0
 10
14.8525292723
 20
12.4564287596
 30
0.0
 10
14.7799728782
 20
12.4541114852
 30
0.0
 10
14.7109377815
 20
12.4462813315
 30
0.0
 10
14.6462787587
 20
12.4330318565
 30
0.0
 10
14.605375097
 20
12.4203026636
 30
0.0
 10
14.5859585734
 20
12.4129967244
 30
0.0
  0
SPLINE
  5
457
100
AcDbEntity
  8
0
100
AcDbSpline
 62
7
  6
CONTINUOUS
 70
0
 71
3
 72
9
 73
5
 74
0
 42
0.0000001
 43
0.0000001
 44
0.0000000001
 40
0.0
 40
0.0
 40
0.0
 40
0.0
 40
0.2573178453
 40
1.0
 40
1.0
 40
1.0
 40
1.0
 10
14.5833556699
 20
12.4120095267
 30
0.0
 10
14.5778770286
 20
12.409915174
 30
0.0
 10
14.5567239296
 20
12.4014226077
 30
0.0
 10
14.5361416654
 20
12.3914799576
 30
0.0
 10
14.5213703662
 20
12.3832101405
 30
0.0
  0
SPLINE
  5
458
100
AcDbEntity
  8
0
100
AcDbSpline
 62
7
  6
CONTINUOUS
 70
0
 71
3
 72
11
 73
7
 74
0
 42
0.0000001
 43
0.0000001
 44
0.0000000001
 40
0.0
 40
0.0
 40
0.0
 40
0.0
 40
0.2680246686
 40
0.5225513486
 40
0.7656219481
 40
1.0
 40
1.0
 40
1.0
 40
1.0
 10
14.5199774328
 20
12.3824267958
 30
0.0
 10
14.5070210412
 20
12.3751078058
 30
0.0
 10
14.4824950325
 20
12.3594701453
 30
0.0
 10
14.44961429
 20
12.3323495549
 30
0.0
 10
14.4219463657
 20
12.302408048
 30
0.0
 10
14.406938064
 20
12.2804110243
 30
0.0
 10
14.4004786053
 20
12.2691148018
 30
0.0
  0
SPLINE
  5
459
100
AcDbEntity
  8
0
100
AcDbSpline
 62
7
  6
CONTINUOUS
 70
0
 71
3
 72
14
 73
10
 74
0
 42
0.0000001
 43
0.0000001
 44
0.0000000001
 40
0.0
 40
0.0
 40
0.0
 40
0.0
 40
0.1164602241
 40
0.2338170881
 40
0.352943187
 40
0.4746607151
 40
0.5997119527
 40
0.7287282144
 40
1.0
 40
1.0
 40
1.0
 40
1.0
 10
15.4707078632
 20
11.624161872
 30
0.0
 10
15.4724517801
 20
11.6298071414
 30
0.0
 10
15.4753415228
 20
11.6413402957
 30
0.0
 10
15.4778111958
 20
11.6591078999
 30
0.0
 10
15.4784092778
 20
11.6773039483
 30
0.0
 10
15.4771406063
 20
11.6958536175
 30
0.0
 10
15.4740111332
 20
11.7146898941
 30
0.0
 10
15.4672615862
 20
11.7405016965
 30
0.0
 10
15.4595925821
 20
11.7594298523
 30
0.0
 10
15.4535295217
 20
11.7717850704
 30
0.0
  0
SPLINE
  5
45A
100
AcDbEntity
  8
0
100
AcDbSpline
 62
7
  6
CONTINUOUS
 70
0
 71
3
 72
9
 73
5
 74
0
 42
0.0000001
 43
0.0000001
 44
0.0000000001
 40
0.0
 40
0.0
 40
0.0
 40
0.0
 40
0.2457272292
 40
1.0
 40
1.0
 40
1.0
 40
1.0
 10
15.6875532347
 20
11.7903940175
 30
0.0
 10
15.6872727293
 20
11.7903940065
 30
0.0
 10
15.6861313883
 20
11.7904404438
 30
0.0
 10
15.6850000841
 20
11.7906773063
 30
0.0
 10
15.6841812267
 20
11.7909434616
 30
0.0
  0
SPLINE
  5
45B
100
AcDbEntity
  8
0
100
AcDbSpline
 62
7
  6
CONTINUOUS
 70
0
 71
3
 72
13
 73
9
 74
0
 42
0.0000001
 43
0.0000001
 44
0.0000000001
 40
0.0
 40
0.0
 40
0.0
 40
0.0
 40
0.185798063
 40
0.292753952
 40
0.4107271824
 40
0.5404787851
 40
0.6821211941
 40
1.0
 40
1.0
 40
1.0
 40
1.0
 10
15.6841812267
 20
11.7909434616
 30
0.0
 10
15.6826060335
 20
11.7914554506
 30
0.0
 10
15.6802860258
 20
11.7927743006
 30
0.0
 10
15.6775031515
 20
11.7951542382
 30
0.0
 10
15.6753309123
 20
11.7974614055
 30
0.0
 10
15.6731849666
 20
11.8001937376
 30
0.0
 10
15.6702493226
 20
11.8045543394
 30
0.0
 10
15.6682876747
 20
11.8081626747
 30
0.0
 10
15.6670392846
 20
11.8107066262
 30
0.0
  0
SPLINE
  5
45C
100
AcDbEntity
  8
0
100
AcDbSpline
 62
7
  6
CONTINUOUS
 70
0
 71
3
 72
15
 73
11
 74
0
 42
0.0000001
 43
0.0000001
 44
0.0000000001
 40
0.0
 40
0.0
 40
0.0
 40
0.0
 40
0.1380799318
 40
0.2714583019
 40
0.400424799
 40
0.5254316948
 40
0.647119483
 40
0.7662256933
 40
0.8835644243
 40
1.0
 40
1.0
 40
1.0
 40
1.0
 10
14.333255807
 20
11.7791287601
 30
0.0
 10
14.3288185051
 20
11.7881710308
 30
0.0
 10
14.3207378796
 20
11.8062738116
 30
0.0
 10
14.310967826
 20
11.8338340111
 30
0.0
 10
14.3038125819
 20
11.8612068418
 30
0.0
 10
14.2993159108
 20
11.8882788881
 30
0.0
 10
14.2974901493
 20
11.9149433959
 30
0.0
 10
14.2983531024
 20
11.9411006359
 30
0.0
 10
14.3018999211
 20
11.9666428113
 30
0.0
 10
14.3060521787
 20
11.9832228926
 30
0.0
 10
14.3085596736
 20
11.9913378056
 30
0.0
  0
SPLINE
  5
45D
100
AcDbEntity
  8
0
100
AcDbSpline
 62
7
  6
CONTINUOUS
 70
0
 71
3
 72
34
 73
30
 74
0
 42
0.0000001
 43
0.0000001
 44
0.0000000001
 40
0.0
 40
0.0
 40
0.0
 40
0.0
 40
0.0265218085
 40
0.0543742585
 40
0.0835432635
 40
0.1140019114
 40
0.1457060197
 40
0.1785796729
 40
0.2473774009
 40
0.3194092939
 40
0.3934616887
 40
0.4682037628
 40
0.5422671794
 40
0.5786360903
 40
0.614344112
 40
0.649242769
 40
0.6831981902
 40
0.716088713
 40
0.7478148763
 40
0.7782956918
 40
0.8074793012
 40
0.8353423759
 40
0.8618975751
 40
0.8871987504
 40
0.9113428232
 40
0.9344780273
 40
0.9567986503
 40
0.9785472904
 40
1.0
 40
1.0
 40
1.0
 40
1.0
 10
15.4535295217
 20
11.7717850704
 30
0.0
 10
15.44922469
 20
11.7805573951
 30
0.0
 10
15.4394823071
 20
11.7981029108
 30
0.0
 10
15.4221855818
 20
11.8236057479
 30
0.0
 10
15.4019623227
 20
11.8487454647
 30
0.0
 10
15.3789631145
 20
11.8733473607
 30
0.0
 10
15.353340452
 20
11.8972502709
 30
0.0
 10
15.3153382339
 20
11.9284480669
 30
0.0
 10
15.2623117574
 20
11.9645459014
 30
0.0
 10
15.192433608
 20
12.0020352536
 30
0.0
 10
15.1172051236
 20
12.0333558909
 30
0.0
 10
15.0386533865
 20
12.0576621432
 30
0.0
 10
14.9717529884
 20
12.0716221932
 30
0.0
 10
14.9183560235
 20
12.0786896709
 30
0.0
 10
14.8790524428
 20
12.0818731568
 30
0.0
 10
14.8405238467
 20
12.0829416717
 30
0.0
 10
14.8030311826
 20
12.0818975611
 30
0.0
 10
14.7668285452
 20
12.0787371869
 30
0.0
 10
14.7321606113
 20
12.0734906293
 30
0.0
 10
14.6992618962
 20
12.0661846226
 30
0.0
 10
14.6683539886
 20
12.0568708861
 30
0.0
 10
14.6396448601
 20
12.0456079918
 30
0.0
 10
14.6133303292
 20
12.0324641302
 30
0.0
 10
14.5895862948
 20
12.0175276053
 30
0.0
 10
14.5685840313
 20
12.0008817418
 30
0.0
 10
14.5504662017
 20
11.982642239
 30
0.0
 10
14.5353796122
 20
11.9629145474
 30
0.0
 10
14.5234358367
 20
11.9418483486
 30
0.0
 10
14.5176230861
 20
11.926960147
 30
0.0
 10
14.5152901862
 20
11.9194082687
 30
0.0
  0
SPLINE
  5
45E
100
AcDbEntity
  8
0
100
AcDbSpline
 62
7
  6
CONTINUOUS
 70
0
 71
3
 72
13
 73
9
 74
0
 42
0.0000001
 43
0.0000001
 44
0.0000000001
 40
0.0
 40
0.0
 40
0.0
 40
0.0
 40
0.1202583372
 40
0.2441917275
 40
0.4983059353
 40
0.6266304087
 40
0.7539856616
 40
1.0
 40
1.0
 40
1.0
 40
1.0
 10
14.8781849086
 20
12.296225544
 30
0.0
 10
14.8754277306
 20
12.293271029
 30
0.0
 10
14.8694500892
 20
12.2876158015
 30
0.0
 10
14.8560706107
 20
12.2775058571
 30
0.0
 10
14.840946157
 20
12.2694235882
 30
0.0
 10
14.8248445811
 20
12.263520151
 30
0.0
 10
14.8085353448
 20
12.2591893996
 30
0.0
 10
14.7959792111
 20
12.257645616
 30
0.0
 10
14.7877132844
 20
12.25750528
 30
0.0
  0
SPLINE
  5
45F
100
AcDbEntity
  8
0
100
AcDbSpline
 62
7
  6
CONTINUOUS
 70
0
 71
3
 72
14
 73
10
 74
0
 42
0.0000001
 43
0.0000001
 44
0.0000000001
 40
0.0
 40
0.0
 40
0.0
 40
0.0
 40
0.2851204797
 40
0.4180090902
 40
0.5442018988
 40
0.6641826371
 40
0.7789932216
 40
0.8902748839
 40
1.0
 40
1.0
 40
1.0
 40
1.0
 10
14.7854285972
 20
12.2574893324
 30
0.0
 10
14.7788098064
 20
12.2575098702
 30
0.0
 10
14.7690574782
 20
12.2583862166
 30
0.0
 10
14.7568175578
 20
12.261605973
 30
0.0
 10
14.7486213052
 20
12.2648774913
 30
0.0
 10
14.7413099933
 20
12.2690314862
 30
0.0
 10
14.7349847157
 20
12.2740406175
 30
0.0
 10
14.7297330726
 20
12.2798517527
 30
0.0
 10
14.7270012996
 20
12.2842321282
 30
0.0
 10
14.7258489541
 20
12.286503733
 30
0.0
  0
SPLINE
  5
460
100
AcDbEntity
  8
0
100
AcDbSpline
 62
7
  6
CONTINUOUS
 70
0
 71
3
 72
12
 73
8
 74
0
 42
0.0000001
 43
0.0000001
 44
0.0000000001
 40
0.0
 40
0.0
 40
0.0
 40
0.0
 40
0.1116322578
 40
0.2261360389
 40
0.4659230493
 40
0.7238794784
 40
1.0
 40
1.0
 40
1.0
 40
1.0
 10
14.7222832614
 20
12.296225544
 30
0.0
 10
14.7216611227
 20
12.2987011021
 30
0.0
 10
14.7207849659
 20
12.3038203546
 30
0.0
 10
14.7205181643
 20
12.3145010603
 30
0.0
 10
14.7231237265
 20
12.3284334303
 30
0.0
 10
14.7304426664
 20
12.3446881599
 30
0.0
 10
14.7376663242
 20
12.354644927
 30
0.0
 10
14.7418086527
 20
12.3594097336
 30
0.0
  0
LINE
  5
461
100
AcDbEntity
  8
0
100
AcDbLine
 62
7
  6
CONTINUOUS
 10
15.7081269014
 20
11.9600383538
 11
15.7105593963
 21
11.9567959635
  0
SPLINE
  5
462
100
AcDbEntity
  8
0
100
AcDbSpline
 62
7
  6
CONTINUOUS
 70
0
 71
3
 72
9
 73
5
 74
0
 42
0.0000001
 43
0.0000001
 44
0.0000000001
 40
0.0
 40
0.0
 40
0.0
 40
0.0
 40
0.2371911811
 40
1.0
 40
1.0
 40
1.0
 40
1.0
 10
15.7105593963
 20
11.9567959635
 30
0.0
 10
15.7109207588
 20
11.9562639572
 30
0.0
 10
15.7123981982
 20
11.9539897947
 30
0.0
 10
15.7137001854
 20
11.9516039353
 30
0.0
 10
15.714611362
 20
11.9497471526
 30
0.0
  0
SPLINE
  5
463
100
AcDbEntity
  8
0
100
AcDbSpline
 62
7
  6
CONTINUOUS
 70
0
 71
3
 72
16
 73
12
 74
0
 42
0.0000001
 43
0.0000001
 44
0.0000000001
 40
0.0
 40
0.0
 40
0.0
 40
0.0
 40
0.1129359888
 40
0.2324970325
 40
0.2945090928
 40
0.3577276558
 40
0.4867963231
 40
0.6177517401
 40
0.7483393944
 40
0.8764487751
 40
1.0
 40
1.0
 40
1.0
 40
1.0
 10
13.7430364199
 20
12.1252167915
 30
0.0
 10
13.7463265775
 20
12.1339951456
 30
0.0
 10
13.7549382448
 20
12.1514103791
 30
0.0
 10
13.7694369634
 20
12.1712273466
 30
0.0
 10
13.7832516227
 20
12.186151141
 30
0.0
 10
13.7987206171
 20
12.2005396474
 30
0.0
 10
13.8203144717
 20
12.2166296895
 30
0.0
 10
13.848807815
 20
12.2323052927
 30
0.0
 10
13.8790896519
 20
12.2439626719
 30
0.0
 10
13.9100921724
 20
12.2511731574
 30
0.0
 10
13.9310095868
 20
12.2528924397
 30
0.0
 10
13.9412654254
 20
12.2528924397
 30
0.0
  0
SPLINE
  5
464
100
AcDbEntity
  8
0
100
AcDbSpline
 62
7
  6
CONTINUOUS
 70
0
 71
3
 72
15
 73
11
 74
0
 42
0.0000001
 43
0.0000001
 44
0.0000000001
 40
0.0
 40
0.0
 40
0.0
 40
0.0
 40
0.1135914884
 40
0.2277627153
 40
0.344281672
 40
0.4646483491
 40
0.5899438269
 40
0.720880585
 40
0.8577380766
 40
1.0
 40
1.0
 40
1.0
 40
1.0
 10
13.6980642
 20
12.1748781653
 30
0.0
 10
13.6996836453
 20
12.1701487227
 30
0.0
 10
13.7038119087
 20
12.1609406158
 30
0.0
 10
13.7125029508
 20
12.1484303238
 30
0.0
 10
13.7235083582
 20
12.137472514
 30
0.0
 10
13.7366074457
 20
12.1282659075
 30
0.0
 10
13.7515548799
 20
12.1209611797
 30
0.0
 10
13.768084591
 20
12.1156715145
 30
0.0
 10
13.7858954105
 20
12.1124911699
 30
0.0
 10
13.7981926893
 20
12.1118048574
 30
0.0
 10
13.8044534632
 20
12.1118048574
 30
0.0
  0
SPLINE
  5
465
100
AcDbEntity
  8
0
100
AcDbSpline
 62
7
  6
CONTINUOUS
 70
0
 71
3
 72
9
 73
5
 74
0
 42
0.0000001
 43
0.0000001
 44
0.0000000001
 40
0.0
 40
0.0
 40
0.0
 40
0.0
 40
0.4931382083
 40
1.0
 40
1.0
 40
1.0
 40
1.0
 10
13.6018407143
 20
12.6748050135
 30
0.0
 10
13.6017269387
 20
12.6748050133
 30
0.0
 10
13.6014801133
 20
12.6747508731
 30
0.0
 10
13.6013525096
 20
12.6745311044
 30
0.0
 10
13.6013179714
 20
12.6744193792
 30
0.0
  0
SPLINE
  5
466
100
AcDbEntity
  8
0
100
AcDbSpline
 62
7
  6
CONTINUOUS
 70
0
 71
3
 72
11
 73
7
 74
0
 42
0.0000001
 43
0.0000001
 44
0.0000000001
 40
0.0
 40
0.0
 40
0.0
 40
0.0
 40
0.2730033642
 40
0.530553386
 40
0.7721260761
 40
1.0
 40
1.0
 40
1.0
 40
1.0
 10
13.3001874462
 20
11.6999606425
 30
0.0
 10
13.2999200759
 20
11.6990954912
 30
0.0
 10
13.2994978097
 20
11.69738103
 30
0.0
 10
13.2992594354
 20
11.6948192945
 30
0.0
 10
13.2994864989
 20
11.6924022472
 30
0.0
 10
13.2999872973
 20
11.6909080326
 30
0.0
 10
13.3003202746
 20
11.6902294963
 30
0.0
  0
SPLINE
  5
467
100
AcDbEntity
  8
0
100
AcDbSpline
 62
7
  6
CONTINUOUS
 70
0
 71
3
 72
22
 73
18
 74
0
 42
0.0000001
 43
0.0000001
 44
0.0000000001
 40
0.0
 40
0.0
 40
0.0
 40
0.0
 40
0.1320972097
 40
0.2003352686
 40
0.2693209651
 40
0.3384876674
 40
0.4072655991
 40
0.4751094682
 40
0.541520999
 40
0.6060851666
 40
0.6684953226
 40
0.7285827641
 40
0.7863422314
 40
0.84194204
 40
0.8957280553
 40
0.9482118903
 40
1.0
 40
1.0
 40
1.0
 40
1.0
 10
13.8138798108
 20
12.4739028182
 30
0.0
 10
13.7873161128
 20
12.4735810183
 30
0.0
 10
13.7469538637
 20
12.4683960772
 30
0.0
 10
13.6948257637
 20
12.4535102552
 30
0.0
 10
13.6561594192
 20
12.4382167813
 30
0.0
 10
13.6190752919
 20
12.4191939627
 30
0.0
 10
13.5842092494
 20
12.3967731179
 30
0.0
 10
13.5521771547
 20
12.3713399997
 30
0.0
 10
13.523541249
 20
12.3433277941
 30
0.0
 10
13.4988064065
 20
12.3132099023
 30
0.0
 10
13.4784198151
 20
12.2814842733
 30
0.0
 10
13.4627633899
 20
12.2486731704
 30
0.0
 10
13.4521526311
 20
12.2153192621
 30
0.0
 10
13.4468399988
 20
12.181989219
 30
0.0
 10
13.4470059269
 20
12.1492787055
 30
0.0
 10
13.4527219568
 20
12.1178451228
 30
0.0
 10
13.4602189354
 20
12.0981097881
 30
0.0
 10
13.4648071617
 20
12.0887599659
 30
0.0
  0
SPLINE
  5
468
100
AcDbEntity
  8
0
100
AcDbSpline
 62
7
  6
CONTINUOUS
 70
0
 71
3
 72
39
 73
35
 74
0
 42
0.0000001
 43
0.0000001
 44
0.0000000001
 40
0.0
 40
0.0
 40
0.0
 40
0.0
 40
0.0302431266
 40
0.0615568385
 40
0.0938589802
 40
0.127077611
 40
0.1611338459
 40
0.1959269204
 40
0.2313458431
 40
0.2672719718
 40
0.3035815701
 40
0.3401448051
 40
0.3768290918
 40
0.4135003163
 40
0.4500244475
 40
0.4862696023
 40
0.522106661
 40
0.5574126177
 40
0.5920701393
 40
0.6259720968
 40
0.6590203129
 40
0.6911312632
 40
0.7222342945
 40
0.7522782948
 40
0.7812298127
 40
0.8090800054
 40
0.8358432926
 40
0.8615627637
 40
0.8863102859
 40
0.9101877807
 40
0.9333281677
 40
0.9558862087
 40
0.9780430468
 40
1.0
 40
1.0
 40
1.0
 40
1.0
 10
16.3010054607
 20
13.1747480678
 30
0.0
 10
16.2853929728
 20
13.1923344848
 30
0.0
 10
16.2524008874
 20
13.2270669559
 30
0.0
 10
16.1989674439
 20
13.2768391395
 30
0.0
 10
16.1409879253
 20
13.3249429586
 30
0.0
 10
16.0787954997
 20
13.3711263157
 30
0.0
 10
16.0127180827
 20
13.4151494159
 30
0.0
 10
15.9431155102
 20
13.4567908741
 30
0.0
 10
15.8703614574
 20
13.4958176778
 30
0.0
 10
15.7948575641
 20
13.532029534
 30
0.0
 10
15.7170115289
 20
13.5652228308
 30
0.0
 10
15.6372520049
 20
13.5952270024
 30
0.0
 10
15.5560117299
 20
13.6218692457
 30
0.0
 10
15.47373815
 20
13.6450134818
 30
0.0
 10
15.3908782586
 20
13.6645234641
 30
0.0
 10
15.3078869524
 20
13.6803013177
 30
0.0
 10
15.2252144385
 20
13.6922498575
 30
0.0
 10
15.1433119378
 20
13.7003116234
 30
0.0
 10
15.0626216576
 20
13.7044299354
 30
0.0
 10
14.9835798875
 20
13.7045881507
 30
0.0
 10
14.9066100862
 20
13.7007695476
 30
0.0
 10
14.8321230921
 20
13.6929965305
 30
0.0
 10
14.7605141526
 20
13.6812897239
 30
0.0
 10
14.6921601051
 20
13.6657062576
 30
0.0
 10
14.6274217288
 20
13.6462993457
 30
0.0
 10
14.5666381003
 20
13.623154439
 30
0.0
 10
14.5101364635
 20
13.5963518078
 30
0.0
 10
14.4582229551
 20
13.566002008
 30
0.0
 10
14.4112024383
 20
13.5322134683
 30
0.0
 10
14.3693607939
 20
13.4951310753
 30
0.0
 10
14.3329994947
 20
13.454913127
 30
0.0
 10
14.3023808458
 20
13.4117814901
 30
0.0
 10
14.2777872692
 20
13.3659935311
 30
0.0
 10
14.2655115274
 20
13.333842266
 30
0.0
 10
14.2604706458
 20
13.3175299672
 30
0.0
  0
SPLINE
  5
469
100
AcDbEntity
  8
0
100
AcDbSpline
 62
7
  6
CONTINUOUS
 70
0
 71
3
 72
9
 73
5
 74
0
 42
0.0000001
 43
0.0000001
 44
0.0000000001
 40
0.0
 40
0.0
 40
0.0
 40
0.0
 40
0.2563129669
 40
1.0
 40
1.0
 40
1.0
 40
1.0
 10
14.4914419005
 20
12.4848382185
 30
0.0
 10
14.4859939204
 20
12.4826312619
 30
0.0
 10
14.4648673547
 20
12.4737090137
 30
0.0
 10
14.4442724758
 20
12.4635101028
 30
0.0
 10
14.4294028464
 20
12.4551574998
 30
0.0
  0
SPLINE
  5
46A
100
AcDbEntity
  8
0
100
AcDbSpline
 62
7
  6
CONTINUOUS
 70
0
 71
3
 72
11
 73
7
 74
0
 42
0.0000001
 43
0.0000001
 44
0.0000000001
 40
0.0
 40
0.0
 40
0.0
 40
0.0
 40
0.2725447701
 40
0.5266923173
 40
0.7655258932
 40
1.0
 40
1.0
 40
1.0
 40
1.0
 10
17.4488052251
 20
12.6748050137
 30
0.0
 10
17.4499809628
 20
12.674805013
 30
0.0
 10
17.4522603605
 20
12.6746341468
 30
0.0
 10
17.4554616527
 20
12.6737008256
 30
0.0
 10
17.4581517222
 20
12.6719812179
 30
0.0
 10
17.4594004806
 20
12.6702961922
 30
0.0
 10
17.4598460912
 20
12.6693881333
 30
0.0
  0
SPLINE
  5
46B
100
AcDbEntity
  8
0
100
AcDbSpline
 62
7
  6
CONTINUOUS
 70
0
 71
3
 72
11
 73
7
 74
0
 42
0.0000001
 43
0.0000001
 44
0.0000000001
 40
0.0
 40
0.0
 40
0.0
 40
0.0
 40
0.1945618168
 40
0.4317767376
 40
0.7031479461
 40
1.0
 40
1.0
 40
1.0
 40
1.0
 10
16.7318430464
 20
12.6894385192
 30
0.0
 10
16.732421217
 20
12.6887872489
 30
0.0
 10
16.73379781
 20
12.6874247126
 30
0.0
 10
16.7362333265
 20
12.6854249012
 30
0.0
 10
16.7392184255
 20
12.6833955382
 30
0.0
 10
16.7414290935
 20
12.6821320295
 30
0.0
 10
16.7426065554
 20
12.6815162822
 30
0.0
  0
SPLINE
  5
46C
100
AcDbEntity
  8
0
100
AcDbSpline
 62
7
  6
CONTINUOUS
 70
0
 71
3
 72
11
 73
7
 74
0
 42
0.0000001
 43
0.0000001
 44
0.0000000001
 40
0.0
 40
0.0
 40
0.0
 40
0.0
 40
0.2526900957
 40
0.5130126121
 40
0.7670960701
 40
1.0
 40
1.0
 40
1.0
 40
1.0
 10
16.7426065554
 20
12.6815162822
 30
0.0
 10
16.7446518121
 20
12.6804467264
 30
0.0
 10
16.7489455424
 20
12.6785383636
 30
0.0
 10
16.7556423101
 20
12.6764297664
 30
0.0
 10
16.7623575745
 20
12.6751287499
 30
0.0
 10
16.766808402
 20
12.6748049606
 30
0.0
 10
16.7689357128
 20
12.6748049606
 30
0.0
  0
SPLINE
  5
46D
100
AcDbEntity
  8
0
100
AcDbSpline
 62
7
  6
CONTINUOUS
 70
0
 71
3
 72
16
 73
12
 74
0
 42
0.0000001
 43
0.0000001
 44
0.0000000001
 40
0.0
 40
0.0
 40
0.0
 40
0.0
 40
0.1129359888
 40
0.2324970325
 40
0.2945090928
 40
0.3577276558
 40
0.4867963231
 40
0.6177517401
 40
0.7483393944
 40
0.8764487751
 40
1.0
 40
1.0
 40
1.0
 40
1.0
 10
16.6213520262
 20
12.1252167915
 30
0.0
 10
16.6246421837
 20
12.1339951456
 30
0.0
 10
16.633253851
 20
12.1514103791
 30
0.0
 10
16.6477525697
 20
12.1712273466
 30
0.0
 10
16.6615672289
 20
12.186151141
 30
0.0
 10
16.6770362233
 20
12.2005396474
 30
0.0
 10
16.698630078
 20
12.2166296895
 30
0.0
 10
16.7271234212
 20
12.2323052927
 30
0.0
 10
16.7574052582
 20
12.2439626719
 30
0.0
 10
16.7884077787
 20
12.2511731574
 30
0.0
 10
16.809325193
 20
12.2528924397
 30
0.0
 10
16.8195810316
 20
12.2528924397
 30
0.0
  0
SPLINE
  5
46E
100
AcDbEntity
  8
0
100
AcDbSpline
 62
7
  6
CONTINUOUS
 70
0
 71
3
 72
15
 73
11
 74
0
 42
0.0000001
 43
0.0000001
 44
0.0000000001
 40
0.0
 40
0.0
 40
0.0
 40
0.0
 40
0.1135914884
 40
0.2277627153
 40
0.344281672
 40
0.4646483491
 40
0.5899438269
 40
0.720880585
 40
0.8577380766
 40
1.0
 40
1.0
 40
1.0
 40
1.0
 10
16.5763798063
 20
12.1748781653
 30
0.0
 10
16.5779992516
 20
12.1701487227
 30
0.0
 10
16.5821275149
 20
12.1609406158
 30
0.0
 10
16.5908185571
 20
12.1484303238
 30
0.0
 10
16.6018239645
 20
12.137472514
 30
0.0
 10
16.614923052
 20
12.1282659075
 30
0.0
 10
16.6298704861
 20
12.1209611797
 30
0.0
 10
16.6464001973
 20
12.1156715145
 30
0.0
 10
16.6642110168
 20
12.1124911699
 30
0.0
 10
16.6765082956
 20
12.1118048574
 30
0.0
 10
16.6827690695
 20
12.1118048574
 30
0.0
  0
SPLINE
  5
46F
100
AcDbEntity
  8
0
100
AcDbSpline
 62
7
  6
CONTINUOUS
 70
0
 71
3
 72
15
 73
11
 74
0
 42
0.0000001
 43
0.0000001
 44
0.0000000001
 40
0.0
 40
0.0
 40
0.0
 40
0.0
 40
0.1144482982
 40
0.2301767001
 40
0.3482993714
 40
0.4698124971
 40
0.595433117
 40
0.7256118249
 40
0.8605752713
 40
1.0
 40
1.0
 40
1.0
 40
1.0
 10
17.2496029241
 20
12.3640991589
 30
0.0
 10
17.2454400739
 20
12.3725821557
 30
0.0
 10
17.2356029403
 20
12.3889657861
 30
0.0
 10
17.2168422262
 20
12.4109216
 30
0.0
 10
17.1943735497
 20
12.4299777243
 30
0.0
 10
17.1686076886
 20
12.4458524816
 30
0.0
 10
17.1399743148
 20
12.4583629068
 30
0.0
 10
17.1089044714
 20
12.4673652064
 30
0.0
 10
17.0758690012
 20
12.472764563
 30
0.0
 10
17.0531932142
 20
12.4739276353
 30
0.0
 10
17.0416816794
 20
12.4739276353
 30
0.0
  0
SPLINE
  5
470
100
AcDbEntity
  8
0
100
AcDbSpline
 62
7
  6
CONTINUOUS
 70
0
 71
3
 72
14
 73
10
 74
0
 42
0.0000001
 43
0.0000001
 44
0.0000000001
 40
0.0
 40
0.0
 40
0.0
 40
0.0
 40
0.0629798764
 40
0.1472868804
 40
0.2530575743
 40
0.3787165989
 40
0.520895719
 40
0.6749820342
 40
1.0
 40
1.0
 40
1.0
 40
1.0
 10
14.1401905321
 20
12.9283033132
 30
0.0
 10
14.1391424883
 20
12.9249120015
 30
0.0
 10
14.1367952236
 20
12.9169492787
 30
0.0
 10
14.1327931969
 20
12.9032600692
 30
0.0
 10
14.1277185008
 20
12.8862037927
 30
0.0
 10
14.1215650183
 20
12.8660661131
 30
0.0
 10
14.1144631269
 20
12.8433714493
 30
0.0
 10
14.1038671007
 20
12.8099975506
 30
0.0
 10
14.0956795056
 20
12.7842658323
 30
0.0
 10
14.0902712078
 20
12.766764319
 30
0.0
  0
SPLINE
  5
471
100
AcDbEntity
  8
0
100
AcDbSpline
 62
7
  6
CONTINUOUS
 70
0
 71
3
 72
11
 73
7
 74
0
 42
0.0000001
 43
0.0000001
 44
0.0000000001
 40
0.0
 40
0.0
 40
0.0
 40
0.0
 40
0.2464955513
 40
0.4944057077
 40
0.7451372819
 40
1.0
 40
1.0
 40
1.0
 40
1.0
 10
13.9699910577
 20
12.3775376756
 30
0.0
 10
13.96602494
 20
12.364703314
 30
0.0
 10
13.9593789094
 20
12.3385357555
 30
0.0
 10
13.9534069164
 20
12.2983033606
 30
0.0
 10
13.9514274255
 20
12.2572239136
 30
0.0
 10
13.952750134
 20
12.2296548425
 30
0.0
 10
13.9540458632
 20
12.2158262285
 30
0.0
  0
SPLINE
  5
472
100
AcDbEntity
  8
0
100
AcDbSpline
 62
7
  6
CONTINUOUS
 70
0
 71
3
 72
23
 73
19
 74
0
 42
0.0000001
 43
0.0000001
 44
0.0000000001
 40
0.0
 40
0.0
 40
0.0
 40
0.0
 40
0.0555744024
 40
0.1137455043
 40
0.1742688423
 40
0.2368380549
 40
0.301100496
 40
0.3666636548
 40
0.4331094482
 40
0.5000008758
 40
0.5668924223
 40
0.6333385431
 40
0.6989023377
 40
0.7631651034
 40
0.825733513
 40
0.8862567292
 40
0.944428671
 40
1.0
 40
1.0
 40
1.0
 40
1.0
 10
15.3943804656
 20
11.3508937671
 30
0.0
 10
15.3753348357
 20
11.3464141868
 30
0.0
 10
15.3359305901
 20
11.3389787046
 30
0.0
 10
15.2748805571
 20
11.332371307
 30
0.0
 10
15.2110531006
 20
11.3301050767
 30
0.0
 10
15.1450803121
 20
11.3321953674
 30
0.0
 10
15.0776091084
 20
11.3386274909
 30
0.0
 10
15.0093037673
 20
11.3493328819
 30
0.0
 10
14.9408375146
 20
11.3642068705
 30
0.0
 10
14.8728866355
 20
11.3831059251
 30
0.0
 10
14.8061200579
 20
11.4058377776
 30
0.0
 10
14.7411986039
 20
11.4321839592
 30
0.0
 10
14.6787617067
 20
11.4618811359
 30
0.0
 10
14.6194248971
 20
11.4946360643
 30
0.0
 10
14.5637746787
 20
11.5301297587
 30
0.0
 10
14.5123538305
 20
11.568010861
 30
0.0
 10
14.4656765613
 20
11.6079093469
 30
0.0
 10
14.4373366493
 20
11.6362777221
 30
0.0
 10
14.424139187
 20
11.650720274
 30
0.0
  0
SPLINE
  5
473
100
AcDbEntity
  8
0
100
AcDbSpline
 62
7
  6
CONTINUOUS
 70
0
 71
3
 72
9
 73
5
 74
0
 42
0.0000001
 43
0.0000001
 44
0.0000000001
 40
0.0
 40
0.0
 40
0.0
 40
0.0
 40
0.5183389655
 40
1.0
 40
1.0
 40
1.0
 40
1.0
 10
14.4188905113
 20
11.6564639751
 30
0.0
 10
14.4024762191
 20
11.6744268821
 30
0.0
 10
14.3726604729
 20
11.7108440573
 30
0.0
 10
14.3477828841
 20
11.7508671261
 30
0.0
 10
14.337383358
 20
11.7709448658
 30
0.0
  0
SPLINE
  5
474
100
AcDbEntity
  8
0
100
AcDbSpline
 62
7
  6
CONTINUOUS
 70
0
 71
3
 72
15
 73
11
 74
0
 42
0.0000001
 43
0.0000001
 44
0.0000000001
 40
0.0
 40
0.0
 40
0.0
 40
0.0
 40
0.1080517152
 40
0.2181258338
 40
0.3320700142
 40
0.4514123717
 40
0.5773001755
 40
0.710491052
 40
0.8513677111
 40
1.0
 40
1.0
 40
1.0
 40
1.0
 10
15.6819771194
 20
11.5669197146
 30
0.0
 10
15.6780560239
 20
11.5542300183
 30
0.0
 10
15.6679348918
 20
11.5292393075
 30
0.0
 10
15.6464543741
 20
11.4943292615
 30
0.0
 10
15.6188597764
 20
11.4621774096
 30
0.0
 10
15.5854659171
 20
11.4330860378
 30
0.0
 10
15.5466148113
 20
11.4072928685
 30
0.0
 10
15.5026771087
 20
11.3850159075
 30
0.0
 10
15.4540708458
 20
11.366428869
 30
0.0
 10
15.4197393899
 20
11.3568575863
 30
0.0
 10
15.4019548489
 20
11.3526745876
 30
0.0
  0
SPLINE
  5
475
100
AcDbEntity
  8
0
100
AcDbSpline
 62
7
  6
CONTINUOUS
 70
0
 71
3
 72
11
 73
7
 74
0
 42
0.0000001
 43
0.0000001
 44
0.0000000001
 40
0.0
 40
0.0
 40
0.0
 40
0.0
 40
0.2367240974
 40
0.4802209235
 40
0.7338011831
 40
1.0
 40
1.0
 40
1.0
 40
1.0
 10
15.7597401415
 20
11.8245145176
 30
0.0
 10
15.7619996567
 20
11.8370748833
 30
0.0
 10
15.7645392658
 20
11.8629650553
 30
0.0
 10
15.762333869
 20
11.9026016658
 30
0.0
 10
15.7542190095
 20
11.9430698685
 30
0.0
 10
15.7451637882
 20
11.9696753929
 30
0.0
 10
15.7397761744
 20
11.9829766886
 30
0.0
  0
SPLINE
  5
476
100
AcDbEntity
  8
0
100
AcDbSpline
 62
7
  6
CONTINUOUS
 70
0
 71
3
 72
15
 73
11
 74
0
 42
0.0000001
 43
0.0000001
 44
0.0000000001
 40
0.0
 40
0.0
 40
0.0
 40
0.0
 40
0.1003452604
 40
0.2119399642
 40
0.3327669811
 40
0.4607261589
 40
0.593677319
 40
0.7294307171
 40
0.865732825
 40
1.0
 40
1.0
 40
1.0
 40
1.0
 10
15.6670392846
 20
11.8107066262
 30
0.0
 10
15.6656115337
 20
11.8136160766
 30
0.0
 10
15.6628927409
 20
11.819908087
 30
0.0
 10
15.6593446551
 20
11.8300603133
 30
0.0
 10
15.6561912828
 20
11.8412716011
 30
0.0
 10
15.6535233916
 20
11.8533148414
 30
0.0
 10
15.6514313163
 20
11.8659603297
 30
0.0
 10
15.6499981199
 20
11.878969147
 30
0.0
 10
15.6493062594
 20
11.8920809926
 30
0.0
 10
15.6493696094
 20
11.9008264716
 30
0.0
 10
15.6495488344
 20
11.905159247
 30
0.0
  0
SPLINE
  5
477
100
AcDbEntity
  8
0
100
AcDbSpline
 62
7
  6
CONTINUOUS
 70
0
 71
3
 72
9
 73
5
 74
0
 42
0.0000001
 43
0.0000001
 44
0.0000000001
 40
0.0
 40
0.0
 40
0.0
 40
0.0
 40
0.5275822776
 40
1.0
 40
1.0
 40
1.0
 40
1.0
 10
15.6690742258
 20
11.9683434366
 30
0.0
 10
15.6707162635
 20
11.9701634189
 30
0.0
 10
15.6741425305
 20
11.9733523278
 30
0.0
 10
15.6782283536
 20
11.9756874003
 30
0.0
 10
15.680273327
 20
11.9764848109
 30
0.0
  0
SPLINE
  5
478
100
AcDbEntity
  8
0
100
AcDbSpline
 62
7
  6
CONTINUOUS
 70
0
 71
3
 72
9
 73
5
 74
0
 42
0.0000001
 43
0.0000001
 44
0.0000000001
 40
0.0
 40
0.0
 40
0.0
 40
0.0
 40
0.5078023495
 40
1.0
 40
1.0
 40
1.0
 40
1.0
 10
15.680273327
 20
11.9764848109
 30
0.0
 10
15.6814477836
 20
11.9769427748
 30
0.0
 10
15.6838434997
 20
11.9776490163
 30
0.0
 10
15.6863313933
 20
11.977892982
 30
0.0
 10
15.6875532425
 20
11.9778930212
 30
0.0
  0
SPLINE
  5
479
100
AcDbEntity
  8
0
100
AcDbSpline
 62
7
  6
CONTINUOUS
 70
0
 71
3
 72
15
 73
11
 74
0
 42
0.0000001
 43
0.0000001
 44
0.0000000001
 40
0.0
 40
0.0
 40
0.0
 40
0.0
 40
0.1003236981
 40
0.2114636592
 40
0.3317233262
 40
0.4592819575
 40
0.5921703682
 40
0.7281425269
 40
0.8648656297
 40
1.0
 40
1.0
 40
1.0
 40
1.0
 10
15.714611362
 20
11.9497471526
 30
0.0
 10
15.715894691
 20
11.947132003
 30
0.0
 10
15.7182657087
 20
11.9414539622
 30
0.0
 10
15.7211664636
 20
11.9322588962
 30
0.0
 10
15.7235322851
 20
11.9220985764
 30
0.0
 10
15.7253210859
 20
11.9111825303
 30
0.0
 10
15.7264920808
 20
11.899725017
 30
0.0
 10
15.7270279872
 20
11.8879542548
 30
0.0
 10
15.726910015
 20
11.8761071596
 30
0.0
 10
15.7263956429
 20
11.8682250953
 30
0.0
 10
15.7260249761
 20
11.8643187931
 30
0.0
  0
SPLINE
  5
47A
100
AcDbEntity
  8
0
100
AcDbSpline
 62
7
  6
CONTINUOUS
 70
0
 71
3
 72
13
 73
9
 74
0
 42
0.0000001
 43
0.0000001
 44
0.0000000001
 40
0.0
 40
0.0
 40
0.0
 40
0.0
 40
0.297688558
 40
0.5689761783
 40
0.6918400716
 40
0.8049170729
 40
0.9077022071
 40
1.0
 40
1.0
 40
1.0
 40
1.0
 10
15.7258200837
 20
11.8622726971
 30
0.0
 10
15.7252215987
 20
11.8565953129
 30
0.0
 10
15.7236112362
 20
11.8457862169
 30
0.0
 10
15.7203365384
 20
11.8328959707
 30
0.0
 10
15.7170229856
 20
11.8237426978
 30
0.0
 10
15.71435197
 20
11.8178130347
 30
0.0
 10
15.711449438
 20
11.8126556676
 30
0.0
 10
15.7092615247
 20
11.8096065304
 30
0.0
 10
15.7081270509
 20
11.8082478818
 30
0.0
  0
SPLINE
  5
47B
100
AcDbEntity
  8
0
100
AcDbSpline
 62
7
  6
CONTINUOUS
 70
0
 71
3
 72
9
 73
5
 74
0
 42
0.0000001
 43
0.0000001
 44
0.0000000001
 40
0.0
 40
0.0
 40
0.0
 40
0.0
 40
0.2591291806
 40
1.0
 40
1.0
 40
1.0
 40
1.0
 10
16.9634968119
 20
12.2528924397
 30
0.0
 10
16.9676856687
 20
12.2528924397
 30
0.0
 10
16.9838409245
 20
12.2523462381
 30
0.0
 10
16.999960979
 20
12.2495592009
 30
0.0
 10
17.0114040286
 20
12.2460254039
 30
0.0
  0
SPLINE
  5
47C
100
AcDbEntity
  8
0
100
AcDbSpline
 62
7
  6
CONTINUOUS
 70
0
 71
3
 72
9
 73
5
 74
0
 42
0.0000001
 43
0.0000001
 44
0.0000000001
 40
0.0
 40
0.0
 40
0.0
 40
0.0
 40
0.2563297556
 40
1.0
 40
1.0
 40
1.0
 40
1.0
 10
15.827983891
 20
12.047655228
 30
0.0
 10
15.8308171921
 20
12.0427603075
 30
0.0
 10
15.8415708447
 20
12.0234933104
 30
0.0
 10
15.8510914987
 20
12.0035296382
 30
0.0
 10
15.8573260341
 20
11.9883515091
 30
0.0
  0
SPLINE
  5
47D
100
AcDbEntity
  8
0
100
AcDbSpline
 62
7
  6
CONTINUOUS
 70
0
 71
3
 72
24
 73
20
 74
0
 42
0.0000001
 43
0.0000001
 44
0.0000000001
 40
0.0
 40
0.0
 40
0.0
 40
0.0
 40
0.065905194
 40
0.1338638333
 40
0.2032079709
 40
0.2733589211
 40
0.4132884977
 40
0.54863101
 40
0.6133183749
 40
0.6754398265
 40
0.7348155506
 40
0.7634981676
 40
0.7915262014
 40
0.8457479115
 40
0.8980372163
 40
0.9237072012
 40
0.9491820243
 40
0.974573898
 40
1.0
 40
1.0
 40
1.0
 40
1.0
 10
16.8266848498
 20
12.1118048574
 30
0.0
 10
16.8335703204
 20
12.1118048574
 30
0.0
 10
16.8475668042
 20
12.1126623489
 30
0.0
 10
16.8685202484
 20
12.1163130879
 30
0.0
 10
16.8893950542
 20
12.1222981065
 30
0.0
 10
16.9165205659
 20
12.1332019053
 30
0.0
 10
16.9478237158
 20
12.1516762973
 30
0.0
 10
16.9742795197
 20
12.1758320355
 30
0.0
 10
16.991017272
 20
12.197586257
 30
0.0
 10
17.0008964093
 20
12.2144055031
 30
0.0
 10
17.0069528666
 20
12.2289432339
 30
0.0
 10
17.0103238826
 20
12.2406050883
 30
0.0
 10
17.0126633124
 20
12.2519664803
 30
0.0
 10
17.0138054841
 20
12.2660478596
 30
0.0
 10
17.0124485729
 20
12.2798766749
 30
0.0
 10
17.0098593304
 20
12.2903830118
 30
0.0
 10
17.0072043206
 20
12.2979394718
 30
0.0
 10
17.0038347527
 20
12.3051763446
 30
0.0
 10
17.0011267581
 20
12.3097546717
 30
0.0
 10
16.9996654718
 20
12.3119730299
 30
0.0
  0
SPLINE
  5
47E
100
AcDbEntity
  8
0
100
AcDbSpline
 62
7
  6
CONTINUOUS
 70
0
 71
3
 72
11
 73
7
 74
0
 42
0.0000001
 43
0.0000001
 44
0.0000000001
 40
0.0
 40
0.0
 40
0.0
 40
0.0
 40
0.2386328055
 40
0.4853342386
 40
0.7395203426
 40
1.0
 40
1.0
 40
1.0
 40
1.0
 10
16.0983523303
 20
12.5012987588
 30
0.0
 10
16.0903429884
 20
12.5139616753
 30
0.0
 10
16.0740756113
 20
12.5397297013
 30
0.0
 10
16.0497455204
 20
12.5792811022
 30
0.0
 10
16.0256830953
 20
12.6205951627
 30
0.0
 10
16.010548985
 20
12.6491668102
 30
0.0
 10
16.0033436662
 20
12.6638491062
 30
0.0
  0
SPLINE
  5
47F
100
AcDbEntity
  8
0
100
AcDbSpline
 62
7
  6
CONTINUOUS
 70
0
 71
3
 72
34
 73
30
 74
0
 42
0.0000001
 43
0.0000001
 44
0.0000000001
 40
0.0
 40
0.0
 40
0.0
 40
0.0
 40
0.0265218085
 40
0.0543742585
 40
0.0835432635
 40
0.1140019114
 40
0.1457060197
 40
0.1785796729
 40
0.2473774009
 40
0.3194092939
 40
0.3934616887
 40
0.4682037628
 40
0.5422671794
 40
0.5786360903
 40
0.614344112
 40
0.649242769
 40
0.6831981902
 40
0.716088713
 40
0.7478148763
 40
0.7782956918
 40
0.8074793012
 40
0.8353423759
 40
0.8618975751
 40
0.8871987504
 40
0.9113428232
 40
0.9344780273
 40
0.9567986503
 40
0.9785472904
 40
1.0
 40
1.0
 40
1.0
 40
1.0
 10
14.5324685277
 20
11.7717850704
 30
0.0
 10
14.5367733595
 20
11.7630127456
 30
0.0
 10
14.5465157423
 20
11.7454672299
 30
0.0
 10
14.5638124676
 20
11.7199643928
 30
0.0
 10
14.5840357267
 20
11.694824676
 30
0.0
 10
14.6070349349
 20
11.67022278
 30
0.0
 10
14.6326575974
 20
11.6463198698
 30
0.0
 10
14.6706598155
 20
11.6151220738
 30
0.0
 10
14.7236862921
 20
11.5790242393
 30
0.0
 10
14.7935644414
 20
11.5415348871
 30
0.0
 10
14.8687929258
 20
11.5102142498
 30
0.0
 10
14.9473446629
 20
11.4859079975
 30
0.0
 10
15.014245061
 20
11.4719479475
 30
0.0
 10
15.0676420259
 20
11.4648804698
 30
0.0
 10
15.1069456066
 20
11.4616969839
 30
0.0
 10
15.1454742027
 20
11.460628469
 30
0.0
 10
15.1829668668
 20
11.4616725796
 30
0.0
 10
15.2191695042
 20
11.4648329538
 30
0.0
 10
15.2538374382
 20
11.4700795114
 30
0.0
 10
15.2867361532
 20
11.4773855181
 30
0.0
 10
15.3176440608
 20
11.4866992546
 30
0.0
 10
15.3463531893
 20
11.4979621489
 30
0.0
 10
15.3726677202
 20
11.5111060105
 30
0.0
 10
15.3964117546
 20
11.5260425354
 30
0.0
 10
15.4174140182
 20
11.5426883989
 30
0.0
 10
15.4355318477
 20
11.5609279017
 30
0.0
 10
15.4506184372
 20
11.5806555933
 30
0.0
 10
15.4625622127
 20
11.6017217921
 30
0.0
 10
15.4683749633
 20
11.6166099937
 30
0.0
 10
15.4707078632
 20
11.624161872
 30
0.0
  0
SPLINE
  5
480
100
AcDbEntity
  8
0
100
AcDbSpline
 62
7
  6
CONTINUOUS
 70
0
 71
3
 72
14
 73
10
 74
0
 42
0.0000001
 43
0.0000001
 44
0.0000000001
 40
0.0
 40
0.0
 40
0.0
 40
0.0
 40
0.0959407275
 40
0.2010682078
 40
0.3152369058
 40
0.4380622777
 40
0.5689393841
 40
0.7070297938
 40
1.0
 40
1.0
 40
1.0
 40
1.0
 10
15.6690742258
 20
11.9683434366
 30
0.0
 10
15.667632506
 20
11.9667454802
 30
0.0
 10
15.6648671607
 20
11.9631613113
 30
0.0
 10
15.6612571775
 20
11.9570645221
 30
0.0
 10
15.6580603726
 20
11.9500733954
 30
0.0
 10
15.6553176566
 20
11.9422799417
 30
0.0
 10
15.6530685097
 20
11.9337747234
 30
0.0
 10
15.6507097317
 20
11.9213839381
 30
0.0
 10
15.6498204577
 20
11.9117257546
 30
0.0
 10
15.6495488344
 20
11.905159247
 30
0.0
  0
SPLINE
  5
481
100
AcDbEntity
  8
0
100
AcDbSpline
 62
7
  6
CONTINUOUS
 70
0
 71
3
 72
9
 73
5
 74
0
 42
0.0000001
 43
0.0000001
 44
0.0000000001
 40
0.0
 40
0.0
 40
0.0
 40
0.0
 40
0.254747902
 40
1.0
 40
1.0
 40
1.0
 40
1.0
 10
15.4949814793
 20
12.2663411272
 30
0.0
 10
15.5013478653
 20
12.2620676911
 30
0.0
 10
15.5261430658
 20
12.2450037396
 30
0.0
 10
15.5501394434
 20
12.2267715164
 30
0.0
 10
15.5674519296
 20
12.2125081248
 30
0.0
  0
SPLINE
  5
482
100
AcDbEntity
  8
0
100
AcDbSpline
 62
7
  6
CONTINUOUS
 70
0
 71
3
 72
11
 73
7
 74
0
 42
0.0000001
 43
0.0000001
 44
0.0000000001
 40
0.0
 40
0.0
 40
0.0
 40
0.0
 40
0.2332794172
 40
0.4730901873
 40
0.7267027276
 40
1.0
 40
1.0
 40
1.0
 40
1.0
 10
15.6875532425
 20
11.9778930212
 30
0.0
 10
15.6889200315
 20
11.9778930651
 30
0.0
 10
15.6917012624
 20
11.9775871417
 30
0.0
 10
15.6957619362
 20
11.9762113493
 30
0.0
 10
15.6996724284
 20
11.9739492333
 30
0.0
 10
15.7020482392
 20
11.9719534584
 30
0.0
 10
15.7031967966
 20
11.9708377382
 30
0.0
  0
SPLINE
  5
483
100
AcDbEntity
  8
0
100
AcDbSpline
 62
7
  6
CONTINUOUS
 70
0
 71
3
 72
9
 73
5
 74
0
 42
0.0000001
 43
0.0000001
 44
0.0000000001
 40
0.0
 40
0.0
 40
0.0
 40
0.0
 40
0.2341074025
 40
1.0
 40
1.0
 40
1.0
 40
1.0
 10
15.7031967966
 20
11.9708377382
 30
0.0
 10
15.7038322196
 20
11.9702204818
 30
0.0
 10
15.7064403246
 20
11.9674747057
 30
0.0
 10
15.7086340314
 20
11.9643525105
 30
0.0
 10
15.710114975
 20
11.961861291
 30
0.0
  0
LINE
  5
484
100
AcDbEntity
  8
0
100
AcDbLine
 62
7
  6
CONTINUOUS
 10
15.710114975
 20
11.961861291
 11
15.7124267202
 21
11.9575804217
  0
SPLINE
  5
485
100
AcDbEntity
  8
0
100
AcDbSpline
 62
7
  6
CONTINUOUS
 70
0
 71
3
 72
21
 73
17
 74
0
 42
0.0000001
 43
0.0000001
 44
0.0000000001
 40
0.0
 40
0.0
 40
0.0
 40
0.0
 40
0.0662850678
 40
0.1341166918
 40
0.2714725777
 40
0.3401138881
 40
0.40805131
 40
0.5399732505
 40
0.603575219
 40
0.6652996528
 40
0.7250854103
 40
0.7829796567
 40
0.8391204218
 40
0.8937489288
 40
0.9472334043
 40
1.0
 40
1.0
 40
1.0
 40
1.0
 10
14.7418086527
 20
12.3594097336
 30
0.0
 10
14.7442951018
 20
12.3624756754
 30
0.0
 10
14.7496463164
 20
12.368426765
 30
0.0
 10
14.7615671409
 20
12.3793722519
 30
0.0
 10
14.775132388
 20
12.3886410133
 30
0.0
 10
14.7898282963
 20
12.3957772273
 30
0.0
 10
14.8048642936
 20
12.4012760986
 30
0.0
 10
14.8204227703
 20
12.4042988262
 30
0.0
 10
14.8357738925
 20
12.4044815114
 30
0.0
 10
14.8467575448
 20
12.403219153
 30
0.0
 10
14.8571481001
 20
12.4005915464
 30
0.0
 10
14.8667565166
 20
12.3966432818
 30
0.0
 10
14.8754143527
 20
12.3914744037
 30
0.0
 10
14.8829555032
 20
12.3851777574
 30
0.0
 10
14.8892432913
 20
12.3778929212
 30
0.0
 10
14.8925252063
 20
12.372440344
 30
0.0
 10
14.8939095132
 20
12.3696192896
 30
0.0
  0
SPLINE
  5
486
100
AcDbEntity
  8
0
100
AcDbSpline
 62
7
  6
CONTINUOUS
 70
0
 71
3
 72
9
 73
5
 74
0
 42
0.0000001
 43
0.0000001
 44
0.0000000001
 40
0.0
 40
0.0
 40
0.0
 40
0.0
 40
0.4659560908
 40
1.0
 40
1.0
 40
1.0
 40
1.0
 10
15.6914398216
 20
11.7918054099
 30
0.0
 10
15.6931114149
 20
11.7925598069
 30
0.0
 10
15.6964522645
 20
11.7947356759
 30
0.0
 10
15.6992156663
 20
11.7975716655
 30
0.0
 10
15.7005629886
 20
11.799184989
 30
0.0
  0
SPLINE
  5
487
100
AcDbEntity
  8
0
100
AcDbSpline
 62
7
  6
CONTINUOUS
 70
0
 71
3
 72
9
 73
5
 74
0
 42
0.0000001
 43
0.0000001
 44
0.0000000001
 40
0.0
 40
0.0
 40
0.0
 40
0.0
 40
0.2456120333
 40
1.0
 40
1.0
 40
1.0
 40
1.0
 10
14.8038740104
 20
12.4622745224
 30
0.0
 10
14.8114076422
 20
12.462637456
 30
0.0
 10
14.8420981296
 20
12.4637340214
 30
0.0
 10
14.8728384833
 20
12.4633390406
 30
0.0
 10
14.8959801098
 20
12.4622745224
 30
0.0
  0
SPLINE
  5
488
100
AcDbEntity
  8
0
100
AcDbSpline
 62
7
  6
CONTINUOUS
 70
0
 71
3
 72
15
 73
11
 74
0
 42
0.0000001
 43
0.0000001
 44
0.0000000001
 40
0.0
 40
0.0
 40
0.0
 40
0.0
 40
0.1125436117
 40
0.2272684948
 40
0.3451573907
 40
0.4669492432
 40
0.5931848344
 40
0.7241867689
 40
0.8599575762
 40
1.0
 40
1.0
 40
1.0
 40
1.0
 10
16.9996654718
 20
12.3119730299
 30
0.0
 10
16.9973649027
 20
12.3154654914
 30
0.0
 10
16.9921730045
 20
12.3221740189
 30
0.0
 10
16.9828783326
 20
12.3310740098
 30
0.0
 10
16.9721490934
 20
12.3387822965
 30
0.0
 10
16.9601231451
 20
12.3452067301
 30
0.0
 10
16.9469452366
 20
12.3502720446
 30
0.0
 10
16.932774248
 20
12.3539250166
 30
0.0
 10
16.9177911482
 20
12.356117601
 30
0.0
 10
16.9075345186
 20
12.3565945166
 30
0.0
 10
16.9023305759
 20
12.3565945166
 30
0.0
  0
SPLINE
  5
489
100
AcDbEntity
  8
0
100
AcDbSpline
 62
7
  6
CONTINUOUS
 70
0
 71
3
 72
16
 73
12
 74
0
 42
0.0000001
 43
0.0000001
 44
0.0000000001
 40
0.0
 40
0.0
 40
0.0
 40
0.0
 40
0.1125167758
 40
0.2317906833
 40
0.3568088935
 40
0.4859047801
 40
0.6170019112
 40
0.7478213803
 40
0.876135125
 40
0.9387773185
 40
1.0
 40
1.0
 40
1.0
 40
1.0
 10
16.2776339798
 20
12.2437748102
 30
0.0
 10
16.2833440821
 20
12.2598605581
 30
0.0
 10
16.2985539922
 20
12.2918393844
 30
0.0
 10
16.3301364651
 20
12.3360837388
 30
0.0
 10
16.3700347293
 20
12.3766023776
 30
0.0
 10
16.4168055164
 20
12.4119611347
 30
0.0
 10
16.4687892394
 20
12.4409234816
 30
0.0
 10
16.5241254042
 20
12.4624642829
 30
0.0
 10
16.5718264346
 20
12.4736852086
 30
0.0
 10
16.6098437292
 20
12.4782114727
 30
0.0
 10
16.6286426156
 20
12.4789893463
 30
0.0
 10
16.6379303002
 20
12.4789893463
 30
0.0
  0
SPLINE
  5
48A
100
AcDbEntity
  8
0
100
AcDbSpline
 62
7
  6
CONTINUOUS
 70
0
 71
3
 72
29
 73
25
 74
0
 42
0.0000001
 43
0.0000001
 44
0.0000000001
 40
0.0
 40
0.0
 40
0.0
 40
0.0
 40
0.0785352628
 40
0.157259993
 40
0.2349757546
 40
0.2729699526
 40
0.3100586723
 40
0.3459998023
 40
0.3805873113
 40
0.4136901454
 40
0.4452869008
 40
0.4754785601
 40
0.5044720247
 40
0.5325378203
 40
0.5599598773
 40
0.5869943416
 40
0.6138471881
 40
0.6674773512
 40
0.7216085311
 40
0.7764013232
 40
0.831791084
 40
0.8876278962
 40
0.943753048
 40
1.0
 40
1.0
 40
1.0
 40
1.0
 10
16.0033436662
 20
12.6638491062
 30
0.0
 10
15.997461431
 20
12.6758353516
 30
0.0
 10
15.986286208
 20
12.7001440852
 30
0.0
 10
15.9721575491
 20
12.7375512525
 30
0.0
 10
15.963473012
 20
12.7695314979
 30
0.0
 10
15.9592032341
 20
12.7951769976
 30
0.0
 10
15.9575635021
 20
12.814003498
 30
0.0
 10
15.9576348431
 20
12.8323283766
 30
0.0
 10
15.9595492216
 20
12.8498795325
 30
0.0
 10
15.9633722136
 20
12.8663668325
 30
0.0
 10
15.9690856663
 20
12.8815093916
 30
0.0
 10
15.9765813327
 20
12.8950658593
 30
0.0
 10
15.9856709378
 20
12.9068616072
 30
0.0
 10
15.9961121273
 20
12.9168047976
 30
0.0
 10
16.0076415528
 20
12.9248857795
 30
0.0
 10
16.0200075285
 20
12.9311612593
 30
0.0
 10
16.0372889411
 20
12.9372497438
 30
0.0
 10
16.0600797249
 20
12.9409240854
 30
0.0
 10
16.0878298955
 20
12.9399872153
 30
0.0
 10
16.1153550905
 20
12.9346939433
 30
0.0
 10
16.1422160474
 20
12.9258166286
 30
0.0
 10
16.1681425991
 20
12.9139812142
 30
0.0
 10
16.1929536428
 20
12.8996890806
 30
0.0
 10
16.2086747088
 20
12.8887934902
 30
0.0
 10
16.2163238512
 20
12.8830547401
 30
0.0
  0
SPLINE
  5
48B
100
AcDbEntity
  8
0
100
AcDbSpline
 62
7
  6
CONTINUOUS
 70
0
 71
3
 72
12
 73
8
 74
0
 42
0.0000001
 43
0.0000001
 44
0.0000000001
 40
0.0
 40
0.0
 40
0.0
 40
0.0
 40
0.1116322578
 40
0.2261360389
 40
0.4659230493
 40
0.7238794784
 40
1.0
 40
1.0
 40
1.0
 40
1.0
 10
14.8977103
 20
12.3594097336
 30
0.0
 10
14.8983324386
 20
12.3569341755
 30
0.0
 10
14.8992085954
 20
12.351814923
 30
0.0
 10
14.899475397
 20
12.3411342173
 30
0.0
 10
14.8968698348
 20
12.3272018473
 30
0.0
 10
14.8895508949
 20
12.3109471177
 30
0.0
 10
14.8823272372
 20
12.3009903506
 30
0.0
 10
14.8781849086
 20
12.296225544
 30
0.0
  0
SPLINE
  5
48C
100
AcDbEntity
  8
0
100
AcDbSpline
 62
7
  6
CONTINUOUS
 70
0
 71
3
 72
9
 73
5
 74
0
 42
0.0000001
 43
0.0000001
 44
0.0000000001
 40
0.0
 40
0.0
 40
0.0
 40
0.0
 40
0.2572796324
 40
1.0
 40
1.0
 40
1.0
 40
1.0
 10
14.5782788369
 20
12.420342401
 30
0.0
 10
14.5729397861
 20
12.4181908865
 30
0.0
 10
14.5523312423
 20
12.4094802926
 30
0.0
 10
14.5323165124
 20
12.3993382585
 30
0.0
 10
14.5179785409
 20
12.390938458
 30
0.0
  0
SPLINE
  5
48D
100
AcDbEntity
  8
0
100
AcDbSpline
 62
7
  6
CONTINUOUS
 70
0
 71
3
 72
11
 73
7
 74
0
 42
0.0000001
 43
0.0000001
 44
0.0000000001
 40
0.0
 40
0.0
 40
0.0
 40
0.0
 40
0.2752777195
 40
0.5327071799
 40
0.7726868791
 40
1.0
 40
1.0
 40
1.0
 40
1.0
 10
14.7866733074
 20
12.2684301098
 30
0.0
 10
14.7813490467
 20
12.2684301098
 30
0.0
 10
14.7710125401
 20
12.2693389891
 30
0.0
 10
14.7565868567
 20
12.2736766779
 30
0.0
 10
14.7443623073
 20
12.2808258211
 30
0.0
 10
14.7379744286
 20
12.2874231093
 30
0.0
 10
14.7354224553
 20
12.291003214
 30
0.0
  0
SPLINE
  5
48E
100
AcDbEntity
  8
0
100
AcDbSpline
 62
7
  6
CONTINUOUS
 70
0
 71
3
 72
14
 73
10
 74
0
 42
0.0000001
 43
0.0000001
 44
0.0000000001
 40
0.0
 40
0.0
 40
0.0
 40
0.0
 40
0.1137843103
 40
0.2279282229
 40
0.3443143183
 40
0.4645406616
 40
0.5898113623
 40
0.7208226118
 40
1.0
 40
1.0
 40
1.0
 40
1.0
 10
14.7351746485
 20
12.2913544661
 30
0.0
 10
14.733601306
 20
12.2936078357
 30
0.0
 10
14.7308674454
 20
12.298430891
 30
0.0
 10
14.7281885541
 20
12.3063539884
 30
0.0
 10
14.7270049269
 20
12.3147905118
 30
0.0
 10
14.7273167351
 20
12.3235669741
 30
0.0
 10
14.7291231167
 20
12.3325189389
 30
0.0
 10
14.733535554
 20
12.3447135148
 30
0.0
 10
14.7388277116
 20
12.353254065
 30
0.0
 10
14.7429842309
 20
12.3585637557
 30
0.0
  0
SPLINE
  5
48F
100
AcDbEntity
  8
0
100
AcDbSpline
 62
7
  6
CONTINUOUS
 70
0
 71
3
 72
13
 73
9
 74
0
 42
0.0000001
 43
0.0000001
 44
0.0000000001
 40
0.0
 40
0.0
 40
0.0
 40
0.0
 40
0.2461321272
 40
0.373310217
 40
0.5015209889
 40
0.755754568
 40
0.8798211707
 40
1.0
 40
1.0
 40
1.0
 40
1.0
 10
14.7449555444
 20
12.3609954379
 30
0.0
 10
14.7498883114
 20
12.366874272
 30
0.0
 10
14.7584843311
 20
12.3749097837
 30
0.0
 10
14.7714564572
 20
12.3836732084
 30
0.0
 10
14.785488819
 20
12.3911761693
 30
0.0
 10
14.800522223
 20
12.3964528605
 30
0.0
 10
14.8158500618
 20
12.3991610799
 30
0.0
 10
14.823472353
 20
12.3996373672
 30
0.0
 10
14.8272194166
 20
12.3996373672
 30
0.0
  0
SPLINE
  5
490
100
AcDbEntity
  8
0
100
AcDbSpline
 62
7
  6
CONTINUOUS
 70
0
 71
3
 72
21
 73
17
 74
0
 42
0.0000001
 43
0.0000001
 44
0.0000000001
 40
0.0
 40
0.0
 40
0.0
 40
0.0
 40
0.0702835835
 40
0.1381376887
 40
0.2653974841
 40
0.3254235377
 40
0.3835037538
 40
0.4402322168
 40
0.4963400262
 40
0.5526287214
 40
0.6098830697
 40
0.6687842285
 40
0.7298635642
 40
0.7934726027
 40
0.8597675634
 40
1.0
 40
1.0
 40
1.0
 40
1.0
 10
14.8272194166
 20
12.3996373672
 30
0.0
 10
14.830378215
 20
12.3996373672
 30
0.0
 10
14.8365946726
 20
12.3993080789
 30
0.0
 10
14.8483734022
 20
12.3973414628
 30
0.0
 10
14.8593136097
 20
12.3933831364
 30
0.0
 10
14.8686302559
 20
12.3874137361
 30
0.0
 10
14.8745280883
 20
12.382168489
 30
0.0
 10
14.8793678933
 20
12.3761554951
 30
0.0
 10
14.8830555322
 20
12.3694647395
 30
0.0
 10
14.8855398947
 20
12.3622157737
 30
0.0
 10
14.8867686737
 20
12.3545268285
 30
0.0
 10
14.8867403405
 20
12.3465283948
 30
0.0
 10
14.8854525668
 20
12.3383486181
 30
0.0
 10
14.8829364615
 20
12.3301139466
 30
0.0
 10
14.877913808
 20
12.3190335744
 30
0.0
 10
14.8725637203
 20
12.3113236761
 30
0.0
 10
14.8684759376
 20
12.3065265724
 30
0.0
  0
SPLINE
  5
491
100
AcDbEntity
  8
0
100
AcDbSpline
 62
7
  6
CONTINUOUS
 70
0
 71
3
 72
13
 73
9
 74
0
 42
0.0000001
 43
0.0000001
 44
0.0000000001
 40
0.0
 40
0.0
 40
0.0
 40
0.0
 40
0.2464237837
 40
0.373629334
 40
0.5018083145
 40
0.7558958951
 40
0.8798811391
 40
1.0
 40
1.0
 40
1.0
 40
1.0
 10
14.8684759376
 20
12.3065265724
 30
0.0
 10
14.86353054
 20
12.3007230387
 30
0.0
 10
14.8549470519
 20
12.2927949585
 30
0.0
 10
14.842026676
 20
12.2841523641
 30
0.0
 10
14.82807817
 20
12.2767602511
 30
0.0
 10
14.8131556053
 20
12.2715643859
 30
0.0
 10
14.7979498577
 20
12.2688987279
 30
0.0
 10
14.7903900157
 20
12.2684301098
 30
0.0
 10
14.7866733074
 20
12.2684301098
 30
0.0
  0
SPLINE
  5
492
100
AcDbEntity
  8
0
100
AcDbSpline
 62
7
  6
CONTINUOUS
 70
0
 71
3
 72
9
 73
5
 74
0
 42
0.0000001
 43
0.0000001
 44
0.0000000001
 40
0.0
 40
0.0
 40
0.0
 40
0.0
 40
0.2541356995
 40
1.0
 40
1.0
 40
1.0
 40
1.0
 10
14.8939949704
 20
12.4663332448
 30
0.0
 10
14.8864686603
 20
12.466656341
 30
0.0
 10
14.8568408222
 20
12.4676063664
 30
0.0
 10
14.8271680849
 20
12.4672550438
 30
0.0
 10
14.805084342
 20
12.466191157
 30
0.0
  0
SPLINE
  5
493
100
AcDbEntity
  8
0
100
AcDbSpline
 62
7
  6
CONTINUOUS
 70
0
 71
3
 72
15
 73
11
 74
0
 42
0.0000001
 43
0.0000001
 44
0.0000000001
 40
0.0
 40
0.0
 40
0.0
 40
0.0
 40
0.1127907445
 40
0.2270838344
 40
0.3442434453
 40
0.4653778548
 40
0.5912377905
 40
0.7222866339
 40
0.8586854528
 40
1.0
 40
1.0
 40
1.0
 40
1.0
 10
13.4800611114
 20
12.0576803861
 30
0.0
 10
13.4840949997
 20
12.0494616295
 30
0.0
 10
13.4936370861
 20
12.033570357
 30
0.0
 10
13.5118967172
 20
12.0122608537
 30
0.0
 10
13.5338407145
 20
11.9937048838
 30
0.0
 10
13.5591224389
 20
11.9781888248
 30
0.0
 10
13.5873466339
 20
11.9659117106
 30
0.0
 10
13.6181019831
 20
11.9570431713
 30
0.0
 10
13.6509210317
 20
11.9517103683
 30
0.0
 10
13.6734840269
 20
11.9505594047
 30
0.0
 10
13.6849546706
 20
11.9505594047
 30
0.0
  0
SPLINE
  5
494
100
AcDbEntity
  8
0
100
AcDbSpline
 62
7
  6
CONTINUOUS
 70
0
 71
3
 72
9
 73
5
 74
0
 42
0.0000001
 43
0.0000001
 44
0.0000000001
 40
0.0
 40
0.0
 40
0.0
 40
0.0
 40
0.2452956062
 40
1.0
 40
1.0
 40
1.0
 40
1.0
 10
15.5686622612
 20
12.2164247594
 30
0.0
 10
15.5631828785
 20
12.220939107
 30
0.0
 10
15.5406152223
 20
12.2390628036
 30
0.0
 10
15.5171639588
 20
12.2560806228
 30
0.0
 10
15.4990706239
 20
12.2683180336
 30
0.0
  0
SPLINE
  5
495
100
AcDbEntity
  8
0
100
AcDbSpline
 62
7
  6
CONTINUOUS
 70
0
 71
3
 72
15
 73
11
 74
0
 42
0.0000001
 43
0.0000001
 44
0.0000000001
 40
0.0
 40
0.0
 40
0.0
 40
0.0
 40
0.1380799318
 40
0.2714583019
 40
0.400424799
 40
0.5254316948
 40
0.647119483
 40
0.7662256933
 40
0.8835644243
 40
1.0
 40
1.0
 40
1.0
 40
1.0
 10
15.6572809859
 20
11.7791287601
 30
0.0
 10
15.6617182879
 20
11.7700864894
 30
0.0
 10
15.6697989134
 20
11.7519837086
 30
0.0
 10
15.679568967
 20
11.7244235092
 30
0.0
 10
15.6867242111
 20
11.6970506785
 30
0.0
 10
15.6912208822
 20
11.6699786321
 30
0.0
 10
15.6930466437
 20
11.6433141243
 30
0.0
 10
15.6921836906
 20
11.6171568844
 30
0.0
 10
15.6886368719
 20
11.591614709
 30
0.0
 10
15.6844846142
 20
11.5750346277
 30
0.0
 10
15.6819771194
 20
11.5669197146
 30
0.0
  0
SPLINE
  5
496
100
AcDbEntity
  8
0
100
AcDbSpline
 62
7
  6
CONTINUOUS
 70
0
 71
3
 72
17
 73
13
 74
0
 42
0.0000001
 43
0.0000001
 44
0.0000000001
 40
0.0
 40
0.0
 40
0.0
 40
0.0
 40
0.1318002635
 40
0.2458238909
 40
0.2982236646
 40
0.3489245209
 40
0.3992092734
 40
0.4504043255
 40
0.5600667926
 40
0.6859805111
 40
0.8323566838
 40
1.0
 40
1.0
 40
1.0
 40
1.0
 10
15.7081270509
 20
11.8082478818
 30
0.0
 10
15.7068628105
 20
11.8067338246
 30
0.0
 10
15.7042696367
 20
11.8040874769
 30
0.0
 10
15.7004287063
 20
11.8016916645
 30
0.0
 10
15.6973256959
 20
11.8006798806
 30
0.0
 10
15.695042425
 20
11.8003476207
 30
0.0
 10
15.6927540098
 20
11.8004255381
 30
0.0
 10
15.6896494309
 20
11.801091133
 30
0.0
 10
15.6857554636
 20
11.8030612398
 30
0.0
 10
15.6814646381
 20
11.8069045706
 30
0.0
 10
15.6774653053
 20
11.8121707731
 30
0.0
 10
15.6751705278
 20
11.8162875816
 30
0.0
 10
15.6740652528
 20
11.8185398953
 30
0.0
  0
SPLINE
  5
497
100
AcDbEntity
  8
0
100
AcDbSpline
 62
7
  6
CONTINUOUS
 70
0
 71
3
 72
14
 73
10
 74
0
 42
0.0000001
 43
0.0000001
 44
0.0000000001
 40
0.0
 40
0.0
 40
0.0
 40
0.0
 40
0.1129095691
 40
0.2273246794
 40
0.3445734138
 40
0.4657740191
 40
0.7223970528
 40
0.8588580567
 40
1.0
 40
1.0
 40
1.0
 40
1.0
 10
14.8938995322
 20
12.3696323438
 30
0.0
 10
14.8926699172
 20
12.3720657483
 30
0.0
 10
14.8897788605
 20
12.376767626
 30
0.0
 10
14.8842810024
 20
12.3830593208
 30
0.0
 10
14.8777061203
 20
12.3885338464
 30
0.0
 10
14.8674513863
 20
12.3947481489
 30
0.0
 10
14.8555607653
 20
12.3988656739
 30
0.0
 10
14.8428099073
 20
12.4009121883
 30
0.0
 10
14.836098654
 20
12.4012545366
 30
0.0
 10
14.8326904985
 20
12.4012545366
 30
0.0
  0
SPLINE
  5
498
100
AcDbEntity
  8
0
100
AcDbSpline
 62
7
  6
CONTINUOUS
 70
0
 71
3
 72
10
 73
6
 74
0
 42
0.0000001
 43
0.0000001
 44
0.0000000001
 40
0.0
 40
0.0
 40
0.0
 40
0.0
 40
0.5186912864
 40
0.7640744413
 40
1.0
 40
1.0
 40
1.0
 40
1.0
 10
14.4187970907
 20
11.6566384843
 30
0.0
 10
14.4026766093
 20
11.6747196607
 30
0.0
 10
14.3803796339
 20
11.7027430868
 30
0.0
 10
14.3551954111
 20
11.7421058518
 30
0.0
 10
14.34447537
 20
11.761893683
 30
0.0
 10
14.3396213821
 20
11.7717850704
 30
0.0
  0
SPLINE
  5
499
100
AcDbEntity
  8
0
100
AcDbSpline
 62
7
  6
CONTINUOUS
 70
0
 71
3
 72
11
 73
7
 74
0
 42
0.0000001
 43
0.0000001
 44
0.0000000001
 40
0.0
 40
0.0
 40
0.0
 40
0.0
 40
0.2861023879
 40
0.5446301116
 40
0.7803221045
 40
1.0
 40
1.0
 40
1.0
 40
1.0
 10
15.7005627826
 20
11.9691009265
 30
0.0
 10
15.6995896981
 20
11.9702678892
 30
0.0
 10
15.6976091561
 20
11.9723889556
 30
0.0
 10
15.694357812
 20
11.9749866369
 30
0.0
 10
15.6910076371
 20
11.9768086494
 30
0.0
 10
15.6886648363
 20
11.9774994777
 30
0.0
 10
15.6875142843
 20
11.9776927393
 30
0.0
  0
SPLINE
  5
49A
100
AcDbEntity
  8
0
100
AcDbSpline
 62
7
  6
CONTINUOUS
 70
0
 71
3
 72
40
 73
36
 74
0
 42
0.0000001
 43
0.0000001
 44
0.0000000001
 40
0.0
 40
0.0
 40
0.0
 40
0.0
 40
0.0214497891
 40
0.0431952705
 40
0.0655137236
 40
0.0886454223
 40
0.1005848117
 40
0.1127969381
 40
0.1380942683
 40
0.1646467216
 40
0.1925059423
 40
0.2216861306
 40
0.2521631512
 40
0.2838852816
 40
0.3167719078
 40
0.3507229492
 40
0.3856173804
 40
0.4213209756
 40
0.4576852755
 40
0.4945536147
 40
0.5317610533
 40
0.5691387098
 40
0.6065149976
 40
0.6437183371
 40
0.6805799442
 40
0.7169349657
 40
0.7526267794
 40
0.7875070502
 40
0.8214422126
 40
0.8543116381
 40
0.8860138992
 40
0.9164682137
 40
0.9456299071
 40
0.9734773408
 40
1.0
 40
1.0
 40
1.0
 40
1.0
 10
14.3085596736
 20
11.9913378056
 30
0.0
 10
14.3119139904
 20
12.0021932573
 30
0.0
 10
14.3202741622
 20
12.0235924724
 30
0.0
 10
14.3374365399
 20
12.0538795876
 30
0.0
 10
14.3591292509
 20
12.0822314224
 30
0.0
 10
14.3806053556
 20
12.1038627601
 30
0.0
 10
14.3997592472
 20
12.1200175036
 30
0.0
 10
14.4207176019
 20
12.1357489134
 30
0.0
 10
14.449493544
 20
12.1538588751
 30
0.0
 10
14.4873214228
 20
12.1727464854
 30
0.0
 10
14.5285897115
 20
12.1889415034
 30
0.0
 10
14.5730205417
 20
12.2023272767
 30
0.0
 10
14.6203121736
 20
12.2128309889
 30
0.0
 10
14.6701474758
 20
12.2203728296
 30
0.0
 10
14.7221888081
 20
12.2249151564
 30
0.0
 10
14.7760845262
 20
12.2264172341
 30
0.0
 10
14.8314696369
 20
12.2248802256
 30
0.0
 10
14.887967607
 20
12.2203044824
 30
0.0
 10
14.9451958616
 20
12.2127313631
 30
0.0
 10
15.0027637463
 20
12.2022025514
 30
0.0
 10
15.060281668
 20
12.1887993309
 30
0.0
 10
15.1173558999
 20
12.1726034267
 30
0.0
 10
15.173600705
 20
12.1537344105
 30
0.0
 10
15.2286302725
 20
12.132311481
 30
0.0
 10
15.2820735654
 20
12.1084895031
 30
0.0
 10
15.3335631896
 20
12.0824213891
 30
0.0
 10
15.3827533277
 20
12.0542935348
 30
0.0
 10
15.4293052442
 20
12.0242878528
 30
0.0
 10
15.4729081159
 20
11.9926160475
 30
0.0
 10
15.5132595101
 20
11.9594834103
 30
0.0
 10
15.550092726
 20
11.925123967
 30
0.0
 10
15.5831527165
 20
11.8897586411
 30
0.0
 10
15.6122231523
 20
11.8536239742
 30
0.0
 10
15.6370878504
 20
11.8169646134
 30
0.0
 10
15.6510918192
 20
11.7917409558
 30
0.0
 10
15.6572809859
 20
11.7791287601
 30
0.0
  0
SPLINE
  5
49B
100
AcDbEntity
  8
0
100
AcDbSpline
 62
7
  6
CONTINUOUS
 70
0
 71
3
 72
11
 73
7
 74
0
 42
0.0000001
 43
0.0000001
 44
0.0000000001
 40
0.0
 40
0.0
 40
0.0
 40
0.0
 40
0.3022212394
 40
0.563084181
 40
0.7906744511
 40
1.0
 40
1.0
 40
1.0
 40
1.0
 10
15.7005159962
 20
11.7990043251
 30
0.0
 10
15.699559947
 20
11.7976925126
 30
0.0
 10
15.6976329701
 20
11.7953462479
 30
0.0
 10
15.6944036902
 20
11.7925463632
 30
0.0
 10
15.6910389308
 20
11.7907967921
 30
0.0
 10
15.6886775234
 20
11.7903940615
 30
0.0
 10
15.6875532347
 20
11.7903940175
 30
0.0
  0
LINE
  5
49C
100
AcDbEntity
  8
0
100
AcDbLine
 62
7
  6
CONTINUOUS
 10
15.7124267202
 20
11.9575804217
 11
15.7154356222
 21
11.9505327124
  0
SPLINE
  5
49D
100
AcDbEntity
  8
0
100
AcDbSpline
 62
7
  6
CONTINUOUS
 70
0
 71
3
 72
9
 73
5
 74
0
 42
0.0000001
 43
0.0000001
 44
0.0000000001
 40
0.0
 40
0.0
 40
0.0
 40
0.0
 40
0.2401421059
 40
1.0
 40
1.0
 40
1.0
 40
1.0
 10
15.7154356222
 20
11.9505327124
 30
0.0
 10
15.7157796013
 20
11.9496062283
 30
0.0
 10
15.7171463425
 20
11.9457238933
 30
0.0
 10
15.7182629036
 20
11.9417552303
 30
0.0
 10
15.7189921922
 20
11.9387143479
 30
0.0
  0
SPLINE
  5
49E
100
AcDbEntity
  8
0
100
AcDbSpline
 62
7
  6
CONTINUOUS
 70
0
 71
3
 72
14
 73
10
 74
0
 42
0.0000001
 43
0.0000001
 44
0.0000000001
 40
0.0
 40
0.0
 40
0.0
 40
0.0
 40
0.0926375413
 40
0.1959246364
 40
0.3094682143
 40
0.4325984666
 40
0.5644408475
 40
0.7039009477
 40
1.0
 40
1.0
 40
1.0
 40
1.0
 10
15.6690742258
 20
11.9683434366
 30
0.0
 10
15.6677880228
 20
11.9667263471
 30
0.0
 10
15.6653130063
 20
11.9631089414
 30
0.0
 10
15.6620425371
 20
11.9570196122
 30
0.0
 10
15.6590557455
 20
11.950040679
 30
0.0
 10
15.6563858263
 20
11.942260308
 30
0.0
 10
15.6540659531
 20
11.9337683532
 30
0.0
 10
15.6514241519
 20
11.9213867901
 30
0.0
 10
15.650138055
 20
11.9117372308
 30
0.0
 10
15.6495488344
 20
11.905159247
 30
0.0
  0
SPLINE
  5
49F
100
AcDbEntity
  8
0
100
AcDbSpline
 62
7
  6
CONTINUOUS
 70
0
 71
3
 72
14
 73
10
 74
0
 42
0.0000001
 43
0.0000001
 44
0.0000000001
 40
0.0
 40
0.0
 40
0.0
 40
0.0
 40
0.1164602241
 40
0.2338170881
 40
0.352943187
 40
0.4746607151
 40
0.5997119527
 40
0.7287282144
 40
1.0
 40
1.0
 40
1.0
 40
1.0
 10
14.5152901862
 20
11.9194082687
 30
0.0
 10
14.5135462693
 20
11.9137629993
 30
0.0
 10
14.5106565266
 20
11.902229845
 30
0.0
 10
14.5081868536
 20
11.8844622408
 30
0.0
 10
14.5075887716
 20
11.8662661924
 30
0.0
 10
14.5088574432
 20
11.8477165232
 30
0.0
 10
14.5119869163
 20
11.8288802466
 30
0.0
 10
14.5187364632
 20
11.8030684442
 30
0.0
 10
14.5264054673
 20
11.7841402884
 30
0.0
 10
14.5324685277
 20
11.7717850704
 30
0.0
  0
SPLINE
  5
4A0
100
AcDbEntity
  8
0
100
AcDbSpline
 62
7
  6
CONTINUOUS
 70
0
 71
3
 72
20
 73
16
 74
0
 42
0.0000001
 43
0.0000001
 44
0.0000000001
 40
0.0
 40
0.0
 40
0.0
 40
0.0
 40
0.0524661625
 40
0.1100114516
 40
0.171963019
 40
0.2376000657
 40
0.3767577739
 40
0.5205099005
 40
0.6613239232
 40
0.7283670871
 40
0.7920167003
 40
0.851539953
 40
0.9063161373
 40
0.9558781661
 40
1.0
 40
1.0
 40
1.0
 40
1.0
 10
15.6740652528
 20
11.8185398953
 30
0.0
 10
15.6729495644
 20
11.8208134291
 30
0.0
 10
15.6708624885
 20
11.8257059698
 30
0.0
 10
15.6682326572
 20
11.833586227
 30
0.0
 10
15.6660019252
 20
11.84224669
 30
0.0
 10
15.6635595561
 20
11.8548951414
 30
0.0
 10
15.6617593946
 20
11.8716566965
 30
0.0
 10
15.6615448372
 20
11.8921365126
 30
0.0
 10
15.6629919677
 20
11.9090792161
 30
0.0
 10
15.6651551422
 20
11.9220110094
 30
0.0
 10
15.6671981617
 20
11.9309687071
 30
0.0
 10
15.6696547695
 20
11.9392065928
 30
0.0
 10
15.6724859657
 20
11.9466022708
 30
0.0
 10
15.6756525819
 20
11.9530424859
 30
0.0
 10
15.6780975964
 20
11.9568647164
 30
0.0
 10
15.6793802866
 20
11.9585648785
 30
0.0
  0
SPLINE
  5
4A1
100
AcDbEntity
  8
0
100
AcDbSpline
 62
7
  6
CONTINUOUS
 70
0
 71
3
 72
15
 73
11
 74
0
 42
0.0000001
 43
0.0000001
 44
0.0000000001
 40
0.0
 40
0.0
 40
0.0
 40
0.0
 40
0.1492588537
 40
0.2811931356
 40
0.3990699561
 40
0.5083608507
 40
0.6162811346
 40
0.7303913607
 40
0.8569036845
 40
1.0
 40
1.0
 40
1.0
 40
1.0
 10
15.6793802866
 20
11.9585648785
 30
0.0
 10
15.6804169178
 20
11.9599388977
 30
0.0
 10
15.6825371153
 20
11.9624107118
 30
0.0
 10
15.6860994521
 20
11.9653669473
 30
0.0
 10
15.6898214307
 20
11.9672757444
 30
0.0
 10
15.693659647
 20
11.9680630018
 30
0.0
 10
15.6975187337
 20
11.9676855407
 30
0.0
 10
15.7012875573
 20
11.9661592524
 30
0.0
 10
15.7049108383
 20
11.9635650203
 30
0.0
 10
15.7070701691
 20
11.9613057402
 30
0.0
 10
15.7081269014
 20
11.9600383538
 30
0.0
  0
SPLINE
  5
4A2
100
AcDbEntity
  8
0
100
AcDbSpline
 62
7
  6
CONTINUOUS
 70
0
 71
3
 72
9
 73
5
 74
0
 42
0.0000001
 43
0.0000001
 44
0.0000000001
 40
0.0
 40
0.0
 40
0.0
 40
0.0
 40
0.2455534685
 40
1.0
 40
1.0
 40
1.0
 40
1.0
 10
15.7332717961
 20
12.0111475078
 30
0.0
 10
15.7318241216
 20
12.0142098936
 30
0.0
 10
15.7257733927
 20
12.0266075341
 30
0.0
 10
15.7191168286
 20
12.0387076414
 30
0.0
 10
15.713801459
 20
12.047655228
 30
0.0
  0
SPLINE
  5
4A3
100
AcDbEntity
  8
0
100
AcDbSpline
 62
7
  6
CONTINUOUS
 70
0
 71
3
 72
9
 73
5
 74
0
 42
0.0000001
 43
0.0000001
 44
0.0000000001
 40
0.0
 40
0.0
 40
0.0
 40
0.0
 40
0.2543936778
 40
1.0
 40
1.0
 40
1.0
 40
1.0
 10
15.7173102705
 20
12.0476597144
 30
0.0
 10
15.7190058744
 20
12.0447412694
 30
0.0
 10
15.7255456846
 20
12.0331968862
 30
0.0
 10
15.7315733937
 20
12.0213607235
 30
0.0
 10
15.735736018
 20
12.0123865251
 30
0.0
  0
SPLINE
  5
4A4
100
AcDbEntity
  8
0
100
AcDbSpline
 62
7
  6
CONTINUOUS
 70
0
 71
3
 72
9
 73
5
 74
0
 42
0.0000001
 43
0.0000001
 44
0.0000000001
 40
0.0
 40
0.0
 40
0.0
 40
0.0
 40
0.2561207885
 40
1.0
 40
1.0
 40
1.0
 40
1.0
 10
14.3065601408
 20
11.9902939974
 30
0.0
 10
14.3038822048
 20
11.9950321913
 30
0.0
 10
14.2937102581
 20
12.0136900426
 30
0.0
 10
14.2847054509
 20
12.0329916727
 30
0.0
 10
14.2788014239
 20
12.047655228
 30
0.0
  0
SPLINE
  5
4A5
100
AcDbEntity
  8
0
100
AcDbSpline
 62
7
  6
CONTINUOUS
 70
0
 71
3
 72
9
 73
5
 74
0
 42
0.0000001
 43
0.0000001
 44
0.0000000001
 40
0.0
 40
0.0
 40
0.0
 40
0.0
 40
0.2443034131
 40
1.0
 40
1.0
 40
1.0
 40
1.0
 10
14.2816091822
 20
12.0476584919
 30
0.0
 10
14.2835280224
 20
12.0430209101
 30
0.0
 10
14.2917022555
 20
12.0241712216
 30
0.0
 10
14.3011177163
 20
12.0058660219
 30
0.0
 10
14.3088094804
 20
11.9923806838
 30
0.0
  0
SPLINE
  5
4A6
100
AcDbEntity
  8
0
100
AcDbSpline
 62
7
  6
CONTINUOUS
 70
0
 71
3
 72
23
 73
19
 74
0
 42
0.0000001
 43
0.0000001
 44
0.0000000001
 40
0.0
 40
0.0
 40
0.0
 40
0.0
 40
0.0653505447
 40
0.1326478828
 40
0.201318619
 40
0.270843334
 40
0.4098659281
 40
0.4783227419
 40
0.5452763189
 40
0.6102531183
 40
0.6728875584
 40
0.7329565864
 40
0.7904035285
 40
0.8453703309
 40
0.8982134811
 40
0.9494939498
 40
0.9747998498
 40
1.0
 40
1.0
 40
1.0
 40
1.0
 10
16.9086681497
 20
11.9505594047
 30
0.0
 10
16.9218773632
 20
11.9505594047
 30
0.0
 10
16.9487093516
 20
11.9521326828
 30
0.0
 10
16.9889104995
 20
11.9588650295
 30
0.0
 10
17.0290312118
 20
11.9699064176
 30
0.0
 10
17.0813806833
 20
11.9900710495
 30
0.0
 10
17.1305392825
 20
12.0177665216
 30
0.0
 10
17.1743317213
 20
12.0519328638
 30
0.0
 10
17.2035892836
 20
12.0800580968
 30
0.0
 10
17.2288641341
 20
12.1102946372
 30
0.0
 10
17.2496997583
 20
12.1421068178
 30
0.0
 10
17.2657146387
 20
12.1749263827
 30
0.0
 10
17.276597133
 20
12.2081748366
 30
0.0
 10
17.2821237573
 20
12.2412586457
 30
0.0
 10
17.2821671407
 20
12.2735678219
 30
0.0
 10
17.2775578518
 20
12.2994811507
 30
0.0
 10
17.2711677622
 20
12.3190627833
 30
0.0
 10
17.2670974581
 20
12.3284451482
 30
0.0
 10
17.264853161
 20
12.3330177419
 30
0.0
  0
SPLINE
  5
4A7
100
AcDbEntity
  8
0
100
AcDbSpline
 62
7
  6
CONTINUOUS
 70
0
 71
3
 72
12
 73
8
 74
0
 42
0.0000001
 43
0.0000001
 44
0.0000000001
 40
0.0
 40
0.0
 40
0.0
 40
0.0
 40
0.2537051814
 40
0.5169177787
 40
0.7710530116
 40
0.8896857877
 40
1.0
 40
1.0
 40
1.0
 40
1.0
 10
16.540424146
 20
11.9505594047
 30
0.0
 10
16.5378074327
 20
11.9505594047
 30
0.0
 10
16.5324662236
 20
11.9511621714
 30
0.0
 10
16.5248272977
 20
11.953505363
 30
0.0
 10
16.5189696695
 20
11.9565680142
 30
0.0
 10
16.5149880923
 20
11.9595782914
 30
0.0
 10
16.5132853128
 20
11.9612266766
 30
0.0
 10
16.5125299504
 20
11.9620775415
 30
0.0
  0
SPLINE
  5
4A8
100
AcDbEntity
  8
0
100
AcDbSpline
 62
7
  6
CONTINUOUS
 70
0
 71
3
 72
21
 73
17
 74
0
 42
0.0000001
 43
0.0000001
 44
0.0000000001
 40
0.0
 40
0.0
 40
0.0
 40
0.0
 40
0.0647472242
 40
0.1314035921
 40
0.1993991739
 40
0.2682531413
 40
0.4062819488
 40
0.5412489495
 40
0.6064391522
 40
0.6695203003
 40
0.7302374813
 40
0.7884629119
 40
0.8442419576
 40
0.8977899023
 40
0.9495172245
 40
1.0
 40
1.0
 40
1.0
 40
1.0
 10
16.7584147956
 20
12.3565945166
 30
0.0
 10
16.7520941668
 20
12.3565945166
 30
0.0
 10
16.7392578873
 20
12.3558716469
 30
0.0
 10
16.7200079208
 20
12.3527846154
 30
0.0
 10
16.7007670289
 20
12.347708316
 30
0.0
 10
16.6755584998
 20
12.3384155488
 30
0.0
 10
16.6459787256
 20
12.3225306967
 30
0.0
 10
16.6201470414
 20
12.301609296
 30
0.0
 10
16.602868868
 20
12.28253089
 30
0.0
 10
16.5920182726
 20
12.2675608975
 30
0.0
 10
16.5833092138
 20
12.2520225545
 30
0.0
 10
16.5768996885
 20
12.2361628852
 30
0.0
 10
16.5728934682
 20
12.2202464791
 30
0.0
 10
16.5713840816
 20
12.2045314918
 30
0.0
 10
16.5723960682
 20
12.1892918766
 30
0.0
 10
16.5747833262
 20
12.1795405402
 30
0.0
 10
16.5763798063
 20
12.1748781653
 30
0.0
  0
SPLINE
  5
4A9
100
AcDbEntity
  8
0
100
AcDbSpline
 62
7
  6
CONTINUOUS
 70
0
 71
3
 72
14
 73
10
 74
0
 42
0.0000001
 43
0.0000001
 44
0.0000000001
 40
0.0
 40
0.0
 40
0.0
 40
0.0
 40
0.2709933237
 40
0.4000248743
 40
0.5251766011
 40
0.6470363517
 40
0.766283614
 40
0.8836710714
 40
1.0
 40
1.0
 40
1.0
 40
1.0
 10
15.6463766673
 20
11.7717850704
 30
0.0
 10
15.654722752
 20
11.7547775379
 30
0.0
 10
15.6653369999
 20
11.7287452386
 30
0.0
 10
15.674869026
 20
11.6932534717
 30
0.0
 10
15.6794433829
 20
11.6673274599
 30
0.0
 10
15.681543628
 20
11.6417706821
 30
0.0
 10
15.6811551379
 20
11.6166694348
 30
0.0
 10
15.6782775602
 20
11.5921209411
 30
0.0
 10
15.6746989712
 20
11.5761426714
 30
0.0
 10
15.6725070593
 20
11.5683111308
 30
0.0
  0
SPLINE
  5
4AA
100
AcDbEntity
  8
0
100
AcDbSpline
 62
7
  6
CONTINUOUS
 70
0
 71
3
 72
15
 73
11
 74
0
 42
0.0000001
 43
0.0000001
 44
0.0000000001
 40
0.0
 40
0.0
 40
0.0
 40
0.0
 40
0.1084556903
 40
0.218889666
 40
0.3330901274
 40
0.452542168
 40
0.5783741496
 40
0.7113434101
 40
0.8518517724
 40
1.0
 40
1.0
 40
1.0
 40
1.0
 10
15.670597896
 20
11.5618521533
 30
0.0
 10
15.6667766408
 20
11.5495820991
 30
0.0
 10
15.6569752286
 20
11.5254173592
 30
0.0
 10
15.6363010361
 20
11.4916090942
 30
0.0
 10
15.6098210671
 20
11.4604051673
 30
0.0
 10
15.5778258164
 20
11.4320876756
 30
0.0
 10
15.5406291464
 20
11.406882671
 30
0.0
 10
15.4985741259
 20
11.3849943203
 30
0.0
 10
15.4520458703
 20
11.366588388
 30
0.0
 10
15.4191616723
 20
11.3569928182
 30
0.0
 10
15.402123788
 20
11.3527648879
 30
0.0
  0
SPLINE
  5
4AB
100
AcDbEntity
  8
0
100
AcDbSpline
 62
7
  6
CONTINUOUS
 70
0
 71
3
 72
14
 73
10
 74
0
 42
0.0000001
 43
0.0000001
 44
0.0000000001
 40
0.0
 40
0.0
 40
0.0
 40
0.0
 40
0.2700656042
 40
0.3987708408
 40
0.5237572045
 40
0.6456427245
 40
0.7651274245
 40
0.8829768776
 40
1.0
 40
1.0
 40
1.0
 40
1.0
 10
14.3355521412
 20
11.7803281167
 30
0.0
 10
14.3277377846
 20
11.797245044
 30
0.0
 10
14.3179238403
 20
11.8231108146
 30
0.0
 10
14.3094717512
 20
11.8582839556
 30
0.0
 10
14.3056686979
 20
11.8839563807
 30
0.0
 10
14.3043143871
 20
11.909236946
 30
0.0
 10
14.3054230543
 20
11.9340403606
 30
0.0
 10
14.3089873462
 20
11.9582710163
 30
0.0
 10
14.3129992208
 20
11.9740085903
 30
0.0
 10
14.3154001534
 20
11.9817179874
 30
0.0
  0
SPLINE
  5
4AC
100
AcDbEntity
  8
0
100
AcDbSpline
 62
7
  6
CONTINUOUS
 70
0
 71
3
 72
16
 73
12
 74
0
 42
0.0000001
 43
0.0000001
 44
0.0000000001
 40
0.0
 40
0.0
 40
0.0
 40
0.0
 40
0.1113371765
 40
0.2243998501
 40
0.3405333822
 40
0.460894122
 40
0.5229899766
 40
0.5864759226
 40
0.7178819493
 40
0.8556401809
 40
1.0
 40
1.0
 40
1.0
 40
1.0
 10
14.3171568014
 20
11.987124446
 30
0.0
 10
14.3206654415
 20
11.9974895972
 30
0.0
 10
14.3292310079
 20
12.0179064525
 30
0.0
 10
14.3463751545
 20
12.0467668615
 30
0.0
 10
14.3677435306
 20
12.0737910791
 30
0.0
 10
14.3887143707
 20
12.0944278138
 30
0.0
 10
14.4073365136
 20
12.1098558522
 30
0.0
 10
14.4276517372
 20
12.1248841225
 30
0.0
 10
14.4554518645
 20
12.1422080196
 30
0.0
 10
14.4918910332
 20
12.1603279701
 30
0.0
 10
14.5177311316
 20
12.170488489
 30
0.0
 10
14.5311270541
 20
12.1751644347
 30
0.0
  0
SPLINE
  5
4AD
100
AcDbEntity
  8
0
100
AcDbSpline
 62
7
  6
CONTINUOUS
 70
0
 71
3
 72
23
 73
19
 74
0
 42
0.0000001
 43
0.0000001
 44
0.0000000001
 40
0.0
 40
0.0
 40
0.0
 40
0.0
 40
0.0538266409
 40
0.11082629
 40
0.170762593
 40
0.2332943027
 40
0.2979951
 40
0.364375969
 40
0.4319023
 40
0.5000083101
 40
0.5681141505
 40
0.6356399789
 40
0.7020200092
 40
0.766718627
 40
0.8292470774
 40
0.8891814416
 40
0.9461754774
 40
1.0
 40
1.0
 40
1.0
 40
1.0
 10
14.5354088333
 20
12.176639253
 30
0.0
 10
14.5553370014
 20
12.1834120056
 30
0.0
 10
14.5971800698
 20
12.1950406186
 30
0.0
 10
14.66303142
 20
12.206607421
 30
0.0
 10
14.7330269249
 20
12.2126895016
 30
0.0
 10
14.8062836634
 20
12.2132084047
 30
0.0
 10
14.8818878549
 20
12.2081636306
 30
0.0
 10
14.9588899233
 20
12.1976206119
 30
0.0
 10
15.0363211609
 20
12.1817091802
 30
0.0
 10
15.1132062666
 20
12.160630616
 30
0.0
 10
15.1885770325
 20
12.1346528989
 30
0.0
 10
15.2614828358
 20
12.1041009431
 30
0.0
 10
15.3310044198
 20
12.0693589022
 30
0.0
 10
15.3962688428
 20
12.0308670222
 30
0.0
 10
15.4564554207
 20
11.9891060261
 30
0.0
 10
15.5108082702
 20
11.9445916244
 30
0.0
 10
15.5586474787
 20
11.8978894983
 30
0.0
 10
15.5866295032
 20
11.8646807182
 30
0.0
 10
15.5992591909
 20
11.8478445018
 30
0.0
  0
SPLINE
  5
4AE
100
AcDbEntity
  8
0
100
AcDbSpline
 62
7
  6
CONTINUOUS
 70
0
 71
3
 72
9
 73
5
 74
0
 42
0.0000001
 43
0.0000001
 44
0.0000000001
 40
0.0
 40
0.0
 40
0.0
 40
0.0
 40
0.512172373
 40
1.0
 40
1.0
 40
1.0
 40
1.0
 10
15.6018849151
 20
11.8443150121
 30
0.0
 10
15.6105175474
 20
11.832613479
 30
0.0
 10
15.6264721325
 20
11.809084071
 30
0.0
 10
15.6402751159
 20
11.7842187248
 30
0.0
 10
15.6463766673
 20
11.7717850704
 30
0.0
  0
SPLINE
  5
4AF
100
AcDbEntity
  8
0
100
AcDbSpline
 62
7
  6
CONTINUOUS
 70
0
 71
3
 72
13
 73
9
 74
0
 42
0.0000001
 43
0.0000001
 44
0.0000000001
 40
0.0
 40
0.0
 40
0.0
 40
0.0
 40
0.1108378687
 40
0.2416040489
 40
0.3797989831
 40
0.5174413175
 40
0.7758676999
 40
1.0
 40
1.0
 40
1.0
 40
1.0
 10
17.1572631869
 20
11.6902294963
 30
0.0
 10
17.1565639268
 20
11.6916544386
 30
0.0
 10
17.1548924857
 20
11.6946875661
 30
0.0
 10
17.1520491374
 20
11.6993249299
 30
0.0
 10
17.1488403875
 20
11.7041851014
 30
0.0
 10
17.1444589382
 20
11.7104580515
 30
0.0
 10
17.1391348882
 20
11.7175703172
 30
0.0
 10
17.1347646134
 20
11.7229275392
 30
0.0
 10
17.1326622735
 20
11.7253529182
 30
0.0
  0
SPLINE
  5
4B0
100
AcDbEntity
  8
0
100
AcDbSpline
 62
7
  6
CONTINUOUS
 70
0
 71
3
 72
11
 73
7
 74
0
 42
0.0000001
 43
0.0000001
 44
0.0000000001
 40
0.0
 40
0.0
 40
0.0
 40
0.0
 40
0.2650531849
 40
0.5229718235
 40
0.7697339218
 40
1.0
 40
1.0
 40
1.0
 40
1.0
 10
17.4231418616
 20
12.6653452098
 30
0.0
 10
17.4251710123
 20
12.6667117741
 30
0.0
 10
17.4293149403
 20
12.6692068903
 30
0.0
 10
17.4357823909
 20
12.6721884082
 30
0.0
 10
17.4422755427
 20
12.674215888
 30
0.0
 10
17.4466798909
 20
12.674805015
 30
0.0
 10
17.4488052251
 20
12.6748050137
 30
0.0
  0
SPLINE
  5
4B1
100
AcDbEntity
  8
0
100
AcDbSpline
 62
7
  6
CONTINUOUS
 70
0
 71
3
 72
13
 73
9
 74
0
 42
0.0000001
 43
0.0000001
 44
0.0000000001
 40
0.0
 40
0.0
 40
0.0
 40
0.0
 40
0.2707281147
 40
0.5255362504
 40
0.6477811369
 40
0.7671659566
 40
0.8843787934
 40
1.0
 40
1.0
 40
1.0
 40
1.0
 10
14.8781849086
 20
12.296225544
 30
0.0
 10
14.8824300244
 20
12.3007744915
 30
0.0
 10
14.8898627005
 20
12.3104195941
 30
0.0
 10
14.8961494738
 20
12.3240875817
 30
0.0
 10
14.8988286333
 20
12.3352087633
 30
0.0
 10
14.8996719786
 20
12.3434398986
 30
0.0
 10
14.8993565133
 20
12.351554593
 30
0.0
 10
14.8983827834
 20
12.356838952
 30
0.0
 10
14.8977103
 20
12.3594097336
 30
0.0
  0
SPLINE
  5
4B2
100
AcDbEntity
  8
0
100
AcDbSpline
 62
7
  6
CONTINUOUS
 70
0
 71
3
 72
9
 73
5
 74
0
 42
0.0000001
 43
0.0000001
 44
0.0000000001
 40
0.0
 40
0.0
 40
0.0
 40
0.0
 40
0.2424835387
 40
1.0
 40
1.0
 40
1.0
 40
1.0
 10
14.5167682093
 20
12.3870218234
 30
0.0
 10
14.5217652959
 20
12.3899493317
 30
0.0
 10
14.5426294683
 20
12.4015827826
 30
0.0
 10
14.564442396
 20
12.4114875273
 30
0.0
 10
14.5812823379
 20
12.4181023218
 30
0.0
  0
SPLINE
  5
4B3
100
AcDbEntity
  8
0
100
AcDbSpline
 62
7
  6
CONTINUOUS
 70
0
 71
3
 72
21
 73
17
 74
0
 42
0.0000001
 43
0.0000001
 44
0.0000000001
 40
0.0
 40
0.0
 40
0.0
 40
0.0
 40
0.0647472242
 40
0.1314035921
 40
0.1993991739
 40
0.2682531413
 40
0.4062819488
 40
0.5412489495
 40
0.6064391522
 40
0.6695203003
 40
0.7302374813
 40
0.7884629119
 40
0.8442419576
 40
0.8977899023
 40
0.9495172245
 40
1.0
 40
1.0
 40
1.0
 40
1.0
 10
13.8800991893
 20
12.3565945166
 30
0.0
 10
13.8737785605
 20
12.3565945166
 30
0.0
 10
13.860942281
 20
12.3558716469
 30
0.0
 10
13.8416923145
 20
12.3527846154
 30
0.0
 10
13.8224514226
 20
12.347708316
 30
0.0
 10
13.7972428935
 20
12.3384155488
 30
0.0
 10
13.7676631194
 20
12.3225306967
 30
0.0
 10
13.7418314352
 20
12.301609296
 30
0.0
 10
13.7245532617
 20
12.28253089
 30
0.0
 10
13.7137026664
 20
12.2675608975
 30
0.0
 10
13.7049936076
 20
12.2520225545
 30
0.0
 10
13.6985840822
 20
12.2361628852
 30
0.0
 10
13.694577862
 20
12.2202464791
 30
0.0
 10
13.6930684753
 20
12.2045314918
 30
0.0
 10
13.694080462
 20
12.1892918766
 30
0.0
 10
13.69646772
 20
12.1795405402
 30
0.0
 10
13.6980642
 20
12.1748781653
 30
0.0
  0
SPLINE
  5
4B4
100
AcDbEntity
  8
0
100
AcDbSpline
 62
7
  6
CONTINUOUS
 70
0
 71
3
 72
15
 73
11
 74
0
 42
0.0000001
 43
0.0000001
 44
0.0000000001
 40
0.0
 40
0.0
 40
0.0
 40
0.0
 40
0.3576981636
 40
0.5139024169
 40
0.6529695289
 40
0.7731618985
 40
0.8723043255
 40
0.9481917917
 40
0.9770159286
 40
1.0
 40
1.0
 40
1.0
 40
1.0
 10
13.6122519989
 20
12.6653452098
 30
0.0
 10
13.6111422732
 20
12.6666254525
 30
0.0
 10
13.6095184953
 20
12.6684401424
 30
0.0
 10
13.6073682346
 20
12.6706638135
 30
0.0
 10
13.6059549079
 20
12.6720334922
 30
0.0
 10
13.604685037
 20
12.6731620644
 30
0.0
 10
13.6035813139
 20
12.6740205421
 30
0.0
 10
13.6027578598
 20
12.6745361401
 30
0.0
 10
13.6021943264
 20
12.6747594155
 30
0.0
 10
13.6019495797
 20
12.6748050137
 30
0.0
 10
13.6018407143
 20
12.6748050135
 30
0.0
  0
SPLINE
  5
4B5
100
AcDbEntity
  8
0
100
AcDbSpline
 62
7
  6
CONTINUOUS
 70
0
 71
3
 72
12
 73
8
 74
0
 42
0.0000001
 43
0.0000001
 44
0.0000000001
 40
0.0
 40
0.0
 40
0.0
 40
0.0
 40
0.2568159656
 40
0.5134920201
 40
0.7642280125
 40
0.8847997995
 40
1.0
 40
1.0
 40
1.0
 40
1.0
 10
13.3217724108
 20
11.7253529182
 30
0.0
 10
13.3193677484
 20
11.7237334594
 30
0.0
 10
13.3147490144
 20
11.7202027097
 30
0.0
 10
13.3085720725
 20
11.7141512166
 30
0.0
 10
13.3042367197
 20
11.7084936346
 30
0.0
 10
13.3015694543
 20
11.7036824512
 30
0.0
 10
13.3005714315
 20
11.701203134
 30
0.0
 10
13.3001874462
 20
11.6999606425
 30
0.0
  0
ELLIPSE
  5
4B6
100
AcDbEntity
  8
0
100
AcDbEllipse
 62
7
  6
CONTINUOUS
 10
4.7532568637
 20
13.0562977814
 30
0.0
 11
0.0
 21
0.0125
 31
0.0
 40
0.2679491924
 41
-1.5707963268
 42
-0.0
  0
ELLIPSE
  5
4B7
100
AcDbEntity
  8
0
100
AcDbEllipse
 62
7
  6
CONTINUOUS
 10
4.7532568637
 20
12.4562977814
 30
0.0
 11
-0.0
 21
0.0125
 31
0.0
 40
0.2679491924
 41
-3.1415926536
 42
-1.5707963268
  0
ELLIPSE
  5
4B8
100
AcDbEntity
  8
0
100
AcDbEllipse
 62
7
  6
CONTINUOUS
 10
7.3884873041
 20
13.0562977814
 30
0.0
 11
-0.0
 21
0.0125
 31
0.0
 40
0.2679491924
 41
0.0
 42
1.5707963268
  0
ELLIPSE
  5
4B9
100
AcDbEntity
  8
0
100
AcDbEllipse
 62
7
  6
CONTINUOUS
 10
7.3884873041
 20
12.4562977814
 30
0.0
 11
0.0
 21
0.0125
 31
0.0
 40
0.2679491924
 41
-4.7123889804
 42
-3.1415926536
  0
ELLIPSE
  5
4BA
100
AcDbEntity
  8
0
100
AcDbEllipse
 62
7
  6
CONTINUOUS
 10
15.7166052569
 20
5.0140899661
 30
0.0
 11
-0.0
 21
1.1662658774
 31
0.0
 40
0.2679491924
 41
-1.5707963268
 42
-0.894287646
  0
ELLIPSE
  5
4BB
100
AcDbEntity
  8
0
100
AcDbEllipse
 62
7
  6
CONTINUOUS
 10
15.7166052569
 20
5.0140899661
 30
0.0
 11
-0.0
 21
1.1662658774
 31
0.0
 40
0.2679491924
 41
0.894287646
 42
1.5707963268
  0
ELLIPSE
  5
4BC
100
AcDbEntity
  8
0
100
AcDbEllipse
 62
7
  6
CONTINUOUS
 10
16.5602742685
 20
12.2382962593
 30
0.0
 11
-0.626197322
 21
0.7524855183
 31
0.0
 40
0.2216133796
 41
1.0375543557
 42
1.7140630365
  0
ELLIPSE
  5
4BD
100
AcDbEntity
  8
0
100
AcDbEllipse
 62
7
  6
CONTINUOUS
 10
16.4981891303
 20
11.9914314895
 30
0.0
 11
-0.0028307534
 21
0.0123979794
 31
0.0
 40
0.5630202753
 41
0.7721502657
 42
2.3429465925
  0
ELLIPSE
  5
4BE
100
AcDbEntity
  8
0
100
AcDbEllipse
 62
7
  6
CONTINUOUS
 10
16.6434289243
 20
12.4614276353
 30
0.0
 11
-0.0028307534
 21
0.0123979794
 31
0.0
 40
0.5630202753
 41
-0.127849959
 42
0.7721502657
  0
ELLIPSE
  5
4BF
100
AcDbEntity
  8
0
100
AcDbEllipse
 62
7
  6
CONTINUOUS
 10
16.5602742685
 20
12.2382962593
 30
0.0
 11
-0.626197322
 21
0.7524855183
 31
0.0
 40
0.2216133796
 41
-1.4275296171
 42
-0.7510209362
  0
ENDSEC
  0
SECTION
  2
OBJECTS
  0
DICTIONARY
  5
C
100
AcDbDictionary
280
0
281
1
  3
ACAD_GROUP
350
D
  3
ACAD_MLINESTYLE
350
17
  3
ACAD_LAYOUT
350
1A
  3
ACAD_PLOTSETTINGS
350
19
  3
ACAD_PLOTSTYLENAME
350
E
  0
DICTIONARY
  5
D
102
{ACAD_REACTORS
330
C
102
}
100
AcDbDictionary
280
0
281
1
  0
ACDBDICTIONARYWDFLT
  5
E
102
{ACAD_REACTORS
330
C
102
}
100
AcDbDictionary
281
1
  3
Normal
350
F
100
AcDbDictionaryWithDefault
340
F
  0
DICTIONARY
  5
17
102
{ACAD_REACTORS
330
C
102
}
100
AcDbDictionary
280
0
281
1
  3
Standard
350
18
  0
DICTIONARY
  5
19
102
{ACAD_REACTORS
330
C
102
}
100
AcDbDictionary
281
1
  0
DICTIONARY
  5
1A
102
{ACAD_REACTORS
330
C
102
}
100
AcDbDictionary
281
1
  3
Model
350
4C0
  3
Layout1
350
4C1
  0
ACDBPLACEHOLDER
  5
F
102
{ACAD_REACTORS
330
E
102
}
  0
MLINESTYLE
  5
18
102
{ACAD_REACTORS
330
17
102
}
100
AcDbMlineStyle
  2
STANDARD
 70
0
  3

 62
256
 51
90.0
 52
90.0
 71
2
 49
0.5
 62
256
  6
BYLAYER
 49
-0.5
 62
256
  6
BYLAYER
  0
LAYOUT
  5
4C0
102
{ACAD_REACTORS
330
1A
102
}
100
AcDbPlotSettings
  1

  2
none_device
  4
ANSI_C_(22.00_x_17.00_Inches)
  6

 40
0.0
 41
0.0
 42
0.0
 43
0.0
 44
558.8
 45
431.8
 46
0.0
 47
0.0
 48
0.0
 49
0.0
140
0.0
141
0.0
142
1.0
143
1.0
 70
1024
 72
0
 73
0
 74
0
  7

 75
0
147
1.0
148
0.0
149
0.0
100
AcDbLayout
  1
Model
 70
0
 71
0
 10
0.0
 20
0.0
 11
22.0
 21
17.0
 12
0.0
 22
0.0
 32
0.0
 14
0.0
 24
0.0
 34
0.0
 15
0.0
 25
0.0
 35
0.0
146
0.0
 13
0.0
 23
0.0
 33
0.0
 16
1.0
 26
0.0
 36
0.0
 17
0.0
 27
1.0
 37
0.0
 76
0
330
262
345
0
346
0
  0
LAYOUT
  5
4C1
102
{ACAD_REACTORS
330
1A
102
}
100
AcDbPlotSettings
  1

  2
none_device
  4
ANSI_C_(22.00_x_17.00_Inches)
  6

 40
0.0
 41
0.0
 42
0.0
 43
0.0
 44
558.8
 45
431.8
 46
0.0
 47
0.0
 48
0.0
 49
0.0
140
0.0
141
0.0
142
1.0
143
1.0
 70
0
 72
0
 73
0
 74
0
  7

 75
0
147
1.0
148
0.0
149
0.0
100
AcDbLayout
  1
Layout1
 70
0
 71
1
 10
0.0
 20
0.0
 11
22.0
 21
17.0
 12
0.0
 22
0.0
 32
0.0
 14
0.0
 24
0.0
 34
0.0
 15
0.0
 25
0.0
 35
0.0
146
0.0
 13
0.0
 23
0.0
 33
0.0
 16
1.0
 26
0.0
 36
0.0
 17
0.0
 27
1.0
 37
0.0
 76
0
330
263
345
0
346
0
  0
ENDSEC
  0
EOF