999
DXF file: _cgs_temp_output.dxf
999
Pro/ENGINEER 2016360 by Parametric Technology Corporation
  0
SECTION
  2
HEADER
  9
$ACADVER
  1
AC1021
  9
$DWGCODEPAGE
  3
ANSI_1252
  9
$EXTMAX
 10
22.0
 20
17.0
 30
0.0
  9
$EXTMIN
 10
0.0
 20
0.0
 30
0.0
  9
$LIMMIN
 10
0.0
 20
0.0
  9
$LIMMAX
 10
22.0
 20
17.0
  9
$VIEWCTR
 10
11.0
 20
8.5
  9
$VIEWSIZE
 40
17.0
  9
$CLAYER
  8
0
  9
$LTSCALE
 40
1.21
  9
$CELTYPE
  6
BYLAYER
  9
$DIMSCALE
 40
1.0
  9
$DIMASZ
 40
0.1875
  9
$DIMEXO
 40
0.0625
  9
$DIMDLI
 40
0.836
  9
$DIMEXE
 40
0.125
  9
$DIMCEN
 40
0.198
  9
$DIMLFAC
 40
1.0
  9
$DIMBLK
  1
_CLOSED
  9
$DIMALT
 70
0
  9
$DIMALTF
 40
25.4
  9
$DIMTXT
 40
0.15625
  9
$DIMTOL
 70
0
  9
$DIMLIM
 70
0
  9
$DIMTFAC
 40
1.0
  9
$DIMGAP
 40
0.09
  9
$DIMDSEP
 70
46
  9
$AUNITS
 70
0
  9
$PDMODE
 70
3
  9
$PDSIZE
 40
0.3125
  9
$HANDSEED
  5
4A6
  9
$TILEMODE
 70
1
  9
$MEASUREMENT
 70
0
  9
$INSUNITS
 70
1
  0
ENDSEC
  0
SECTION
  2
CLASSES
  0
CLASS
  1
ACDBDICTIONARYWDFLT
  2
AcDbDictionaryWithDefault
  3
AutoCAD 2000
 90
0
 91
1
280
0
281
0
  0
CLASS
  1
ACDBPLACEHOLDER
  2
AcDbPlaceHolder
  3
AutoCAD 2000
 90
0
 91
1
280
0
281
0
  0
CLASS
  1
LAYOUT
  2
AcDbLayout
  3
AutoCAD 2000
 90
0
 91
0
280
0
281
0
  0
ENDSEC
  0
SECTION
  2
TABLES
  0
TABLE
  2
VPORT
  5
8
100
AcDbSymbolTable
 70
2
  0
VPORT
  5
1F4
100
AcDbSymbolTableRecord
100
AcDbViewportTableRecord
  2
*ACTIVE
 70
0
 10
0.0
 20
0.0
 11
1.0
 21
1.0
 12
11.0
 22
8.5
 13
0.0
 23
0.0
 14
1.0
 24
1.0
 15
0.0
 25
0.0
 16
0.0
 26
0.0
 36
1.0
 17
0.0
 27
0.0
 37
0.0
 40
17.0
 41
1.2941176471
 42
50.0
 43
0.0
 44
0.0
 50
0.0
 51
0.0
 71
0
 72
100
 73
1
 74
1
 75
0
 76
0
 77
0
 78
0
  0
ENDTAB
  0
TABLE
  2
LTYPE
  5
5
100
AcDbSymbolTable
 70
6
  0
LTYPE
  5
14
100
AcDbSymbolTableRecord
100
AcDbLinetypeTableRecord
  2
BYBLOCK
 70
0
  3

 72
65
 73
0
 40
0.0
  0
LTYPE
  5
15
100
AcDbSymbolTableRecord
100
AcDbLinetypeTableRecord
  2
BYLAYER
 70
0
  3

 72
65
 73
0
 40
0.0
  0
LTYPE
  5
16
100
AcDbSymbolTableRecord
100
AcDbLinetypeTableRecord
  2
CONTINUOUS
 70
64
  3
Solid line
 72
65
 73
0
 40
0.0
  0
LTYPE
  5
1F5
100
AcDbSymbolTableRecord
100
AcDbLinetypeTableRecord
  2
CENTER
 70
64
  3
____ _ ____ _ ____ _ ____ _ ____ _ ____ _ ____
 72
65
 73
4
 40
0.6
 49
0.375
 74
0
 49
-0.075
 74
0
 49
0.075
 74
0
 49
-0.075
 74
0
  0
LTYPE
  5
1F6
100
AcDbSymbolTableRecord
100
AcDbLinetypeTableRecord
  2
HIDDEN
 70
64
  3
- - - - - - - - - - - - - - - - - - - -
 72
65
 73
2
 40
0.2
 49
0.1
 74
0
 49
-0.1
 74
0
  0
LTYPE
  5
1F7
100
AcDbSymbolTableRecord
100
AcDbLinetypeTableRecord
  2
PHANTOM
 70
64
  3
_____ _ _ _____ _ _ _____ _ _ _____
 72
65
 73
6
 40
0.8
 49
0.45
 74
0
 49
-0.05
 74
0
 49
0.1
 74
0
 49
-0.05
 74
0
 49
0.1
 74
0
 49
-0.05
 74
0
  0
LTYPE
  5
1F8
100
AcDbSymbolTableRecord
100
AcDbLinetypeTableRecord
  2
DOT
 70
64
  3
. . . . . . . . . . . . . . . . . . . .
 72
65
 73
2
 40
0.2
 49
0.1
 74
0
 49
-0.1
 74
0
  0
LTYPE
  5
1F9
100
AcDbSymbolTableRecord
100
AcDbLinetypeTableRecord
  2
DASHED
 70
64
  3
- - - - - - - - - - - - - - - - - - - -
 72
65
 73
2
 40
0.2
 49
0.1
 74
0
 49
-0.1
 74
0
  0
ENDTAB
  0
TABLE
  2
LAYER
  5
2
100
AcDbSymbolTable
 70
36
  0
LAYER
  5
10
100
AcDbSymbolTableRecord
100
AcDbLayerTableRecord
  2
0
 70
0
 62
7
  6
CONTINUOUS
370
-3
390
F
  0
LAYER
  5
1FA
100
AcDbSymbolTableRecord
100
AcDbLayerTableRecord
  2
DEFAULT_1
 70
0
 62
7
  6
CENTER
370
-3
390
F
  0
LAYER
  5
1FB
100
AcDbSymbolTableRecord
100
AcDbLayerTableRecord
  2
DEFAULT_2
 70
0
 62
8
  6
HIDDEN
370
-3
390
F
  0
LAYER
  5
1FC
100
AcDbSymbolTableRecord
100
AcDbLayerTableRecord
  2
DEFAULT_3
 70
0
 62
7
  6
PHANTOM
370
-3
390
F
  0
LAYER
  5
1FD
100
AcDbSymbolTableRecord
100
AcDbLayerTableRecord
  2
01_ALL_DTM_PLN
 70
0
 62
7
  6
CONTINUOUS
370
-3
390
F
  0
LAYER
  5
1FE
100
AcDbSymbolTableRecord
100
AcDbLayerTableRecord
  2
01__ASM_ALL_DTM_PLN
 70
0
 62
7
  6
CONTINUOUS
370
-3
390
F
  0
LAYER
  5
1FF
100
AcDbSymbolTableRecord
100
AcDbLayerTableRecord
  2
01__ASM_DEF_DTM_PLN
 70
0
 62
7
  6
CONTINUOUS
370
-3
390
F
  0
LAYER
  5
200
100
AcDbSymbolTableRecord
100
AcDbLayerTableRecord
  2
01___PRT_ALL_DTM_PLN
 70
0
 62
7
  6
CONTINUOUS
370
-3
390
F
  0
LAYER
  5
201
100
AcDbSymbolTableRecord
100
AcDbLayerTableRecord
  2
01___PRT_DEF_DTM_PLN
 70
0
 62
7
  6
CONTINUOUS
370
-3
390
F
  0
LAYER
  5
202
100
AcDbSymbolTableRecord
100
AcDbLayerTableRecord
  2
02_ALL_AXES
 70
0
 62
7
  6
CONTINUOUS
370
-3
390
F
  0
LAYER
  5
203
100
AcDbSymbolTableRecord
100
AcDbLayerTableRecord
  2
02__ASM_ALL_AXES
 70
0
 62
7
  6
CONTINUOUS
370
-3
390
F
  0
LAYER
  5
204
100
AcDbSymbolTableRecord
100
AcDbLayerTableRecord
  2
02___PRT_ALL_AXES
 70
0
 62
7
  6
CONTINUOUS
370
-3
390
F
  0
LAYER
  5
205
100
AcDbSymbolTableRecord
100
AcDbLayerTableRecord
  2
03_ALL_CURVES
 70
0
 62
7
  6
CONTINUOUS
370
-3
390
F
  0
LAYER
  5
206
100
AcDbSymbolTableRecord
100
AcDbLayerTableRecord
  2
03__ASM_ALL_CURVES
 70
0
 62
7
  6
CONTINUOUS
370
-3
390
F
  0
LAYER
  5
207
100
AcDbSymbolTableRecord
100
AcDbLayerTableRecord
  2
03___PRT_ALL_CURVES
 70
0
 62
7
  6
CONTINUOUS
370
-3
390
F
  0
LAYER
  5
208
100
AcDbSymbolTableRecord
100
AcDbLayerTableRecord
  2
04_ALL_DTM_PNT
 70
0
 62
7
  6
CONTINUOUS
370
-3
390
F
  0
LAYER
  5
209
100
AcDbSymbolTableRecord
100
AcDbLayerTableRecord
  2
04__ASM_ALL_DTM_PNT
 70
0
 62
7
  6
CONTINUOUS
370
-3
390
F
  0
LAYER
  5
20A
100
AcDbSymbolTableRecord
100
AcDbLayerTableRecord
  2
04___PRT_ALL_DTM_PNT
 70
0
 62
7
  6
CONTINUOUS
370
-3
390
F
  0
LAYER
  5
20B
100
AcDbSymbolTableRecord
100
AcDbLayerTableRecord
  2
05_ALL_DTM_CSYS
 70
0
 62
7
  6
CONTINUOUS
370
-3
390
F
  0
LAYER
  5
20C
100
AcDbSymbolTableRecord
100
AcDbLayerTableRecord
  2
05__ASM_ALL_DTM_CSYS
 70
0
 62
7
  6
CONTINUOUS
370
-3
390
F
  0
LAYER
  5
20D
100
AcDbSymbolTableRecord
100
AcDbLayerTableRecord
  2
05__ASM_DEF_DTM_CSYS
 70
0
 62
7
  6
CONTINUOUS
370
-3
390
F
  0
LAYER
  5
20E
100
AcDbSymbolTableRecord
100
AcDbLayerTableRecord
  2
05___PRT_ALL_DTM_CSYS
 70
0
 62
7
  6
CONTINUOUS
370
-3
390
F
  0
LAYER
  5
20F
100
AcDbSymbolTableRecord
100
AcDbLayerTableRecord
  2
05___PRT_DEF_DTM_CSYS
 70
0
 62
7
  6
CONTINUOUS
370
-3
390
F
  0
LAYER
  5
210
100
AcDbSymbolTableRecord
100
AcDbLayerTableRecord
  2
06_ALL_SURFS
 70
0
 62
7
  6
CONTINUOUS
370
-3
390
F
  0
LAYER
  5
211
100
AcDbSymbolTableRecord
100
AcDbLayerTableRecord
  2
06__ASM_ALL_SURFS
 70
0
 62
7
  6
CONTINUOUS
370
-3
390
F
  0
LAYER
  5
212
100
AcDbSymbolTableRecord
100
AcDbLayerTableRecord
  2
06___PRT_ALL_SURFS
 70
0
 62
7
  6
CONTINUOUS
370
-3
390
F
  0
LAYER
  5
213
100
AcDbSymbolTableRecord
100
AcDbLayerTableRecord
  2
07__ASM_ALL_SKELETONS
 70
0
 62
7
  6
CONTINUOUS
370
-3
390
F
  0
LAYER
  5
214
100
AcDbSymbolTableRecord
100
AcDbLayerTableRecord
  2
COLOR1
 70
0
 62
7
  6
CONTINUOUS
370
-3
390
F
  0
LAYER
  5
215
100
AcDbSymbolTableRecord
100
AcDbLayerTableRecord
  2
COLOR2
 70
0
 62
7
  6
CONTINUOUS
370
-3
390
F
  0
LAYER
  5
216
100
AcDbSymbolTableRecord
100
AcDbLayerTableRecord
  2
INTFCLR_11137
 70
0
 62
7
  6
CONTINUOUS
370
-3
390
F
  0
LAYER
  5
217
100
AcDbSymbolTableRecord
100
AcDbLayerTableRecord
  2
INTFCLR_11137_1
 70
0
 62
7
  6
CONTINUOUS
370
-3
390
F
  0
LAYER
  5
218
100
AcDbSymbolTableRecord
100
AcDbLayerTableRecord
  2
INTFCLR_11137_10
 70
0
 62
7
  6
CONTINUOUS
370
-3
390
F
  0
LAYER
  5
219
100
AcDbSymbolTableRecord
100
AcDbLayerTableRecord
  2
INTFCLR_11137_11
 70
0
 62
7
  6
CONTINUOUS
370
-3
390
F
  0
LAYER
  5
21A
100
AcDbSymbolTableRecord
100
AcDbLayerTableRecord
  2
INTFCLR_11137_2
 70
0
 62
7
  6
CONTINUOUS
370
-3
390
F
  0
LAYER
  5
21B
100
AcDbSymbolTableRecord
100
AcDbLayerTableRecord
  2
INTFCLR_11137_3
 70
0
 62
7
  6
CONTINUOUS
370
-3
390
F
  0
LAYER
  5
21C
100
AcDbSymbolTableRecord
100
AcDbLayerTableRecord
  2
INTFCLR_11137_4
 70
0
 62
7
  6
CONTINUOUS
370
-3
390
F
  0
LAYER
  5
21D
100
AcDbSymbolTableRecord
100
AcDbLayerTableRecord
  2
INTFCLR_11137_5
 70
0
 62
7
  6
CONTINUOUS
370
-3
390
F
  0
LAYER
  5
21E
100
AcDbSymbolTableRecord
100
AcDbLayerTableRecord
  2
INTFCLR_11137_6
 70
0
 62
7
  6
CONTINUOUS
370
-3
390
F
  0
LAYER
  5
21F
100
AcDbSymbolTableRecord
100
AcDbLayerTableRecord
  2
INTFCLR_11137_7
 70
0
 62
7
  6
CONTINUOUS
370
-3
390
F
  0
LAYER
  5
220
100
AcDbSymbolTableRecord
100
AcDbLayerTableRecord
  2
INTFCLR_11137_8
 70
0
 62
7
  6
CONTINUOUS
370
-3
390
F
  0
LAYER
  5
221
100
AcDbSymbolTableRecord
100
AcDbLayerTableRecord
  2
INTFCLR_11137_9
 70
0
 62
7
  6
CONTINUOUS
370
-3
390
F
  0
LAYER
  5
222
100
AcDbSymbolTableRecord
100
AcDbLayerTableRecord
  2
INTFCLR_2799
 70
0
 62
7
  6
CONTINUOUS
370
-3
390
F
  0
LAYER
  5
223
100
AcDbSymbolTableRecord
100
AcDbLayerTableRecord
  2
INTFCLR_2799_1
 70
0
 62
7
  6
CONTINUOUS
370
-3
390
F
  0
LAYER
  5
224
100
AcDbSymbolTableRecord
100
AcDbLayerTableRecord
  2
INTFCLR_2799_2
 70
0
 62
7
  6
CONTINUOUS
370
-3
390
F
  0
LAYER
  5
225
100
AcDbSymbolTableRecord
100
AcDbLayerTableRecord
  2
INTFCLR_2799_3
 70
0
 62
7
  6
CONTINUOUS
370
-3
390
F
  0
LAYER
  5
226
100
AcDbSymbolTableRecord
100
AcDbLayerTableRecord
  2
INTFCLR_2799_4
 70
0
 62
7
  6
CONTINUOUS
370
-3
390
F
  0
LAYER
  5
227
100
AcDbSymbolTableRecord
100
AcDbLayerTableRecord
  2
INTFCLR_2799_5
 70
0
 62
7
  6
CONTINUOUS
370
-3
390
F
  0
LAYER
  5
228
100
AcDbSymbolTableRecord
100
AcDbLayerTableRecord
  2
INTFCLR_2799_6
 70
0
 62
7
  6
CONTINUOUS
370
-3
390
F
  0
LAYER
  5
229
100
AcDbSymbolTableRecord
100
AcDbLayerTableRecord
  2
INTFCLR_2799_7
 70
0
 62
7
  6
CONTINUOUS
370
-3
390
F
  0
LAYER
  5
22A
100
AcDbSymbolTableRecord
100
AcDbLayerTableRecord
  2
KARTHIII
 70
0
 62
7
  6
CONTINUOUS
370
-3
390
F
  0
LAYER
  5
22B
100
AcDbSymbolTableRecord
100
AcDbLayerTableRecord
  2
NONE
 70
0
 62
7
  6
CONTINUOUS
370
-3
390
F
  0
LAYER
  5
22C
100
AcDbSymbolTableRecord
100
AcDbLayerTableRecord
  2
NONE_1
 70
0
 62
7
  6
CONTINUOUS
370
-3
390
F
  0
LAYER
  5
22D
100
AcDbSymbolTableRecord
100
AcDbLayerTableRecord
  2
NONE_10
 70
0
 62
7
  6
CONTINUOUS
370
-3
390
F
  0
LAYER
  5
22E
100
AcDbSymbolTableRecord
100
AcDbLayerTableRecord
  2
NONE_11
 70
0
 62
7
  6
CONTINUOUS
370
-3
390
F
  0
LAYER
  5
22F
100
AcDbSymbolTableRecord
100
AcDbLayerTableRecord
  2
NONE_2
 70
0
 62
7
  6
CONTINUOUS
370
-3
390
F
  0
LAYER
  5
230
100
AcDbSymbolTableRecord
100
AcDbLayerTableRecord
  2
NONE_3
 70
0
 62
7
  6
CONTINUOUS
370
-3
390
F
  0
LAYER
  5
231
100
AcDbSymbolTableRecord
100
AcDbLayerTableRecord
  2
NONE_4
 70
0
 62
7
  6
CONTINUOUS
370
-3
390
F
  0
LAYER
  5
232
100
AcDbSymbolTableRecord
100
AcDbLayerTableRecord
  2
NONE_5
 70
0
 62
7
  6
CONTINUOUS
370
-3
390
F
  0
LAYER
  5
233
100
AcDbSymbolTableRecord
100
AcDbLayerTableRecord
  2
NONE_6
 70
0
 62
7
  6
CONTINUOUS
370
-3
390
F
  0
LAYER
  5
234
100
AcDbSymbolTableRecord
100
AcDbLayerTableRecord
  2
NONE_7
 70
0
 62
7
  6
CONTINUOUS
370
-3
390
F
  0
LAYER
  5
235
100
AcDbSymbolTableRecord
100
AcDbLayerTableRecord
  2
NONE_8
 70
0
 62
7
  6
CONTINUOUS
370
-3
390
F
  0
LAYER
  5
236
100
AcDbSymbolTableRecord
100
AcDbLayerTableRecord
  2
NONE_9
 70
0
 62
7
  6
CONTINUOUS
370
-3
390
F
  0
LAYER
  5
237
100
AcDbSymbolTableRecord
100
AcDbLayerTableRecord
  2
_1014
 70
0
 62
7
  6
CONTINUOUS
370
-3
390
F
  0
LAYER
  5
238
100
AcDbSymbolTableRecord
100
AcDbLayerTableRecord
  2
_1014_1
 70
0
 62
7
  6
CONTINUOUS
370
-3
390
F
  0
LAYER
  5
239
100
AcDbSymbolTableRecord
100
AcDbLayerTableRecord
  2
_1245
 70
0
 62
7
  6
CONTINUOUS
370
-3
390
F
  0
LAYER
  5
23A
100
AcDbSymbolTableRecord
100
AcDbLayerTableRecord
  2
_1245_1
 70
0
 62
7
  6
CONTINUOUS
370
-3
390
F
  0
LAYER
  5
23B
100
AcDbSymbolTableRecord
100
AcDbLayerTableRecord
  2
_1953
 70
0
 62
7
  6
CONTINUOUS
370
-3
390
F
  0
LAYER
  5
23C
100
AcDbSymbolTableRecord
100
AcDbLayerTableRecord
  2
_1953_1
 70
0
 62
7
  6
CONTINUOUS
370
-3
390
F
  0
LAYER
  5
23D
100
AcDbSymbolTableRecord
100
AcDbLayerTableRecord
  2
_2621
 70
0
 62
7
  6
CONTINUOUS
370
-3
390
F
  0
LAYER
  5
23E
100
AcDbSymbolTableRecord
100
AcDbLayerTableRecord
  2
_2621_1
 70
0
 62
7
  6
CONTINUOUS
370
-3
390
F
  0
LAYER
  5
23F
100
AcDbSymbolTableRecord
100
AcDbLayerTableRecord
  2
_3223
 70
0
 62
7
  6
CONTINUOUS
370
-3
390
F
  0
LAYER
  5
240
100
AcDbSymbolTableRecord
100
AcDbLayerTableRecord
  2
_3223_1
 70
0
 62
7
  6
CONTINUOUS
370
-3
390
F
  0
LAYER
  5
241
100
AcDbSymbolTableRecord
100
AcDbLayerTableRecord
  2
_3788
 70
0
 62
7
  6
CONTINUOUS
370
-3
390
F
  0
LAYER
  5
242
100
AcDbSymbolTableRecord
100
AcDbLayerTableRecord
  2
_3788_1
 70
0
 62
7
  6
CONTINUOUS
370
-3
390
F
  0
LAYER
  5
243
100
AcDbSymbolTableRecord
100
AcDbLayerTableRecord
  2
_3988
 70
0
 62
7
  6
CONTINUOUS
370
-3
390
F
  0
LAYER
  5
244
100
AcDbSymbolTableRecord
100
AcDbLayerTableRecord
  2
_3988_1
 70
0
 62
7
  6
CONTINUOUS
370
-3
390
F
  0
LAYER
  5
245
100
AcDbSymbolTableRecord
100
AcDbLayerTableRecord
  2
_4418
 70
0
 62
7
  6
CONTINUOUS
370
-3
390
F
  0
LAYER
  5
246
100
AcDbSymbolTableRecord
100
AcDbLayerTableRecord
  2
_4418_1
 70
0
 62
7
  6
CONTINUOUS
370
-3
390
F
  0
LAYER
  5
247
100
AcDbSymbolTableRecord
100
AcDbLayerTableRecord
  2
_5021
 70
0
 62
7
  6
CONTINUOUS
370
-3
390
F
  0
LAYER
  5
248
100
AcDbSymbolTableRecord
100
AcDbLayerTableRecord
  2
_5021_1
 70
0
 62
7
  6
CONTINUOUS
370
-3
390
F
  0
LAYER
  5
249
100
AcDbSymbolTableRecord
100
AcDbLayerTableRecord
  2
_6082
 70
0
 62
7
  6
CONTINUOUS
370
-3
390
F
  0
LAYER
  5
24A
100
AcDbSymbolTableRecord
100
AcDbLayerTableRecord
  2
_6082_1
 70
0
 62
7
  6
CONTINUOUS
370
-3
390
F
  0
LAYER
  5
24B
100
AcDbSymbolTableRecord
100
AcDbLayerTableRecord
  2
_6283
 70
0
 62
7
  6
CONTINUOUS
370
-3
390
F
  0
LAYER
  5
24C
100
AcDbSymbolTableRecord
100
AcDbLayerTableRecord
  2
_6283_1
 70
0
 62
7
  6
CONTINUOUS
370
-3
390
F
  0
LAYER
  5
24D
100
AcDbSymbolTableRecord
100
AcDbLayerTableRecord
  2
_6733
 70
0
 62
7
  6
CONTINUOUS
370
-3
390
F
  0
LAYER
  5
24E
100
AcDbSymbolTableRecord
100
AcDbLayerTableRecord
  2
_6733_1
 70
0
 62
7
  6
CONTINUOUS
370
-3
390
F
  0
LAYER
  5
24F
100
AcDbSymbolTableRecord
100
AcDbLayerTableRecord
  2
_7015
 70
0
 62
7
  6
CONTINUOUS
370
-3
390
F
  0
LAYER
  5
250
100
AcDbSymbolTableRecord
100
AcDbLayerTableRecord
  2
_7015_1
 70
0
 62
7
  6
CONTINUOUS
370
-3
390
F
  0
LAYER
  5
251
100
AcDbSymbolTableRecord
100
AcDbLayerTableRecord
  2
_7581
 70
0
 62
7
  6
CONTINUOUS
370
-3
390
F
  0
LAYER
  5
252
100
AcDbSymbolTableRecord
100
AcDbLayerTableRecord
  2
_7581_1
 70
0
 62
7
  6
CONTINUOUS
370
-3
390
F
  0
LAYER
  5
253
100
AcDbSymbolTableRecord
100
AcDbLayerTableRecord
  2
_7798
 70
0
 62
7
  6
CONTINUOUS
370
-3
390
F
  0
LAYER
  5
254
100
AcDbSymbolTableRecord
100
AcDbLayerTableRecord
  2
_7798_1
 70
0
 62
7
  6
CONTINUOUS
370
-3
390
F
  0
LAYER
  5
255
100
AcDbSymbolTableRecord
100
AcDbLayerTableRecord
  2
_8688
 70
0
 62
7
  6
CONTINUOUS
370
-3
390
F
  0
LAYER
  5
256
100
AcDbSymbolTableRecord
100
AcDbLayerTableRecord
  2
_8688_1
 70
0
 62
7
  6
CONTINUOUS
370
-3
390
F
  0
LAYER
  5
257
100
AcDbSymbolTableRecord
100
AcDbLayerTableRecord
  2
_8827
 70
0
 62
7
  6
CONTINUOUS
370
-3
390
F
  0
LAYER
  5
258
100
AcDbSymbolTableRecord
100
AcDbLayerTableRecord
  2
_8827_1
 70
0
 62
7
  6
CONTINUOUS
370
-3
390
F
  0
LAYER
  5
259
100
AcDbSymbolTableRecord
100
AcDbLayerTableRecord
  2
_8904
 70
0
 62
7
  6
CONTINUOUS
370
-3
390
F
  0
LAYER
  5
25A
100
AcDbSymbolTableRecord
100
AcDbLayerTableRecord
  2
_8904_1
 70
0
 62
7
  6
CONTINUOUS
370
-3
390
F
  0
LAYER
  5
25B
100
AcDbSymbolTableRecord
100
AcDbLayerTableRecord
  2
_9291
 70
0
 62
7
  6
CONTINUOUS
370
-3
390
F
  0
LAYER
  5
25C
100
AcDbSymbolTableRecord
100
AcDbLayerTableRecord
  2
_9291_1
 70
0
 62
7
  6
CONTINUOUS
370
-3
390
F
  0
LAYER
  5
25D
100
AcDbSymbolTableRecord
100
AcDbLayerTableRecord
  2
_9583
 70
0
 62
7
  6
CONTINUOUS
370
-3
390
F
  0
LAYER
  5
25E
100
AcDbSymbolTableRecord
100
AcDbLayerTableRecord
  2
_9583_1
 70
0
 62
7
  6
CONTINUOUS
370
-3
390
F
  0
LAYER
  5
25F
100
AcDbSymbolTableRecord
100
AcDbLayerTableRecord
  2
___SHELL
 70
0
 62
7
  6
CONTINUOUS
370
-3
390
F
  0
ENDTAB
  0
TABLE
  2
STYLE
  5
3
100
AcDbSymbolTable
 70
1
  0
STYLE
  5
11
100
AcDbSymbolTableRecord
100
AcDbTextStyleTableRecord
  2
STANDARD
 70
0
 40
0.0
 41
0.8
 50
0.0
 71
0
 42
0.2
  3
txt
  4

  0
STYLE
  5
260
100
AcDbSymbolTableRecord
100
AcDbTextStyleTableRecord
  2
TEXTSTYLE_1
 70
0
 40
0.0
 41
0.8
 50
0.0
 71
0
 42
0.2
  3
gdt
  4

  0
ENDTAB
  0
TABLE
  2
VIEW
  5
6
100
AcDbSymbolTable
 70
0
  0
ENDTAB
  0
TABLE
  2
UCS
  5
7
100
AcDbSymbolTable
 70
0
  0
ENDTAB
  0
TABLE
  2
APPID
  5
9
100
AcDbSymbolTable
 70
1
  0
APPID
  5
261
100
AcDbSymbolTableRecord
100
AcDbRegAppTableRecord
  2
ACAD
 70
0
  0
ENDTAB
  0
TABLE
  2
BLOCK_RECORD
  5
1
100
AcDbSymbolTable
 70
0
  0
BLOCK_RECORD
  5
262
100
AcDbSymbolTableRecord
100
AcDbBlockTableRecord
  2
*Model_Space
  0
BLOCK_RECORD
  5
263
100
AcDbSymbolTableRecord
100
AcDbBlockTableRecord
  2
*Paper_Space
  0
BLOCK_RECORD
  5
264
100
AcDbSymbolTableRecord
100
AcDbBlockTableRecord
  2
_NONE
  0
ENDTAB
  0
TABLE
  2
DIMSTYLE
  5
A
100
AcDbSymbolTable
 70
1
100
AcDbDimStyleTable
 71
0
  0
DIMSTYLE
105
265
100
AcDbSymbolTableRecord
100
AcDbDimStyleTableRecord
  2
STANDARD
 70
0
  3

  4

 40
1.0
 41
0.1875
 42
0.0625
 43
0.38
 44
0.125
 45
0.0
 46
0.0
 47
0.0001
 48
0.0001
140
0.15625
141
0.09
142
0.0
143
25.4
144
1.0
145
0.0
146
1.0
147
0.09
 71
0.0
 72
0.0
 73
1
 74
1
 75
0
 76
0
 77
0
 78
4
 79
1
170
0
171
3
172
0
173
0
174
0
175
0
176
0
177
0
178
0
270
2
179
4
271
4
272
4
273
2
274
2
275
0
280
0
281
0
282
0
283
1
284
4
285
0
286
0
287
3
288
0
340
11
278
46
  0
ENDTAB
  0
ENDSEC
  0
SECTION
  2
BLOCKS
  0
BLOCK
  5
20
100
AcDbEntity
  8
0
100
AcDbBlockBegin
  2
*Model_Space
 70
0
 10
0.0
 20
0.0
 30
0.0
  3
*Model_Space
  1

  0
ENDBLK
  5
21
100
AcDbEntity
  8
0
100
AcDbBlockEnd
  0
BLOCK
  5
1C
100
AcDbEntity
  8
0
100
AcDbBlockBegin
  2
*Paper_Space
 70
0
 10
0.0
 20
0.0
 30
0.0
  3
*Paper_Space
  1

  0
ENDBLK
  5
1D
100
AcDbEntity
  8
0
100
AcDbBlockEnd
  0
BLOCK
  5
266
100
AcDbEntity
  8
0
100
AcDbBlockBegin
  2
_NONE
 70
64
 10
0.0
 20
0.0
  3
_NONE
  1

  0
ENDBLK
  5
267
100
AcDbEntity
  8
0
  6
BYBLOCK
 62
0
100
AcDbBlockEnd
  0
ENDSEC
  0
SECTION
  2
ENTITIES
  0
MTEXT
  5
268
100
AcDbEntity
  8
0
100
AcDbMText
 62
7
  6
CONTINUOUS
  7
STANDARD
 71
1
 72
1
 10
15.9560215477
 20
0.9479130325
 30
0.0
 11
1.0
 21
0.0
 31
0.0
 44
0.9
  1
SCALE: 1:1.000
 40
0.3
 41
3.36
  0
LEADER
  5
269
100
AcDbEntity
  8
0
100
AcDbLeader
 62
2
  6
CONTINUOUS
  3
STANDARD
 71
1
 72
0
 73
0
 75
0
 40
0.15625
 41
1.5
 76
3
 10
3.8647422762
 20
4.8137619005
 30
0.0
 10
11.175300556
 20
2.4323349962
 30
0.0
 10
11.425300556
 20
2.4323349962
 30
0.0
340
26A
1001
ACAD
1000
DSTYLE
1002
{
1070
77
1070
0
1070
341
1005
264
1002
}
  0
MTEXT
  5
26A
102
{ACAD_REACTORS
330
269
102
}
100
AcDbEntity
  8
0
100
AcDbMText
 62
2
  6
CONTINUOUS
  7
STANDARD
 71
1
 72
1
 10
11.425300556
 20
2.5104599962
 30
0.0
 11
1.0
 21
0.0
 31
0.0
 44
0.9
  1
 0.375 BOLTS
 40
0.15625
 41
1.5
  0
LINE
  5
26B
100
AcDbEntity
  8
0
100
AcDbLine
 62
7
  6
CONTINUOUS
 10
0.0
 20
0.0
 11
0.0
 21
17.0
  0
LINE
  5
26C
100
AcDbEntity
  8
0
100
AcDbLine
 62
7
  6
CONTINUOUS
 10
0.0
 20
0.0
 11
22.0
 21
0.0
  0
LINE
  5
26D
100
AcDbEntity
  8
0
100
AcDbLine
 62
7
  6
CONTINUOUS
 10
0.0
 20
17.0
 11
22.0
 21
17.0
  0
LINE
  5
26E
100
AcDbEntity
  8
0
100
AcDbLine
 62
7
  6
CONTINUOUS
 10
22.0
 20
0.0
 11
22.0
 21
17.0
  0
LINE
  5
26F
100
AcDbEntity
  8
0
100
AcDbLine
 62
7
  6
CONTINUOUS
 10
3.3959922762
 20
3.7512619005
 11
3.3959922762
 21
4.6387619005
  0
LINE
  5
270
100
AcDbEntity
  8
0
100
AcDbLine
 62
7
  6
CONTINUOUS
 10
3.5290502416
 20
4.7887619005
 11
3.5290502416
 21
4.6887619005
  0
LINE
  5
271
100
AcDbEntity
  8
0
100
AcDbLine
 62
7
  6
CONTINUOUS
 10
3.8084922762
 20
4.7887619005
 11
3.8084922762
 21
4.6887619005
  0
LINE
  5
272
100
AcDbEntity
  8
0
100
AcDbLine
 62
7
  6
CONTINUOUS
 10
4.5228002416
 20
4.7066990991
 11
4.5228002416
 21
4.7887619005
  0
LINE
  5
273
100
AcDbEntity
  8
0
100
AcDbLine
 62
7
  6
CONTINUOUS
 10
3.3959922762
 20
3.7512619005
 11
9.7084922762
 21
3.7512619005
  0
LINE
  5
274
100
AcDbEntity
  8
0
100
AcDbLine
 62
7
  6
CONTINUOUS
 10
4.5327301835
 20
4.7258209483
 11
4.8618720802
 21
5.9541952295
  0
LINE
  5
275
100
AcDbEntity
  8
0
100
AcDbLine
 62
7
  6
CONTINUOUS
 10
9.6584922762
 20
4.6887619005
 11
8.6200506601
 21
4.6887619005
  0
LINE
  5
276
100
AcDbEntity
  8
0
100
AcDbLine
 62
7
  6
CONTINUOUS
 10
3.4459922762
 20
4.6887619005
 11
4.4844338922
 21
4.6887619005
  0
LINE
  5
277
100
AcDbEntity
  8
0
100
AcDbLine
 62
7
  6
CONTINUOUS
 10
3.5540512124
 20
4.8137619005
 11
4.5562938907
 21
4.8137619005
  0
LINE
  5
278
100
AcDbEntity
  8
0
100
AcDbLine
 62
7
  6
CONTINUOUS
 10
8.5481906617
 20
4.8137619005
 11
9.55043334
 21
4.8137619005
  0
LINE
  5
279
100
AcDbEntity
  8
03__ASM_ALL_CURVES
100
AcDbLine
 62
4
  6
CONTINUOUS
 10
2.5522422762
 20
4.8887619005
 11
4.5763900801
 21
4.8887619005
  0
LINE
  5
27A
100
AcDbEntity
  8
03__ASM_ALL_CURVES
100
AcDbLine
 62
4
  6
CONTINUOUS
 10
8.5280944722
 20
4.8887619005
 11
9.5522422762
 21
4.8887619005
  0
LINE
  5
27B
100
AcDbEntity
  8
0
100
AcDbLine
 62
7
  6
CONTINUOUS
 10
6.4159922762
 20
6.4956369005
 11
6.3959922762
 21
6.4756369005
  0
LINE
  5
27C
100
AcDbEntity
  8
0
100
AcDbLine
 62
7
  6
CONTINUOUS
 10
7.7582128915
 20
7.2375626017
 11
7.5245141003
 21
7.0038638105
  0
LINE
  5
27D
100
AcDbEntity
  8
0
100
AcDbLine
 62
7
  6
CONTINUOUS
 10
7.5241373724
 20
5.3450119005
 11
7.5266172762
 21
5.3450119005
  0
LINE
  5
27E
100
AcDbEntity
  8
0
100
AcDbLine
 62
7
  6
CONTINUOUS
 10
5.572959814
 20
5.4012619005
 11
5.3823283168
 21
5.4012619005
  0
LINE
  5
27F
100
AcDbEntity
  8
0
100
AcDbLine
 62
7
  6
CONTINUOUS
 10
7.5466172762
 20
5.4012619005
 11
7.7221562356
 21
5.4012619005
  0
LINE
  5
280
100
AcDbEntity
  8
0
100
AcDbLine
 62
7
  6
CONTINUOUS
 10
6.3959922762
 20
6.4731569968
 11
6.3959922762
 21
6.4756369005
  0
LINE
  5
281
100
AcDbEntity
  8
0
100
AcDbLine
 62
7
  6
CONTINUOUS
 10
7.0505967155
 20
6.5644371096
 11
6.9552809669
 21
6.3993453902
  0
LINE
  5
282
100
AcDbEntity
  8
0
100
AcDbLine
 62
7
  6
CONTINUOUS
 10
5.9759985047
 20
4.7031784108
 11
5.8806827561
 21
4.5380866914
  0
LINE
  5
283
100
AcDbEntity
  8
0
100
AcDbLine
 62
7
  6
CONTINUOUS
 10
7.8886099278
 20
7.1948468063
 11
7.8447693073
 21
7.1510061859
  0
LINE
  5
284
100
AcDbEntity
  8
0
100
AcDbLine
 62
7
  6
CONTINUOUS
 10
7.648257787
 20
6.8801201238
 11
7.6401500052
 21
6.8720123421
  0
LINE
  5
285
100
AcDbEntity
  8
0
100
AcDbLine
 62
7
  6
CONTINUOUS
 10
7.6570966218
 20
6.8712812891
 11
7.890795413
 21
7.1049800803
  0
LINE
  5
286
100
AcDbEntity
  8
0
100
AcDbLine
 62
7
  6
CONTINUOUS
 10
7.9340736209
 20
7.0617018723
 11
7.9779142413
 21
7.1055424928
  0
LINE
  5
287
100
AcDbEntity
  8
0
100
AcDbLine
 62
7
  6
CONTINUOUS
 10
7.5154174852
 20
6.1728214206
 11
7.3503257658
 21
6.077505672
  0
LINE
  5
288
100
AcDbEntity
  8
0
100
AcDbLine
 62
7
  6
CONTINUOUS
 10
5.6541587865
 20
5.0982232098
 11
5.4890670671
 21
5.0029074612
  0
LINE
  5
289
100
AcDbEntity
  8
0
100
AcDbLine
 62
7
  6
CONTINUOUS
 10
7.7221562356
 20
5.6012619005
 11
7.5466172762
 21
5.6012619005
  0
LINE
  5
28A
100
AcDbEntity
  8
0
100
AcDbLine
 62
7
  6
CONTINUOUS
 10
5.572959814
 20
5.6012619005
 11
5.3823283168
 21
5.6012619005
  0
LINE
  5
28B
100
AcDbEntity
  8
0
100
AcDbLine
 62
7
  6
CONTINUOUS
 10
7.5241373724
 20
5.6575119005
 11
7.5266172762
 21
5.6575119005
  0
LINE
  5
28C
100
AcDbEntity
  8
0
100
AcDbLine
 62
7
  6
CONTINUOUS
 10
5.4890670671
 20
5.9996163398
 11
5.6541587865
 21
5.9043005912
  0
LINE
  5
28D
100
AcDbEntity
  8
0
100
AcDbLine
 62
7
  6
CONTINUOUS
 10
7.3503257658
 20
4.9250181291
 11
7.5154174852
 21
4.8297023804
  0
LINE
  5
28E
100
AcDbEntity
  8
0
100
AcDbLine
 62
7
  6
CONTINUOUS
 10
7.6154174852
 20
5.0029074612
 11
7.4503257658
 21
5.0982232098
  0
LINE
  5
28F
100
AcDbEntity
  8
0
100
AcDbLine
 62
7
  6
CONTINUOUS
 10
5.7541587865
 20
6.077505672
 11
5.5890670671
 21
6.1728214206
  0
LINE
  5
290
100
AcDbEntity
  8
0
100
AcDbLine
 62
7
  6
CONTINUOUS
 10
5.8806827561
 20
6.4644371096
 11
5.9759985047
 21
6.2993453902
  0
LINE
  5
291
100
AcDbEntity
  8
0
100
AcDbLine
 62
7
  6
CONTINUOUS
 10
6.9552809669
 20
4.6031784108
 11
7.0505967155
 21
4.4380866914
  0
LINE
  5
292
100
AcDbEntity
  8
0
100
AcDbLine
 62
7
  6
CONTINUOUS
 10
6.4522422762
 20
6.6711758599
 11
6.4522422762
 21
6.4956369005
  0
LINE
  5
293
100
AcDbEntity
  8
0
100
AcDbLine
 62
7
  6
CONTINUOUS
 10
6.4522422762
 20
4.5219794384
 11
6.4522422762
 21
4.3313479411
  0
LINE
  5
294
100
AcDbEntity
  8
0
100
AcDbLine
 62
7
  6
CONTINUOUS
 10
6.6522422762
 20
6.6711758599
 11
6.6522422762
 21
6.4956369005
  0
LINE
  5
295
100
AcDbEntity
  8
0
100
AcDbLine
 62
7
  6
CONTINUOUS
 10
6.6522422762
 20
4.5219794384
 11
6.6522422762
 21
4.3313479411
  0
LINE
  5
296
100
AcDbEntity
  8
0
100
AcDbLine
 62
7
  6
CONTINUOUS
 10
6.0538878368
 20
4.4380866914
 11
6.1492035855
 21
4.6031784108
  0
LINE
  5
297
100
AcDbEntity
  8
0
100
AcDbLine
 62
7
  6
CONTINUOUS
 10
7.1284860476
 20
6.2993453902
 11
7.2238017962
 21
6.4644371096
  0
LINE
  5
298
100
AcDbEntity
  8
0
100
AcDbLine
 62
7
  6
CONTINUOUS
 10
8.1565228684
 20
6.9269338657
 11
8.112682248
 21
6.8830932452
  0
LINE
  5
299
100
AcDbEntity
  8
0
100
AcDbLine
 62
7
  6
CONTINUOUS
 10
8.1559604559
 20
6.8398150373
 11
7.9222616647
 21
6.6061162461
  0
LINE
  5
29A
100
AcDbEntity
  8
0
100
AcDbLine
 62
7
  6
CONTINUOUS
 10
7.9229927177
 20
6.5891696296
 11
7.9311004995
 21
6.5972774114
  0
LINE
  5
29B
100
AcDbEntity
  8
0
100
AcDbLine
 62
7
  6
CONTINUOUS
 10
8.2458271819
 20
6.8376295521
 11
8.2019865615
 21
6.7937889317
  0
LINE
  5
29C
100
AcDbEntity
  8
0
100
AcDbLine
 62
7
  6
CONTINUOUS
 10
5.5890670671
 20
4.8297023804
 11
5.7541587865
 21
4.9250181291
  0
LINE
  5
29D
100
AcDbEntity
  8
0
100
AcDbLine
 62
7
  6
CONTINUOUS
 10
7.4503257658
 20
5.9043005912
 11
7.6154174852
 21
5.9996163398
  0
LINE
  5
29E
100
AcDbEntity
  8
0
100
AcDbLine
 62
7
  6
CONTINUOUS
 10
7.2238017962
 20
4.5380866914
 11
7.1284860476
 21
4.7031784108
  0
LINE
  5
29F
100
AcDbEntity
  8
0
100
AcDbLine
 62
7
  6
CONTINUOUS
 10
6.1492035855
 20
6.3993453902
 11
6.0538878368
 21
6.5644371096
  0
LINE
  5
2A0
100
AcDbEntity
  8
0
100
AcDbLine
 62
7
  6
CONTINUOUS
 10
6.7084922762
 20
6.4731569968
 11
6.7084922762
 21
6.4756369005
  0
LINE
  5
2A1
100
AcDbEntity
  8
0
100
AcDbLine
 62
7
  6
CONTINUOUS
 10
8.2885429774
 20
6.7072325158
 11
8.0548441862
 21
6.4735337247
  0
LINE
  5
2A2
100
AcDbEntity
  8
0
100
AcDbLine
 62
7
  6
CONTINUOUS
 10
6.3959922762
 20
6.4756369005
 11
6.4122869261
 21
6.4756369005
  0
LINE
  5
2A3
100
AcDbEntity
  8
0
100
AcDbLine
 62
7
  6
CONTINUOUS
 10
6.6921976262
 20
6.4756369005
 11
6.7084922762
 21
6.4756369005
  0
LINE
  5
2A4
100
AcDbEntity
  8
0
100
AcDbLine
 62
7
  6
CONTINUOUS
 10
6.6884740696
 20
6.4956369005
 11
6.4160104828
 21
6.4956369005
  0
LINE
  5
2A5
100
AcDbEntity
  8
0
100
AcDbLine
 62
7
  6
CONTINUOUS
 10
7.5466172762
 20
5.6375119005
 11
7.5266172762
 21
5.6575119005
  0
LINE
  5
2A6
100
AcDbEntity
  8
0
100
AcDbLine
 62
7
  6
CONTINUOUS
 10
6.6884922762
 20
6.4956369005
 11
6.7084922762
 21
6.4756369005
  0
LINE
  5
2A7
100
AcDbEntity
  8
0
100
AcDbLine
 62
7
  6
CONTINUOUS
 10
7.5466172762
 20
5.3650119005
 11
7.5266172762
 21
5.3450119005
  0
LINE
  5
2A8
100
AcDbEntity
  8
0
100
AcDbLine
 62
7
  6
CONTINUOUS
 10
7.5266172762
 20
5.6575119005
 11
7.5266172762
 21
5.6412172505
  0
LINE
  5
2A9
100
AcDbEntity
  8
0
100
AcDbLine
 62
7
  6
CONTINUOUS
 10
7.5266172762
 20
5.3613065505
 11
7.5266172762
 21
5.3450119005
  0
LINE
  5
2AA
100
AcDbEntity
  8
0
100
AcDbLine
 62
7
  6
CONTINUOUS
 10
7.5466172762
 20
5.3650301071
 11
7.5466172762
 21
5.6374936939
  0
LINE
  5
2AB
100
AcDbEntity
  8
0
100
AcDbLine
 62
7
  6
CONTINUOUS
 10
8.0548441862
 20
6.4735337247
 11
7.5245141003
 21
7.0038638105
  0
LINE
  5
2AC
100
AcDbEntity
  8
0
100
AcDbLine
 62
7
  6
CONTINUOUS
 10
8.5717543688
 20
4.7258209483
 11
8.2426124722
 21
5.9541952295
  0
LINE
  5
2AD
100
AcDbEntity
  8
0
100
AcDbLine
 62
7
  6
CONTINUOUS
 10
8.2885429774
 20
6.7072325158
 11
7.7582128915
 21
7.2375626017
  0
LINE
  5
2AE
100
AcDbEntity
  8
0
100
AcDbLine
 62
7
  6
CONTINUOUS
 10
7.8886099278
 20
7.1948468063
 11
8.2458271819
 21
6.8376295521
  0
LINE
  5
2AF
100
AcDbEntity
  8
0
100
AcDbLine
 62
7
  6
CONTINUOUS
 10
8.5816843107
 20
4.7887619005
 11
8.5816843107
 21
4.7066990991
  0
LINE
  5
2B0
100
AcDbEntity
  8
0
100
AcDbLine
 62
7
  6
CONTINUOUS
 10
8.2454302558
 20
7.0395519109
 11
8.0905322865
 21
7.1944498802
  0
LINE
  5
2B1
100
AcDbEntity
  8
0
100
AcDbLine
 62
7
  6
CONTINUOUS
 10
8.3147059283
 20
7.1930148745
 11
8.2439952502
 21
7.2637255526
  0
LINE
  5
2B2
100
AcDbEntity
  8
0
100
AcDbLine
 62
7
  6
CONTINUOUS
 10
9.2959922762
 20
4.6887619005
 11
9.2959922762
 21
4.7887619005
  0
LINE
  5
2B3
100
AcDbEntity
  8
0
100
AcDbLine
 62
7
  6
CONTINUOUS
 10
9.5754343107
 20
4.7887619005
 11
9.5754343107
 21
4.6887619005
  0
LINE
  5
2B4
100
AcDbEntity
  8
0
100
AcDbLine
 62
7
  6
CONTINUOUS
 10
9.7084922762
 20
4.6387619005
 11
9.7084922762
 21
3.7512619005
  0
LINE
  5
2B5
100
AcDbEntity
  8
0
100
AcDbLine
 62
7
  6
CONTINUOUS
 10
3.3364970839
 20
11.7562977814
 11
3.3364970839
 21
13.9437977814
  0
LINE
  5
2B6
100
AcDbEntity
  8
0
100
AcDbLine
 62
7
  6
CONTINUOUS
 10
3.7489970839
 20
12.4874272149
 11
3.752292635
 21
12.5124272149
  0
LINE
  5
2B7
100
AcDbEntity
  8
0
100
AcDbLine
 62
7
  6
CONTINUOUS
 10
3.752292635
 20
13.1876683479
 11
3.7489970839
 21
13.2126683479
  0
LINE
  5
2B8
100
AcDbEntity
  8
0
100
AcDbLine
 62
7
  6
CONTINUOUS
 10
3.3864970839
 20
11.8062977814
 11
3.3364970839
 21
11.7562977814
  0
LINE
  5
2B9
100
AcDbEntity
  8
0
100
AcDbLine
 62
7
  6
CONTINUOUS
 10
5.5271220839
 20
11.2562977814
 11
7.4583720839
 21
11.2562977814
  0
LINE
  5
2BA
100
AcDbEntity
  8
0
100
AcDbLine
 62
7
  6
CONTINUOUS
 10
5.5083720839
 20
11.2750477814
 11
7.4771220839
 21
11.2750477814
  0
LINE
  5
2BB
100
AcDbEntity
  8
0
100
AcDbLine
 62
7
  6
CONTINUOUS
 10
5.5271220839
 20
11.2562977814
 11
5.5083720839
 21
11.2750477814
  0
LINE
  5
2BC
100
AcDbEntity
  8
0
100
AcDbLine
 62
7
  6
CONTINUOUS
 10
7.4771220839
 20
11.7362977814
 11
5.5083720839
 21
11.7362977814
  0
LINE
  5
2BD
100
AcDbEntity
  8
0
100
AcDbLine
 62
7
  6
CONTINUOUS
 10
3.3364970839
 20
11.7562977814
 11
9.6489970839
 21
11.7562977814
  0
LINE
  5
2BE
100
AcDbEntity
  8
0
100
AcDbLine
 62
7
  6
CONTINUOUS
 10
6.4064970839
 20
11.4308763207
 11
6.4927470839
 21
11.3810798599
  0
LINE
  5
2BF
100
AcDbEntity
  8
0
100
AcDbLine
 62
7
  6
CONTINUOUS
 10
3.3864970839
 20
13.8937977814
 11
3.3364970839
 21
13.9437977814
  0
LINE
  5
2C0
100
AcDbEntity
  8
0
100
AcDbLine
 62
7
  6
CONTINUOUS
 10
5.5083720839
 20
11.7362977814
 11
5.5083720839
 21
11.2750477814
  0
LINE
  5
2C1
100
AcDbEntity
  8
0
100
AcDbLine
 62
7
  6
CONTINUOUS
 10
6.5789970839
 20
11.5304692421
 11
6.4927470839
 21
11.5802657028
  0
LINE
  5
2C2
100
AcDbEntity
  8
0
100
AcDbLine
 62
7
  6
CONTINUOUS
 10
5.7489970839
 20
11.7562977814
 11
5.7489970839
 21
11.7362977814
  0
LINE
  5
2C3
100
AcDbEntity
  8
0
100
AcDbLine
 62
7
  6
CONTINUOUS
 10
9.2364970839
 20
12.4874272149
 11
8.5221891184
 21
12.4874272149
  0
LINE
  5
2C4
100
AcDbEntity
  8
0
100
AcDbLine
 62
7
  6
CONTINUOUS
 10
4.4633050493
 20
12.4874272149
 11
3.7489970839
 21
12.4874272149
  0
LINE
  5
2C5
100
AcDbEntity
  8
0
100
AcDbLine
 62
7
  6
CONTINUOUS
 10
7.5976014295
 20
12.5252882549
 11
8.0964652636
 21
12.5252882549
  0
LINE
  5
2C6
100
AcDbEntity
  8
0
100
AcDbLine
 62
7
  6
CONTINUOUS
 10
7.8745784286
 20
12.6312977814
 11
7.9911638109
 21
12.6312977814
  0
LINE
  5
2C7
100
AcDbEntity
  8
0
100
AcDbLine
 62
7
  6
CONTINUOUS
 10
8.0242829142
 20
12.6312977814
 11
8.0970276761
 21
12.6312977814
  0
LINE
  5
2C8
100
AcDbEntity
  8
0
100
AcDbLine
 62
7
  6
CONTINUOUS
 10
4.2427470839
 20
12.6625477814
 11
3.9927470839
 21
12.6625477814
  0
LINE
  5
2C9
100
AcDbEntity
  8
0
100
AcDbLine
 62
7
  6
CONTINUOUS
 10
8.7427470839
 20
12.6625477814
 11
8.9927470839
 21
12.6625477814
  0
LINE
  5
2CA
100
AcDbEntity
  8
0
100
AcDbLine
 62
7
  6
CONTINUOUS
 10
7.8291147355
 20
12.8500477814
 11
7.785274115
 21
12.8500477814
  0
LINE
  5
2CB
100
AcDbEntity
  8
0
100
AcDbLine
 62
7
  6
CONTINUOUS
 10
7.6987176992
 20
12.8500477814
 11
7.465018908
 21
12.8500477814
  0
LINE
  5
2CC
100
AcDbEntity
  8
03__ASM_ALL_CURVES
100
AcDbLine
 62
4
  6
CONTINUOUS
 10
2.4927470839
 20
12.8500477814
 11
4.7427328591
 21
12.8500477814
  0
LINE
  5
2CD
100
AcDbEntity
  8
03__ASM_ALL_CURVES
100
AcDbLine
 62
4
  6
CONTINUOUS
 10
8.2815711257
 20
12.8500477814
 11
9.4927470839
 21
12.8500477814
  0
LINE
  5
2CE
100
AcDbEntity
  8
0
100
AcDbLine
 62
7
  6
CONTINUOUS
 10
6.4064970839
 20
11.4308763207
 11
6.4064970839
 21
11.5304692421
  0
LINE
  5
2CF
100
AcDbEntity
  8
0
100
AcDbLine
 62
7
  6
CONTINUOUS
 10
6.5789970839
 20
11.5304692421
 11
6.5789970839
 21
11.4308763207
  0
LINE
  5
2D0
100
AcDbEntity
  8
0
100
AcDbLine
 62
7
  6
CONTINUOUS
 10
8.9927470839
 20
13.0375477814
 11
8.7427470839
 21
13.0375477814
  0
LINE
  5
2D1
100
AcDbEntity
  8
0
100
AcDbLine
 62
7
  6
CONTINUOUS
 10
3.9927470839
 20
13.0375477814
 11
4.2427470839
 21
13.0375477814
  0
LINE
  5
2D2
100
AcDbEntity
  8
0
100
AcDbLine
 62
7
  6
CONTINUOUS
 10
8.0970276761
 20
13.0687977814
 11
8.0242829142
 21
13.0687977814
  0
LINE
  5
2D3
100
AcDbEntity
  8
0
100
AcDbLine
 62
7
  6
CONTINUOUS
 10
7.9911638109
 20
13.0687977814
 11
7.8745784286
 21
13.0687977814
  0
LINE
  5
2D4
100
AcDbEntity
  8
0
100
AcDbLine
 62
7
  6
CONTINUOUS
 10
7.4871220839
 20
11.6169227814
 11
7.4757977271
 21
11.6282471381
  0
LINE
  5
2D5
100
AcDbEntity
  8
0
100
AcDbLine
 62
7
  6
CONTINUOUS
 10
8.0964652636
 20
13.1748073078
 11
7.5976014295
 21
13.1748073078
  0
LINE
  5
2D6
100
AcDbEntity
  8
0
100
AcDbLine
 62
7
  6
CONTINUOUS
 10
9.2364970839
 20
13.2126683479
 11
8.5221891184
 21
13.2126683479
  0
LINE
  5
2D7
100
AcDbEntity
  8
0
100
AcDbLine
 62
7
  6
CONTINUOUS
 10
4.4633050493
 20
13.2126683479
 11
3.7489970839
 21
13.2126683479
  0
LINE
  5
2D8
100
AcDbEntity
  8
0
100
AcDbLine
 62
7
  6
CONTINUOUS
 10
7.2364970839
 20
11.7362977814
 11
7.2364970839
 21
11.7562977814
  0
LINE
  5
2D9
100
AcDbEntity
  8
0
100
AcDbLine
 62
7
  6
CONTINUOUS
 10
7.5976014295
 20
13.1748073078
 11
7.465018908
 21
12.8500477814
  0
LINE
  5
2DA
100
AcDbEntity
  8
0
100
AcDbLine
 62
7
  6
CONTINUOUS
 10
6.4927470839
 20
11.5802657028
 11
6.4064970839
 21
11.5304692421
  0
LINE
  5
2DB
100
AcDbEntity
  8
0
100
AcDbLine
 62
7
  6
CONTINUOUS
 10
6.4927470839
 20
11.3810798599
 11
6.5789970839
 21
11.4308763207
  0
LINE
  5
2DC
100
AcDbEntity
  8
0
100
AcDbLine
 62
7
  6
CONTINUOUS
 10
7.4771220839
 20
11.3244227814
 11
7.475916779
 21
11.3322029405
  0
LINE
  5
2DD
100
AcDbEntity
  8
0
100
AcDbLine
 62
7
  6
CONTINUOUS
 10
7.4765338968
 20
11.3281722397
 11
7.475797707
 21
11.3330984045
  0
LINE
  5
2DE
100
AcDbEntity
  8
0
100
AcDbLine
 62
7
  6
CONTINUOUS
 10
7.4671220839
 20
11.5501462475
 11
7.4671220839
 21
11.4111993152
  0
LINE
  5
2DF
100
AcDbEntity
  8
0
100
AcDbLine
 62
7
  6
CONTINUOUS
 10
7.4771220839
 20
11.2750477814
 11
7.4771220839
 21
11.3244227814
  0
LINE
  5
2E0
100
AcDbEntity
  8
0
100
AcDbLine
 62
7
  6
CONTINUOUS
 10
7.4771220839
 20
11.6369227814
 11
7.4771220839
 21
11.7362977814
  0
LINE
  5
2E1
100
AcDbEntity
  8
0
100
AcDbLine
 62
7
  6
CONTINUOUS
 10
7.4871220839
 20
11.3444227814
 11
7.4871220839
 21
11.6169227814
  0
LINE
  5
2E2
100
AcDbEntity
  8
0
100
AcDbLine
 62
7
  6
CONTINUOUS
 10
7.4757979619
 20
11.6282469033
 11
7.4765290025
 21
11.6331417462
  0
LINE
  5
2E3
100
AcDbEntity
  8
0
100
AcDbLine
 62
7
  6
CONTINUOUS
 10
7.4759179864
 20
11.6291506637
 11
7.4771220839
 21
11.6369227814
  0
LINE
  5
2E4
100
AcDbEntity
  8
0
100
AcDbLine
 62
7
  6
CONTINUOUS
 10
7.6987176992
 20
12.8500477814
 11
7.8313002206
 21
13.1748073078
  0
LINE
  5
2E5
100
AcDbEntity
  8
0
100
AcDbLine
 62
7
  6
CONTINUOUS
 10
7.8745784286
 20
13.0687977814
 11
7.785274115
 21
12.8500477814
  0
LINE
  5
2E6
100
AcDbEntity
  8
0
100
AcDbLine
 62
7
  6
CONTINUOUS
 10
7.8291147355
 20
12.8500477814
 11
7.8654871164
 21
12.9391415554
  0
LINE
  5
2E7
100
AcDbEntity
  8
0
100
AcDbLine
 62
7
  6
CONTINUOUS
 10
7.8820466681
 20
12.9797040073
 11
7.918419049
 21
13.0687977814
  0
LINE
  5
2E8
100
AcDbEntity
  8
0
100
AcDbLine
 62
7
  6
CONTINUOUS
 10
3.3364970839
 20
13.9437977814
 11
9.6489970839
 21
13.9437977814
  0
LINE
  5
2E9
100
AcDbEntity
  8
0
100
AcDbLine
 62
7
  6
CONTINUOUS
 10
7.465018908
 20
12.8500477814
 11
7.5976014295
 21
12.5252882549
  0
LINE
  5
2EA
100
AcDbEntity
  8
0
100
AcDbLine
 62
7
  6
CONTINUOUS
 10
9.5989970839
 20
13.8937977814
 11
9.6489970839
 21
13.9437977814
  0
LINE
  5
2EB
100
AcDbEntity
  8
0
100
AcDbLine
 62
7
  6
CONTINUOUS
 10
7.8313002206
 20
12.5252882549
 11
7.6987176992
 21
12.8500477814
  0
LINE
  5
2EC
100
AcDbEntity
  8
0
100
AcDbLine
 62
7
  6
CONTINUOUS
 10
7.785274115
 20
12.8500477814
 11
7.8745784286
 21
12.6312977814
  0
LINE
  5
2ED
100
AcDbEntity
  8
0
100
AcDbLine
 62
7
  6
CONTINUOUS
 10
7.918419049
 20
12.6312977814
 11
7.8820466681
 21
12.7203915554
  0
LINE
  5
2EE
100
AcDbEntity
  8
0
100
AcDbLine
 62
7
  6
CONTINUOUS
 10
7.8654871164
 20
12.7609540073
 11
7.8291147355
 21
12.8500477814
  0
LINE
  5
2EF
100
AcDbEntity
  8
0
100
AcDbLine
 62
7
  6
CONTINUOUS
 10
8.1303861414
 20
12.7130089999
 11
8.0970276761
 21
12.6312977814
  0
LINE
  5
2F0
100
AcDbEntity
  8
0
100
AcDbLine
 62
7
  6
CONTINUOUS
 10
8.1724659647
 20
12.7114511927
 11
8.0964652636
 21
12.5252882549
  0
LINE
  5
2F1
100
AcDbEntity
  8
0
100
AcDbLine
 62
7
  6
CONTINUOUS
 10
7.475797707
 20
11.3330984045
 11
7.4871220839
 21
11.3444227814
  0
LINE
  5
2F2
100
AcDbEntity
  8
0
100
AcDbLine
 62
7
  6
CONTINUOUS
 10
7.4771220839
 20
11.2750477814
 11
7.4583720839
 21
11.2562977814
  0
LINE
  5
2F3
100
AcDbEntity
  8
0
100
AcDbLine
 62
7
  6
CONTINUOUS
 10
9.6489970839
 20
11.7562977814
 11
9.5989970839
 21
11.8062977814
  0
LINE
  5
2F4
100
AcDbEntity
  8
0
100
AcDbLine
 62
7
  6
CONTINUOUS
 10
8.0970276761
 20
13.0687977814
 11
8.130543406
 21
12.9867013447
  0
LINE
  5
2F5
100
AcDbEntity
  8
0
100
AcDbLine
 62
7
  6
CONTINUOUS
 10
8.0964652636
 20
13.1748073078
 11
8.1726037641
 21
12.9883068316
  0
LINE
  5
2F6
100
AcDbEntity
  8
0
100
AcDbLine
 62
7
  6
CONTINUOUS
 10
9.2364970839
 20
13.2126683479
 11
9.2332015327
 21
13.1876683479
  0
LINE
  5
2F7
100
AcDbEntity
  8
0
100
AcDbLine
 62
7
  6
CONTINUOUS
 10
9.2332015327
 20
12.5124272149
 11
9.2364970839
 21
12.4874272149
  0
LINE
  5
2F8
100
AcDbEntity
  8
0
100
AcDbLine
 62
7
  6
CONTINUOUS
 10
9.6489970839
 20
11.7562977814
 11
9.6489970839
 21
13.9437977814
  0
LINE
  5
2F9
100
AcDbEntity
  8
0
100
AcDbLine
 62
7
  6
CONTINUOUS
 10
14.7166052569
 20
3.6917667082
 11
16.9041052569
 21
3.6917667082
  0
LINE
  5
2FA
100
AcDbEntity
  8
0
100
AcDbLine
 62
7
  6
CONTINUOUS
 10
14.2166052569
 20
6.4073917082
 11
14.2353552569
 21
6.4261417082
  0
LINE
  5
2FB
100
AcDbEntity
  8
0
100
AcDbLine
 62
7
  6
CONTINUOUS
 10
14.2166052569
 20
4.4761417082
 11
14.2353552569
 21
4.4573917082
  0
LINE
  5
2FC
100
AcDbEntity
  8
0
100
AcDbLine
 62
7
  6
CONTINUOUS
 10
14.2934100259
 20
6.4248214772
 11
14.3047302569
 21
6.4361417082
  0
LINE
  5
2FD
100
AcDbEntity
  8
0
100
AcDbLine
 62
7
  6
CONTINUOUS
 10
15.4855957305
 20
7.0454848879
 11
15.6720962067
 21
7.1216233885
  0
LINE
  5
2FE
100
AcDbEntity
  8
0
100
AcDbLine
 62
7
  6
CONTINUOUS
 10
14.2166052569
 20
6.4073903865
 11
14.2166052569
 21
4.47614303
  0
LINE
  5
2FF
100
AcDbEntity
  8
0
100
AcDbLine
 62
7
  6
CONTINUOUS
 10
14.2353552569
 20
6.4261417082
 11
14.2353552569
 21
4.4573917082
  0
LINE
  5
300
100
AcDbEntity
  8
0
100
AcDbLine
 62
7
  6
CONTINUOUS
 10
15.5916052569
 20
7.0460473004
 11
15.6737016936
 21
7.0795630304
  0
LINE
  5
301
100
AcDbEntity
  8
0
100
AcDbLine
 62
7
  6
CONTINUOUS
 10
14.3911837962
 20
5.5280167082
 11
14.3413873355
 21
5.4417667082
  0
LINE
  5
302
100
AcDbEntity
  8
0
100
AcDbLine
 62
7
  6
CONTINUOUS
 10
16.0291052569
 20
6.8674386734
 11
15.9400114829
 21
6.8310662924
  0
LINE
  5
303
100
AcDbEntity
  8
0
100
AcDbLine
 62
7
  6
CONTINUOUS
 10
15.899449031
 20
6.8145067408
 11
15.8103552569
 21
6.7781343598
  0
LINE
  5
304
100
AcDbEntity
  8
0
100
AcDbLine
 62
7
  6
CONTINUOUS
 10
15.8103552569
 20
6.7342937394
 11
16.0291052569
 21
6.8235980529
  0
LINE
  5
305
100
AcDbEntity
  8
0
100
AcDbLine
 62
7
  6
CONTINUOUS
 10
14.3413873355
 20
5.4417667082
 11
14.3911837962
 21
5.3555167082
  0
LINE
  5
306
100
AcDbEntity
  8
0
100
AcDbLine
 62
7
  6
CONTINUOUS
 10
14.4907767177
 20
5.3555167082
 11
14.5405731784
 21
5.4417667082
  0
LINE
  5
307
100
AcDbEntity
  8
0
100
AcDbLine
 62
7
  6
CONTINUOUS
 10
16.1351147834
 20
6.780319845
 11
15.8103552569
 21
6.6477373235
  0
LINE
  5
308
100
AcDbEntity
  8
0
100
AcDbLine
 62
7
  6
CONTINUOUS
 10
14.6966052569
 20
4.4573917082
 11
14.2353552569
 21
4.4573917082
  0
LINE
  5
309
100
AcDbEntity
  8
0
100
AcDbLine
 62
7
  6
CONTINUOUS
 10
14.5405731784
 20
5.4417667082
 11
14.4907767177
 21
5.5280167082
  0
LINE
  5
30A
100
AcDbEntity
  8
0
100
AcDbLine
 62
7
  6
CONTINUOUS
 10
14.6966052569
 20
4.4573930628
 11
14.6966052569
 21
6.4261403536
  0
LINE
  5
30B
100
AcDbEntity
  8
0
100
AcDbLine
 62
7
  6
CONTINUOUS
 10
14.7166052569
 20
7.1417448447
 11
14.7166052569
 21
3.6917667082
  0
LINE
  5
30C
100
AcDbEntity
  8
0
100
AcDbLine
 62
7
  6
CONTINUOUS
 10
16.1351147834
 20
6.5466210538
 11
15.8103552569
 21
6.4140385323
  0
LINE
  5
30D
100
AcDbEntity
  8
0
100
AcDbLine
 62
7
  6
CONTINUOUS
 10
14.7666052569
 20
4.6292667082
 11
16.8541052569
 21
4.6292667082
  0
LINE
  5
30E
100
AcDbEntity
  8
0
100
AcDbLine
 62
7
  6
CONTINUOUS
 10
14.7166052569
 20
4.6980167082
 11
14.6966052569
 21
4.6980167082
  0
LINE
  5
30F
100
AcDbEntity
  8
0
100
AcDbLine
 62
7
  6
CONTINUOUS
 10
16.1479758234
 20
4.7542667082
 11
15.4727346904
 21
4.7542667082
  0
LINE
  5
310
100
AcDbEntity
  8
0
100
AcDbLine
 62
7
  6
CONTINUOUS
 10
15.4477346904
 20
4.6292667082
 11
15.4477346904
 21
4.7292667082
  0
LINE
  5
311
100
AcDbEntity
  8
0
100
AcDbLine
 62
7
  6
CONTINUOUS
 10
15.4855957305
 20
7.0454848879
 11
15.4855957305
 21
6.5466210538
  0
LINE
  5
312
100
AcDbEntity
  8
0
100
AcDbLine
 62
7
  6
CONTINUOUS
 10
14.3911837962
 20
5.3555167082
 11
14.4907767177
 21
5.3555167082
  0
LINE
  5
313
100
AcDbEntity
  8
0
100
AcDbLine
 62
7
  6
CONTINUOUS
 10
14.5772302569
 20
6.4361417082
 11
14.5885504889
 21
6.4248214763
  0
LINE
  5
314
100
AcDbEntity
  8
0
100
AcDbLine
 62
7
  6
CONTINUOUS
 10
15.5916052569
 20
7.0460473004
 11
15.5916052569
 21
6.9733025385
  0
LINE
  5
315
100
AcDbEntity
  8
0
100
AcDbLine
 62
7
  6
CONTINUOUS
 10
15.5916052569
 20
6.9401834353
 11
15.5916052569
 21
6.8235980529
  0
LINE
  5
316
100
AcDbEntity
  8
0
100
AcDbLine
 62
7
  6
CONTINUOUS
 10
14.3911837962
 20
5.5280167082
 11
14.4907767177
 21
5.5280167082
  0
LINE
  5
317
100
AcDbEntity
  8
0
100
AcDbLine
 62
7
  6
CONTINUOUS
 10
15.8103552569
 20
6.7781343598
 11
15.8103552569
 21
6.7342937394
  0
LINE
  5
318
100
AcDbEntity
  8
0
100
AcDbLine
 62
7
  6
CONTINUOUS
 10
15.8103552569
 20
6.6477373235
 11
15.8103552569
 21
6.4140385323
  0
LINE
  5
319
100
AcDbEntity
  8
0
100
AcDbLine
 62
7
  6
CONTINUOUS
 10
16.0291052569
 20
6.8235980529
 11
16.0291052569
 21
6.9401834353
  0
LINE
  5
31A
100
AcDbEntity
  8
0
100
AcDbLine
 62
7
  6
CONTINUOUS
 10
16.0291052569
 20
6.9733025385
 11
16.0291052569
 21
7.0460473004
  0
LINE
  5
31B
100
AcDbEntity
  8
0
100
AcDbLine
 62
7
  6
CONTINUOUS
 10
16.1351147834
 20
6.5466210538
 11
16.1351147834
 21
7.0454848879
  0
LINE
  5
31C
100
AcDbEntity
  8
0
100
AcDbLine
 62
7
  6
CONTINUOUS
 10
16.1729758234
 20
4.7292667082
 11
16.1729758234
 21
4.6292667082
  0
LINE
  5
31D
100
AcDbEntity
  8
0
100
AcDbLine
 62
7
  6
CONTINUOUS
 10
14.7166052569
 20
6.1855167082
 11
14.6966052569
 21
6.1855167082
  0
LINE
  5
31E
100
AcDbEntity
  8
0
100
AcDbLine
 62
7
  6
CONTINUOUS
 10
14.2906462653
 20
6.4252200051
 11
14.2847302569
 21
6.4261417082
  0
LINE
  5
31F
100
AcDbEntity
  8
0
100
AcDbLine
 62
7
  6
CONTINUOUS
 10
14.3715067908
 20
6.4161417082
 11
14.5104537231
 21
6.4161417082
  0
LINE
  5
320
100
AcDbEntity
  8
0
100
AcDbLine
 62
7
  6
CONTINUOUS
 10
14.6966052569
 20
6.4261417082
 11
14.5972302569
 21
6.4261417082
  0
LINE
  5
321
100
AcDbEntity
  8
0
100
AcDbLine
 62
7
  6
CONTINUOUS
 10
14.2847302569
 20
6.4261417082
 11
14.2353552569
 21
6.4261417082
  0
LINE
  5
322
100
AcDbEntity
  8
0
100
AcDbLine
 62
7
  6
CONTINUOUS
 10
14.5772302569
 20
6.4361417082
 11
14.3047302569
 21
6.4361417082
  0
LINE
  5
323
100
AcDbEntity
  8
0
100
AcDbLine
 62
7
  6
CONTINUOUS
 10
15.8103552569
 20
6.4140385323
 11
15.4855957305
 21
6.5466210538
  0
LINE
  5
324
100
AcDbEntity
  8
0
100
AcDbLine
 62
7
  6
CONTINUOUS
 10
14.5972302569
 20
6.4261417082
 11
14.5913139275
 21
6.425219956
  0
LINE
  5
325
100
AcDbEntity
  8
0
100
AcDbLine
 62
7
  6
CONTINUOUS
 10
15.8103552569
 20
6.6477373235
 11
15.4855957305
 21
6.780319845
  0
LINE
  5
326
100
AcDbEntity
  8
0
100
AcDbLine
 62
7
  6
CONTINUOUS
 10
16.9041052569
 20
3.6917667082
 11
16.9041052569
 21
7.1417448447
  0
LINE
  5
327
100
AcDbEntity
  8
0
100
AcDbLine
 62
7
  6
CONTINUOUS
 10
15.5916052569
 20
6.8235980529
 11
15.8103552569
 21
6.7342937394
  0
LINE
  5
328
100
AcDbEntity
  8
0
100
AcDbLine
 62
7
  6
CONTINUOUS
 10
15.8103552569
 20
6.7781343598
 11
15.7212614829
 21
6.8145067408
  0
LINE
  5
329
100
AcDbEntity
  8
0
100
AcDbLine
 62
7
  6
CONTINUOUS
 10
15.680699031
 20
6.8310662924
 11
15.5916052569
 21
6.8674386734
  0
LINE
  5
32A
100
AcDbEntity
  8
0
100
AcDbLine
 62
7
  6
CONTINUOUS
 10
15.9473940384
 20
7.0794057657
 11
16.0291052569
 21
7.0460473004
  0
LINE
  5
32B
100
AcDbEntity
  8
0
100
AcDbLine
 62
7
  6
CONTINUOUS
 10
14.7666052569
 20
7.1917667082
 11
15.7088179266
 21
7.1917667082
  0
LINE
  5
32C
100
AcDbEntity
  8
0
100
AcDbLine
 62
7
  6
CONTINUOUS
 10
15.9115724811
 20
7.1917667082
 11
16.8541052569
 21
7.1917667082
  0
LINE
  5
32D
100
AcDbEntity
  8
0
100
AcDbLine
 62
7
  6
CONTINUOUS
 10
15.9489518456
 20
7.121485589
 11
16.1351147834
 21
7.0454848879
  0
LINE
  5
32E
100
AcDbEntity
  8
0
100
AcDbLine
 62
7
  6
CONTINUOUS
 10
12.7289388128
 20
10.576347163
 11
12.4582141562
 21
11.1280260098
  0
LINE
  5
32F
100
AcDbEntity
  8
0
100
AcDbLine
 62
7
  6
CONTINUOUS
 10
12.457948551
 20
11.1474883057
 11
12.9845638587
 21
12.8516160659
  0
LINE
  5
330
100
AcDbEntity
  8
0
100
AcDbLine
 62
7
  6
CONTINUOUS
 10
12.808520922
 20
11.9128277966
 11
12.8390251087
 21
11.8506667998
  0
LINE
  5
331
100
AcDbEntity
  8
0
100
AcDbLine
 62
7
  6
CONTINUOUS
 10
12.9693773501
 20
11.7939808647
 11
12.9998815368
 21
11.7318198679
  0
LINE
  5
332
100
AcDbEntity
  8
0
100
AcDbLine
 62
7
  6
CONTINUOUS
 10
13.4894151805
 20
11.2086003769
 11
13.4178693594
 21
11.9721700748
  0
LINE
  5
333
100
AcDbEntity
  8
0
100
AcDbLine
 62
7
  6
CONTINUOUS
 10
12.7289388128
 20
10.576347163
 11
18.5431363374
 21
10.576347163
  0
LINE
  5
334
100
AcDbEntity
  8
0
100
AcDbLine
 62
7
  6
CONTINUOUS
 10
13.4423311472
 20
12.220013853
 11
13.9476445974
 21
13.8552087769
  0
LINE
  5
335
100
AcDbEntity
  8
0
100
AcDbLine
 62
7
  6
CONTINUOUS
 10
13.9803825936
 20
12.0108368278
 11
13.9709461252
 21
11.9739466947
  0
LINE
  5
336
100
AcDbEntity
  8
0
100
AcDbLine
 62
7
  6
CONTINUOUS
 10
14.1568805885
 20
11.9391322006
 11
14.0452274968
 21
11.5778226635
  0
LINE
  5
337
100
AcDbEntity
  8
0
100
AcDbLine
 62
7
  6
CONTINUOUS
 10
15.9897387112
 20
11.4336531759
 11
15.9621068814
 21
11.4336531759
  0
LINE
  5
338
100
AcDbEntity
  8
0
100
AcDbLine
 62
7
  6
CONTINUOUS
 10
14.3304304334
 20
12.1680945292
 11
14.3280097702
 21
12.1602612601
  0
LINE
  5
339
100
AcDbEntity
  8
0
100
AcDbLine
 62
7
  6
CONTINUOUS
 10
15.9478510666
 20
11.5262739434
 11
15.9754828964
 21
11.5262739434
  0
LINE
  5
33A
100
AcDbEntity
  8
0
100
AcDbLine
 62
7
  6
CONTINUOUS
 10
16.0346973732
 20
11.6020036106
 11
16.2102806095
 21
11.6020036106
  0
LINE
  5
33B
100
AcDbEntity
  8
0
100
AcDbLine
 62
7
  6
CONTINUOUS
 10
16.0371180364
 20
11.6098368797
 11
16.2070971149
 21
11.6098368797
  0
LINE
  5
33C
100
AcDbEntity
  8
0
100
AcDbLine
 62
7
  6
CONTINUOUS
 10
16.1492722362
 20
11.7263256043
 11
15.9736889998
 21
11.7263256043
  0
LINE
  5
33D
100
AcDbEntity
  8
0
100
AcDbLine
 62
7
  6
CONTINUOUS
 10
14.0911183764
 20
11.7263256043
 11
13.9941480075
 21
11.7263256043
  0
LINE
  5
33E
100
AcDbEntity
  8
0
100
AcDbLine
 62
7
  6
CONTINUOUS
 10
13.9709461252
 20
11.9739466947
 11
14.14958226
 21
11.9155148009
  0
LINE
  5
33F
100
AcDbEntity
  8
0
100
AcDbLine
 62
7
  6
CONTINUOUS
 10
16.021024234
 20
11.3033659836
 11
16.1942111936
 21
11.2467165155
  0
LINE
  5
340
100
AcDbEntity
  8
0
100
AcDbLine
 62
7
  6
CONTINUOUS
 10
14.1517451757
 20
11.9234323792
 11
13.9733667885
 21
11.9817799638
  0
LINE
  5
341
100
AcDbEntity
  8
0
100
AcDbLine
 62
7
  6
CONTINUOUS
 10
16.0234448972
 20
11.3111992527
 11
16.1966318568
 21
11.2545497846
  0
LINE
  5
342
100
AcDbEntity
  8
0
100
AcDbLine
 62
7
  6
CONTINUOUS
 10
16.2334824918
 20
11.3543825202
 11
16.0523476548
 21
11.4136317397
  0
LINE
  5
343
100
AcDbEntity
  8
0
100
AcDbLine
 62
7
  6
CONTINUOUS
 10
14.1913522605
 20
12.0223634799
 11
14.0102174235
 21
12.0816126994
  0
LINE
  5
344
100
AcDbEntity
  8
0
100
AcDbLine
 62
7
  6
CONTINUOUS
 10
15.9272667117
 20
11.3702463126
 11
15.9656306189
 21
11.3556393605
  0
LINE
  5
345
100
AcDbEntity
  8
0
100
AcDbLine
 62
7
  6
CONTINUOUS
 10
14.6406732151
 20
12.0273666325
 11
14.7080606797
 21
11.9883597248
  0
LINE
  5
346
100
AcDbEntity
  8
0
100
AcDbLine
 62
7
  6
CONTINUOUS
 10
14.1898582658
 20
12.2628839186
 11
14.3280097702
 21
12.1602612601
  0
LINE
  5
347
100
AcDbEntity
  8
0
100
AcDbLine
 62
7
  6
CONTINUOUS
 10
14.3304304334
 20
12.1680945292
 11
14.1973459897
 21
12.2669532385
  0
LINE
  5
348
100
AcDbEntity
  8
0
100
AcDbLine
 62
7
  6
CONTINUOUS
 10
16.0145703513
 20
11.0654452963
 11
15.9600226531
 21
11.1059647957
  0
LINE
  5
349
100
AcDbEntity
  8
0
100
AcDbLine
 62
7
  6
CONTINUOUS
 10
14.4570380274
 20
12.222422257
 11
14.3188865229
 21
12.3250449154
  0
LINE
  5
34A
100
AcDbEntity
  8
0
100
AcDbLine
 62
7
  6
CONTINUOUS
 10
14.6739325634
 20
12.0867321488
 11
14.6647813074
 21
12.1053804479
  0
LINE
  5
34B
100
AcDbEntity
  8
0
100
AcDbLine
 62
7
  6
CONTINUOUS
 10
14.7654281203
 20
12.1257390565
 11
14.7562768643
 21
12.1443873556
  0
LINE
  5
34C
100
AcDbEntity
  8
0
100
AcDbLine
 62
7
  6
CONTINUOUS
 10
14.6532354711
 20
12.3913947866
 11
14.7113860589
 21
12.2728963477
  0
LINE
  5
34D
100
AcDbEntity
  8
0
100
AcDbLine
 62
7
  6
CONTINUOUS
 10
14.7138067221
 20
12.2807296168
 11
14.6594116166
 21
12.3915751877
  0
LINE
  5
34E
100
AcDbEntity
  8
0
100
AcDbLine
 62
7
  6
CONTINUOUS
 10
14.5975246731
 20
11.9860731977
 11
14.592545009
 21
11.9995209053
  0
LINE
  5
34F
100
AcDbEntity
  8
0
100
AcDbLine
 62
7
  6
CONTINUOUS
 10
14.7138067221
 20
12.2807296168
 11
14.7113860589
 21
12.2728963477
  0
LINE
  5
350
100
AcDbEntity
  8
0
100
AcDbLine
 62
7
  6
CONTINUOUS
 10
14.6406732151
 20
12.0273666325
 11
14.6647813074
 21
12.1053804479
  0
LINE
  5
351
100
AcDbEntity
  8
0
100
AcDbLine
 62
7
  6
CONTINUOUS
 10
14.6533242553
 20
12.0200436391
 11
14.6739325634
 21
12.0867321488
  0
LINE
  5
352
100
AcDbEntity
  8
0
100
AcDbLine
 62
7
  6
CONTINUOUS
 10
15.9481024365
 20
13.6002302386
 11
16.1892755899
 21
13.7722084979
  0
LINE
  5
353
100
AcDbEntity
  8
0
100
AcDbLine
 62
7
  6
CONTINUOUS
 10
16.0812361663
 20
13.5736776744
 11
16.147399049
 21
13.6208577905
  0
LINE
  5
354
100
AcDbEntity
  8
0
100
AcDbLine
 62
7
  6
CONTINUOUS
 10
16.1775215662
 20
13.6423378682
 11
16.2436844489
 21
13.6895179844
  0
LINE
  5
355
100
AcDbEntity
  8
0
100
AcDbLine
 62
7
  6
CONTINUOUS
 10
18.0542037414
 20
11.7318198679
 11
17.4316202846
 21
11.7318198679
  0
LINE
  5
356
100
AcDbEntity
  8
0
100
AcDbLine
 62
7
  6
CONTINUOUS
 10
12.9998815368
 20
11.7318198679
 11
13.4403899662
 21
11.7318198679
  0
LINE
  5
357
100
AcDbEntity
  8
0
100
AcDbLine
 62
7
  6
CONTINUOUS
 10
13.4202560927
 20
11.9466977661
 11
13.2286507124
 21
11.9466977661
  0
LINE
  5
358
100
AcDbEntity
  8
0
100
AcDbLine
 62
7
  6
CONTINUOUS
 10
17.6036904339
 20
11.9466977661
 11
17.8339556824
 21
11.9466977661
  0
LINE
  5
359
100
AcDbEntity
  8
0
100
AcDbLine
 62
7
  6
CONTINUOUS
 10
15.9342100937
 20
11.5314677062
 11
15.9478510666
 21
11.5262739434
  0
LINE
  5
35A
100
AcDbEntity
  8
0
100
AcDbLine
 62
7
  6
CONTINUOUS
 10
15.9754828964
 20
11.5262739434
 11
15.9371189892
 21
11.5408808954
  0
LINE
  5
35B
100
AcDbEntity
  8
0
100
AcDbLine
 62
7
  6
CONTINUOUS
 10
14.7654281203
 20
12.1257390565
 11
14.8201645447
 21
12.0940551422
  0
LINE
  5
35C
100
AcDbEntity
  8
0
100
AcDbLine
 62
7
  6
CONTINUOUS
 10
14.8236643289
 20
12.1053804479
 11
14.7562768643
 21
12.1443873556
  0
LINE
  5
35D
100
AcDbEntity
  8
0
100
AcDbLine
 62
7
  6
CONTINUOUS
 10
14.8374476699
 20
12.3913947866
 11
14.8955982577
 21
12.2728963477
  0
LINE
  5
35E
100
AcDbEntity
  8
0
100
AcDbLine
 62
7
  6
CONTINUOUS
 10
14.8236643289
 20
12.1053804479
 11
14.7995562366
 21
12.0273666325
  0
LINE
  5
35F
100
AcDbEntity
  8
0
100
AcDbLine
 62
7
  6
CONTINUOUS
 10
15.9481024365
 20
13.6002302386
 11
15.8041395111
 21
13.4549607405
  0
LINE
  5
360
100
AcDbEntity
  8
0
100
AcDbLine
 62
7
  6
CONTINUOUS
 10
16.0812361663
 20
13.5736776744
 11
16.0542295056
 21
13.5464259077
  0
LINE
  5
361
100
AcDbEntity
  8
0
100
AcDbLine
 62
7
  6
CONTINUOUS
 10
18.0164847303
 20
12.0330412033
 11
17.8167977774
 21
12.0330412033
  0
LINE
  5
362
100
AcDbEntity
  8
03__ASM_ALL_CURVES
100
AcDbLine
 62
4
  6
CONTINUOUS
 10
11.869568517
 20
12.1401923093
 11
13.4234491183
 21
12.1401923093
  0
LINE
  5
363
100
AcDbEntity
  8
03__ASM_ALL_CURVES
100
AcDbLine
 62
4
  6
CONTINUOUS
 10
17.1077802821
 20
12.1401923093
 11
18.3169954751
 21
12.1401923093
  0
LINE
  5
364
100
AcDbEntity
  8
0
100
AcDbLine
 62
7
  6
CONTINUOUS
 10
17.9247305537
 20
12.2404453572
 11
17.6944653052
 21
12.2404453572
  0
LINE
  5
365
100
AcDbEntity
  8
0
100
AcDbLine
 62
7
  6
CONTINUOUS
 10
13.3194255837
 20
12.2404453572
 11
13.4486449596
 21
12.2404453572
  0
LINE
  5
366
100
AcDbEntity
  8
0
100
AcDbLine
 62
7
  6
CONTINUOUS
 10
15.3919417552
 20
12.1680945292
 11
15.389521092
 21
12.1602612601
  0
LINE
  5
367
100
AcDbEntity
  8
0
100
AcDbLine
 62
7
  6
CONTINUOUS
 10
15.2369161934
 20
12.3250449154
 11
15.1994844615
 21
12.222422257
  0
LINE
  5
368
100
AcDbEntity
  8
0
100
AcDbLine
 62
7
  6
CONTINUOUS
 10
15.8880859754
 20
13.1181532473
 11
16.0320489008
 21
13.2634227455
  0
LINE
  5
369
100
AcDbEntity
  8
0
100
AcDbLine
 62
7
  6
CONTINUOUS
 10
16.1107737716
 20
13.3195606947
 11
16.1377804324
 21
13.3468124614
  0
LINE
  5
36A
100
AcDbEntity
  8
0
100
AcDbLine
 62
7
  6
CONTINUOUS
 10
16.5192212635
 20
13.3516278684
 11
16.4530583809
 21
13.3044477522
  0
LINE
  5
36B
100
AcDbEntity
  8
0
100
AcDbLine
 62
7
  6
CONTINUOUS
 10
16.4229358637
 20
13.2829676745
 11
16.356772981
 21
13.2357875584
  0
LINE
  5
36C
100
AcDbEntity
  8
0
100
AcDbLine
 62
7
  6
CONTINUOUS
 10
16.3297663202
 20
13.2085357917
 11
16.4922146028
 21
13.3243761017
  0
LINE
  5
36D
100
AcDbEntity
  8
0
100
AcDbLine
 62
7
  6
CONTINUOUS
 10
16.5983416719
 20
13.2705717708
 11
16.3571685185
 21
13.0985935115
  0
LINE
  5
36E
100
AcDbEntity
  8
0
100
AcDbLine
 62
7
  6
CONTINUOUS
 10
14.6558367875
 20
12.3915468936
 11
14.6532354711
 21
12.3913947866
  0
LINE
  5
36F
100
AcDbEntity
  8
0
100
AcDbLine
 62
7
  6
CONTINUOUS
 10
14.6558826803
 20
12.3914721098
 11
14.6532354711
 21
12.3913947866
  0
LINE
  5
370
100
AcDbEntity
  8
0
100
AcDbLine
 62
7
  6
CONTINUOUS
 10
13.1395308868
 20
12.3674985874
 11
13.4879073773
 21
12.3674985874
  0
LINE
  5
371
100
AcDbEntity
  8
0
100
AcDbLine
 62
7
  6
CONTINUOUS
 10
17.5181576749
 20
12.3674985874
 11
18.1925556111
 21
12.3674985874
  0
LINE
  5
372
100
AcDbEntity
  8
0
100
AcDbLine
 62
7
  6
CONTINUOUS
 10
15.973807472
 20
11.5717334454
 11
15.9586791208
 21
11.589857969
  0
LINE
  5
373
100
AcDbEntity
  8
0
100
AcDbLine
 62
7
  6
CONTINUOUS
 10
15.4265675513
 20
12.2630244472
 11
15.3919417552
 21
12.1680945292
  0
LINE
  5
374
100
AcDbEntity
  8
0
100
AcDbLine
 62
7
  6
CONTINUOUS
 10
15.389521092
 20
12.1602612601
 11
15.4269528239
 21
12.2628839186
  0
LINE
  5
375
100
AcDbEntity
  8
0
100
AcDbLine
 62
7
  6
CONTINUOUS
 10
16.356772981
 20
13.2357875584
 11
16.3297663202
 21
13.2085357917
  0
LINE
  5
376
100
AcDbEntity
  8
0
100
AcDbLine
 62
7
  6
CONTINUOUS
 10
16.5192212635
 20
13.3516278684
 11
16.4922146028
 21
13.3243761017
  0
LINE
  5
377
100
AcDbEntity
  8
0
100
AcDbLine
 62
7
  6
CONTINUOUS
 10
16.3571685185
 20
13.0985935115
 11
16.2132055931
 21
12.9533240134
  0
LINE
  5
378
100
AcDbEntity
  8
0
100
AcDbLine
 62
7
  6
CONTINUOUS
 10
16.5983416719
 20
13.2705717708
 11
16.4543787465
 21
13.1253022726
  0
LINE
  5
379
100
AcDbEntity
  8
0
100
AcDbLine
 62
7
  6
CONTINUOUS
 10
16.4543787465
 20
13.1253022726
 11
16.2132055931
 21
12.9533240134
  0
LINE
  5
37A
100
AcDbEntity
  8
0
100
AcDbLine
 62
7
  6
CONTINUOUS
 10
14.7562768643
 20
12.1443873556
 11
14.6647813074
 21
12.1053804479
  0
LINE
  5
37B
100
AcDbEntity
  8
0
100
AcDbLine
 62
7
  6
CONTINUOUS
 10
14.6739325634
 20
12.0867321488
 11
14.7654281203
 21
12.1257390565
  0
LINE
  5
37C
100
AcDbEntity
  8
0
100
AcDbLine
 62
7
  6
CONTINUOUS
 10
14.7080606797
 20
11.9883597248
 11
14.7995562366
 21
12.0273666325
  0
LINE
  5
37D
100
AcDbEntity
  8
0
100
AcDbLine
 62
7
  6
CONTINUOUS
 10
13.1390261038
 20
12.3674456332
 11
13.1395334604
 21
12.3674985874
  0
LINE
  5
37E
100
AcDbEntity
  8
0
100
AcDbLine
 62
7
  6
CONTINUOUS
 10
18.1938078946
 20
12.3673490281
 11
18.1925533731
 21
12.3674985874
  0
LINE
  5
37F
100
AcDbEntity
  8
0
100
AcDbLine
 62
7
  6
CONTINUOUS
 10
15.9130108969
 20
11.4628670801
 11
15.9272667117
 21
11.3702463126
  0
LINE
  5
380
100
AcDbEntity
  8
0
100
AcDbLine
 62
7
  6
CONTINUOUS
 10
15.8088809689
 20
11.9225307443
 11
15.8064603057
 21
11.9146974752
  0
LINE
  5
381
100
AcDbEntity
  8
0
100
AcDbLine
 62
7
  6
CONTINUOUS
 10
15.7845036544
 20
12.0816126994
 11
15.6615194051
 21
12.0223634799
  0
LINE
  5
382
100
AcDbEntity
  8
0
100
AcDbLine
 62
7
  6
CONTINUOUS
 10
18.7798499905
 20
12.8523872791
 11
17.7873073303
 21
12.8523872791
  0
LINE
  5
383
100
AcDbEntity
  8
0
100
AcDbLine
 62
7
  6
CONTINUOUS
 10
13.6377493161
 20
12.8523872791
 11
12.9856093791
 21
12.8523872791
  0
LINE
  5
384
100
AcDbEntity
  8
0
100
AcDbLine
 62
7
  6
CONTINUOUS
 10
15.8041395111
 20
13.4549607405
 11
15.8880859754
 21
13.1181532473
  0
LINE
  5
385
100
AcDbEntity
  8
0
100
AcDbLine
 62
7
  6
CONTINUOUS
 10
15.9478510666
 20
11.5262739434
 11
15.9621068814
 21
11.4336531759
  0
LINE
  5
386
100
AcDbEntity
  8
0
100
AcDbLine
 62
7
  6
CONTINUOUS
 10
15.9897387112
 20
11.4336531759
 11
15.9754828964
 21
11.5262739434
  0
LINE
  5
387
100
AcDbEntity
  8
0
100
AcDbLine
 62
7
  6
CONTINUOUS
 10
16.0523476548
 20
11.4136317397
 11
16.0426991947
 21
11.3735327949
  0
LINE
  5
388
100
AcDbEntity
  8
0
100
AcDbLine
 62
7
  6
CONTINUOUS
 10
15.9130108969
 20
11.4628670801
 11
15.9371189892
 21
11.5408808954
  0
LINE
  5
389
100
AcDbEntity
  8
0
100
AcDbLine
 62
7
  6
CONTINUOUS
 10
15.9621068814
 20
11.4336531759
 11
15.9409076845
 21
11.3650525498
  0
LINE
  5
38A
100
AcDbEntity
  8
0
100
AcDbLine
 62
7
  6
CONTINUOUS
 10
16.0371180364
 20
11.6098368797
 11
16.0346973732
 21
11.6020036106
  0
LINE
  5
38B
100
AcDbEntity
  8
0
100
AcDbLine
 62
7
  6
CONTINUOUS
 10
15.9656306189
 20
11.3556393605
 11
15.9897387112
 21
11.4336531759
  0
LINE
  5
38C
100
AcDbEntity
  8
0
100
AcDbLine
 62
7
  6
CONTINUOUS
 10
15.9242068353
 20
11.9780904408
 11
15.8088809689
 21
11.9225307443
  0
LINE
  5
38D
100
AcDbEntity
  8
0
100
AcDbLine
 62
7
  6
CONTINUOUS
 10
15.8064603057
 20
11.9146974752
 11
15.929444555
 21
11.9739466947
  0
LINE
  5
38E
100
AcDbEntity
  8
0
100
AcDbLine
 62
7
  6
CONTINUOUS
 10
16.2132055931
 20
12.9533240134
 11
15.8880859754
 21
13.1181532473
  0
LINE
  5
38F
100
AcDbEntity
  8
0
100
AcDbLine
 62
7
  6
CONTINUOUS
 10
16.0320489008
 20
13.2634227455
 11
15.9481024365
 21
13.6002302386
  0
LINE
  5
390
100
AcDbEntity
  8
0
100
AcDbLine
 62
7
  6
CONTINUOUS
 10
16.0542295056
 20
13.5464259077
 11
16.1107737716
 21
13.3195606947
  0
LINE
  5
391
100
AcDbEntity
  8
0
100
AcDbLine
 62
7
  6
CONTINUOUS
 10
16.1377804324
 20
13.3468124614
 11
16.1147507544
 21
13.4392114467
  0
LINE
  5
392
100
AcDbEntity
  8
0
100
AcDbLine
 62
7
  6
CONTINUOUS
 10
16.1042658443
 20
13.4812786891
 11
16.0812361663
 21
13.5736776744
  0
LINE
  5
393
100
AcDbEntity
  8
0
100
AcDbLine
 62
7
  6
CONTINUOUS
 10
16.0378653756
 20
11.357863938
 11
15.9262122839
 21
10.9965544009
  0
LINE
  5
394
100
AcDbEntity
  8
0
100
AcDbLine
 62
7
  6
CONTINUOUS
 10
16.1966318568
 20
11.2545497846
 11
16.1942111936
 21
11.2467165155
  0
LINE
  5
395
100
AcDbEntity
  8
0
100
AcDbLine
 62
7
  6
CONTINUOUS
 10
16.0320489008
 20
13.2634227455
 11
16.3571685185
 21
13.0985935115
  0
LINE
  5
396
100
AcDbEntity
  8
0
100
AcDbLine
 62
7
  6
CONTINUOUS
 10
16.1107737716
 20
13.3195606947
 11
16.3297663202
 21
13.2085357917
  0
LINE
  5
397
100
AcDbEntity
  8
0
100
AcDbLine
 62
7
  6
CONTINUOUS
 10
16.1377804324
 20
13.3468124614
 11
16.2269729931
 21
13.3015935923
  0
LINE
  5
398
100
AcDbEntity
  8
0
100
AcDbLine
 62
7
  6
CONTINUOUS
 10
16.2675804203
 20
13.2810064275
 11
16.356772981
 21
13.2357875584
  0
LINE
  5
399
100
AcDbEntity
  8
0
100
AcDbLine
 62
7
  6
CONTINUOUS
 10
15.973807472
 20
11.3247868106
 11
15.9586791208
 21
11.3066622869
  0
LINE
  5
39A
100
AcDbEntity
  8
0
100
AcDbLine
 62
7
  6
CONTINUOUS
 10
17.36577835
 20
11.7939808647
 11
17.3908109402
 21
11.7429698094
  0
LINE
  5
39B
100
AcDbEntity
  8
0
100
AcDbLine
 62
7
  6
CONTINUOUS
 10
16.4961915855
 20
13.4440268537
 11
16.5192212635
 21
13.3516278684
  0
LINE
  5
39C
100
AcDbEntity
  8
0
100
AcDbLine
 62
7
  6
CONTINUOUS
 10
16.5143952076
 20
13.6073792639
 11
16.5200505091
 21
13.5846892325
  0
LINE
  5
39D
100
AcDbEntity
  8
0
100
AcDbLine
 62
7
  6
CONTINUOUS
 10
16.5239424722
 20
13.5690740145
 11
16.5983416719
 21
13.2705717708
  0
LINE
  5
39E
100
AcDbEntity
  8
0
100
AcDbLine
 62
7
  6
CONTINUOUS
 10
16.300331519
 20
13.6607990371
 11
16.2436844489
 21
13.6895179844
  0
LINE
  5
39F
100
AcDbEntity
  8
0
100
AcDbLine
 62
7
  6
CONTINUOUS
 10
16.5143952076
 20
13.6073792639
 11
16.5095151549
 21
13.6098533544
  0
LINE
  5
3A0
100
AcDbEntity
  8
0
100
AcDbLine
 62
7
  6
CONTINUOUS
 10
16.3572453122
 20
13.6870511615
 11
16.1892755899
 21
13.7722084979
  0
LINE
  5
3A1
100
AcDbEntity
  8
0
100
AcDbLine
 62
7
  6
CONTINUOUS
 10
17.7131219976
 20
12.8816543964
 11
17.0352566515
 21
13.6452240943
  0
LINE
  5
3A2
100
AcDbEntity
  8
0
100
AcDbLine
 62
7
  6
CONTINUOUS
 10
18.2724116808
 20
11.1280260098
 11
18.5431363374
 21
10.576347163
  0
LINE
  5
3A3
100
AcDbEntity
  8
0
100
AcDbLine
 62
7
  6
CONTINUOUS
 10
18.0542037414
 20
11.7318198679
 11
18.0236995547
 21
11.7939808647
  0
LINE
  5
3A4
100
AcDbEntity
  8
0
100
AcDbLine
 62
7
  6
CONTINUOUS
 10
18.3601124374
 20
12.2432348283
 11
18.3906166241
 21
12.1810738315
  0
LINE
  5
3A5
100
AcDbEntity
  8
0
100
AcDbLine
 62
7
  6
CONTINUOUS
 10
19.0726564199
 20
12.2898747778
 11
18.8019317633
 21
12.8415536246
  0
LINE
  5
3A6
100
AcDbEntity
  8
0
100
AcDbLine
 62
7
  6
CONTINUOUS
 10
18.5431363374
 20
10.576347163
 11
19.0726564199
 21
12.2898747778
  0
ARC
  5
3A7
100
AcDbEntity
  8
0
100
AcDbCircle
 62
7
  6
CONTINUOUS
 10
6.5522422762
 20
5.5012619005
 40
1.75
100
AcDbArc
 50
15.0
 51
165.0
  0
ARC
  5
3A8
100
AcDbEntity
  8
0
100
AcDbCircle
 62
7
  6
CONTINUOUS
 10
6.5522422762
 20
5.5012619005
 40
1.17418
100
AcDbArc
 50
175.1144398916
 51
184.8855601084
  0
ARC
  5
3A9
100
AcDbEntity
  8
0
100
AcDbCircle
 62
7
  6
CONTINUOUS
 10
6.5522422762
 20
5.5012619005
 40
1.17418
100
AcDbArc
 50
355.1144398916
 51
4.8855601084
  0
ARC
  5
3AA
100
AcDbEntity
  8
0
100
AcDbCircle
 62
7
  6
CONTINUOUS
 10
6.5522422762
 20
5.5012619005
 40
1.17418
100
AcDbArc
 50
55.1144398916
 51
64.8855601084
  0
ARC
  5
3AB
100
AcDbEntity
  8
0
100
AcDbCircle
 62
7
  6
CONTINUOUS
 10
6.5522422762
 20
5.5012619005
 40
1.17418
100
AcDbArc
 50
25.1144398916
 51
34.8855601084
  0
ARC
  5
3AC
100
AcDbEntity
  8
0
100
AcDbCircle
 62
7
  6
CONTINUOUS
 10
6.5522422762
 20
5.5012619005
 40
1.17418
100
AcDbArc
 50
325.1144398916
 51
334.8855601084
  0
ARC
  5
3AD
100
AcDbEntity
  8
0
100
AcDbCircle
 62
7
  6
CONTINUOUS
 10
6.5522422762
 20
5.5012619005
 40
1.17418
100
AcDbArc
 50
85.1144398916
 51
94.8855601084
  0
ARC
  5
3AE
100
AcDbEntity
  8
0
100
AcDbCircle
 62
7
  6
CONTINUOUS
 10
6.5522422762
 20
5.5012619005
 40
1.17418
100
AcDbArc
 50
115.1144398916
 51
124.8855601084
  0
ARC
  5
3AF
100
AcDbEntity
  8
0
100
AcDbCircle
 62
7
  6
CONTINUOUS
 10
6.5522422762
 20
5.5012619005
 40
1.17418
100
AcDbArc
 50
145.1144398916
 51
154.8855601084
  0
ARC
  5
3B0
100
AcDbEntity
  8
0
100
AcDbCircle
 62
7
  6
CONTINUOUS
 10
6.5522422762
 20
5.5012619005
 40
1.17418
100
AcDbArc
 50
205.1144398916
 51
214.8855601084
  0
ARC
  5
3B1
100
AcDbEntity
  8
0
100
AcDbCircle
 62
7
  6
CONTINUOUS
 10
6.5522422762
 20
5.5012619005
 40
1.17418
100
AcDbArc
 50
235.1144398916
 51
244.8855601084
  0
ARC
  5
3B2
100
AcDbEntity
  8
0
100
AcDbCircle
 62
7
  6
CONTINUOUS
 10
6.5522422762
 20
5.5012619005
 40
1.17418
100
AcDbArc
 50
265.1144398916
 51
274.8855601084
  0
ARC
  5
3B3
100
AcDbEntity
  8
0
100
AcDbCircle
 62
7
  6
CONTINUOUS
 10
6.5522422762
 20
5.5012619005
 40
1.17418
100
AcDbArc
 50
295.1144398916
 51
304.8855601084
  0
CIRCLE
  5
3B4
100
AcDbEntity
  8
0
100
AcDbCircle
 62
7
  6
CONTINUOUS
 10
6.5522422762
 20
5.5012619005
 40
0.984375
  0
CIRCLE
  5
3B5
100
AcDbEntity
  8
0
100
AcDbCircle
 62
7
  6
CONTINUOUS
 10
6.5522422762
 20
5.5012619005
 40
0.965625
  0
CIRCLE
  5
3B6
100
AcDbEntity
  8
0
100
AcDbCircle
 62
7
  6
CONTINUOUS
 10
6.5522422762
 20
5.5012619005
 40
0.59375
  0
ARC
  5
3B7
100
AcDbEntity
  8
0
100
AcDbCircle
 62
7
  6
CONTINUOUS
 10
8.3530419774
 20
6.9350544593
 40
0.15
100
AcDbArc
 50
135.8411786232
 51
209.7268152428
  0
ARC
  5
3B8
100
AcDbEntity
  8
0
100
AcDbCircle
 62
7
  6
CONTINUOUS
 10
7.9860348349
 20
7.3020616017
 40
0.15
100
AcDbArc
 50
240.2731847572
 51
314.1588213772
  0
ARC
  5
3B9
100
AcDbEntity
  8
0
100
AcDbCircle
 62
7
  6
CONTINUOUS
 10
8.1803556398
 20
7.2000859423
 40
0.09
100
AcDbArc
 50
44.9999999998
 51
183.5903778905
  0
ARC
  5
3BA
100
AcDbEntity
  8
0
100
AcDbCircle
 62
7
  6
CONTINUOUS
 10
8.251066318
 20
7.1293752642
 40
0.09
100
AcDbArc
 50
266.4096221093
 51
45.0000000002
  0
ARC
  5
3BB
100
AcDbEntity
  8
0
100
AcDbCircle
 62
7
  6
CONTINUOUS
 10
8.6200506601
 20
4.7387619005
 40
0.05
100
AcDbArc
 50
195.0
 51
270.0
  0
ARC
  5
3BC
100
AcDbEntity
  8
0
100
AcDbCircle
 62
7
  6
CONTINUOUS
 10
3.4459922762
 20
4.6387619005
 40
0.05
100
AcDbArc
 50
90.0
 51
180.0
  0
ARC
  5
3BD
100
AcDbEntity
  8
0
100
AcDbCircle
 62
7
  6
CONTINUOUS
 10
4.4844338922
 20
4.7387619005
 40
0.05
100
AcDbArc
 50
270.0
 51
345.0000000002
  0
ARC
  5
3BE
100
AcDbEntity
  8
0
100
AcDbCircle
 62
7
  6
CONTINUOUS
 10
9.6584922762
 20
4.6387619005
 40
0.05
100
AcDbArc
 50
0.0
 51
90.0
  0
ARC
  5
3BF
100
AcDbEntity
  8
0
100
AcDbCircle
 62
7
  6
CONTINUOUS
 10
9.5504343107
 20
4.7887619005
 40
0.025
100
AcDbArc
 50
0.0
 51
90.0
  0
ARC
  5
3C0
100
AcDbEntity
  8
0
100
AcDbCircle
 62
7
  6
CONTINUOUS
 10
3.5540502416
 20
4.7887619005
 40
0.025
100
AcDbArc
 50
90.0
 51
180.0
  0
ARC
  5
3C1
100
AcDbEntity
  8
0
100
AcDbCircle
 62
7
  6
CONTINUOUS
 10
8.4953276195
 20
11.4752250128
 40
1.0309651333
100
AcDbArc
 50
171.4134935874
 51
171.8261407285
  0
ARC
  5
3C2
100
AcDbEntity
  8
0
100
AcDbCircle
 62
7
  6
CONTINUOUS
 10
8.4807891037
 20
11.4839771156
 40
1.0162695455
100
AcDbArc
 50
188.1799335502
 51
188.5889360439
  0
ARC
  5
3C3
100
AcDbEntity
  8
0
100
AcDbCircle
 62
7
  6
CONTINUOUS
 10
8.4765422272
 20
11.4836146165
 40
1.0120143287
100
AcDbArc
 50
184.1033411311
 51
188.1938295196
  0
ARC
  5
3C4
100
AcDbEntity
  8
0
100
AcDbCircle
 62
7
  6
CONTINUOUS
 10
8.4693002113
 20
11.4785102415
 40
1.0047351474
100
AcDbArc
 50
171.8005559535
 51
175.9114337192
  0
ARC
  5
3C5
100
AcDbEntity
  8
0
100
AcDbCircle
 62
7
  6
CONTINUOUS
 10
8.439017185
 20
11.4806727814
 40
0.9743750049
100
AcDbArc
 50
175.9113105271
 51
184.0886894729
  0
ARC
  5
3C6
100
AcDbEntity
  8
0
100
AcDbCircle
 62
7
  6
CONTINUOUS
 10
3.8445550493
 20
12.8500477814
 40
0.375
100
AcDbArc
 50
104.7629931113
 51
255.2370068887
  0
ARC
  5
3C7
100
AcDbEntity
  8
0
100
AcDbCircle
 62
7
  6
CONTINUOUS
 10
4.3677470839
 20
12.8500477814
 40
0.375
100
AcDbArc
 50
284.7629931113
 51
75.2370068887
  0
ARC
  5
3C8
100
AcDbEntity
  8
0
100
AcDbCircle
 62
7
  6
CONTINUOUS
 10
9.1409391184
 20
12.8500477814
 40
0.375
100
AcDbArc
 50
284.7629931113
 51
75.2370068887
  0
ARC
  5
3C9
100
AcDbEntity
  8
0
100
AcDbCircle
 62
7
  6
CONTINUOUS
 10
8.6177470839
 20
12.8500477814
 40
0.375
100
AcDbArc
 50
104.7629931113
 51
166.4143172508
  0
ARC
  5
3CA
100
AcDbEntity
  8
0
100
AcDbCircle
 62
7
  6
CONTINUOUS
 10
8.6177470839
 20
12.8500477814
 40
0.375
100
AcDbArc
 50
193.6329041587
 51
255.2370068887
  0
ARC
  5
3CB
100
AcDbEntity
  8
0
100
AcDbCircle
 62
7
  6
CONTINUOUS
 10
3.9927470839
 20
12.8500477814
 40
0.1875
100
AcDbArc
 50
90.0
 51
270.0
  0
ARC
  5
3CC
100
AcDbEntity
  8
0
100
AcDbCircle
 62
7
  6
CONTINUOUS
 10
4.2427470839
 20
12.8500477814
 40
0.1875
100
AcDbArc
 50
270.0
 51
90.0
  0
ARC
  5
3CD
100
AcDbEntity
  8
0
100
AcDbCircle
 62
7
  6
CONTINUOUS
 10
8.9927470839
 20
12.8500477814
 40
0.1875
100
AcDbArc
 50
270.0
 51
90.0
  0
ARC
  5
3CE
100
AcDbEntity
  8
0
100
AcDbCircle
 62
7
  6
CONTINUOUS
 10
8.7427470839
 20
12.8500477814
 40
0.1875
100
AcDbArc
 50
90.0
 51
270.0
  0
CIRCLE
  5
3CF
100
AcDbEntity
  8
0
100
AcDbCircle
 62
7
  6
CONTINUOUS
 10
6.4927470839
 20
11.4806727814
 40
0.15625
  0
CIRCLE
  5
3D0
100
AcDbEntity
  8
0
100
AcDbCircle
 62
7
  6
CONTINUOUS
 10
6.4927470839
 20
11.4806727814
 40
0.13625
  0
ARC
  5
3D1
100
AcDbEntity
  8
0
100
AcDbCircle
 62
7
  6
CONTINUOUS
 10
8.0077233626
 20
12.7403593851
 40
0.1103116139
100
AcDbArc
 50
261.3663439789
 51
278.6336560211
  0
ARC
  5
3D2
100
AcDbEntity
  8
0
100
AcDbCircle
 62
7
  6
CONTINUOUS
 10
8.0077233626
 20
12.9597361776
 40
0.1103116139
100
AcDbArc
 50
81.3663439789
 51
98.6336560211
  0
ARC
  5
3D3
100
AcDbEntity
  8
0
100
AcDbCircle
 62
7
  6
CONTINUOUS
 10
14.4376537987
 20
7.4291986338
 40
1.0156693179
100
AcDbArc
 50
274.1103026304
 51
278.5871572312
  0
ARC
  5
3D4
100
AcDbEntity
  8
0
100
AcDbCircle
 62
7
  6
CONTINUOUS
 10
14.4434702856
 20
7.4216809956
 40
1.0081111065
100
AcDbArc
 50
261.3960465568
 51
265.9064885234
  0
ARC
  5
3D5
100
AcDbEntity
  8
0
100
AcDbCircle
 62
7
  6
CONTINUOUS
 10
14.4409802569
 20
7.3880368044
 40
0.9743749999
100
AcDbArc
 50
265.9113105064
 51
274.0886894936
  0
CIRCLE
  5
3D6
100
AcDbEntity
  8
0
100
AcDbCircle
 62
7
  6
CONTINUOUS
 10
14.4409802569
 20
5.4417667082
 40
0.15625
  0
CIRCLE
  5
3D7
100
AcDbEntity
  8
0
100
AcDbCircle
 62
7
  6
CONTINUOUS
 10
14.4409802569
 20
5.4417667082
 40
0.13625
  0
ARC
  5
3D8
100
AcDbEntity
  8
0
100
AcDbCircle
 62
7
  6
CONTINUOUS
 10
15.7006668607
 20
6.9567429869
 40
0.1103116139
100
AcDbArc
 50
171.3663439789
 51
188.6336560211
  0
ARC
  5
3D9
100
AcDbEntity
  8
0
100
AcDbCircle
 62
7
  6
CONTINUOUS
 10
15.9200436532
 20
6.9567429869
 40
0.1103116139
100
AcDbArc
 50
351.3663439789
 51
8.6336560211
  0
ARC
  5
3DA
100
AcDbEntity
  8
0
100
AcDbCircle
 62
7
  6
CONTINUOUS
 10
16.8541052569
 20
7.1417667082
 40
0.05
100
AcDbArc
 50
0.0000000001
 51
90.0
  0
ARC
  5
3DB
100
AcDbEntity
  8
0
100
AcDbCircle
 62
7
  6
CONTINUOUS
 10
14.7666052569
 20
7.1417667082
 40
0.05
100
AcDbArc
 50
90.0
 51
179.9999999999
  0
ARC
  5
3DC
100
AcDbEntity
  8
0
100
AcDbCircle
 62
7
  6
CONTINUOUS
 10
14.7666052569
 20
4.5792667082
 40
0.05
100
AcDbArc
 50
90.0
 51
180.0
  0
ARC
  5
3DD
100
AcDbEntity
  8
0
100
AcDbCircle
 62
7
  6
CONTINUOUS
 10
16.8541052569
 20
4.5792667082
 40
0.05
100
AcDbArc
 50
0.0
 51
90.0
  0
ARC
  5
3DE
100
AcDbEntity
  8
0
100
AcDbCircle
 62
7
  6
CONTINUOUS
 10
16.1479758234
 20
4.7292667082
 40
0.025
100
AcDbArc
 50
0.0
 51
90.0
  0
ARC
  5
3DF
100
AcDbEntity
  8
0
100
AcDbCircle
 62
7
  6
CONTINUOUS
 10
15.4727346904
 20
4.7292667082
 40
0.025
100
AcDbArc
 50
90.0
 51
180.0
  0
ARC
  5
3E0
100
AcDbEntity
  8
0
100
AcDbCircle
 62
7
  6
CONTINUOUS
 10
14.6970875877
 20
10.3531305194
 40
2.0444709117
100
AcDbArc
 50
69.0842567479
 51
74.6898937049
  0
ARC
  5
3E1
100
AcDbEntity
  8
0
100
AcDbCircle
 62
7
  6
CONTINUOUS
 10
14.7622630794
 20
10.5641954149
 40
1.7148990631
100
AcDbArc
 50
68.545044677
 51
75.2291057758
  0
ARC
  5
3E2
100
AcDbEntity
  8
0
100
AcDbCircle
 62
7
  6
CONTINUOUS
 10
14.7646837438
 20
10.5720286876
 40
1.7148990593
100
AcDbArc
 50
68.5450446695
 51
75.2291057833
  0
ARC
  5
3E3
100
AcDbEntity
  8
0
100
AcDbCircle
 62
7
  6
CONTINUOUS
 10
14.7582417964
 20
10.5510275191
 40
1.7122719273
100
AcDbArc
 50
68.5649869151
 51
75.22196596
  0
ARC
  5
3E4
100
AcDbEntity
  8
0
100
AcDbCircle
 62
7
  6
CONTINUOUS
 10
14.7112152863
 20
11.4782639878
 40
0.7731675513
100
AcDbArc
 50
108.5570109321
 51
108.934680674
  0
ARC
  5
3E5
100
AcDbEntity
  8
0
100
AcDbCircle
 62
7
  6
CONTINUOUS
 10
14.5304496389
 20
11.7061936525
 40
0.6526151514
100
AcDbArc
 50
120.9557420468
 51
121.4589140451
  0
ARC
  5
3E6
100
AcDbEntity
  8
0
100
AcDbCircle
 62
7
  6
CONTINUOUS
 10
14.6042376908
 20
11.54504406
 40
0.5850735727
100
AcDbArc
 50
206.1500365831
 51
207.9469235946
  0
ARC
  5
3E7
100
AcDbEntity
  8
0
100
AcDbCircle
 62
7
  6
CONTINUOUS
 10
14.619055684
 20
11.6820589207
 40
0.5490795121
100
AcDbArc
 50
120.8278059043
 51
121.4753300451
  0
ARC
  5
3E8
100
AcDbEntity
  8
0
100
AcDbCircle
 62
7
  6
CONTINUOUS
 10
14.5823926371
 20
11.5132983166
 40
0.5465184717
100
AcDbArc
 50
204.1621795598
 51
206.142301185
  0
ARC
  5
3E9
100
AcDbEntity
  8
0
100
AcDbCircle
 62
7
  6
CONTINUOUS
 10
13.2365753707
 20
11.9060356012
 40
0.4716094249
100
AcDbArc
 50
101.9376745753
 51
102.8008911995
  0
ARC
  5
3EA
100
AcDbEntity
  8
0
100
AcDbCircle
 62
7
  6
CONTINUOUS
 10
14.3530498851
 20
11.8953670746
 40
0.3901557759
100
AcDbArc
 50
151.486734726
 51
161.5810954162
  0
ARC
  5
3EB
100
AcDbEntity
  8
0
100
AcDbCircle
 62
7
  6
CONTINUOUS
 10
14.3482420196
 20
11.8971634895
 40
0.3850266543
100
AcDbArc
 50
161.608667591
 51
162.8281719842
  0
ARC
  5
3EC
100
AcDbEntity
  8
0
100
AcDbCircle
 62
7
  6
CONTINUOUS
 10
14.4893716359
 20
11.8309497692
 40
0.3501631689
100
AcDbArc
 50
145.962146338
 51
147.2953698057
  0
ARC
  5
3ED
100
AcDbEntity
  8
0
100
AcDbCircle
 62
7
  6
CONTINUOUS
 10
14.4750838293
 20
11.8396340497
 40
0.3334485152
100
AcDbArc
 50
147.2245278165
 51
158.4685946788
  0
ARC
  5
3EE
100
AcDbEntity
  8
0
100
AcDbCircle
 62
7
  6
CONTINUOUS
 10
14.4746698071
 20
11.8578371304
 40
0.3276244067
100
AcDbArc
 50
149.8556824168
 51
162.7852894496
  0
ARC
  5
3EF
100
AcDbEntity
  8
0
100
AcDbCircle
 62
7
  6
CONTINUOUS
 10
14.4657965004
 20
11.8436563988
 40
0.3233332129
100
AcDbArc
 50
158.5276215835
 51
159.772440583
  0
ARC
  5
3F0
100
AcDbEntity
  8
0
100
AcDbCircle
 62
7
  6
CONTINUOUS
 10
14.4701767582
 20
11.859486178
 40
0.3228446878
100
AcDbArc
 50
162.8288483724
 51
163.687468422
  0
ARC
  5
3F1
100
AcDbEntity
  8
0
100
AcDbCircle
 62
7
  6
CONTINUOUS
 10
14.465031927
 20
11.8439396655
 40
0.3225178577
100
AcDbArc
 50
159.7728072865
 51
162.8333016168
  0
ARC
  5
3F2
100
AcDbEntity
  8
0
100
AcDbCircle
 62
7
  6
CONTINUOUS
 10
14.7462280772
 20
12.0138023586
 40
0.1500129343
100
AcDbArc
 50
139.9961162333
 51
141.7130200651
  0
ARC
  5
3F3
100
AcDbEntity
  8
0
100
AcDbCircle
 62
7
  6
CONTINUOUS
 10
14.793803254
 20
12.0823287356
 40
0.0938844821
100
AcDbArc
 50
25.4953528922
 51
26.1442302103
  0
ARC
  5
3F4
100
AcDbEntity
  8
0
100
AcDbCircle
 62
7
  6
CONTINUOUS
 10
14.7947556672
 20
12.0827650685
 40
0.0928370019
100
AcDbArc
 50
16.0047268
 51
25.5052965411
  0
ARC
  5
3F5
100
AcDbEntity
  8
0
100
AcDbCircle
 62
7
  6
CONTINUOUS
 10
14.6717848285
 20
12.0212749008
 40
0.0821716819
100
AcDbArc
 50
195.3514061089
 51
205.3686112077
  0
ARC
  5
3F6
100
AcDbEntity
  8
0
100
AcDbCircle
 62
7
  6
CONTINUOUS
 10
14.6713255043
 20
12.0210804888
 40
0.0816733591
100
AcDbArc
 50
205.3834330542
 51
206.1325576298
  0
ARC
  5
3F7
100
AcDbEntity
  8
0
100
AcDbCircle
 62
7
  6
CONTINUOUS
 10
14.6608452994
 20
12.0171016914
 40
0.0705089602
100
AcDbArc
 50
206.1449182577
 51
207.0108631049
  0
ARC
  5
3F8
100
AcDbEntity
  8
0
100
AcDbCircle
 62
7
  6
CONTINUOUS
 10
15.0491897518
 20
10.9305974325
 40
1.3650736981
100
AcDbArc
 50
49.8462823953
 51
49.9684210236
  0
ARC
  5
3F9
100
AcDbEntity
  8
0
100
AcDbCircle
 62
7
  6
CONTINUOUS
 10
14.8496165715
 20
10.5549340976
 40
1.2932719062
100
AcDbArc
 50
52.7534209758
 51
55.3270714115
  0
ARC
  5
3FA
100
AcDbEntity
  8
0
100
AcDbCircle
 62
7
  6
CONTINUOUS
 10
14.8424519308
 20
10.5467454087
 40
1.2777326648
100
AcDbArc
 50
53.4801909348
 51
55.2440906357
  0
ARC
  5
3FB
100
AcDbEntity
  8
0
100
AcDbCircle
 62
7
  6
CONTINUOUS
 10
14.8703030198
 20
10.5847423562
 40
1.2306221935
100
AcDbArc
 50
52.7426410115
 51
53.4695081665
  0
ARC
  5
3FC
100
AcDbEntity
  8
0
100
AcDbCircle
 62
7
  6
CONTINUOUS
 10
15.0606386307
 20
11.0426081661
 40
1.1324780214
100
AcDbArc
 50
49.3877473085
 51
49.5503562707
  0
ARC
  5
3FD
100
AcDbEntity
  8
0
100
AcDbCircle
 62
7
  6
CONTINUOUS
 10
14.8594441913
 20
11.7040900548
 40
0.8840711054
100
AcDbArc
 50
221.3926420993
 51
222.4223905997
  0
ARC
  5
3FE
100
AcDbEntity
  8
0
100
AcDbCircle
 62
7
  6
CONTINUOUS
 10
15.3313003473
 20
11.5355596426
 40
0.8587169822
100
AcDbArc
 50
283.2113686126
 51
285.5138234636
  0
ARC
  5
3FF
100
AcDbEntity
  8
0
100
AcDbCircle
 62
7
  6
CONTINUOUS
 10
15.3773741946
 20
11.3307470434
 40
0.7029718109
100
AcDbArc
 50
33.4800040465
 51
33.9278239642
  0
ARC
  5
400
100
AcDbEntity
  8
0
100
AcDbCircle
 62
7
  6
CONTINUOUS
 10
15.6542263095
 20
11.3995461264
 40
0.5917646639
100
AcDbArc
 50
20.006393395
 51
20.6121551676
  0
ARC
  5
401
100
AcDbEntity
  8
0
100
AcDbCircle
 62
7
  6
CONTINUOUS
 10
15.5206744692
 20
11.4241160987
 40
0.5440282942
100
AcDbArc
 50
23.7719206533
 51
24.908240685
  0
ARC
  5
402
100
AcDbEntity
  8
0
100
AcDbCircle
 62
7
  6
CONTINUOUS
 10
15.5252207361
 20
11.4328908565
 40
0.5417035214
100
AcDbArc
 50
23.7714157619
 51
24.2897159125
  0
ARC
  5
403
100
AcDbEntity
  8
0
100
AcDbCircle
 62
7
  6
CONTINUOUS
 10
15.5289572031
 20
11.4145506802
 40
0.5295633327
100
AcDbArc
 50
20.9112311932
 51
26.2171335325
  0
ARC
  5
404
100
AcDbEntity
  8
0
100
AcDbCircle
 62
7
  6
CONTINUOUS
 10
15.5522059616
 20
11.4445510442
 40
0.5123076494
100
AcDbArc
 50
18.8220531229
 51
23.7945097737
  0
ARC
  5
405
100
AcDbEntity
  8
0
100
AcDbCircle
 62
7
  6
CONTINUOUS
 10
15.558987603
 20
11.4403071359
 40
0.5024395838
100
AcDbArc
 50
18.7731912841
 51
23.8433702163
  0
ARC
  5
406
100
AcDbEntity
  8
0
100
AcDbCircle
 62
7
  6
CONTINUOUS
 10
15.5579781742
 20
11.4258757455
 40
0.4984117355
100
AcDbArc
 50
20.1263303984
 51
20.885832986
  0
ARC
  5
407
100
AcDbEntity
  8
0
100
AcDbCircle
 62
7
  6
CONTINUOUS
 10
15.8520738187
 20
11.4326410292
 40
0.3893917155
100
AcDbArc
 50
331.4794297733
 51
342.7994366326
  0
ARC
  5
408
100
AcDbEntity
  8
0
100
AcDbCircle
 62
7
  6
CONTINUOUS
 10
15.8550682262
 20
11.431479043
 40
0.3861880762
100
AcDbArc
 50
344.0465786245
 51
348.4844046207
  0
ARC
  5
409
100
AcDbEntity
  8
0
100
AcDbCircle
 62
7
  6
CONTINUOUS
 10
15.8560928389
 20
11.4311939645
 40
0.3851245706
100
AcDbArc
 50
342.8282762515
 51
344.0454595734
  0
ARC
  5
40A
100
AcDbEntity
  8
0
100
AcDbCircle
 62
7
  6
CONTINUOUS
 10
15.7181327007
 20
11.455187373
 40
0.3343070336
100
AcDbArc
 50
352.9094919925
 51
354.3147038092
  0
ARC
  5
40B
100
AcDbEntity
  8
0
100
AcDbCircle
 62
7
  6
CONTINUOUS
 10
15.7245397557
 20
11.4542859221
 40
0.3278377211
100
AcDbArc
 50
347.1394208234
 51
352.927613555
  0
ARC
  5
40C
100
AcDbEntity
  8
0
100
AcDbCircle
 62
7
  6
CONTINUOUS
 10
15.7278844271
 20
11.4535504298
 40
0.324413248
100
AcDbArc
 50
345.7018704788
 51
347.1345793381
  0
ARC
  5
40D
100
AcDbEntity
  8
0
100
AcDbCircle
 62
7
  6
CONTINUOUS
 10
15.7290265041
 20
11.4532585717
 40
0.3232344688
100
AcDbArc
 50
343.2976826263
 51
345.7020055012
  0
ARC
  5
40E
100
AcDbEntity
  8
0
100
AcDbCircle
 62
7
  6
CONTINUOUS
 10
15.7295950252
 20
11.4530929
 40
0.3226423192
100
AcDbArc
 50
342.8333588943
 51
343.2968461401
  0
ARC
  5
40F
100
AcDbEntity
  8
0
100
AcDbCircle
 62
7
  6
CONTINUOUS
 10
15.6824970549
 20
11.4464118991
 40
0.3218669176
100
AcDbArc
 50
354.2249482916
 51
354.5796888309
  0
ARC
  5
410
100
AcDbEntity
  8
0
100
AcDbCircle
 62
7
  6
CONTINUOUS
 10
15.8369874625
 20
11.5049283123
 40
0.1575319139
100
AcDbArc
 50
15.3266390846
 51
18.9392861629
  0
ARC
  5
411
100
AcDbEntity
  8
0
100
AcDbCircle
 62
7
  6
CONTINUOUS
 10
15.8889527981
 20
11.5260388989
 40
0.1013796282
100
AcDbArc
 50
26.1095595384
 51
28.6965273374
  0
ARC
  5
412
100
AcDbEntity
  8
0
100
AcDbCircle
 62
7
  6
CONTINUOUS
 10
15.9256096129
 20
11.5315784569
 40
0.062731172
100
AcDbArc
 50
36.307290392
 51
39.7970670365
  0
ARC
  5
413
100
AcDbEntity
  8
0
100
AcDbCircle
 62
7
  6
CONTINUOUS
 10
15.9377533778
 20
11.5708339805
 40
0.0336762133
100
AcDbArc
 50
90.0227514832
 51
97.7842912725
  0
ARC
  5
414
100
AcDbEntity
  8
0
100
AcDbCircle
 62
7
  6
CONTINUOUS
 10
16.2870117619
 20
13.4136319414
 40
0.2113765581
100
AcDbArc
 50
8.2675120376
 51
12.5106683806
  0
ARC
  5
415
100
AcDbEntity
  8
0
100
AcDbCircle
 62
7
  6
CONTINUOUS
 10
16.358449338
 20
13.4052612903
 40
0.1382542602
100
AcDbArc
 50
297.8030854408
 51
313.1815201919
  0
ARC
  5
416
100
AcDbEntity
  8
0
100
AcDbCircle
 62
7
  6
CONTINUOUS
 10
16.2420080919
 20
13.5200442524
 40
0.1382542602
100
AcDbArc
 50
117.8030854408
 51
133.1815201919
  0
SPLINE
  5
417
100
AcDbEntity
  8
0
100
AcDbSpline
 62
7
  6
CONTINUOUS
 70
0
 71
3
 72
18
 73
14
 74
0
 42
0.0000001
 43
0.0000001
 44
0.0000000001
 40
0.0
 40
0.0
 40
0.0
 40
0.0
 40
0.0644543579
 40
0.1285714956
 40
0.1922502613
 40
0.2555743338
 40
0.3186209214
 40
0.381440565
 40
0.5064733894
 40
0.6308275274
 40
0.7545332478
 40
0.8775945896
 40
1.0
 40
1.0
 40
1.0
 40
1.0
 10
4.5228002416
 20
4.7887619005
 30
0.0
 10
4.5228002416
 20
4.789614127
 30
0.0
 10
4.5231496268
 20
4.7913252789
 30
0.0
 10
4.524433315
 20
4.7935488608
 30
0.0
 10
4.526114248
 20
4.7954497261
 30
0.0
 10
4.5280152513
 20
4.7971003435
 30
0.0
 10
4.5300467971
 20
4.7985640863
 30
0.0
 10
4.53286375
 20
4.8003196177
 30
0.0
 10
4.53652905
 20
4.8022307604
 30
0.0
 10
4.5410505981
 20
4.8042092367
 30
0.0
 10
4.5456437626
 20
4.8059412985
 30
0.0
 10
4.550281103
 20
4.8074687832
 30
0.0
 10
4.5533999941
 20
4.8083696668
 30
0.0
 10
4.5549622969
 20
4.8087923248
 30
0.0
  0
SPLINE
  5
418
100
AcDbEntity
  8
0
100
AcDbSpline
 62
7
  6
CONTINUOUS
 70
0
 71
3
 72
19
 73
15
 74
0
 42
0.0000001
 43
0.0000001
 44
0.0000000001
 40
0.0
 40
0.0
 40
0.0
 40
0.0
 40
0.0313937286
 40
0.0435014121
 40
0.0575608521
 40
0.0917212132
 40
0.134035354
 40
0.1842468442
 40
0.2419582496
 40
0.306732102
 40
0.455338148
 40
0.6248408435
 40
0.8091185414
 40
1.0
 40
1.0
 40
1.0
 40
1.0
 10
9.292696725
 20
4.8137619005
 30
0.0
 10
9.2929647075
 20
4.8137619005
 30
0.0
 10
9.2932730531
 20
4.8134207868
 30
0.0
 10
9.2935128349
 20
4.813007274
 30
0.0
 10
9.2937368609
 20
4.8125388509
 30
0.0
 10
9.2939971396
 20
4.8118119454
 30
0.0
 10
9.2942838493
 20
4.8107677327
 30
0.0
 10
9.2945560346
 20
4.8095143058
 30
0.0
 10
9.2948119871
 20
4.8080621441
 30
0.0
 10
9.2951420268
 20
4.8057714494
 30
0.0
 10
9.2954805623
 20
4.8025194798
 30
0.0
 10
9.2957728091
 20
4.7982403584
 30
0.0
 10
9.2959512503
 20
4.7935938572
 30
0.0
 10
9.2959922762
 20
4.7903912993
 30
0.0
 10
9.2959922762
 20
4.7887619005
 30
0.0
  0
SPLINE
  5
419
100
AcDbEntity
  8
0
100
AcDbSpline
 62
7
  6
CONTINUOUS
 70
0
 71
3
 72
18
 73
14
 74
0
 42
0.0000001
 43
0.0000001
 44
0.0000000001
 40
0.0
 40
0.0
 40
0.0
 40
0.0
 40
0.0644543469
 40
0.1285714093
 40
0.1922502102
 40
0.2555742888
 40
0.3186208826
 40
0.3814405306
 40
0.5064733624
 40
0.6308275083
 40
0.7545332357
 40
0.8775945836
 40
1.0
 40
1.0
 40
1.0
 40
1.0
 10
8.5816843107
 20
4.7887619005
 30
0.0
 10
8.5816843107
 20
4.7896141269
 30
0.0
 10
8.5813349257
 20
4.7913252775
 30
0.0
 10
8.5800512387
 20
4.7935488593
 30
0.0
 10
8.5783703064
 20
4.7954497246
 30
0.0
 10
8.5764693025
 20
4.7971003423
 30
0.0
 10
8.5744377566
 20
4.7985640854
 30
0.0
 10
8.5716208036
 20
4.8003196171
 30
0.0
 10
8.5679555033
 20
4.8022307599
 30
0.0
 10
8.5634339549
 20
4.8042092364
 30
0.0
 10
8.5588407902
 20
4.8059412983
 30
0.0
 10
8.5542034496
 20
4.8074687831
 30
0.0
 10
8.5510845583
 20
4.8083696668
 30
0.0
 10
8.5495222555
 20
4.8087923248
 30
0.0
  0
SPLINE
  5
41A
100
AcDbEntity
  8
0
100
AcDbSpline
 62
7
  6
CONTINUOUS
 70
0
 71
3
 72
19
 73
15
 74
0
 42
0.0000001
 43
0.0000001
 44
0.0000000001
 40
0.0
 40
0.0
 40
0.0
 40
0.0
 40
0.1908762054
 40
0.3751517365
 40
0.5446435291
 40
0.6932315894
 40
0.7579961666
 40
0.8156984431
 40
0.8659018661
 40
0.9082117761
 40
0.9423781296
 40
0.9564452722
 40
0.9685632625
 40
1.0
 40
1.0
 40
1.0
 40
1.0
 10
3.8084922762
 20
4.7887619005
 30
0.0
 10
3.8084922762
 20
4.790391337
 30
0.0
 10
3.808533316
 20
4.7935939937
 30
0.0
 10
3.808711854
 20
4.7982405716
 30
0.0
 10
3.809004397
 20
4.8025196275
 30
0.0
 10
3.8093426148
 20
4.8057714464
 30
0.0
 10
3.8096713994
 20
4.8080621203
 30
0.0
 10
3.8099263346
 20
4.8095143062
 30
0.0
 10
3.810197731
 20
4.8107677874
 30
0.0
 10
3.8104841985
 20
4.8118120799
 30
0.0
 10
3.8107450367
 20
4.8125389465
 30
0.0
 10
3.810969739
 20
4.8130072957
 30
0.0
 10
3.8112104833
 20
4.8134209151
 30
0.0
 10
3.8115194641
 20
4.8137619005
 30
0.0
 10
3.8117878274
 20
4.8137619005
 30
0.0
  0
SPLINE
  5
41B
100
AcDbEntity
  8
0
100
AcDbSpline
 62
7
  6
CONTINUOUS
 70
0
 71
3
 72
9
 73
5
 74
0
 42
0.0000001
 43
0.0000001
 44
0.0000000001
 40
0.0
 40
0.0
 40
0.0
 40
0.0
 40
0.2549277235
 40
1.0
 40
1.0
 40
1.0
 40
1.0
 10
7.8654871164
 20
12.7609540073
 30
0.0
 10
7.8666005924
 20
12.7573987275
 30
0.0
 10
7.8712523018
 20
12.7435438777
 30
0.0
 10
7.8770549374
 20
12.730068595
 30
0.0
 10
7.8820466681
 20
12.7203915554
 30
0.0
  0
SPLINE
  5
41C
100
AcDbEntity
  8
0
100
AcDbSpline
 62
7
  6
CONTINUOUS
 70
0
 71
3
 72
30
 73
26
 74
0
 42
0.0000001
 43
0.0000001
 44
0.0000000001
 40
0.0
 40
0.0
 40
0.0
 40
0.0
 40
0.0634502002
 40
0.0951091991
 40
0.1266603081
 40
0.1893695591
 40
0.2516829124
 40
0.2827760832
 40
0.3138370488
 40
0.3448803389
 40
0.375912423
 40
0.4069435481
 40
0.4379835843
 40
0.4690300377
 40
0.5000815858
 40
0.5620868256
 40
0.6240791622
 40
0.6860865834
 40
0.7171574261
 40
0.7482651965
 40
0.8105983551
 40
0.8733252298
 40
0.9048828852
 40
0.9365470333
 40
1.0
 40
1.0
 40
1.0
 40
1.0
 10
8.2815711257
 20
12.8500477814
 30
0.0
 10
8.2815711257
 20
12.8412205404
 30
0.0
 10
8.2804776402
 20
12.827953939
 30
0.0
 10
8.2768390752
 20
12.8106968242
 30
0.0
 10
8.2717736218
 20
12.793907224
 30
0.0
 10
8.2627716332
 20
12.7739376952
 30
0.0
 10
8.2502639257
 20
12.756006141
 30
0.0
 10
8.2383527475
 20
12.7434030708
 30
0.0
 10
8.2285180572
 20
12.7349175365
 30
0.0
 10
8.2178601172
 20
12.7275068183
 30
0.0
 10
8.2064740258
 20
12.7212783754
 30
0.0
 10
8.1944779745
 20
12.7163243545
 30
0.0
 10
8.1820058781
 20
12.7127250194
 30
0.0
 10
8.1692052362
 20
12.7105393263
 30
0.0
 10
8.1519376956
 20
12.7095577848
 30
0.0
 10
8.130304311
 20
12.7120024256
 30
0.0
 10
8.1056872077
 20
12.7206184647
 30
0.0
 10
8.0871993576
 20
12.7320808896
 30
0.0
 10
8.0741003194
 20
12.7433847236
 30
0.0
 10
8.0621792719
 20
12.7559889856
 30
0.0
 10
8.0496667942
 20
12.7739256232
 30
0.0
 10
8.0406603067
 20
12.7938999984
 30
0.0
 10
8.0355932191
 20
12.8106933895
 30
0.0
 10
8.0319541811
 20
12.8279524643
 30
0.0
 10
8.0308604475
 20
12.8412201555
 30
0.0
 10
8.0308604475
 20
12.8500477814
 30
0.0
  0
SPLINE
  5
41D
100
AcDbEntity
  8
0
100
AcDbSpline
 62
7
  6
CONTINUOUS
 70
0
 71
3
 72
30
 73
26
 74
0
 42
0.0000001
 43
0.0000001
 44
0.0000000001
 40
0.0
 40
0.0
 40
0.0
 40
0.0
 40
0.0634502002
 40
0.0951091991
 40
0.1266603081
 40
0.1893695591
 40
0.2516829124
 40
0.2827760832
 40
0.3138370488
 40
0.3448803389
 40
0.375912423
 40
0.4069435481
 40
0.4379835843
 40
0.4690300377
 40
0.5000815858
 40
0.5620868256
 40
0.6240791622
 40
0.6860865834
 40
0.7171574261
 40
0.7482651965
 40
0.8105983551
 40
0.8733252298
 40
0.9048828852
 40
0.9365470333
 40
1.0
 40
1.0
 40
1.0
 40
1.0
 10
8.0308604475
 20
12.8500477814
 30
0.0
 10
8.0308604475
 20
12.8588750223
 30
0.0
 10
8.031953933
 20
12.8721416237
 30
0.0
 10
8.035592498
 20
12.8893987386
 30
0.0
 10
8.0406579514
 20
12.9061883388
 30
0.0
 10
8.04965994
 20
12.9261578675
 30
0.0
 10
8.0621676475
 20
12.9440894217
 30
0.0
 10
8.0740788257
 20
12.9566924919
 30
0.0
 10
8.083913516
 20
12.9651780262
 30
0.0
 10
8.094571456
 20
12.9725887444
 30
0.0
 10
8.1059575474
 20
12.9788171873
 30
0.0
 10
8.1179535987
 20
12.9837712082
 30
0.0
 10
8.1304256951
 20
12.9873705433
 30
0.0
 10
8.143226337
 20
12.9895562365
 30
0.0
 10
8.1604938776
 20
12.990537778
 30
0.0
 10
8.1821272622
 20
12.9880931371
 30
0.0
 10
8.2067443655
 20
12.979477098
 30
0.0
 10
8.2252322156
 20
12.9680146731
 30
0.0
 10
8.2383312538
 20
12.9567108392
 30
0.0
 10
8.2502523013
 20
12.9441065772
 30
0.0
 10
8.262764779
 20
12.9261699396
 30
0.0
 10
8.2717712665
 20
12.9061955643
 30
0.0
 10
8.2768383541
 20
12.8894021732
 30
0.0
 10
8.2804773921
 20
12.8721430985
 30
0.0
 10
8.2815711257
 20
12.8588754072
 30
0.0
 10
8.2815711257
 20
12.8500477814
 30
0.0
  0
SPLINE
  5
41E
100
AcDbEntity
  8
0
100
AcDbSpline
 62
7
  6
CONTINUOUS
 70
0
 71
3
 72
9
 73
5
 74
0
 42
0.0000001
 43
0.0000001
 44
0.0000000001
 40
0.0
 40
0.0
 40
0.0
 40
0.0
 40
0.2450481775
 40
1.0
 40
1.0
 40
1.0
 40
1.0
 10
7.8820466681
 20
12.9797040073
 30
0.0
 10
7.8804048984
 20
12.9765212495
 30
0.0
 10
7.8740040831
 20
12.9633800306
 30
0.0
 10
7.8687846637
 20
12.9496704785
 30
0.0
 10
7.8654871164
 20
12.9391415554
 30
0.0
  0
SPLINE
  5
41F
100
AcDbEntity
  8
0
100
AcDbSpline
 62
7
  6
CONTINUOUS
 70
0
 71
3
 72
9
 73
5
 74
0
 42
0.0000001
 43
0.0000001
 44
0.0000000001
 40
0.0
 40
0.0
 40
0.0
 40
0.0
 40
0.2456639173
 40
1.0
 40
1.0
 40
1.0
 40
1.0
 10
7.8654871164
 20
12.9391415554
 30
0.0
 10
7.8632775839
 20
12.9320866154
 30
0.0
 10
7.8554483924
 20
12.9030128914
 30
0.0
 10
7.8521598707
 20
12.8727482767
 30
0.0
 10
7.8521598707
 20
12.8500477814
 30
0.0
  0
SPLINE
  5
420
100
AcDbEntity
  8
0
100
AcDbSpline
 62
7
  6
CONTINUOUS
 70
0
 71
3
 72
9
 73
5
 74
0
 42
0.0000001
 43
0.0000001
 44
0.0000000001
 40
0.0
 40
0.0
 40
0.0
 40
0.0
 40
0.2537149426
 40
1.0
 40
1.0
 40
1.0
 40
1.0
 10
7.8521598707
 20
12.8500477814
 30
0.0
 10
7.8521598707
 20
12.8424130034
 30
0.0
 10
7.8532655249
 20
12.8123357277
 30
0.0
 10
7.858775244
 20
12.78238472
 30
0.0
 10
7.8654871164
 20
12.7609540073
 30
0.0
  0
SPLINE
  5
421
100
AcDbEntity
  8
0
100
AcDbSpline
 62
7
  6
CONTINUOUS
 70
0
 71
3
 72
14
 73
10
 74
0
 42
0.0000001
 43
0.0000001
 44
0.0000000001
 40
0.0
 40
0.0
 40
0.0
 40
0.0
 40
0.274755412
 40
0.4054141399
 40
0.5315511093
 40
0.6534903482
 40
0.7717583984
 40
0.8870269218
 40
1.0
 40
1.0
 40
1.0
 40
1.0
 10
8.1295813616
 20
12.9867989344
 30
0.0
 10
8.1233930172
 20
12.9978243225
 30
0.0
 10
8.1128591104
 20
13.013395207
 30
0.0
 10
8.0962448982
 20
13.0313928727
 30
0.0
 10
8.0831091416
 20
13.0429027121
 30
0.0
 10
8.0692180837
 20
13.0525214629
 30
0.0
 10
8.054702186
 20
13.0601570919
 30
0.0
 10
8.0397095916
 20
13.0657136296
 30
0.0
 10
8.0294229977
 20
13.0680195644
 30
0.0
 10
8.0242829142
 20
13.0687977814
 30
0.0
  0
SPLINE
  5
422
100
AcDbEntity
  8
0
100
AcDbSpline
 62
7
  6
CONTINUOUS
 70
0
 71
3
 72
15
 73
11
 74
0
 42
0.0000001
 43
0.0000001
 44
0.0000000001
 40
0.0
 40
0.0
 40
0.0
 40
0.0
 40
0.1403071342
 40
0.2761709875
 40
0.4072038687
 40
0.5334630288
 40
0.6552544991
 40
0.7731184366
 40
0.8877765551
 40
1.0
 40
1.0
 40
1.0
 40
1.0
 10
7.8820466681
 20
12.7203915554
 30
0.0
 10
7.8851799527
 20
12.7143173256
 30
0.0
 10
7.8918788124
 20
12.7026252644
 30
0.0
 10
7.9033354062
 20
12.6863948085
 30
0.0
 10
7.9159401602
 20
12.6719281613
 30
0.0
 10
7.9295462197
 20
12.6593845411
 30
0.0
 10
7.9440186455
 20
12.6489040057
 30
0.0
 10
7.9592056591
 20
12.6405984951
 30
0.0
 10
7.9749390553
 20
12.6345826764
 30
0.0
 10
7.9857586975
 20
12.6321161243
 30
0.0
 10
7.9911638109
 20
12.6312977814
 30
0.0
  0
SPLINE
  5
423
100
AcDbEntity
  8
0
100
AcDbSpline
 62
7
  6
CONTINUOUS
 70
0
 71
3
 72
14
 73
10
 74
0
 42
0.0000001
 43
0.0000001
 44
0.0000000001
 40
0.0
 40
0.0
 40
0.0
 40
0.0
 40
0.1130085112
 40
0.2283056536
 40
0.3465922879
 40
0.4685375433
 40
0.5946671249
 40
0.7253058418
 40
1.0
 40
1.0
 40
1.0
 40
1.0
 10
8.0242829142
 20
12.6312977814
 30
0.0
 10
8.0294100175
 20
12.6320740331
 30
0.0
 10
8.0396705164
 20
12.6343722083
 30
0.0
 10
8.0546267231
 20
12.6399066904
 30
0.0
 10
8.0691094941
 20
12.6475101559
 30
0.0
 10
8.0829716308
 20
12.6570875596
 30
0.0
 10
8.0960836102
 20
12.6685476199
 30
0.0
 10
8.1126733092
 20
12.68646759
 30
0.0
 10
8.1232003814
 20
12.7019736389
 30
0.0
 10
8.129388945
 20
12.7129545106
 30
0.0
  0
SPLINE
  5
424
100
AcDbEntity
  8
0
100
AcDbSpline
 62
7
  6
CONTINUOUS
 70
0
 71
3
 72
15
 73
11
 74
0
 42
0.0000001
 43
0.0000001
 44
0.0000000001
 40
0.0
 40
0.0
 40
0.0
 40
0.0
 40
0.1122234449
 40
0.2268815634
 40
0.3447455009
 40
0.4665369712
 40
0.5927961313
 40
0.7238290125
 40
0.8596928658
 40
1.0
 40
1.0
 40
1.0
 40
1.0
 10
7.9911638109
 20
13.0687977814
 30
0.0
 10
7.9857586975
 20
13.0679794385
 30
0.0
 10
7.9749390553
 20
13.0655128863
 30
0.0
 10
7.9592056591
 20
13.0594970677
 30
0.0
 10
7.9440186455
 20
13.051191557
 30
0.0
 10
7.9295462197
 20
13.0407110216
 30
0.0
 10
7.9159401602
 20
13.0281674014
 30
0.0
 10
7.9033354062
 20
13.0137007542
 30
0.0
 10
7.8918788124
 20
12.9974702983
 30
0.0
 10
7.8851799527
 20
12.9857782372
 30
0.0
 10
7.8820466681
 20
12.9797040073
 30
0.0
  0
SPLINE
  5
425
100
AcDbEntity
  8
0
100
AcDbSpline
 62
7
  6
CONTINUOUS
 70
0
 71
3
 72
30
 73
26
 74
0
 42
0.0000001
 43
0.0000001
 44
0.0000000001
 40
0.0
 40
0.0
 40
0.0
 40
0.0
 40
0.0634502002
 40
0.0951091991
 40
0.1266603081
 40
0.1893695591
 40
0.2516829124
 40
0.2827760832
 40
0.3138370488
 40
0.3448803389
 40
0.375912423
 40
0.4069435481
 40
0.4379835843
 40
0.4690300377
 40
0.5000815858
 40
0.5620868256
 40
0.6240791622
 40
0.6860865834
 40
0.7171574261
 40
0.7482651965
 40
0.8105983551
 40
0.8733252298
 40
0.9048828852
 40
0.9365470333
 40
1.0
 40
1.0
 40
1.0
 40
1.0
 10
15.8103552569
 20
6.9798800719
 30
0.0
 10
15.801528016
 20
6.9798800719
 30
0.0
 10
15.7882614146
 20
6.9809735574
 30
0.0
 10
15.7710042997
 20
6.9846121223
 30
0.0
 10
15.7542146995
 20
6.9896775758
 30
0.0
 10
15.7342451708
 20
6.9986795643
 30
0.0
 10
15.7163136166
 20
7.0111872718
 30
0.0
 10
15.7037105464
 20
7.02309845
 30
0.0
 10
15.6952250121
 20
7.0329331404
 30
0.0
 10
15.6878142939
 20
7.0435910803
 30
0.0
 10
15.681585851
 20
7.0549771718
 30
0.0
 10
15.6766318301
 20
7.066973223
 30
0.0
 10
15.673032495
 20
7.0794453195
 30
0.0
 10
15.6708468018
 20
7.0922459614
 30
0.0
 10
15.6698652603
 20
7.109513502
 30
0.0
 10
15.6723099012
 20
7.1311468866
 30
0.0
 10
15.6809259403
 20
7.1557639899
 30
0.0
 10
15.6923883652
 20
7.17425184
 30
0.0
 10
15.7036921991
 20
7.1873508781
 30
0.0
 10
15.7162964611
 20
7.1992719257
 30
0.0
 10
15.7342330987
 20
7.2117844033
 30
0.0
 10
15.754207474
 20
7.2207908909
 30
0.0
 10
15.7710008651
 20
7.2258579785
 30
0.0
 10
15.7882599398
 20
7.2294970164
 30
0.0
 10
15.8015276311
 20
7.23059075
 30
0.0
 10
15.8103552569
 20
7.23059075
 30
0.0
  0
SPLINE
  5
426
100
AcDbEntity
  8
0
100
AcDbSpline
 62
7
  6
CONTINUOUS
 70
0
 71
3
 72
30
 73
26
 74
0
 42
0.0000001
 43
0.0000001
 44
0.0000000001
 40
0.0
 40
0.0
 40
0.0
 40
0.0
 40
0.0634502002
 40
0.0951091991
 40
0.1266603081
 40
0.1893695591
 40
0.2516829124
 40
0.2827760832
 40
0.3138370488
 40
0.3448803389
 40
0.375912423
 40
0.4069435481
 40
0.4379835843
 40
0.4690300377
 40
0.5000815858
 40
0.5620868256
 40
0.6240791622
 40
0.6860865834
 40
0.7171574261
 40
0.7482651965
 40
0.8105983551
 40
0.8733252298
 40
0.9048828852
 40
0.9365470333
 40
1.0
 40
1.0
 40
1.0
 40
1.0
 10
15.8103552569
 20
7.23059075
 30
0.0
 10
15.8191824979
 20
7.23059075
 30
0.0
 10
15.8324490993
 20
7.2294972645
 30
0.0
 10
15.8497062141
 20
7.2258586996
 30
0.0
 10
15.8664958143
 20
7.2207932461
 30
0.0
 10
15.8864653431
 20
7.2117912576
 30
0.0
 10
15.9043968973
 20
7.1992835501
 30
0.0
 10
15.9169999675
 20
7.1873723719
 30
0.0
 10
15.9254855018
 20
7.1775376815
 30
0.0
 10
15.93289622
 20
7.1668797416
 30
0.0
 10
15.9391246629
 20
7.1554936501
 30
0.0
 10
15.9440786838
 20
7.1434975989
 30
0.0
 10
15.9476780189
 20
7.1310255025
 30
0.0
 10
15.949863712
 20
7.1182248605
 30
0.0
 10
15.9508452535
 20
7.10095732
 30
0.0
 10
15.9484006127
 20
7.0793239353
 30
0.0
 10
15.9397845736
 20
7.054706832
 30
0.0
 10
15.9283221487
 20
7.036218982
 30
0.0
 10
15.9170183147
 20
7.0231199438
 30
0.0
 10
15.9044140528
 20
7.0111988962
 30
0.0
 10
15.8864774151
 20
6.9986864186
 30
0.0
 10
15.8665030399
 20
6.989679931
 30
0.0
 10
15.8497096488
 20
6.9846128434
 30
0.0
 10
15.832450574
 20
6.9809738055
 30
0.0
 10
15.8191828828
 20
6.9798800719
 30
0.0
 10
15.8103552569
 20
6.9798800719
 30
0.0
  0
SPLINE
  5
427
100
AcDbEntity
  8
0
100
AcDbSpline
 62
7
  6
CONTINUOUS
 70
0
 71
3
 72
9
 73
5
 74
0
 42
0.0000001
 43
0.0000001
 44
0.0000000001
 40
0.0
 40
0.0
 40
0.0
 40
0.0
 40
0.2450481775
 40
1.0
 40
1.0
 40
1.0
 40
1.0
 10
15.680699031
 20
6.8310662924
 30
0.0
 10
15.6838817888
 20
6.8294245228
 30
0.0
 10
15.6970230077
 20
6.8230237075
 30
0.0
 10
15.7107325598
 20
6.8178042881
 30
0.0
 10
15.7212614829
 20
6.8145067408
 30
0.0
  0
SPLINE
  5
428
100
AcDbEntity
  8
0
100
AcDbSpline
 62
7
  6
CONTINUOUS
 70
0
 71
3
 72
9
 73
5
 74
0
 42
0.0000001
 43
0.0000001
 44
0.0000000001
 40
0.0
 40
0.0
 40
0.0
 40
0.0
 40
0.2549277235
 40
1.0
 40
1.0
 40
1.0
 40
1.0
 10
15.899449031
 20
6.8145067408
 30
0.0
 10
15.9030043108
 20
6.8156202168
 30
0.0
 10
15.9168591606
 20
6.8202719261
 30
0.0
 10
15.9303344433
 20
6.8260745617
 30
0.0
 10
15.9400114829
 20
6.8310662924
 30
0.0
  0
SPLINE
  5
429
100
AcDbEntity
  8
0
100
AcDbSpline
 62
7
  6
CONTINUOUS
 70
0
 71
3
 72
15
 73
11
 74
0
 42
0.0000001
 43
0.0000001
 44
0.0000000001
 40
0.0
 40
0.0
 40
0.0
 40
0.0
 40
0.1403071342
 40
0.2761709875
 40
0.4072038687
 40
0.5334630288
 40
0.6552544991
 40
0.7731184366
 40
0.8877765551
 40
1.0
 40
1.0
 40
1.0
 40
1.0
 10
15.9400114829
 20
6.8310662924
 30
0.0
 10
15.9460857127
 20
6.8341995771
 30
0.0
 10
15.9577777739
 20
6.8408984367
 30
0.0
 10
15.9740082298
 20
6.8523550305
 30
0.0
 10
15.988474877
 20
6.8649597845
 30
0.0
 10
16.0010184972
 20
6.8785658441
 30
0.0
 10
16.0114990326
 20
6.8930382699
 30
0.0
 10
16.0198045432
 20
6.9082252835
 30
0.0
 10
16.0258203619
 20
6.9239586796
 30
0.0
 10
16.028286914
 20
6.9347783218
 30
0.0
 10
16.0291052569
 20
6.9401834353
 30
0.0
  0
SPLINE
  5
42A
100
AcDbEntity
  8
0
100
AcDbSpline
 62
7
  6
CONTINUOUS
 70
0
 71
3
 72
14
 73
10
 74
0
 42
0.0000001
 43
0.0000001
 44
0.0000000001
 40
0.0
 40
0.0
 40
0.0
 40
0.0
 40
0.274755412
 40
0.4054141399
 40
0.5315511093
 40
0.6534903482
 40
0.7717583984
 40
0.8870269218
 40
1.0
 40
1.0
 40
1.0
 40
1.0
 10
15.6736041039
 20
7.078600986
 30
0.0
 10
15.6625787158
 20
7.0724126415
 30
0.0
 10
15.6470078313
 20
7.0618787348
 30
0.0
 10
15.6290101656
 20
7.0452645226
 30
0.0
 10
15.6175003262
 20
7.0321287659
 30
0.0
 10
15.6078815754
 20
7.018237708
 30
0.0
 10
15.6002459464
 20
7.0037218104
 30
0.0
 10
15.5946894088
 20
6.9887292159
 30
0.0
 10
15.5923834739
 20
6.9784426221
 30
0.0
 10
15.5916052569
 20
6.9733025385
 30
0.0
  0
SPLINE
  5
42B
100
AcDbEntity
  8
0
100
AcDbSpline
 62
7
  6
CONTINUOUS
 70
0
 71
3
 72
14
 73
10
 74
0
 42
0.0000001
 43
0.0000001
 44
0.0000000001
 40
0.0
 40
0.0
 40
0.0
 40
0.0
 40
0.1130085112
 40
0.2283056536
 40
0.3465922879
 40
0.4685375433
 40
0.5946671249
 40
0.7253058418
 40
1.0
 40
1.0
 40
1.0
 40
1.0
 10
16.0291052569
 20
6.9733025385
 30
0.0
 10
16.0283290052
 20
6.9784296419
 30
0.0
 10
16.02603083
 20
6.9886901407
 30
0.0
 10
16.0204963479
 20
7.0036463475
 30
0.0
 10
16.0128928824
 20
7.0181291184
 30
0.0
 10
16.0033154787
 20
7.0319912551
 30
0.0
 10
15.9918554184
 20
7.0451032346
 30
0.0
 10
15.9739354483
 20
7.0616929335
 30
0.0
 10
15.9584293994
 20
7.0722200058
 30
0.0
 10
15.9474485277
 20
7.0784085694
 30
0.0
  0
SPLINE
  5
42C
100
AcDbEntity
  8
0
100
AcDbSpline
 62
7
  6
CONTINUOUS
 70
0
 71
3
 72
15
 73
11
 74
0
 42
0.0000001
 43
0.0000001
 44
0.0000000001
 40
0.0
 40
0.0
 40
0.0
 40
0.0
 40
0.1122234449
 40
0.2268815634
 40
0.3447455009
 40
0.4665369712
 40
0.5927961313
 40
0.7238290125
 40
0.8596928658
 40
1.0
 40
1.0
 40
1.0
 40
1.0
 10
15.5916052569
 20
6.9401834353
 30
0.0
 10
15.5924235998
 20
6.9347783218
 30
0.0
 10
15.594890152
 20
6.9239586796
 30
0.0
 10
15.6009059706
 20
6.9082252835
 30
0.0
 10
15.6092114813
 20
6.8930382699
 30
0.0
 10
15.6196920167
 20
6.8785658441
 30
0.0
 10
15.6322356369
 20
6.8649597845
 30
0.0
 10
15.6467022841
 20
6.8523550305
 30
0.0
 10
15.66293274
 20
6.8408984367
 30
0.0
 10
15.6746248011
 20
6.8341995771
 30
0.0
 10
15.680699031
 20
6.8310662924
 30
0.0
  0
SPLINE
  5
42D
100
AcDbEntity
  8
0
100
AcDbSpline
 62
7
  6
CONTINUOUS
 70
0
 71
3
 72
9
 73
5
 74
0
 42
0.0000001
 43
0.0000001
 44
0.0000000001
 40
0.0
 40
0.0
 40
0.0
 40
0.0
 40
0.2456639173
 40
1.0
 40
1.0
 40
1.0
 40
1.0
 10
15.7212614829
 20
6.8145067408
 30
0.0
 10
15.7283164229
 20
6.8122972082
 30
0.0
 10
15.7573901469
 20
6.8044680167
 30
0.0
 10
15.7876547616
 20
6.801179495
 30
0.0
 10
15.8103552569
 20
6.801179495
 30
0.0
  0
SPLINE
  5
42E
100
AcDbEntity
  8
0
100
AcDbSpline
 62
7
  6
CONTINUOUS
 70
0
 71
3
 72
9
 73
5
 74
0
 42
0.0000001
 43
0.0000001
 44
0.0000000001
 40
0.0
 40
0.0
 40
0.0
 40
0.0
 40
0.2537149426
 40
1.0
 40
1.0
 40
1.0
 40
1.0
 10
15.8103552569
 20
6.801179495
 30
0.0
 10
15.8179900349
 20
6.801179495
 30
0.0
 10
15.8480673106
 20
6.8022851493
 30
0.0
 10
15.8780183183
 20
6.8077948684
 30
0.0
 10
15.899449031
 20
6.8145067408
 30
0.0
  0
LINE
  5
42F
100
AcDbEntity
  8
0
100
AcDbLine
 62
7
  6
CONTINUOUS
 10
14.5913139275
 20
6.425219956
 11
14.5893071541
 21
6.4249150965
  0
LINE
  5
430
100
AcDbEntity
  8
0
100
AcDbLine
 62
7
  6
CONTINUOUS
 10
14.2926532672
 20
6.4249151103
 11
14.2906462653
 21
6.4252200051
  0
SPLINE
  5
431
100
AcDbEntity
  8
0
100
AcDbSpline
 62
7
  6
CONTINUOUS
 70
0
 71
3
 72
9
 73
5
 74
0
 42
0.0000001
 43
0.0000001
 44
0.0000000001
 40
0.0
 40
0.0
 40
0.0
 40
0.0
 40
0.245773414
 40
1.0
 40
1.0
 40
1.0
 40
1.0
 10
16.1042658443
 20
13.4812786891
 30
0.0
 10
16.1047764236
 20
13.477760551
 30
0.0
 10
16.1072227063
 20
13.4635010395
 30
0.0
 10
16.1111135525
 20
13.4494968013
 30
0.0
 10
16.1147507544
 20
13.4392114467
 30
0.0
  0
SPLINE
  5
432
100
AcDbEntity
  8
0
100
AcDbSpline
 62
7
  6
CONTINUOUS
 70
0
 71
3
 72
25
 73
21
 74
0
 42
0.0000001
 43
0.0000001
 44
0.0000000001
 40
0.0
 40
0.0
 40
0.0
 40
0.0
 40
0.0620438573
 40
0.124056888
 40
0.1860660355
 40
0.2480896991
 40
0.3101735123
 40
0.3723793168
 40
0.4347926418
 40
0.4661407778
 40
0.4975622898
 40
0.5605664806
 40
0.6237902052
 40
0.6554607074
 40
0.6871176665
 40
0.7502368776
 40
0.8130741967
 40
0.8756045945
 40
0.9378784865
 40
1.0
 40
1.0
 40
1.0
 40
1.0
 10
16.5210400468
 20
13.5064076478
 30
0.0
 10
16.518458053
 20
13.4980523128
 30
0.0
 10
16.5115106243
 20
13.4818354327
 30
0.0
 10
16.4961487647
 20
13.4603356635
 30
0.0
 10
16.4765036445
 20
13.4426495423
 30
0.0
 10
16.4535111708
 20
13.429602086
 30
0.0
 10
16.4282592457
 20
13.4217100255
 30
0.0
 10
16.4018870466
 20
13.4191676812
 30
0.0
 10
16.3798708282
 20
13.4214468137
 30
0.0
 10
16.36273455
 20
13.4257419367
 30
0.0
 10
16.345992171
 20
13.4316396527
 30
0.0
 10
16.3261240899
 20
13.4418727433
 30
0.0
 10
16.3083447227
 20
13.455459525
 30
0.0
 10
16.295687668
 20
13.4680566183
 30
0.0
 10
16.2841849552
 20
13.4816958744
 30
0.0
 10
16.2721395367
 20
13.5005122264
 30
0.0
 10
16.2619832172
 20
13.5252180051
 30
0.0
 10
16.2566010882
 20
13.5512796792
 30
0.0
 10
16.2563617603
 20
13.5777915965
 30
0.0
 10
16.2597805046
 20
13.5951408442
 30
0.0
 10
16.2623657301
 20
13.603506637
 30
0.0
  0
SPLINE
  5
433
100
AcDbEntity
  8
0
100
AcDbSpline
 62
7
  6
CONTINUOUS
 70
0
 71
3
 72
9
 73
5
 74
0
 42
0.0000001
 43
0.0000001
 44
0.0000000001
 40
0.0
 40
0.0
 40
0.0
 40
0.0
 40
0.2528483002
 40
1.0
 40
1.0
 40
1.0
 40
1.0
 10
16.2269729931
 20
13.3015935923
 30
0.0
 10
16.2302332724
 20
13.2995646932
 30
0.0
 10
16.2432980578
 20
13.2918188997
 30
0.0
 10
16.257038932
 20
13.2852055936
 30
0.0
 10
16.2675804203
 20
13.2810064275
 30
0.0
  0
SPLINE
  5
434
100
AcDbEntity
  8
0
100
AcDbSpline
 62
7
  6
CONTINUOUS
 70
0
 71
3
 72
25
 73
21
 74
0
 42
0.0000001
 43
0.0000001
 44
0.0000000001
 40
0.0
 40
0.0
 40
0.0
 40
0.0
 40
0.0620438573
 40
0.124056888
 40
0.1860660355
 40
0.2480896991
 40
0.3101735123
 40
0.3723793168
 40
0.4347926418
 40
0.4661407778
 40
0.4975622898
 40
0.5605664806
 40
0.6237902052
 40
0.6554607074
 40
0.6871176665
 40
0.7502368776
 40
0.8130741967
 40
0.8756045945
 40
0.9378784865
 40
1.0
 40
1.0
 40
1.0
 40
1.0
 10
16.2623657301
 20
13.603506637
 30
0.0
 10
16.2649477239
 20
13.611861972
 30
0.0
 10
16.2718951526
 20
13.6280788521
 30
0.0
 10
16.2872570122
 20
13.6495786212
 30
0.0
 10
16.3069021323
 20
13.6672647424
 30
0.0
 10
16.329894606
 20
13.6803121988
 30
0.0
 10
16.3551465311
 20
13.6882042593
 30
0.0
 10
16.3815187302
 20
13.6907466036
 30
0.0
 10
16.4035349487
 20
13.688467471
 30
0.0
 10
16.4206712268
 20
13.6841723481
 30
0.0
 10
16.4374136058
 20
13.6782746321
 30
0.0
 10
16.4572816869
 20
13.6680415414
 30
0.0
 10
16.4750610541
 20
13.6544547598
 30
0.0
 10
16.4877181088
 20
13.6418576665
 30
0.0
 10
16.4992208217
 20
13.6282184104
 30
0.0
 10
16.5112662402
 20
13.6094020583
 30
0.0
 10
16.5214225596
 20
13.5846962797
 30
0.0
 10
16.5268046887
 20
13.5586346055
 30
0.0
 10
16.5270440165
 20
13.5321226883
 30
0.0
 10
16.5236252723
 20
13.5147734405
 30
0.0
 10
16.5210400468
 20
13.5064076478
 30
0.0
  0
SPLINE
  5
435
100
AcDbEntity
  8
0
100
AcDbSpline
 62
7
  6
CONTINUOUS
 70
0
 71
3
 72
11
 73
7
 74
0
 42
0.0000001
 43
0.0000001
 44
0.0000000001
 40
0.0
 40
0.0
 40
0.0
 40
0.0
 40
0.2466321275
 40
0.4945132792
 40
0.745181898
 40
1.0
 40
1.0
 40
1.0
 40
1.0
 10
16.4530583809
 20
13.3044477522
 30
0.0
 10
16.4574315119
 20
13.3085594776
 30
0.0
 10
16.4656613107
 20
13.317398546
 30
0.0
 10
16.4761874324
 20
13.3322296176
 30
0.0
 10
16.4847864135
 20
13.3484794008
 30
0.0
 10
16.489134499
 20
13.3600276472
 30
0.0
 10
16.4909655573
 20
13.3659529541
 30
0.0
  0
SPLINE
  5
436
100
AcDbEntity
  8
0
100
AcDbSpline
 62
7
  6
CONTINUOUS
 70
0
 71
3
 72
10
 73
6
 74
0
 42
0.0000001
 43
0.0000001
 44
0.0000000001
 40
0.0
 40
0.0
 40
0.0
 40
0.0
 40
0.2410780484
 40
0.4879574079
 40
1.0
 40
1.0
 40
1.0
 40
1.0
 10
16.4909655573
 20
13.3659529541
 30
0.0
 10
16.4928350925
 20
13.3720027723
 30
0.0
 10
16.4958660254
 20
13.3844950922
 30
0.0
 10
16.4990606405
 20
13.4106062751
 30
0.0
 10
16.498123199
 20
13.4307171017
 30
0.0
 10
16.4961915855
 20
13.4440268537
 30
0.0
  0
SPLINE
  5
437
100
AcDbEntity
  8
0
100
AcDbSpline
 62
7
  6
CONTINUOUS
 70
0
 71
3
 72
11
 73
7
 74
0
 42
0.0000001
 43
0.0000001
 44
0.0000000001
 40
0.0
 40
0.0
 40
0.0
 40
0.0
 40
0.2642523521
 40
0.5183853275
 40
0.7631638633
 40
1.0
 40
1.0
 40
1.0
 40
1.0
 10
16.2950431328
 20
13.6557998797
 30
0.0
 10
16.2846535225
 20
13.6579923781
 30
0.0
 10
16.2639164544
 20
13.6608050818
 30
0.0
 10
16.2331210315
 20
13.6600169721
 30
0.0
 10
16.2039911983
 20
13.6541353127
 30
0.0
 10
16.1859335866
 20
13.6467883465
 30
0.0
 10
16.1775215662
 20
13.6423378682
 30
0.0
  0
SPLINE
  5
438
100
AcDbEntity
  8
0
100
AcDbSpline
 62
7
  6
CONTINUOUS
 70
0
 71
3
 72
12
 73
8
 74
0
 42
0.0000001
 43
0.0000001
 44
0.0000000001
 40
0.0
 40
0.0
 40
0.0
 40
0.0
 40
0.2440950588
 40
0.4947009587
 40
0.621351469
 40
0.7481999949
 40
1.0
 40
1.0
 40
1.0
 40
1.0
 10
16.1147507544
 20
13.4392114467
 30
0.0
 10
16.1196530439
 20
13.4253486511
 30
0.0
 10
16.1322201784
 20
13.398128965
 30
0.0
 10
16.1535396521
 20
13.3671504587
 30
0.0
 10
16.1737067975
 20
13.3444053855
 30
0.0
 10
16.1957077103
 20
13.3233366417
 30
0.0
 10
16.2140948264
 20
13.3096077829
 30
0.0
 10
16.2269729931
 20
13.3015935923
 30
0.0
  0
SPLINE
  5
439
100
AcDbEntity
  8
0
100
AcDbSpline
 62
7
  6
CONTINUOUS
 70
0
 71
3
 72
14
 73
10
 74
0
 42
0.0000001
 43
0.0000001
 44
0.0000000001
 40
0.0
 40
0.0
 40
0.0
 40
0.0
 40
0.2678126173
 40
0.397396932
 40
0.5237515758
 40
0.6469422596
 40
0.767179013
 40
0.8847702851
 40
1.0
 40
1.0
 40
1.0
 40
1.0
 10
16.2675804203
 20
13.2810064275
 30
0.0
 10
16.2808635721
 20
13.2757151291
 30
0.0
 10
16.3013421323
 20
13.2695677895
 30
0.0
 10
16.3290494552
 20
13.2655484791
 30
0.0
 10
16.3493123763
 20
13.2646977532
 30
0.0
 10
16.3690511178
 20
13.2659991854
 30
0.0
 10
16.3880615629
 20
13.2694366718
 30
0.0
 10
16.4061211059
 20
13.2749871758
 30
0.0
 10
16.4174980133
 20
13.2800907159
 30
0.0
 10
16.4229358637
 20
13.2829676745
 30
0.0
  0
SPLINE
  5
43A
100
AcDbEntity
  8
0
100
AcDbSpline
 62
7
  6
CONTINUOUS
 70
0
 71
3
 72
11
 73
7
 74
0
 42
0.0000001
 43
0.0000001
 44
0.0000000001
 40
0.0
 40
0.0
 40
0.0
 40
0.0
 40
0.2466321275
 40
0.4945132792
 40
0.745181898
 40
1.0
 40
1.0
 40
1.0
 40
1.0
 10
16.147399049
 20
13.6208577905
 30
0.0
 10
16.1430259179
 20
13.6167460652
 30
0.0
 10
16.1347961191
 20
13.6079069968
 30
0.0
 10
16.1242699975
 20
13.5930759252
 30
0.0
 10
16.1156710164
 20
13.576826142
 30
0.0
 10
16.1113229309
 20
13.5652778955
 30
0.0
 10
16.1094918726
 20
13.5593525886
 30
0.0
  0
SPLINE
  5
43B
100
AcDbEntity
  8
0
100
AcDbSpline
 62
7
  6
CONTINUOUS
 70
0
 71
3
 72
10
 73
6
 74
0
 42
0.0000001
 43
0.0000001
 44
0.0000000001
 40
0.0
 40
0.0
 40
0.0
 40
0.0
 40
0.2410780484
 40
0.4879574079
 40
1.0
 40
1.0
 40
1.0
 40
1.0
 10
16.1094918726
 20
13.5593525886
 30
0.0
 10
16.1076223373
 20
13.5533027705
 30
0.0
 10
16.1045914045
 20
13.5408104505
 30
0.0
 10
16.1013967894
 20
13.5146992676
 30
0.0
 10
16.1023342309
 20
13.494588441
 30
0.0
 10
16.1042658443
 20
13.4812786891
 30
0.0
  0
SPLINE
  5
43C
100
AcDbEntity
  8
0
100
AcDbSpline
 62
7
  6
CONTINUOUS
 70
0
 71
3
 72
14
 73
10
 74
0
 42
0.0000001
 43
0.0000001
 44
0.0000000001
 40
0.0
 40
0.0
 40
0.0
 40
0.0
 40
0.1164577145
 40
0.2338094116
 40
0.3529345271
 40
0.4746571828
 40
0.5997231098
 40
0.7287509591
 40
1.0
 40
1.0
 40
1.0
 40
1.0
 10
15.5484591265
 20
11.0971989976
 30
0.0
 10
15.5505304612
 20
11.1039024563
 30
0.0
 10
15.553963847
 20
11.1175971661
 30
0.0
 10
15.5568957114
 20
11.1386958675
 30
0.0
 10
15.5576055349
 20
11.1603035265
 30
0.0
 10
15.5561000008
 20
11.1823324766
 30
0.0
 10
15.5523819723
 20
11.2047022186
 30
0.0
 10
15.5443656625
 20
11.235353513
 30
0.0
 10
15.535260386
 20
11.2578305747
 30
0.0
 10
15.528061112
 20
11.2725011526
 30
0.0
  0
SPLINE
  5
43D
100
AcDbEntity
  8
0
100
AcDbSpline
 62
7
  6
CONTINUOUS
 70
0
 71
3
 72
14
 73
10
 74
0
 42
0.0000001
 43
0.0000001
 44
0.0000000001
 40
0.0
 40
0.0
 40
0.0
 40
0.0
 40
0.1405846388
 40
0.2770209953
 40
0.5349829808
 40
0.6569814132
 40
0.7746878951
 40
0.8887764451
 40
1.0
 40
1.0
 40
1.0
 40
1.0
 10
14.6261793821
 20
12.1083617764
 30
0.0
 10
14.6224784712
 20
12.1042160422
 30
0.0
 10
14.6155596723
 20
12.095698783
 30
0.0
 10
14.6038954312
 20
12.0780353923
 30
0.0
 10
14.5953484349
 20
12.059259192
 30
0.0
 10
14.5906798216
 20
12.0401006405
 30
0.0
 10
14.5891945558
 20
12.0261471688
 30
0.0
 10
14.5897057265
 20
12.0125510981
 30
0.0
 10
14.5913805549
 20
12.0037605777
 30
0.0
 10
14.592545009
 20
11.9995209053
 30
0.0
  0
SPLINE
  5
43E
100
AcDbEntity
  8
0
100
AcDbSpline
 62
7
  6
CONTINUOUS
 70
0
 71
3
 72
9
 73
5
 74
0
 42
0.0000001
 43
0.0000001
 44
0.0000000001
 40
0.0
 40
0.0
 40
0.0
 40
0.0
 40
0.4785200577
 40
1.0
 40
1.0
 40
1.0
 40
1.0
 10
15.9761617128
 20
11.56872257
 30
0.0
 10
15.9776761549
 20
11.5666666295
 30
0.0
 10
15.9806053598
 20
11.5621945528
 30
0.0
 10
15.9831304168
 20
11.5574865895
 30
0.0
 10
15.9843563406
 20
11.5549884194
 30
0.0
  0
SPLINE
  5
43F
100
AcDbEntity
  8
0
100
AcDbSpline
 62
7
  6
CONTINUOUS
 70
0
 71
3
 72
23
 73
19
 74
0
 42
0.0000001
 43
0.0000001
 44
0.0000000001
 40
0.0
 40
0.0
 40
0.0
 40
0.0
 40
0.0555746893
 40
0.1137461271
 40
0.1742688162
 40
0.2368388546
 40
0.3011006279
 40
0.3666642693
 40
0.4331098449
 40
0.5000014976
 40
0.5668929065
 40
0.6333393445
 40
0.6989032815
 40
0.7631657025
 40
0.8257342891
 40
0.8862577812
 40
0.9444299079
 40
1.0
 40
1.0
 40
1.0
 40
1.0
 10
15.5275549981
 20
10.6995698296
 30
0.0
 10
15.5016289556
 20
10.693473595
 30
0.0
 10
15.4479909193
 20
10.6833489008
 30
0.0
 10
15.3648870724
 20
10.6743594616
 30
0.0
 10
15.2780030034
 20
10.6712684448
 30
0.0
 10
15.1881990231
 20
10.6741203302
 30
0.0
 10
15.0963543247
 20
10.6828709167
 30
0.0
 10
15.0033752307
 20
10.6974458453
 30
0.0
 10
14.9101767922
 20
10.7176936624
 30
0.0
 10
14.8176788614
 20
10.7434164697
 30
0.0
 10
14.7267953663
 20
10.7743643681
 30
0.0
 10
14.6384202065
 20
10.8102232892
 30
0.0
 10
14.5534304897
 20
10.8506514562
 30
0.0
 10
14.4726586123
 20
10.8952371252
 30
0.0
 10
14.3969052039
 20
10.9435519018
 30
0.0
 10
14.3269110555
 20
10.9951194735
 30
0.0
 10
14.2633704212
 20
11.0494277344
 30
0.0
 10
14.224794693
 20
11.0880445602
 30
0.0
 10
14.2068301738
 20
11.1077037173
 30
0.0
  0
SPLINE
  5
440
100
AcDbEntity
  8
0
100
AcDbSpline
 62
7
  6
CONTINUOUS
 70
0
 71
3
 72
10
 73
6
 74
0
 42
0.0000001
 43
0.0000001
 44
0.0000000001
 40
0.0
 40
0.0
 40
0.0
 40
0.0
 40
0.5175656818
 40
0.7632404175
 40
1.0
 40
1.0
 40
1.0
 40
1.0
 10
14.1963328484
 20
11.1191911224
 30
0.0
 10
14.1745527015
 20
11.1430259159
 30
0.0
 10
14.1442353013
 20
11.1799317947
 30
0.0
 10
14.1094073469
 20
11.2317258766
 30
0.0
 10
14.0943152134
 20
11.2577994942
 30
0.0
 10
14.0873941621
 20
11.2708473199
 30
0.0
  0
SPLINE
  5
441
100
AcDbEntity
  8
0
100
AcDbSpline
 62
7
  6
CONTINUOUS
 70
0
 71
3
 72
19
 73
15
 74
0
 42
0.0000001
 43
0.0000001
 44
0.0000000001
 40
0.0
 40
0.0
 40
0.0
 40
0.0
 40
0.0539289532
 40
0.1081142869
 40
0.162806434
 40
0.2182443636
 40
0.2746530801
 40
0.3322349401
 40
0.4515388113
 40
0.5773902378
 40
0.7105369935
 40
0.7800063115
 40
0.8514156633
 40
1.0
 40
1.0
 40
1.0
 40
1.0
 10
15.9262112174
 20
10.9965547304
 30
0.0
 10
15.923530757
 20
10.9878777514
 30
0.0
 10
15.9174171335
 20
10.970701363
 30
0.0
 10
15.906068996
 20
10.9457104403
 30
0.0
 10
15.8925675739
 20
10.9215214287
 30
0.0
 10
15.8769467702
 20
10.8981940656
 30
0.0
 10
15.8592383369
 20
10.8757858612
 30
0.0
 10
15.8326014998
 20
10.8468656876
 30
0.0
 10
15.7940322366
 20
10.8132527537
 30
0.0
 10
15.7408246098
 20
10.7779409372
 30
0.0
 10
15.6913863758
 20
10.7528653049
 30
0.0
 10
15.6487301208
 20
10.7352226519
 30
0.0
 10
15.6028081341
 20
10.7188277159
 30
0.0
 10
15.5670606484
 20
10.7088590341
 30
0.0
 10
15.542703545
 20
10.7031316942
 30
0.0
  0
SPLINE
  5
442
100
AcDbEntity
  8
0
100
AcDbSpline
 62
7
  6
CONTINUOUS
 70
0
 71
3
 72
11
 73
7
 74
0
 42
0.0000001
 43
0.0000001
 44
0.0000000001
 40
0.0
 40
0.0
 40
0.0
 40
0.0
 40
0.2385783747
 40
0.483464814
 40
0.7367303396
 40
1.0
 40
1.0
 40
1.0
 40
1.0
 10
16.0507952865
 20
11.4220694521
 30
0.0
 10
16.0522017432
 20
11.4361932332
 30
0.0
 10
16.0532299979
 20
11.4650240732
 30
0.0
 10
16.0495028796
 20
11.5087910979
 30
0.0
 10
16.0405590678
 20
11.553288853
 30
0.0
 10
16.0313442265
 20
11.5826686301
 30
0.0
 10
16.0259550069
 20
11.5973748481
 30
0.0
  0
SPLINE
  5
443
100
AcDbEntity
  8
0
100
AcDbSpline
 62
7
  6
CONTINUOUS
 70
0
 71
3
 72
37
 73
33
 74
0
 42
0.0000001
 43
0.0000001
 44
0.0000000001
 40
0.0
 40
0.0
 40
0.0
 40
0.0
 40
0.0265177326
 40
0.0543694824
 40
0.0835395842
 40
0.113997983
 40
0.1456991532
 40
0.1785709794
 40
0.2473656583
 40
0.2830598248
 40
0.3194173846
 40
0.3562819296
 40
0.3934880076
 40
0.4308671979
 40
0.4682477839
 40
0.5054578811
 40
0.5423291349
 40
0.6143788331
 40
0.6832024834
 40
0.7160925037
 40
0.7478163398
 40
0.7782961337
 40
0.807478521
 40
0.8353397072
 40
0.8618945692
 40
0.8871935663
 40
0.8994064946
 40
0.9113470012
 40
0.934480528
 40
0.9568003856
 40
0.9785481496
 40
1.0
 40
1.0
 40
1.0
 40
1.0
 10
15.528061112
 20
11.2725011526
 30
0.0
 10
15.5229496722
 20
11.2829171718
 30
0.0
 10
15.5113804053
 20
11.3037512624
 30
0.0
 10
15.4908404907
 20
11.3340358479
 30
0.0
 10
15.4668257838
 20
11.3638920494
 30
0.0
 10
15.4395125508
 20
11.3931064105
 30
0.0
 10
15.4090868499
 20
11.4214925392
 30
0.0
 10
15.3639589051
 20
11.4585356052
 30
0.0
 10
15.31415414
 20
11.492443764
 30
0.0
 10
15.2606442912
 20
11.5230474189
 30
0.0
 10
15.2181066042
 20
11.5445807679
 30
0.0
 10
15.1739587891
 20
11.5642599278
 30
0.0
 10
15.1284998348
 20
11.5819581053
 30
0.0
 10
15.0820363635
 20
11.5975442555
 30
0.0
 10
15.0348887796
 20
11.6109244072
 30
0.0
 10
14.9873730279
 20
11.6219968675
 30
0.0
 10
14.9244576312
 20
11.633500971
 30
0.0
 10
14.8470019828
 20
11.6418822967
 30
0.0
 10
14.7708011196
 20
11.6420812468
 30
0.0
 10
14.712604737
 20
11.6370092011
 30
0.0
 10
14.6714360522
 20
11.6307752611
 30
0.0
 10
14.6323691434
 20
11.622100125
 30
0.0
 10
14.5956651535
 20
11.6110425501
 30
0.0
 10
14.5615745013
 20
11.5976628412
 30
0.0
 10
14.5303246112
 20
11.5820618099
 30
0.0
 10
14.506553546
 20
11.5671007636
 30
0.0
 10
14.4892409778
 20
11.5541043417
 30
0.0
 10
14.4734175941
 20
11.5407599362
 30
0.0
 10
14.4556743154
 20
11.5228923453
 30
0.0
 10
14.4377586056
 20
11.4994681949
 30
0.0
 10
14.423574166
 20
11.4744517163
 30
0.0
 10
14.4166741456
 20
11.4567710227
 30
0.0
 10
14.4139031672
 20
11.4478033076
 30
0.0
  0
SPLINE
  5
444
100
AcDbEntity
  8
0
100
AcDbSpline
 62
7
  6
CONTINUOUS
 70
0
 71
3
 72
11
 73
7
 74
0
 42
0.0000001
 43
0.0000001
 44
0.0000000001
 40
0.0
 40
0.0
 40
0.0
 40
0.0
 40
0.2751290308
 40
0.5312712417
 40
0.7713776294
 40
1.0
 40
1.0
 40
1.0
 40
1.0
 10
15.9070785295
 20
11.5896782042
 30
0.0
 10
15.9090171522
 20
11.5916826956
 30
0.0
 10
15.9130089421
 20
11.5953258912
 30
0.0
 10
15.9195182366
 20
11.5997134023
 30
0.0
 10
15.9262440255
 20
11.6027606494
 30
0.0
 10
15.9308961994
 20
11.6038865479
 30
0.0
 10
15.9331921389
 20
11.604199868
 30
0.0
  0
SPLINE
  5
445
100
AcDbEntity
  8
0
100
AcDbSpline
 62
7
  6
CONTINUOUS
 70
0
 71
3
 72
15
 73
11
 74
0
 42
0.0000001
 43
0.0000001
 44
0.0000000001
 40
0.0
 40
0.0
 40
0.0
 40
0.0
 40
0.1004112283
 40
0.2119745282
 40
0.3327271982
 40
0.4606616551
 40
0.5935635511
 40
0.7292027651
 40
0.8654649272
 40
1.0
 40
1.0
 40
1.0
 40
1.0
 10
15.9043413311
 20
11.3258652984
 30
0.0
 10
15.9019925055
 20
11.3306517017
 30
0.0
 10
15.8974894238
 20
11.3409815635
 30
0.0
 10
15.8915310094
 20
11.3576243204
 30
0.0
 10
15.8861409535
 20
11.3759885148
 30
0.0
 10
15.8814800176
 20
11.395716254
 30
0.0
 10
15.8777069147
 20
11.4164371989
 30
0.0
 10
15.874978189
 20
11.4377685192
 30
0.0
 10
15.8734411341
 20
11.459306022
 30
0.0
 10
15.8732808214
 20
11.4736956194
 30
0.0
 10
15.8734441564
 20
11.4808373331
 30
0.0
  0
SPLINE
  5
446
100
AcDbEntity
  8
0
100
AcDbSpline
 62
7
  6
CONTINUOUS
 70
0
 71
3
 72
11
 73
7
 74
0
 42
0.0000001
 43
0.0000001
 44
0.0000000001
 40
0.0
 40
0.0
 40
0.0
 40
0.0
 40
0.2586584463
 40
0.4928899835
 40
0.7299934408
 40
1.0
 40
1.0
 40
1.0
 40
1.0
 10
12.9856093097
 20
12.8523873847
 30
0.0
 10
12.9854883865
 20
12.8523873857
 30
0.0
 10
12.9852558821
 20
12.8523628198
 30
0.0
 10
12.9849391152
 20
12.8522168634
 30
0.0
 10
12.9846970754
 20
12.8519578005
 30
0.0
 10
12.9846011075
 20
12.8517367109
 30
0.0
 10
12.9845638257
 20
12.8516161136
 30
0.0
  0
SPLINE
  5
447
100
AcDbEntity
  8
0
100
AcDbSpline
 62
7
  6
CONTINUOUS
 70
0
 71
3
 72
11
 73
7
 74
0
 42
0.0000001
 43
0.0000001
 44
0.0000000001
 40
0.0
 40
0.0
 40
0.0
 40
0.0
 40
0.2730031199
 40
0.5305529422
 40
0.7721247267
 40
1.0
 40
1.0
 40
1.0
 40
1.0
 10
12.4579485023
 20
11.1474883025
 30
0.0
 10
12.4574137596
 20
11.1457580021
 30
0.0
 10
12.4565692288
 20
11.1423290821
 30
0.0
 10
12.4560924695
 20
11.13720562
 30
0.0
 10
12.4565466031
 20
11.1323715241
 30
0.0
 10
12.4575481976
 20
11.1293830906
 30
0.0
 10
12.4582141562
 20
11.1280260098
 30
0.0
  0
SPLINE
  5
448
100
AcDbEntity
  8
0
100
AcDbSpline
 62
7
  6
CONTINUOUS
 70
0
 71
3
 72
17
 73
13
 74
0
 42
0.0000001
 43
0.0000001
 44
0.0000000001
 40
0.0
 40
0.0
 40
0.0
 40
0.0
 40
0.1135661584
 40
0.1705134745
 40
0.2278328346
 40
0.3443343439
 40
0.4646643923
 40
0.5266718415
 40
0.5900209952
 40
0.7209517837
 40
0.8578033106
 40
1.0
 40
1.0
 40
1.0
 40
1.0
 10
13.1009824332
 20
12.0223852639
 30
0.0
 10
13.1029257
 20
12.0167100226
 30
0.0
 10
13.1066427664
 20
12.0084323452
 30
0.0
 10
13.1130449242
 20
11.9982281713
 30
0.0
 10
13.1204445896
 20
11.9885215392
 30
0.0
 10
13.1315193798
 20
11.9775014172
 30
0.0
 10
13.144491473
 20
11.9683783514
 30
0.0
 10
13.1559194811
 20
11.9622064515
 30
0.0
 10
13.1682935006
 20
11.9566878321
 30
0.0
 10
13.1850115501
 20
11.9513361462
 30
0.0
 10
13.2063834238
 20
11.9475233627
 30
0.0
 10
13.2211396877
 20
11.9466977661
 30
0.0
 10
13.2286507124
 20
11.9466977661
 30
0.0
  0
SPLINE
  5
449
100
AcDbEntity
  8
0
100
AcDbSpline
 62
7
  6
CONTINUOUS
 70
0
 71
3
 72
9
 73
5
 74
0
 42
0.0000001
 43
0.0000001
 44
0.0000000001
 40
0.0
 40
0.0
 40
0.0
 40
0.0
 40
0.4996762777
 40
1.0
 40
1.0
 40
1.0
 40
1.0
 10
17.5181576755
 20
12.3674985945
 30
0.0
 10
17.5156568221
 20
12.3674986446
 30
0.0
 10
17.5106511968
 20
12.3673430119
 30
0.0
 10
17.5056611325
 20
12.3669315184
 30
0.0
 10
17.5031709684
 20
12.3666677589
 30
0.0
  0
SPLINE
  5
44A
100
AcDbEntity
  8
0
100
AcDbSpline
 62
7
  6
CONTINUOUS
 70
0
 71
3
 72
15
 73
11
 74
0
 42
0.0000001
 43
0.0000001
 44
0.0000000001
 40
0.0
 40
0.0
 40
0.0
 40
0.0
 40
0.1191463571
 40
0.2389127353
 40
0.3598944591
 40
0.4826476392
 40
0.6076539664
 40
0.7353771277
 40
0.8661387054
 40
1.0
 40
1.0
 40
1.0
 40
1.0
 10
18.3601124374
 20
12.2432348283
 30
0.0
 10
18.3563625474
 20
12.2508763008
 30
0.0
 10
18.3478841901
 20
12.265748574
 30
0.0
 10
18.3324840158
 20
12.2864129245
 30
0.0
 10
18.3145330072
 20
12.3052636967
 30
0.0
 10
18.2942381885
 20
12.3221480798
 30
0.0
 10
18.2717903714
 20
12.3369303332
 30
0.0
 10
18.2474019604
 20
12.3495198169
 30
0.0
 10
18.2212920675
 20
12.3598310392
 30
0.0
 10
18.2031031353
 20
12.3650978983
 30
0.0
 10
18.19380863
 20
12.3673490332
 30
0.0
  0
SPLINE
  5
44B
100
AcDbEntity
  8
0
100
AcDbSpline
 62
7
  6
CONTINUOUS
 70
0
 71
3
 72
9
 73
5
 74
0
 42
0.0000001
 43
0.0000001
 44
0.0000000001
 40
0.0
 40
0.0
 40
0.0
 40
0.0
 40
0.5069354109
 40
1.0
 40
1.0
 40
1.0
 40
1.0
 10
14.8374476699
 20
12.3913947866
 30
0.0
 10
14.8067951942
 20
12.3931143484
 30
0.0
 10
14.7462264443
 20
12.3949014493
 30
0.0
 10
14.6856480449
 20
12.3932634223
 30
0.0
 10
14.6558367875
 20
12.3915468936
 30
0.0
  0
SPLINE
  5
44C
100
AcDbEntity
  8
0
100
AcDbSpline
 62
7
  6
CONTINUOUS
 70
0
 71
3
 72
9
 73
5
 74
0
 42
0.0000001
 43
0.0000001
 44
0.0000000001
 40
0.0
 40
0.0
 40
0.0
 40
0.0
 40
0.2590872994
 40
1.0
 40
1.0
 40
1.0
 40
1.0
 10
14.3188865229
 20
12.3250449154
 30
0.0
 10
14.3077560777
 20
12.3208767741
 30
0.0
 10
14.265133516
 20
12.303915924
 30
0.0
 10
14.2239073791
 20
12.2833364428
 30
0.0
 10
14.1947601951
 20
12.2658534895
 30
0.0
  0
SPLINE
  5
44D
100
AcDbEntity
  8
0
100
AcDbSpline
 62
7
  6
CONTINUOUS
 70
0
 71
3
 72
9
 73
5
 74
0
 42
0.0000001
 43
0.0000001
 44
0.0000000001
 40
0.0
 40
0.0
 40
0.0
 40
0.0
 40
0.4923031136
 40
1.0
 40
1.0
 40
1.0
 40
1.0
 10
15.9272184269
 20
11.9758207805
 30
0.0
 10
15.9048869799
 20
11.9945800987
 30
0.0
 10
15.8583011663
 20
12.0312454776
 30
0.0
 10
15.809649736
 20
12.0651109787
 30
0.0
 10
15.7845036544
 20
12.0816126994
 30
0.0
  0
SPLINE
  5
44E
100
AcDbEntity
  8
0
100
AcDbSpline
 62
7
  6
CONTINUOUS
 70
0
 71
3
 72
14
 73
10
 74
0
 42
0.0000001
 43
0.0000001
 44
0.0000000001
 40
0.0
 40
0.0
 40
0.0
 40
0.0
 40
0.2491325771
 40
0.3765302799
 40
0.5043702646
 40
0.6315868543
 40
0.7572250609
 40
0.8803843834
 40
1.0
 40
1.0
 40
1.0
 40
1.0
 10
17.6148662877
 20
11.9472212144
 30
0.0
 10
17.628014879
 20
11.960467264
 30
0.0
 10
17.6500585188
 20
11.9784534924
 30
0.0
 10
17.6824394109
 20
11.997990441
 30
0.0
 10
17.7082919513
 20
12.010450863
 30
0.0
 10
17.7350730325
 20
12.0203764129
 30
0.0
 10
17.7623449963
 20
12.027610672
 30
0.0
 10
17.7896367227
 20
12.0320105675
 30
0.0
 10
17.8078366823
 20
12.0330412033
 30
0.0
 10
17.8167977774
 20
12.0330412033
 30
0.0
  0
SPLINE
  5
44F
100
AcDbEntity
  8
0
100
AcDbSpline
 62
7
  6
CONTINUOUS
 70
0
 71
3
 72
17
 73
13
 74
0
 42
0.0000001
 43
0.0000001
 44
0.0000000001
 40
0.0
 40
0.0
 40
0.0
 40
0.0
 40
0.1135661584
 40
0.1705134745
 40
0.2278328346
 40
0.3443343439
 40
0.4646643923
 40
0.5266718415
 40
0.5900209952
 40
0.7209517837
 40
0.8578033106
 40
1.0
 40
1.0
 40
1.0
 40
1.0
 10
17.4760221548
 20
12.0223852639
 30
0.0
 10
17.4779654215
 20
12.0167100226
 30
0.0
 10
17.4816824879
 20
12.0084323452
 30
0.0
 10
17.4880846458
 20
11.9982281713
 30
0.0
 10
17.4954843111
 20
11.9885215392
 30
0.0
 10
17.5065591013
 20
11.9775014172
 30
0.0
 10
17.5195311946
 20
11.9683783514
 30
0.0
 10
17.5309592026
 20
11.9622064515
 30
0.0
 10
17.5433332221
 20
11.9566878321
 30
0.0
 10
17.5600512716
 20
11.9513361462
 30
0.0
 10
17.5814231454
 20
11.9475233627
 30
0.0
 10
17.5961794092
 20
11.9466977661
 30
0.0
 10
17.6036904339
 20
11.9466977661
 30
0.0
  0
SPLINE
  5
450
100
AcDbEntity
  8
0
100
AcDbSpline
 62
7
  6
CONTINUOUS
 70
0
 71
3
 72
14
 73
10
 74
0
 42
0.0000001
 43
0.0000001
 44
0.0000000001
 40
0.0
 40
0.0
 40
0.0
 40
0.0
 40
0.2719377977
 40
0.4011810259
 40
0.5260029075
 40
0.6469240586
 40
0.7650782538
 40
0.8821459163
 40
1.0
 40
1.0
 40
1.0
 40
1.0
 10
18.7798500307
 20
12.8523873847
 30
0.0
 10
18.7822015209
 20
12.8523873884
 30
0.0
 10
18.7856871216
 20
12.8521258087
 30
0.0
 10
18.7901188686
 20
12.8510653116
 30
0.0
 10
18.7931647476
 20
12.8499249685
 30
0.0
 10
18.7959355946
 20
12.8484084362
 30
0.0
 10
18.7983750034
 20
12.846503803
 30
0.0
 10
18.8004212317
 20
12.8442161203
 30
0.0
 10
18.8014828047
 20
12.842468506
 30
0.0
 10
18.8019317633
 20
12.8415536246
 30
0.0
  0
SPLINE
  5
451
100
AcDbEntity
  8
0
100
AcDbSpline
 62
7
  6
CONTINUOUS
 70
0
 71
3
 72
18
 73
14
 74
0
 42
0.0000001
 43
0.0000001
 44
0.0000000001
 40
0.0
 40
0.0
 40
0.0
 40
0.0
 40
0.0402729016
 40
0.0870103565
 40
0.1394049298
 40
0.1966779559
 40
0.2580260045
 40
0.32263224
 40
0.4585672067
 40
0.5992606863
 40
0.7397725752
 40
0.8752098499
 40
1.0
 40
1.0
 40
1.0
 40
1.0
 10
17.7131219976
 20
12.8816543964
 30
0.0
 10
17.7138499178
 20
12.8808344433
 30
0.0
 10
17.7154972258
 20
12.8791287431
 30
0.0
 10
17.7183067487
 20
12.8765737456
 30
0.0
 10
17.721628662
 20
12.8739053101
 30
0.0
 10
17.7254297102
 20
12.8712120714
 30
0.0
 10
17.7296508965
 20
12.8685495697
 30
0.0
 10
17.7358707625
 20
12.8650582106
 30
0.0
 10
17.7443117769
 20
12.861139291
 30
0.0
 10
17.7550241019
 20
12.8573227552
 30
0.0
 10
17.7660296613
 20
12.8545061736
 30
0.0
 10
17.7768219139
 20
12.8528047969
 30
0.0
 10
17.7839098724
 20
12.8523872791
 30
0.0
 10
17.7873073303
 20
12.8523872791
 30
0.0
  0
SPLINE
  5
452
100
AcDbEntity
  8
0
100
AcDbSpline
 62
7
  6
CONTINUOUS
 70
0
 71
3
 72
41
 73
37
 74
0
 42
0.0000001
 43
0.0000001
 44
0.0000000001
 40
0.0
 40
0.0
 40
0.0
 40
0.0
 40
0.0302419328
 40
0.0615380538
 40
0.0938075094
 40
0.1269805443
 40
0.1609806613
 40
0.1957088942
 40
0.2310557836
 40
0.2669041138
 40
0.3031315083
 40
0.3396093803
 40
0.3762063175
 40
0.4127893835
 40
0.4492257135
 40
0.4853846758
 40
0.5211384393
 40
0.5563654642
 40
0.5909499778
 40
0.6247866689
 40
0.6577793289
 40
0.6898467146
 40
0.7209206593
 40
0.750952828
 40
0.7799127819
 40
0.8077947387
 40
0.8346163365
 40
0.8604230259
 40
0.8852888667
 40
0.9093162347
 40
0.9326375588
 40
0.9554014107
 40
0.9666329607
 40
0.9777928174
 40
0.9889063939
 40
1.0
 40
1.0
 40
1.0
 40
1.0
 10
17.0352566515
 20
13.6452240943
 30
0.0
 10
17.0116192022
 20
13.6718500903
 30
0.0
 10
16.9616828058
 20
13.7244220212
 30
0.0
 10
16.8808253297
 20
13.799739335
 30
0.0
 10
16.7931261756
 20
13.8724984909
 30
0.0
 10
16.6990865997
 20
13.9423248828
 30
0.0
 10
16.5991995021
 20
14.0088633282
 30
0.0
 10
16.4940051582
 20
14.0717842406
 30
0.0
 10
16.3840655072
 20
14.1307395918
 30
0.0
 10
16.2699845956
 20
14.1854296065
 30
0.0
 10
16.1523759219
 20
14.2355493989
 30
0.0
 10
16.0318844838
 20
14.2808430063
 30
0.0
 10
15.9091616761
 20
14.3210510539
 30
0.0
 10
15.7848809303
 20
14.3559688475
 30
0.0
 10
15.6597149689
 20
14.3853916244
 30
0.0
 10
15.5343481111
 20
14.409171726
 30
0.0
 10
15.4094573242
 20
14.4271628283
 30
0.0
 10
15.285720593
 20
14.4392774813
 30
0.0
 10
15.1638017636
 20
14.4454298008
 30
0.0
 10
15.0443551232
 20
14.4455926475
 30
0.0
 10
14.9280148554
 20
14.4397392283
 30
0.0
 10
14.815395586
 20
14.427899055
 30
0.0
 10
14.7070876321
 20
14.4100995471
 30
0.0
 10
14.603653688
 20
14.3864189087
 30
0.0
 10
14.5056318265
 20
14.356930381
 30
0.0
 10
14.4135294179
 20
14.3217495042
 30
0.0
 10
14.3278373893
 20
14.2809857936
 30
0.0
 10
14.2490199978
 20
14.2347884818
 30
0.0
 10
14.1775440301
 20
14.1833077177
 30
0.0
 10
14.1138553807
 20
14.1267430424
 30
0.0
 10
14.0584382142
 20
14.0653322639
 30
0.0
 10
14.0193136824
 20
14.0101299665
 30
0.0
 10
13.9927396687
 20
13.9640521658
 30
0.0
 10
13.9752092436
 20
13.9286845946
 30
0.0
 10
13.9600311466
 20
13.8924242029
 30
0.0
 10
13.9515007374
 20
13.8676872507
 30
0.0
 10
13.9476445974
 20
13.8552087769
 30
0.0
  0
SPLINE
  5
453
100
AcDbEntity
  8
0
100
AcDbSpline
 62
7
  6
CONTINUOUS
 70
0
 71
3
 72
11
 73
7
 74
0
 42
0.0000001
 43
0.0000001
 44
0.0000000001
 40
0.0
 40
0.0
 40
0.0
 40
0.0
 40
0.2466924581
 40
0.4947120455
 40
0.7453984215
 40
1.0
 40
1.0
 40
1.0
 40
1.0
 10
13.4423311472
 20
12.220013853
 30
0.0
 10
13.43624765
 20
12.2003276488
 30
0.0
 10
13.426054664
 20
12.1601974655
 30
0.0
 10
13.4168971242
 20
12.0985142134
 30
0.0
 10
13.4138607596
 20
12.0355707232
 30
0.0
 10
13.4158855043
 20
11.9933426831
 30
0.0
 10
13.4178693594
 20
11.9721700748
 30
0.0
  0
SPLINE
  5
454
100
AcDbEntity
  8
0
100
AcDbSpline
 62
7
  6
CONTINUOUS
 70
0
 71
3
 72
24
 73
20
 74
0
 42
0.0000001
 43
0.0000001
 44
0.0000000001
 40
0.0
 40
0.0
 40
0.0
 40
0.0
 40
0.0682982551
 40
0.1373331341
 40
0.2066142146
 40
0.2757508765
 40
0.3443418324
 40
0.4119827131
 40
0.5429281366
 40
0.6058906819
 40
0.6669401688
 40
0.6967539561
 40
0.7260953452
 40
0.7549803275
 40
0.7834312397
 40
0.8391244783
 40
0.8935150447
 40
0.946993145
 40
1.0
 40
1.0
 40
1.0
 40
1.0
 10
13.1320838579
 20
12.3659236022
 30
0.0
 10
13.1180687414
 20
12.3627395452
 30
0.0
 10
13.0901624154
 20
12.3550586451
 30
0.0
 10
13.0493549607
 20
12.339906569
 30
0.0
 10
13.0098374063
 20
12.321227456
 30
0.0
 10
12.9721460167
 20
12.2992845967
 30
0.0
 10
12.936765384
 20
12.2743617647
 30
0.0
 10
12.8938130215
 20
12.2380086972
 30
0.0
 10
12.8567309412
 20
12.1967773337
 30
0.0
 10
12.8273870955
 20
12.1517650793
 30
0.0
 10
12.8127465428
 20
12.1228055287
 30
0.0
 10
12.8033790632
 20
12.0992950213
 30
0.0
 10
12.7975856629
 20
12.0816845307
 30
0.0
 10
12.7929966802
 20
12.0640175478
 30
0.0
 10
12.7885411984
 20
12.0406392811
 30
0.0
 10
12.7860242168
 20
12.0114908116
 30
0.0
 10
12.7881031888
 20
11.9770040356
 30
0.0
 10
12.7953588486
 20
11.9437996597
 30
0.0
 10
12.8036069197
 20
11.9228414805
 30
0.0
 10
12.808520922
 20
11.9128277966
 30
0.0
  0
SPLINE
  5
455
100
AcDbEntity
  8
0
100
AcDbSpline
 62
7
  6
CONTINUOUS
 70
0
 71
3
 72
23
 73
19
 74
0
 42
0.0000001
 43
0.0000001
 44
0.0000000001
 40
0.0
 40
0.0
 40
0.0
 40
0.0
 40
0.0658770934
 40
0.1338317042
 40
0.2031696217
 40
0.2732999311
 40
0.3435990993
 40
0.413383278
 40
0.4820089894
 40
0.5488973269
 40
0.6135718194
 40
0.6756760022
 40
0.7350409432
 40
0.7916919146
 40
0.8459028975
 40
0.8981797788
 40
0.9492529302
 40
1.0
 40
1.0
 40
1.0
 40
1.0
 10
17.8339556824
 20
11.9466977661
 30
0.0
 10
17.8422165556
 20
11.9466977661
 30
0.0
 10
17.8590117247
 20
11.9477286457
 30
0.0
 10
17.8841577184
 20
11.9521066754
 30
0.0
 10
17.9092070091
 20
11.9592902463
 30
0.0
 10
17.9336564662
 20
11.9691154437
 30
0.0
 10
17.957033173
 20
11.9813954888
 30
0.0
 10
17.9788828505
 20
11.9958860731
 30
0.0
 10
17.9987720931
 20
12.0123084975
 30
0.0
 10
18.016309974
 20
12.0303427602
 30
0.0
 10
18.0311565044
 20
12.0496354706
 30
0.0
 10
18.0430066815
 20
12.0698220456
 30
0.0
 10
18.051633241
 20
12.0905070928
 30
0.0
 10
18.0568337055
 20
12.1113001618
 30
0.0
 10
18.0585037737
 20
12.1317899136
 30
0.0
 10
18.0565564505
 20
12.1515665308
 30
0.0
 10
18.0510353991
 20
12.1702059999
 30
0.0
 10
18.0450314192
 20
12.1815843168
 30
0.0
 10
18.0415319774
 20
12.1868993183
 30
0.0
  0
SPLINE
  5
456
100
AcDbEntity
  8
0
100
AcDbSpline
 62
7
  6
CONTINUOUS
 70
0
 71
3
 72
11
 73
7
 74
0
 42
0.0000001
 43
0.0000001
 44
0.0000000001
 40
0.0
 40
0.0
 40
0.0
 40
0.0
 40
0.2315637235
 40
0.4715379021
 40
0.7260116735
 40
1.0
 40
1.0
 40
1.0
 40
1.0
 10
15.9377400047
 20
11.2920100509
 30
0.0
 10
15.9367892542
 20
11.2920102716
 30
0.0
 10
15.9348492782
 20
11.2921885003
 30
0.0
 10
15.9319600853
 20
11.2929728031
 30
0.0
 10
15.9290703992
 20
11.2942663866
 30
0.0
 10
15.927222277
 20
11.2954155173
 30
0.0
 10
15.9263011296
 20
11.2960612497
 30
0.0
  0
SPLINE
  5
457
100
AcDbEntity
  8
0
100
AcDbSpline
 62
7
  6
CONTINUOUS
 70
0
 71
3
 72
11
 73
7
 74
0
 42
0.0000001
 43
0.0000001
 44
0.0000000001
 40
0.0
 40
0.0
 40
0.0
 40
0.0
 40
0.1974093118
 40
0.4290021687
 40
0.6968735965
 40
1.0
 40
1.0
 40
1.0
 40
1.0
 10
15.9263011296
 20
11.2960612497
 30
0.0
 10
15.9242887917
 20
11.2974719163
 30
0.0
 10
15.9202788514
 20
11.3010572963
 30
0.0
 10
15.9147713059
 20
11.3077863563
 30
0.0
 10
15.9093422267
 20
11.3161936263
 30
0.0
 10
15.9060037638
 20
11.3224776166
 30
0.0
 10
15.9043413311
 20
11.3258652984
 30
0.0
  0
SPLINE
  5
458
100
AcDbEntity
  8
0
100
AcDbSpline
 62
7
  6
CONTINUOUS
 70
0
 71
3
 72
11
 73
7
 74
0
 42
0.0000001
 43
0.0000001
 44
0.0000000001
 40
0.0
 40
0.0
 40
0.0
 40
0.0
 40
0.2473760356
 40
0.5006703881
 40
0.7535774854
 40
1.0
 40
1.0
 40
1.0
 40
1.0
 10
13.2397911418
 20
11.9471854901
 30
0.0
 10
13.2513597655
 20
11.9588407667
 30
0.0
 10
13.2769968109
 20
11.9803065834
 30
0.0
 10
13.3203785884
 20
12.0056530103
 30
0.0
 10
13.3672552922
 20
12.0235609163
 30
0.0
 10
13.3999709572
 20
12.0300422568
 30
0.0
 10
13.4162440317
 20
12.0317127668
 30
0.0
  0
SPLINE
  5
459
100
AcDbEntity
  8
0
100
AcDbSpline
 62
7
  6
CONTINUOUS
 70
0
 71
3
 72
15
 73
11
 74
0
 42
0.0000001
 43
0.0000001
 44
0.0000000001
 40
0.0
 40
0.0
 40
0.0
 40
0.0
 40
0.1003236981
 40
0.2114636592
 40
0.3317233262
 40
0.4592819575
 40
0.5921703682
 40
0.7281425269
 40
0.8648656297
 40
1.0
 40
1.0
 40
1.0
 40
1.0
 10
15.9843563406
 20
11.5549884194
 30
0.0
 10
15.9864441445
 20
11.5507339223
 30
0.0
 10
15.9903014719
 20
11.5414965126
 30
0.0
 10
15.9950206104
 20
11.5265373754
 30
0.0
 10
15.9988694842
 20
11.5100078999
 30
0.0
 10
16.0017796228
 20
11.4922489592
 30
0.0
 10
16.0036846743
 20
11.4736091242
 30
0.0
 10
16.004556522
 20
11.4544596752
 30
0.0
 10
16.004364597
 20
11.4351860428
 30
0.0
 10
16.0035277828
 20
11.4223629829
 30
0.0
 10
16.0029247577
 20
11.4160079539
 30
0.0
  0
SPLINE
  5
45A
100
AcDbEntity
  8
0
100
AcDbSpline
 62
7
  6
CONTINUOUS
 70
0
 71
3
 72
15
 73
11
 74
0
 42
0.0000001
 43
0.0000001
 44
0.0000000001
 40
0.0
 40
0.0
 40
0.0
 40
0.0
 40
0.1514631572
 40
0.2977591372
 40
0.4374537211
 40
0.5692885223
 40
0.6921841741
 40
0.8052322469
 40
0.9079058968
 40
1.0
 40
1.0
 40
1.0
 40
1.0
 10
16.0027303747
 20
11.4140246563
 30
0.0
 10
16.0022479033
 20
11.4092543397
 30
0.0
 10
16.0010896037
 20
11.3998960647
 30
0.0
 10
15.9987370493
 20
11.3862440339
 30
0.0
 10
15.9958174088
 20
11.373337035
 30
0.0
 10
15.9923661434
 20
11.3613298057
 30
0.0
 10
15.9884305081
 20
11.3503630567
 30
0.0
 10
15.9840475705
 20
11.3405670809
 30
0.0
 10
15.9792772464
 20
11.3320544253
 30
0.0
 10
15.9756757641
 20
11.3270258652
 30
0.0
 10
15.9738072375
 20
11.3247881132
 30
0.0
  0
SPLINE
  5
45B
100
AcDbEntity
  8
0
100
AcDbSpline
 62
7
  6
CONTINUOUS
 70
0
 71
3
 72
9
 73
5
 74
0
 42
0.0000001
 43
0.0000001
 44
0.0000000001
 40
0.0
 40
0.0
 40
0.0
 40
0.0
 40
0.2591339692
 40
1.0
 40
1.0
 40
1.0
 40
1.0
 10
16.1492722362
 20
11.7263256043
 30
0.0
 10
16.1552790067
 20
11.7165961818
 30
0.0
 10
16.1776405562
 20
11.6785575465
 30
0.0
 10
16.1966008248
 20
11.6384691814
 30
0.0
 10
16.2081090829
 20
11.6078710909
 30
0.0
  0
SPLINE
  5
45C
100
AcDbEntity
  8
0
100
AcDbSpline
 62
7
  6
CONTINUOUS
 70
0
 71
3
 72
15
 73
11
 74
0
 42
0.0000001
 43
0.0000001
 44
0.0000000001
 40
0.0
 40
0.0
 40
0.0
 40
0.0
 40
0.1380672603
 40
0.2714446829
 40
0.4004219028
 40
0.5254360583
 40
0.6471248949
 40
0.7662279775
 40
0.883563913
 40
1.0
 40
1.0
 40
1.0
 40
1.0
 10
14.0790504744
 20
11.2871885322
 30
0.0
 10
14.0729738623
 20
11.2995713657
 30
0.0
 10
14.0619078149
 20
11.3243632204
 30
0.0
 10
14.0485279997
 20
11.362108629
 30
0.0
 10
14.0387260108
 20
11.3995985807
 30
0.0
 10
14.0325671636
 20
11.4366774543
 30
0.0
 10
14.0300676164
 20
11.4731967063
 30
0.0
 10
14.0312474608
 20
11.5090203471
 30
0.0
 10
14.0361078879
 20
11.5440011813
 30
0.0
 10
14.0417952055
 20
11.5667081338
 30
0.0
 10
14.0452285633
 20
11.577822334
 30
0.0
  0
SPLINE
  5
45D
100
AcDbEntity
  8
0
100
AcDbSpline
 62
7
  6
CONTINUOUS
 70
0
 71
3
 72
9
 73
5
 74
0
 42
0.0000001
 43
0.0000001
 44
0.0000000001
 40
0.0
 40
0.0
 40
0.0
 40
0.0
 40
0.2436275674
 40
1.0
 40
1.0
 40
1.0
 40
1.0
 10
16.004042398
 20
11.6484980693
 30
0.0
 10
16.0011496915
 20
11.6543927854
 30
0.0
 10
15.9888569797
 20
11.6783815589
 30
0.0
 10
15.9749534122
 20
11.7015352636
 30
0.0
 10
15.9637077941
 20
11.7185385815
 30
0.0
  0
SPLINE
  5
45E
100
AcDbEntity
  8
0
100
AcDbSpline
 62
7
  6
CONTINUOUS
 70
0
 71
3
 72
11
 73
7
 74
0
 42
0.0000001
 43
0.0000001
 44
0.0000000001
 40
0.0
 40
0.0
 40
0.0
 40
0.0
 40
0.2352692872
 40
0.4805238841
 40
0.7355569829
 40
1.0
 40
1.0
 40
1.0
 40
1.0
 10
15.9606589635
 20
11.7231094336
 30
0.0
 10
15.9500303703
 20
11.7389102886
 30
0.0
 10
15.9270134804
 20
11.770317846
 30
0.0
 10
15.8884025498
 20
11.8156963184
 30
0.0
 10
15.8452111969
 20
11.8600928161
 30
0.0
 10
15.8140586721
 20
11.8883757461
 30
0.0
 10
15.7978099923
 20
11.9023086097
 30
0.0
  0
SPLINE
  5
45F
100
AcDbEntity
  8
0
100
AcDbSpline
 62
7
  6
CONTINUOUS
 70
0
 71
3
 72
9
 73
5
 74
0
 42
0.0000001
 43
0.0000001
 44
0.0000000001
 40
0.0
 40
0.0
 40
0.0
 40
0.0
 40
0.4910072493
 40
1.0
 40
1.0
 40
1.0
 40
1.0
 10
15.7953671438
 20
11.9043972825
 30
0.0
 10
15.773447203
 20
11.9230854306
 30
0.0
 10
15.727347891
 20
11.9594619217
 30
0.0
 10
15.6788581207
 20
11.992566977
 30
0.0
 10
15.6536760819
 20
12.0086136166
 30
0.0
  0
SPLINE
  5
460
100
AcDbEntity
  8
0
100
AcDbSpline
 62
7
  6
CONTINUOUS
 70
0
 71
3
 72
9
 73
5
 74
0
 42
0.0000001
 43
0.0000001
 44
0.0000000001
 40
0.0
 40
0.0
 40
0.0
 40
0.0
 40
0.4923246576
 40
1.0
 40
1.0
 40
1.0
 40
1.0
 10
15.6536760819
 20
12.0086136166
 30
0.0
 10
15.6118100248
 20
12.0352917395
 30
0.0
 10
15.52387281
 20
12.08502108
 30
0.0
 10
15.4316328118
 20
12.1261531314
 30
0.0
 10
15.3839841725
 20
12.1448661658
 30
0.0
  0
SPLINE
  5
461
100
AcDbEntity
  8
0
100
AcDbSpline
 62
7
  6
CONTINUOUS
 70
0
 71
3
 72
16
 73
12
 74
0
 42
0.0000001
 43
0.0000001
 44
0.0000000001
 40
0.0
 40
0.0
 40
0.0
 40
0.0
 40
0.1366386313
 40
0.2716188546
 40
0.4040087077
 40
0.5329374949
 40
0.6576103891
 40
0.7773465815
 40
0.8351962942
 40
0.8916203246
 40
1.0
 40
1.0
 40
1.0
 40
1.0
 10
15.1949996953
 20
12.2066596313
 30
0.0
 10
15.1624343423
 20
12.2152543469
 30
0.0
 10
15.0971777458
 20
12.2304343479
 30
0.0
 10
14.9989425738
 20
12.2471325314
 30
0.0
 10
14.9017436061
 20
12.2575034128
 30
0.0
 10
14.8066094695
 20
12.2614408634
 30
0.0
 10
14.7145441397
 20
12.2588913875
 30
0.0
 10
14.6403436725
 20
12.2513095194
 30
0.0
 10
14.5834145027
 20
12.2419188644
 30
0.0
 10
14.5296837245
 20
12.2306868259
 30
0.0
 10
14.4904819819
 20
12.2197346056
 30
0.0
 10
14.4651561757
 20
12.2112325932
 30
0.0
  0
SPLINE
  5
462
100
AcDbEntity
  8
0
100
AcDbSpline
 62
7
  6
CONTINUOUS
 70
0
 71
3
 72
9
 73
5
 74
0
 42
0.0000001
 43
0.0000001
 44
0.0000000001
 40
0.0
 40
0.0
 40
0.0
 40
0.0
 40
0.2605570778
 40
1.0
 40
1.0
 40
1.0
 40
1.0
 10
14.4603301347
 20
12.2095947632
 30
0.0
 10
14.4492410931
 20
12.2057905216
 30
0.0
 10
14.4070284745
 20
12.1902226057
 30
0.0
 10
14.3662440504
 20
12.1706096127
 30
0.0
 10
14.337674583
 20
12.1535597017
 30
0.0
  0
SPLINE
  5
463
100
AcDbEntity
  8
0
100
AcDbSpline
 62
7
  6
CONTINUOUS
 70
0
 71
3
 72
11
 73
7
 74
0
 42
0.0000001
 43
0.0000001
 44
0.0000000001
 40
0.0
 40
0.0
 40
0.0
 40
0.0
 40
0.2645499162
 40
0.5184558842
 40
0.763047575
 40
1.0
 40
1.0
 40
1.0
 40
1.0
 10
14.3323640333
 20
12.1503496508
 30
0.0
 10
14.3186122243
 20
12.1419302436
 30
0.0
 10
14.2923740393
 20
12.1242208969
 30
0.0
 10
14.2565282509
 20
12.0944616633
 30
0.0
 10
14.2252339531
 20
12.062245151
 30
0.0
 10
14.2072864836
 20
12.0389183238
 30
0.0
 10
14.1992026409
 20
12.0269502773
 30
0.0
  0
SPLINE
  5
464
100
AcDbEntity
  8
0
100
AcDbSpline
 62
7
  6
CONTINUOUS
 70
0
 71
3
 72
23
 73
19
 74
0
 42
0.0000001
 43
0.0000001
 44
0.0000000001
 40
0.0
 40
0.0
 40
0.0
 40
0.0
 40
0.0666423757
 40
0.1352253035
 40
0.2051953534
 40
0.2760454234
 40
0.3472328753
 40
0.4181047734
 40
0.4879449363
 40
0.5560637851
 40
0.6218166561
 40
0.6846836108
 40
0.7443131512
 40
0.8005749044
 40
0.8536389849
 40
0.9039698317
 40
0.952405093
 40
1.0
 40
1.0
 40
1.0
 40
1.0
 10
14.8503598366
 20
11.9995209053
 30
0.0
 10
14.8459431251
 20
11.9949940709
 30
0.0
 10
14.8364349814
 20
11.9863293596
 30
0.0
 10
14.8207291083
 20
11.974764408
 30
0.0
 10
14.8036235756
 20
11.9645889647
 30
0.0
 10
14.7854397301
 20
11.9559153422
 30
0.0
 10
14.7664887781
 20
11.9488345876
 30
0.0
 10
14.7470988768
 20
11.9434122407
 30
0.0
 10
14.7276039526
 20
11.9397119773
 30
0.0
 10
14.7083429073
 20
11.9377732095
 30
0.0
 10
14.6896442219
 20
11.9376160979
 30
0.0
 10
14.671821048
 20
11.9392481833
 30
0.0
 10
14.6551619263
 20
11.9426530359
 30
0.0
 10
14.6399314027
 20
11.9478143536
 30
0.0
 10
14.6263584371
 20
11.9546774211
 30
0.0
 10
14.6146579835
 20
11.9632078583
 30
0.0
 10
14.60501819
 20
11.9733156368
 30
0.0
 10
14.6000788131
 20
11.981055214
 30
0.0
 10
14.598027426
 20
11.9850793827
 30
0.0
  0
SPLINE
  5
465
100
AcDbEntity
  8
0
100
AcDbSpline
 62
7
  6
CONTINUOUS
 70
0
 71
3
 72
24
 73
20
 74
0
 42
0.0000001
 43
0.0000001
 44
0.0000000001
 40
0.0
 40
0.0
 40
0.0
 40
0.0
 40
0.0690003012
 40
0.1389459946
 40
0.2092568905
 40
0.2794787084
 40
0.3491615434
 40
0.4178395984
 40
0.4850938742
 40
0.5505642072
 40
0.6139697635
 40
0.6751163731
 40
0.7339322224
 40
0.7624911287
 40
0.7905002012
 40
0.8449601113
 40
0.8976884856
 40
0.949170595
 40
1.0
 40
1.0
 40
1.0
 40
1.0
 10
18.0542037414
 20
11.7318198679
 30
0.0
 10
18.0685256445
 20
11.7348217108
 30
0.0
 10
18.0971020974
 20
11.7421979659
 30
0.0
 10
18.1389880446
 20
11.7570185117
 30
0.0
 10
18.1796736372
 20
11.7755156829
 30
0.0
 10
18.2185732987
 20
11.7974059361
 30
0.0
 10
18.2551472639
 20
11.8223873889
 30
0.0
 10
18.2888825885
 20
11.8501093476
 30
0.0
 10
18.3193004448
 20
11.8801837537
 30
0.0
 10
18.3459680017
 20
11.9121921854
 30
0.0
 10
18.3685160583
 20
11.9456839333
 30
0.0
 10
18.38660742
 20
11.980198176
 30
0.0
 10
18.3978766172
 20
12.0097045941
 30
0.0
 10
18.4043504307
 20
12.0333194771
 30
0.0
 10
18.4090546566
 20
12.0564053483
 30
0.0
 10
18.4118780073
 20
12.0850439539
 30
0.0
 10
18.410154642
 20
12.118781918
 30
0.0
 10
18.4033162987
 20
12.1510823791
 30
0.0
 10
18.3953628708
 20
12.171395413
 30
0.0
 10
18.3906150462
 20
12.1810730634
 30
0.0
  0
SPLINE
  5
466
100
AcDbEntity
  8
0
100
AcDbSpline
 62
7
  6
CONTINUOUS
 70
0
 71
3
 72
11
 73
7
 74
0
 42
0.0000001
 43
0.0000001
 44
0.0000000001
 40
0.0
 40
0.0
 40
0.0
 40
0.0
 40
0.2427925819
 40
0.4958019045
 40
0.7509677776
 40
1.0
 40
1.0
 40
1.0
 40
1.0
 10
17.4316202846
 20
11.7318198679
 30
0.0
 10
17.4281614918
 20
11.7318198679
 30
0.0
 10
17.4210919442
 20
11.732354699
 30
0.0
 10
17.4105909405
 20
11.7345350578
 30
0.0
 10
17.4003581711
 20
11.7380312875
 30
0.0
 10
17.3938819744
 20
11.7411936348
 30
0.0
 10
17.3908109402
 20
11.7429698094
 30
0.0
  0
SPLINE
  5
467
100
AcDbEntity
  8
0
100
AcDbSpline
 62
7
  6
CONTINUOUS
 70
0
 71
3
 72
16
 73
12
 74
0
 42
0.0000001
 43
0.0000001
 44
0.0000000001
 40
0.0
 40
0.0
 40
0.0
 40
0.0
 40
0.0520394047
 40
0.1108470513
 40
0.2416057609
 40
0.3797941759
 40
0.5174316392
 40
0.650233557
 40
0.7758639392
 40
0.8928679619
 40
1.0
 40
1.0
 40
1.0
 40
1.0
 10
18.2724116808
 20
11.1280260098
 30
0.0
 10
18.2717550316
 20
11.1293641202
 30
0.0
 10
18.2702882527
 20
11.1321810417
 30
0.0
 10
18.2668949285
 20
11.1382130507
 30
0.0
 10
18.2619823661
 20
11.1462165801
 30
0.0
 10
18.2555664251
 20
11.1559370442
 30
0.0
 10
18.248863912
 20
11.1655335407
 30
0.0
 10
18.2421582574
 20
11.1746851069
 30
0.0
 10
18.235617741
 20
11.183221933
 30
0.0
 10
18.2293526533
 20
11.1910404378
 30
0.0
 10
18.2252197257
 20
11.1959541512
 30
0.0
 10
18.223209854
 20
11.1982728537
 30
0.0
  0
SPLINE
  5
468
100
AcDbEntity
  8
0
100
AcDbSpline
 62
7
  6
CONTINUOUS
 70
0
 71
3
 72
13
 73
9
 74
0
 42
0.0000001
 43
0.0000001
 44
0.0000000001
 40
0.0
 40
0.0
 40
0.0
 40
0.0
 40
0.2649169688
 40
0.5227057496
 40
0.647796966
 40
0.7695213119
 40
0.8871749908
 40
1.0
 40
1.0
 40
1.0
 40
1.0
 10
18.7285233041
 20
12.8334677776
 30
0.0
 10
18.732581552
 20
12.8362008703
 30
0.0
 10
18.740869004
 20
12.8411903351
 30
0.0
 10
18.751761489
 20
12.8462139583
 30
0.0
 10
18.7605745596
 20
12.8492654961
 30
0.0
 10
18.7670894244
 20
12.8509889774
 30
0.0
 10
18.7735071505
 20
12.8521019983
 30
0.0
 10
18.7777662588
 20
12.8523873814
 30
0.0
 10
18.7798500307
 20
12.8523873847
 30
0.0
  0
SPLINE
  5
469
100
AcDbEntity
  8
0
100
AcDbSpline
 62
7
  6
CONTINUOUS
 70
0
 71
3
 72
15
 73
11
 74
0
 42
0.0000001
 43
0.0000001
 44
0.0000000001
 40
0.0
 40
0.0
 40
0.0
 40
0.0
 40
0.1125447636
 40
0.2272759385
 40
0.3451537624
 40
0.4669384045
 40
0.5931832756
 40
0.7242190724
 40
0.8599973216
 40
1.0
 40
1.0
 40
1.0
 40
1.0
 10
18.0415319774
 20
12.1868993183
 30
0.0
 10
18.0387721994
 20
12.191090908
 30
0.0
 10
18.032541241
 20
12.1991413719
 30
0.0
 10
18.0213854593
 20
12.209818291
 30
0.0
 10
18.0085142907
 20
12.2190727109
 30
0.0
 10
17.994081617
 20
12.2267784972
 30
0.0
 10
17.9782677344
 20
12.2328598389
 30
0.0
 10
17.9612594611
 20
12.23724084
 30
0.0
 10
17.9432799633
 20
12.2398722654
 30
0.0
 10
17.9309734901
 20
12.2404453572
 30
0.0
 10
17.9247305537
 20
12.2404453572
 30
0.0
  0
SPLINE
  5
46A
100
AcDbEntity
  8
0
100
AcDbSpline
 62
7
  6
CONTINUOUS
 70
0
 71
3
 72
9
 73
5
 74
0
 42
0.0000001
 43
0.0000001
 44
0.0000000001
 40
0.0
 40
0.0
 40
0.0
 40
0.0
 40
0.4915772389
 40
1.0
 40
1.0
 40
1.0
 40
1.0
 10
14.7113860589
 20
12.2728963477
 30
0.0
 10
14.7415121874
 20
12.2750451997
 30
0.0
 10
14.8029771328
 20
12.2771135918
 30
0.0
 10
14.8644297712
 20
12.274974095
 30
0.0
 10
14.8955982577
 20
12.2728963477
 30
0.0
  0
SPLINE
  5
46B
100
AcDbEntity
  8
0
100
AcDbSpline
 62
7
  6
CONTINUOUS
 70
0
 71
3
 72
9
 73
5
 74
0
 42
0.0000001
 43
0.0000001
 44
0.0000000001
 40
0.0
 40
0.0
 40
0.0
 40
0.0
 40
0.4851412844
 40
1.0
 40
1.0
 40
1.0
 40
1.0
 10
14.3280097702
 20
12.1602612601
 30
0.0
 10
14.3475451376
 20
12.1727724041
 30
0.0
 10
14.3895362551
 20
12.1959273788
 30
0.0
 10
14.4338427811
 20
12.2141706353
 30
0.0
 10
14.4570380274
 20
12.222422257
 30
0.0
  0
SPLINE
  5
46C
100
AcDbEntity
  8
0
100
AcDbSpline
 62
7
  6
CONTINUOUS
 70
0
 71
3
 72
14
 73
10
 74
0
 42
0.0000001
 43
0.0000001
 44
0.0000000001
 40
0.0
 40
0.0
 40
0.0
 40
0.0
 40
0.1164577145
 40
0.2338094116
 40
0.3529345271
 40
0.4746571828
 40
0.5997231098
 40
0.7287509591
 40
1.0
 40
1.0
 40
1.0
 40
1.0
 10
14.4139031672
 20
11.4478033076
 30
0.0
 10
14.4118318325
 20
11.441099849
 30
0.0
 10
14.4083984467
 20
11.4274051391
 30
0.0
 10
14.4054665822
 20
11.4063064378
 30
0.0
 10
14.4047567587
 20
11.3846987788
 30
0.0
 10
14.4062622928
 20
11.3626698287
 30
0.0
 10
14.4099803213
 20
11.3403000867
 30
0.0
 10
14.4179966311
 20
11.3096487923
 30
0.0
 10
14.4271019076
 20
11.2871717306
 30
0.0
 10
14.4343011816
 20
11.2725011526
 30
0.0
  0
SPLINE
  5
46D
100
AcDbEntity
  8
0
100
AcDbSpline
 62
7
  6
CONTINUOUS
 70
0
 71
3
 72
15
 73
11
 74
0
 42
0.0000001
 43
0.0000001
 44
0.0000000001
 40
0.0
 40
0.0
 40
0.0
 40
0.0
 40
0.1162083183
 40
0.2337085618
 40
0.3530964105
 40
0.4751239943
 40
0.6004613905
 40
0.7296281204
 40
0.8628846593
 40
1.0
 40
1.0
 40
1.0
 40
1.0
 10
14.8839942097
 20
12.1083617764
 30
0.0
 10
14.8852666611
 20
12.1039161806
 30
0.0
 10
14.8871511073
 20
12.0947676889
 30
0.0
 10
14.8879227809
 20
12.0806896889
 30
0.0
 10
14.8866025643
 20
12.0664185076
 30
0.0
 10
14.883220727
 20
12.0521745709
 30
0.0
 10
14.8778135623
 20
12.0381556919
 30
0.0
 10
14.8704722728
 20
12.0245400242
 30
0.0
 10
14.8613001137
 20
12.0115137699
 30
0.0
 10
14.8541700472
 20
12.0034261167
 30
0.0
 10
14.8503598366
 20
11.9995209053
 30
0.0
  0
SPLINE
  5
46E
100
AcDbEntity
  8
0
100
AcDbSpline
 62
7
  6
CONTINUOUS
 70
0
 71
3
 72
14
 73
10
 74
0
 42
0.0000001
 43
0.0000001
 44
0.0000000001
 40
0.0
 40
0.0
 40
0.0
 40
0.0
 40
0.1405846388
 40
0.2770209953
 40
0.5349829808
 40
0.6569814132
 40
0.7746878951
 40
0.8887764451
 40
1.0
 40
1.0
 40
1.0
 40
1.0
 10
14.8503598366
 20
11.9995209053
 30
0.0
 10
14.8540607475
 20
12.0036666394
 30
0.0
 10
14.8609795463
 20
12.0121838986
 30
0.0
 10
14.8726437875
 20
12.0298472894
 30
0.0
 10
14.8811907837
 20
12.0486234896
 30
0.0
 10
14.885859397
 20
12.0677820411
 30
0.0
 10
14.8873446628
 20
12.0817355128
 30
0.0
 10
14.8868334922
 20
12.0953315835
 30
0.0
 10
14.8851586638
 20
12.1041221039
 30
0.0
 10
14.8839942097
 20
12.1083617764
 30
0.0
  0
SPLINE
  5
46F
100
AcDbEntity
  8
0
100
AcDbSpline
 62
7
  6
CONTINUOUS
 70
0
 71
3
 72
10
 73
6
 74
0
 42
0.0000001
 43
0.0000001
 44
0.0000000001
 40
0.0
 40
0.0
 40
0.0
 40
0.0
 40
0.5182979999
 40
0.7637793816
 40
1.0
 40
1.0
 40
1.0
 40
1.0
 10
14.1962175941
 20
11.1195285095
 30
0.0
 10
14.1750073383
 20
11.1435965305
 30
0.0
 10
14.1456536143
 20
11.1808609709
 30
0.0
 10
14.1124152261
 20
11.233116059
 30
0.0
 10
14.0982227904
 20
11.2593754366
 30
0.0
 10
14.0917816245
 20
11.2725011526
 30
0.0
  0
SPLINE
  5
470
100
AcDbEntity
  8
0
100
AcDbSpline
 62
7
  6
CONTINUOUS
 70
0
 71
3
 72
29
 73
25
 74
0
 42
0.0000001
 43
0.0000001
 44
0.0000000001
 40
0.0
 40
0.0
 40
0.0
 40
0.0
 40
0.064581794
 40
0.0955184993
 40
0.1254434242
 40
0.1823765706
 40
0.209681583
 40
0.2363776392
 40
0.262647857
 40
0.288707948
 40
0.3147874923
 40
0.3411132632
 40
0.3952216285
 40
0.452466604
 40
0.5135314275
 40
0.5455664649
 40
0.5785194238
 40
0.6467937967
 40
0.7175026223
 40
0.7534325274
 40
0.7895098656
 40
0.8614045867
 40
0.9320051177
 40
1.0
 40
1.0
 40
1.0
 40
1.0
 10
14.7651503086
 20
12.1731018316
 30
0.0
 10
14.7731249855
 20
12.1731018316
 30
0.0
 10
14.7849611372
 20
12.1721376156
 30
0.0
 10
14.8000914106
 20
12.1687210257
 30
0.0
 10
14.8139037369
 20
12.164107341
 30
0.0
 10
14.8265405211
 20
12.1575380059
 30
0.0
 10
14.8373559942
 20
12.1490824163
 30
0.0
 10
14.8443545756
 20
12.1420231863
 30
0.0
 10
14.8502693011
 20
12.1342247525
 30
0.0
 10
14.8550331165
 20
12.1257613025
 30
0.0
 10
14.8586085393
 20
12.1167231484
 30
0.0
 10
14.8617630653
 20
12.1039188356
 30
0.0
 10
14.8624837443
 20
12.0867323541
 30
0.0
 10
14.8582541362
 20
12.0656915618
 30
0.0
 10
14.8508386906
 20
12.0485319752
 30
0.0
 10
14.8427668433
 20
12.03520536
 30
0.0
 10
14.833044318
 20
12.0219056337
 30
0.0
 10
14.8184031507
 20
12.0063990259
 30
0.0
 10
14.8013252745
 20
11.9930452464
 30
0.0
 10
14.7863503281
 20
11.9837302502
 30
0.0
 10
14.7706267364
 20
11.9754262041
 30
0.0
 10
14.7500730805
 20
11.9672160382
 30
0.0
 10
14.7247211981
 20
11.9611101852
 30
0.0
 10
14.7075833668
 20
11.9596452487
 30
0.0
 10
14.6991872354
 20
11.9596452487
 30
0.0
  0
SPLINE
  5
471
100
AcDbEntity
  8
0
100
AcDbSpline
 62
7
  6
CONTINUOUS
 70
0
 71
3
 72
9
 73
5
 74
0
 42
0.0000001
 43
0.0000001
 44
0.0000000001
 40
0.0
 40
0.0
 40
0.0
 40
0.0
 40
0.2560833418
 40
1.0
 40
1.0
 40
1.0
 40
1.0
 10
15.9353711352
 20
11.0237838861
 30
0.0
 10
15.9423378988
 20
11.026923713
 30
0.0
 10
15.9693614105
 20
11.0395810255
 30
0.0
 10
15.9956346714
 20
11.053859796
 30
0.0
 10
16.0145703513
 20
11.0654452963
 30
0.0
  0
SPLINE
  5
472
100
AcDbEntity
  8
0
100
AcDbSpline
 62
7
  6
CONTINUOUS
 70
0
 71
3
 72
21
 73
17
 74
0
 42
0.0000001
 43
0.0000001
 44
0.0000000001
 40
0.0
 40
0.0
 40
0.0
 40
0.0
 40
0.0684070175
 40
0.1318684033
 40
0.2457996263
 40
0.2981569353
 40
0.3488167037
 40
0.3990607056
 40
0.4502142694
 40
0.5035352339
 40
0.5600919515
 40
0.6207331295
 40
0.6861067845
 40
0.7566425819
 40
0.8324925415
 40
1.0
 40
1.0
 40
1.0
 40
1.0
 10
15.9738072375
 20
11.3247881132
 30
0.0
 10
15.972738877
 20
11.3235086422
 30
0.0
 10
15.9705710362
 20
11.3211272204
 30
0.0
 10
15.9661063299
 20
11.3171295352
 30
0.0
 10
15.9612822934
 20
11.3141217079
 30
0.0
 10
15.9562350237
 20
11.3124760332
 30
0.0
 10
15.9525202465
 20
11.3119354918
 30
0.0
 10
15.9487974778
 20
11.3120620011
 30
0.0
 10
15.9450929376
 20
11.3128571488
 30
0.0
 10
15.9414315429
 20
11.3143130875
 30
0.0
 10
15.937830058
 20
11.3164120142
 30
0.0
 10
15.9343022838
 20
11.3191402444
 30
0.0
 10
15.9308627665
 20
11.3224855762
 30
0.0
 10
15.9275272001
 20
11.3264317771
 30
0.0
 10
15.9230878898
 20
11.3326680377
 30
0.0
 10
15.9201914015
 20
11.3378676248
 30
0.0
 10
15.9183932675
 20
11.3415318365
 30
0.0
  0
SPLINE
  5
473
100
AcDbEntity
  8
0
100
AcDbSpline
 62
7
  6
CONTINUOUS
 70
0
 71
3
 72
9
 73
5
 74
0
 42
0.0000001
 43
0.0000001
 44
0.0000000001
 40
0.0
 40
0.0
 40
0.0
 40
0.0
 40
0.5093665967
 40
1.0
 40
1.0
 40
1.0
 40
1.0
 10
15.6615194051
 20
12.0223634799
 30
0.0
 10
15.6873475061
 20
12.005813287
 30
0.0
 10
15.7370059945
 20
11.9716497621
 30
0.0
 10
15.7841162133
 20
11.9340313547
 30
0.0
 10
15.8064603057
 20
11.9146974752
 30
0.0
  0
SPLINE
  5
474
100
AcDbEntity
  8
0
100
AcDbSpline
 62
7
  6
CONTINUOUS
 70
0
 71
3
 72
26
 73
22
 74
0
 42
0.0000001
 43
0.0000001
 44
0.0000000001
 40
0.0
 40
0.0
 40
0.0
 40
0.0
 40
0.0230103646
 40
0.0461114364
 40
0.0693922635
 40
0.0929383236
 40
0.1168309518
 40
0.1411454124
 40
0.1912743254
 40
0.2438050496
 40
0.2990584006
 40
0.357235213
 40
0.4184208125
 40
0.4826056193
 40
0.5496913926
 40
0.6195114385
 40
0.6918347912
 40
0.7663831455
 40
0.8428338358
 40
0.9208331946
 40
1.0
 40
1.0
 40
1.0
 40
1.0
 10
14.0452285633
 20
11.577822334
 30
0.0
 10
14.0476684077
 20
11.5857204093
 30
0.0
 10
14.0531699568
 20
11.6013659453
 30
0.0
 10
14.0632286878
 20
11.6242004104
 30
0.0
 10
14.0750755506
 20
11.6463798606
 30
0.0
 10
14.0886852594
 20
11.6678592592
 30
0.0
 10
14.1040346527
 20
11.6885959535
 30
0.0
 10
14.1270062863
 20
11.7154658952
 30
0.0
 10
14.1601279837
 20
11.7470343272
 30
0.0
 10
14.2058145693
 20
11.7808764287
 30
0.0
 10
14.2574778004
 20
11.810859997
 30
0.0
 10
14.3147167098
 20
11.8367578383
 30
0.0
 10
14.3770877885
 20
11.858403808
 30
0.0
 10
14.4441196019
 20
11.8756301764
 30
0.0
 10
14.5152990991
 20
11.8883262433
 30
0.0
 10
14.5900857289
 20
11.8963860028
 30
0.0
 10
14.6679075017
 20
11.8997635763
 30
0.0
 10
14.748168937
 20
11.8984213528
 30
0.0
 10
14.8302561325
 20
11.8923831176
 30
0.0
 10
14.9135351163
 20
11.8816836279
 30
0.0
 10
14.969111709
 20
11.8715619913
 30
0.0
 10
14.9969529116
 20
11.8657556169
 30
0.0
  0
SPLINE
  5
475
100
AcDbEntity
  8
0
100
AcDbSpline
 62
7
  6
CONTINUOUS
 70
0
 71
3
 72
15
 73
11
 74
0
 42
0.0000001
 43
0.0000001
 44
0.0000000001
 40
0.0
 40
0.0
 40
0.0
 40
0.0
 40
0.1271072272
 40
0.2547857515
 40
0.3824393532
 40
0.5094746102
 40
0.6353033594
 40
0.7593580343
 40
0.8810925394
 40
1.0
 40
1.0
 40
1.0
 40
1.0
 10
14.9969529116
 20
11.8657556169
 30
0.0
 10
15.0235928526
 20
11.8601997695
 30
0.0
 10
15.0767288579
 20
11.8477563761
 30
0.0
 10
15.1554967045
 20
11.8252939397
 30
0.0
 10
15.2330911945
 20
11.7991052944
 30
0.0
 10
15.3089758524
 20
11.7693807799
 30
0.0
 10
15.3826244147
 20
11.736319231
 30
0.0
 10
15.4535297945
 20
11.7001532355
 30
0.0
 10
15.5211992163
 20
11.6611325941
 30
0.0
 10
15.564412629
 20
11.633023031
 30
0.0
 10
15.585347331
 20
11.6185376293
 30
0.0
  0
SPLINE
  5
476
100
AcDbEntity
  8
0
100
AcDbSpline
 62
7
  6
CONTINUOUS
 70
0
 71
3
 72
14
 73
10
 74
0
 42
0.0000001
 43
0.0000001
 44
0.0000000001
 40
0.0
 40
0.0
 40
0.0
 40
0.0
 40
0.1388633464
 40
0.2740899614
 40
0.4054471615
 40
0.5327663499
 40
0.7748093187
 40
0.8895359297
 40
1.0
 40
1.0
 40
1.0
 40
1.0
 10
15.6323648143
 20
11.5844278623
 30
0.0
 10
15.6470358306
 20
11.5732635728
 30
0.0
 10
15.6755078521
 20
11.5505785332
 30
0.0
 10
15.7159904105
 20
11.5150718874
 30
0.0
 10
15.7535502724
 20
11.478645907
 30
0.0
 10
15.798755645
 20
11.4298797546
 30
0.0
 10
15.8384886286
 20
11.3791198087
 30
0.0
 10
15.871714673
 20
11.3266931989
 30
0.0
 10
15.8859285362
 20
11.3003541975
 30
0.0
 10
15.8923893064
 20
11.2871885322
 30
0.0
  0
SPLINE
  5
477
100
AcDbEntity
  8
0
100
AcDbSpline
 62
7
  6
CONTINUOUS
 70
0
 71
3
 72
24
 73
20
 74
0
 42
0.0000001
 43
0.0000001
 44
0.0000000001
 40
0.0
 40
0.0
 40
0.0
 40
0.0
 40
0.0661660785
 40
0.1295795104
 40
0.1904871485
 40
0.2492999603
 40
0.3065498354
 40
0.3628398513
 40
0.418814659
 40
0.4751397692
 40
0.5324627679
 40
0.5913788507
 40
0.6523960059
 40
0.7159284277
 40
0.7487491789
 40
0.7823060463
 40
0.8517016435
 40
0.9242561677
 40
1.0
 40
1.0
 40
1.0
 40
1.0
 10
15.8705806692
 20
11.2725011526
 30
0.0
 10
15.8779165791
 20
11.2575521399
 30
0.0
 10
15.8909822477
 20
11.2276098162
 30
0.0
 10
15.9057283693
 20
11.1819070417
 30
0.0
 10
15.9150595678
 20
11.1366711953
 30
0.0
 10
15.9189012755
 20
11.0921899147
 30
0.0
 10
15.9172148807
 20
11.0487278397
 30
0.0
 10
15.9099955558
 20
11.0065548091
 30
0.0
 10
15.8972909802
 20
10.965938883
 30
0.0
 10
15.8791631561
 20
10.9271521284
 30
0.0
 10
15.8557581614
 20
10.8904293536
 30
0.0
 10
15.8272165892
 20
10.8560030718
 30
0.0
 10
15.7937441341
 20
10.8240602567
 30
0.0
 10
15.7622468219
 20
10.7999246685
 30
0.0
 10
15.7348939186
 20
10.7819971869
 30
0.0
 10
15.7054498925
 20
10.7646356804
 30
0.0
 10
15.6658936158
 20
10.744843136
 30
0.0
 10
15.6149844853
 20
10.7244549115
 30
0.0
 10
15.5793493728
 20
10.7132301217
 30
0.0
 10
15.5609821158
 20
10.708129198
 30
0.0
  0
SPLINE
  5
478
100
AcDbEntity
  8
0
100
AcDbSpline
 62
7
  6
CONTINUOUS
 70
0
 71
3
 72
15
 73
11
 74
0
 42
0.0000001
 43
0.0000001
 44
0.0000000001
 40
0.0
 40
0.0
 40
0.0
 40
0.0
 40
0.137338401
 40
0.2700560275
 40
0.3985004762
 40
0.5232175907
 40
0.6449073586
 40
0.7643579855
 40
0.8824243179
 40
1.0
 40
1.0
 40
1.0
 40
1.0
 10
14.0837543733
 20
11.2895969046
 30
0.0
 10
14.0783024582
 20
11.3017559515
 30
0.0
 10
14.0684747202
 20
11.3260799547
 30
0.0
 10
14.0569537638
 20
11.3630350957
 30
0.0
 10
14.0489815197
 20
11.3996699848
 30
0.0
 10
14.0445988042
 20
11.435831635
 30
0.0
 10
14.043818145
 20
11.4713810578
 30
0.0
 10
14.0466594186
 20
11.5061826701
 30
0.0
 10
14.0531040244
 20
11.5400918302
 30
0.0
 10
14.0597868526
 20
11.5620120391
 30
0.0
 10
14.0636995253
 20
11.5727279553
 30
0.0
  0
SPLINE
  5
479
100
AcDbEntity
  8
0
100
AcDbSpline
 62
7
  6
CONTINUOUS
 70
0
 71
3
 72
33
 73
29
 74
0
 42
0.0000001
 43
0.0000001
 44
0.0000000001
 40
0.0
 40
0.0
 40
0.0
 40
0.0
 40
0.0212210091
 40
0.0426951325
 40
0.0645862359
 40
0.0870431043
 40
0.110192585
 40
0.134141628
 40
0.1589739934
 40
0.1847497751
 40
0.2115109748
 40
0.2392773993
 40
0.2977971061
 40
0.3285352307
 40
0.3602015755
 40
0.3927460763
 40
0.4261065036
 40
0.4602146127
 40
0.4949936897
 40
0.5662121723
 40
0.6390550956
 40
0.675850261
 40
0.7127567399
 40
0.7864853517
 40
0.8594463786
 40
0.8953995153
 40
0.9308708359
 40
1.0
 40
1.0
 40
1.0
 40
1.0
 10
14.0636995253
 20
11.5727279553
 30
0.0
 10
14.0677585402
 20
11.5838446695
 30
0.0
 10
14.0771913263
 20
11.6057700318
 30
0.0
 10
14.095007057
 20
11.6371510837
 30
0.0
 10
14.1164653
 20
11.6670173596
 30
0.0
 10
14.1414712591
 20
11.6952353178
 30
0.0
 10
14.1699047864
 20
11.7217029924
 30
0.0
 10
14.2016520162
 20
11.7463072383
 30
0.0
 10
14.2365768248
 20
11.7689535471
 30
0.0
 10
14.274530415
 20
11.7895617984
 30
0.0
 10
14.3153647144
 20
11.80804146
 30
0.0
 10
14.3744490957
 20
11.8301404925
 30
0.0
 10
14.4376398207
 20
11.8471523915
 30
0.0
 10
14.5039696617
 20
11.8594229406
 30
0.0
 10
14.5564867234
 20
11.8663807387
 30
0.0
 10
14.6107310684
 20
11.8709090676
 30
0.0
 10
14.6664860057
 20
11.8729999408
 30
0.0
 10
14.7235244708
 20
11.8726358601
 30
0.0
 10
14.8015865363
 20
11.868854421
 30
0.0
 10
14.9008353652
 20
11.8579403083
 30
0.0
 10
15.0000564054
 20
11.8392859356
 30
0.0
 10
15.0794319993
 20
11.8197634319
 30
0.0
 10
15.1585138456
 20
11.7972090565
 30
0.0
 10
15.255380704
 20
11.7637425348
 30
0.0
 10
15.3490398432
 20
11.7234518347
 30
0.0
 10
15.4210756797
 20
11.6874296546
 30
0.0
 10
15.4897722725
 20
11.6496561295
 30
0.0
 10
15.5391911561
 20
11.618495228
 30
0.0
 10
15.5708636881
 20
11.596515419
 30
0.0
  0
SPLINE
  5
47A
100
AcDbEntity
  8
0
100
AcDbSpline
 62
7
  6
CONTINUOUS
 70
0
 71
3
 72
14
 73
10
 74
0
 42
0.0000001
 43
0.0000001
 44
0.0000000001
 40
0.0
 40
0.0
 40
0.0
 40
0.0
 40
0.1388669185
 40
0.2740973324
 40
0.405457275
 40
0.5327783244
 40
0.774820376
 40
0.889542924
 40
1.0
 40
1.0
 40
1.0
 40
1.0
 10
15.6153170445
 20
11.5642244061
 30
0.0
 10
15.629719994
 20
11.5532685551
 30
0.0
 10
15.6576719256
 20
11.5310066543
 30
0.0
 10
15.6974151007
 20
11.4961610972
 30
0.0
 10
15.7342886083
 20
11.4604118907
 30
0.0
 10
15.778667251
 20
11.4125509573
 30
0.0
 10
15.8176723633
 20
11.3627313458
 30
0.0
 10
15.8502878054
 20
11.3112748458
 30
0.0
 10
15.8642394575
 20
11.2854231834
 30
0.0
 10
15.8705806692
 20
11.2725011526
 30
0.0
  0
SPLINE
  5
47B
100
AcDbEntity
  8
0
100
AcDbSpline
 62
7
  6
CONTINUOUS
 70
0
 71
3
 72
14
 73
10
 74
0
 42
0.0000001
 43
0.0000001
 44
0.0000000001
 40
0.0
 40
0.0
 40
0.0
 40
0.0
 40
0.1199823625
 40
0.2436183489
 40
0.3697807944
 40
0.4974683372
 40
0.7524128243
 40
0.8777564925
 40
1.0
 40
1.0
 40
1.0
 40
1.0
 10
14.7760924724
 20
12.1763361704
 30
0.0
 10
14.7693276397
 20
12.1763361704
 30
0.0
 10
14.755581318
 20
12.1755099954
 30
0.0
 10
14.7349956769
 20
12.1719827201
 30
0.0
 10
14.714470307
 20
12.1662000868
 30
0.0
 10
14.6877552718
 20
12.1556544854
 30
0.0
 10
14.6627612439
 20
12.1411954602
 30
0.0
 10
14.6406732057
 20
12.123390765
 30
0.0
 10
14.6307693361
 20
12.1135034104
 30
0.0
 10
14.6261793821
 20
12.1083617764
 30
0.0
  0
SPLINE
  5
47C
100
AcDbEntity
  8
0
100
AcDbSpline
 62
7
  6
CONTINUOUS
 70
0
 71
3
 72
37
 73
33
 74
0
 42
0.0000001
 43
0.0000001
 44
0.0000000001
 40
0.0
 40
0.0
 40
0.0
 40
0.0
 40
0.0265177326
 40
0.0543694824
 40
0.0835395842
 40
0.113997983
 40
0.1456991532
 40
0.1785709794
 40
0.2473656583
 40
0.2830598248
 40
0.3194173846
 40
0.3562819296
 40
0.3934880076
 40
0.4308671979
 40
0.4682477839
 40
0.5054578811
 40
0.5423291349
 40
0.6143788331
 40
0.6832024834
 40
0.7160925037
 40
0.7478163398
 40
0.7782961337
 40
0.807478521
 40
0.8353397072
 40
0.8618945692
 40
0.8871935663
 40
0.8994064946
 40
0.9113470012
 40
0.934480528
 40
0.9568003856
 40
0.9785481496
 40
1.0
 40
1.0
 40
1.0
 40
1.0
 10
14.4343011816
 20
11.2725011526
 30
0.0
 10
14.4394126214
 20
11.2620851335
 30
0.0
 10
14.4509818884
 20
11.2412510429
 30
0.0
 10
14.4715218029
 20
11.2109664574
 30
0.0
 10
14.4955365098
 20
11.1811102559
 30
0.0
 10
14.5228497429
 20
11.1518958948
 30
0.0
 10
14.5532754438
 20
11.1235097661
 30
0.0
 10
14.5984033885
 20
11.0864667
 30
0.0
 10
14.6482081536
 20
11.0525585413
 30
0.0
 10
14.7017180025
 20
11.0219548863
 30
0.0
 10
14.7442556894
 20
11.0004215374
 30
0.0
 10
14.7884035045
 20
10.9807423774
 30
0.0
 10
14.8338624588
 20
10.9630442
 30
0.0
 10
14.8803259301
 20
10.9474580498
 30
0.0
 10
14.927473514
 20
10.9340778981
 30
0.0
 10
14.9749892658
 20
10.9230054378
 30
0.0
 10
15.0379046625
 20
10.9115013343
 30
0.0
 10
15.1153603108
 20
10.9031200086
 30
0.0
 10
15.1915611741
 20
10.9029210584
 30
0.0
 10
15.2497575566
 20
10.9079931042
 30
0.0
 10
15.2909262414
 20
10.9142270442
 30
0.0
 10
15.3299931502
 20
10.9229021803
 30
0.0
 10
15.3666971402
 20
10.9339597552
 30
0.0
 10
15.4007877923
 20
10.9473394641
 30
0.0
 10
15.4320376824
 20
10.9629404954
 30
0.0
 10
15.4558087477
 20
10.9779015417
 30
0.0
 10
15.4731213158
 20
10.9908979636
 30
0.0
 10
15.4889446995
 20
11.004242369
 30
0.0
 10
15.5066879782
 20
11.02210996
 30
0.0
 10
15.524603688
 20
11.0455341104
 30
0.0
 10
15.5387881276
 20
11.0705505889
 30
0.0
 10
15.5456881481
 20
11.0882312826
 30
0.0
 10
15.5484591265
 20
11.0971989976
 30
0.0
  0
SPLINE
  5
47D
100
AcDbEntity
  8
0
100
AcDbSpline
 62
7
  6
CONTINUOUS
 70
0
 71
3
 72
14
 73
10
 74
0
 42
0.0000001
 43
0.0000001
 44
0.0000000001
 40
0.0
 40
0.0
 40
0.0
 40
0.0
 40
0.1126137974
 40
0.2273327666
 40
0.3452226294
 40
0.4670407472
 40
0.7239155371
 40
0.8597781291
 40
1.0
 40
1.0
 40
1.0
 40
1.0
 10
14.8737877274
 20
12.1311655261
 30
0.0
 10
14.871502207
 20
12.134698163
 30
0.0
 10
14.866327793
 20
12.1414823552
 30
0.0
 10
14.8570382974
 20
12.1504927864
 30
0.0
 10
14.8462840428
 20
12.158294497
 30
0.0
 10
14.8299146347
 20
12.1671216167
 30
0.0
 10
14.8113754519
 20
12.1729490843
 30
0.0
 10
14.7916569645
 20
12.1758531752
 30
0.0
 10
14.7813314814
 20
12.1763361704
 30
0.0
 10
14.7760924724
 20
12.1763361704
 30
0.0
  0
SPLINE
  5
47E
100
AcDbEntity
  8
0
100
AcDbSpline
 62
7
  6
CONTINUOUS
 70
0
 71
3
 72
23
 73
19
 74
0
 42
0.0000001
 43
0.0000001
 44
0.0000000001
 40
0.0
 40
0.0
 40
0.0
 40
0.0
 40
0.0647127371
 40
0.1313571884
 40
0.1993432184
 40
0.2681740513
 40
0.3373490435
 40
0.4063092169
 40
0.4744947258
 40
0.541398072
 40
0.6065640756
 40
0.6696281259
 40
0.7303223049
 40
0.7885322058
 40
0.844290087
 40
0.8978233387
 40
0.9495324055
 40
1.0
 40
1.0
 40
1.0
 40
1.0
 10
17.6944653052
 20
12.2404453572
 30
0.0
 10
17.6868822231
 20
12.2404453572
 30
0.0
 10
17.6714795407
 20
12.2395763442
 30
0.0
 10
17.6483781357
 20
12.2358738771
 30
0.0
 10
17.6252885761
 20
12.2297814472
 30
0.0
 10
17.6026056789
 20
12.2214230251
 30
0.0
 10
17.5807041242
 20
12.2109248899
 30
0.0
 10
17.5599362212
 20
12.1984776317
 30
0.0
 10
17.5406595954
 20
12.1842687762
 30
0.0
 10
17.523184008
 20
12.1685496765
 30
0.0
 10
17.5078123194
 20
12.1515648242
 30
0.0
 10
17.494786234
 20
12.1336067691
 30
0.0
 10
17.484342842
 20
12.1149563061
 30
0.0
 10
17.4766429689
 20
12.0959285901
 30
0.0
 10
17.4718452868
 20
12.0768265556
 30
0.0
 10
17.4700237263
 20
12.0579698423
 30
0.0
 10
17.4712488352
 20
12.0396829503
 30
0.0
 10
17.4741063891
 20
12.0279801892
 30
0.0
 10
17.4760221548
 20
12.0223852639
 30
0.0
  0
SPLINE
  5
47F
100
AcDbEntity
  8
0
100
AcDbSpline
 62
7
  6
CONTINUOUS
 70
0
 71
3
 72
18
 73
14
 74
0
 42
0.0000001
 43
0.0000001
 44
0.0000000001
 40
0.0
 40
0.0
 40
0.0
 40
0.0
 40
0.0243925068
 40
0.0518677985
 40
0.1125194562
 40
0.1766191894
 40
0.2417344017
 40
0.3719699656
 40
0.5008980192
 40
0.6281754857
 40
0.7537796492
 40
0.8777238784
 40
1.0
 40
1.0
 40
1.0
 40
1.0
 10
17.36577835
 20
11.7939808647
 30
0.0
 10
17.3656375263
 20
11.7942678332
 30
0.0
 10
17.3652753592
 20
11.7948473044
 30
0.0
 10
17.3643374856
 20
11.7959881751
 30
0.0
 10
17.3628607112
 20
11.797340965
 30
0.0
 10
17.3608800512
 20
11.7988482906
 30
0.0
 10
17.3580604501
 20
11.8007510033
 30
0.0
 10
17.3544145414
 20
11.802938202
 30
0.0
 10
17.3499831057
 20
11.8053902377
 30
0.0
 10
17.3455563432
 20
11.8077229943
 30
0.0
 10
17.3411594595
 20
11.8099711472
 30
0.0
 10
17.336803857
 20
11.8121556856
 30
0.0
 10
17.3339125196
 20
11.8135880443
 30
0.0
 10
17.3324755211
 20
11.8142970888
 30
0.0
  0
SPLINE
  5
480
100
AcDbEntity
  8
0
100
AcDbSpline
 62
7
  6
CONTINUOUS
 70
0
 71
3
 72
15
 73
11
 74
0
 42
0.0000001
 43
0.0000001
 44
0.0000000001
 40
0.0
 40
0.0
 40
0.0
 40
0.0
 40
0.1148423049
 40
0.2417529353
 40
0.3761113142
 40
0.5133462515
 40
0.6488736213
 40
0.778106215
 40
0.8965672749
 40
1.0
 40
1.0
 40
1.0
 40
1.0
 10
18.0190897625
 20
11.8291042867
 30
0.0
 10
18.0188846066
 20
11.8277479245
 30
0.0
 10
18.0185962257
 20
11.8248705196
 30
0.0
 10
18.0184752183
 20
11.8203763917
 30
0.0
 10
18.0186615147
 20
11.8156166619
 30
0.0
 10
18.0191425788
 20
11.8107745878
 30
0.0
 10
18.0199051133
 20
11.8060307293
 30
0.0
 10
18.0209183999
 20
11.8015627377
 30
0.0
 10
18.0221514605
 20
11.7975499794
 30
0.0
 10
18.023155263
 20
11.7950900145
 30
0.0
 10
18.0236995547
 20
11.7939808647
 30
0.0
  0
SPLINE
  5
481
100
AcDbEntity
  8
0
100
AcDbSpline
 62
7
  6
CONTINUOUS
 70
0
 71
3
 72
10
 73
6
 74
0
 42
0.0000001
 43
0.0000001
 44
0.0000000001
 40
0.0
 40
0.0
 40
0.0
 40
0.0
 40
0.4992736459
 40
0.7495946633
 40
1.0
 40
1.0
 40
1.0
 40
1.0
 10
17.4653458758
 20
12.3580388366
 30
0.0
 10
17.471423809
 20
12.3602559372
 30
0.0
 10
17.4807913334
 20
12.3629525897
 30
0.0
 10
17.4935107461
 20
12.3654444764
 30
0.0
 10
17.4999442183
 20
12.3663259799
 30
0.0
 10
17.5031709684
 20
12.3666677589
 30
0.0
  0
SPLINE
  5
482
100
AcDbEntity
  8
0
100
AcDbSpline
 62
7
  6
CONTINUOUS
 70
0
 71
3
 72
11
 73
7
 74
0
 42
0.0000001
 43
0.0000001
 44
0.0000000001
 40
0.0
 40
0.0
 40
0.0
 40
0.0
 40
0.2200076218
 40
0.4562484681
 40
0.7149987031
 40
1.0
 40
1.0
 40
1.0
 40
1.0
 10
15.9374174249
 20
11.2924310306
 30
0.0
 10
15.9392954472
 20
11.2927858367
 30
0.0
 10
15.9431135821
 20
11.2939804363
 30
0.0
 10
15.9485693353
 20
11.2970210033
 30
0.0
 10
15.9538599797
 20
11.3012972579
 30
0.0
 10
15.9570925417
 20
11.304761599
 30
0.0
 10
15.95867912
 20
11.3066622912
 30
0.0
  0
SPLINE
  5
483
100
AcDbEntity
  8
0
100
AcDbSpline
 62
7
  6
CONTINUOUS
 70
0
 71
3
 72
11
 73
7
 74
0
 42
0.0000001
 43
0.0000001
 44
0.0000000001
 40
0.0
 40
0.0
 40
0.0
 40
0.0
 40
0.2305811168
 40
0.4687668211
 40
0.7230027997
 40
1.0
 40
1.0
 40
1.0
 40
1.0
 10
15.9377400053
 20
11.6045101912
 30
0.0
 10
15.9404409824
 20
11.6045097419
 30
0.0
 10
15.9459543842
 20
11.6038230369
 30
0.0
 10
15.9539313518
 20
11.600767414
 30
0.0
 10
15.9614925054
 20
11.5957491745
 30
0.0
 10
15.9659645215
 20
11.5913704504
 30
0.0
 10
15.9681036422
 20
11.5889307489
 30
0.0
  0
SPLINE
  5
484
100
AcDbEntity
  8
0
100
AcDbSpline
 62
7
  6
CONTINUOUS
 70
0
 71
3
 72
9
 73
5
 74
0
 42
0.0000001
 43
0.0000001
 44
0.0000000001
 40
0.0
 40
0.0
 40
0.0
 40
0.0
 40
0.4819005061
 40
1.0
 40
1.0
 40
1.0
 40
1.0
 10
15.9681036422
 20
11.5889307489
 30
0.0
 10
15.9699331876
 20
11.586844123
 30
0.0
 10
15.9734489536
 20
11.5822638643
 30
0.0
 10
15.9764474242
 20
11.5773352536
 30
0.0
 10
15.9778805007
 20
11.5747183887
 30
0.0
  0
SPLINE
  5
485
100
AcDbEntity
  8
0
100
AcDbSpline
 62
7
  6
CONTINUOUS
 70
0
 71
3
 72
9
 73
5
 74
0
 42
0.0000001
 43
0.0000001
 44
0.0000000001
 40
0.0
 40
0.0
 40
0.0
 40
0.0
 40
0.2403808519
 40
1.0
 40
1.0
 40
1.0
 40
1.0
 10
15.9799870571
 20
11.5706549576
 30
0.0
 10
15.9805444201
 20
11.5695191713
 30
0.0
 10
15.9827790213
 20
11.5647531142
 30
0.0
 10
15.9846918774
 20
11.5598388719
 30
0.0
 10
15.9859910767
 20
11.5560578229
 30
0.0
  0
SPLINE
  5
486
100
AcDbEntity
  8
0
100
AcDbSpline
 62
7
  6
CONTINUOUS
 70
0
 71
3
 72
13
 73
9
 74
0
 42
0.0000001
 43
0.0000001
 44
0.0000000001
 40
0.0
 40
0.0
 40
0.0
 40
0.0
 40
0.3066650772
 40
0.4428854549
 40
0.5686542826
 40
0.793891606
 40
0.8980939754
 40
1.0
 40
1.0
 40
1.0
 40
1.0
 10
15.9588286389
 20
11.3068420517
 30
0.0
 10
15.957273999
 20
11.3045905369
 30
0.0
 10
15.9548419658
 20
11.3014524588
 30
0.0
 10
15.9512286648
 20
11.2978792643
 30
0.0
 10
15.9478426725
 20
11.2951480358
 30
0.0
 10
15.9442280731
 20
11.2931587981
 30
0.0
 10
15.9404921794
 20
11.2921708828
 30
0.0
 10
15.9386492204
 20
11.2920098398
 30
0.0
 10
15.9377400047
 20
11.2920100509
 30
0.0
  0
SPLINE
  5
487
100
AcDbEntity
  8
0
100
AcDbSpline
 62
7
  6
CONTINUOUS
 70
0
 71
3
 72
11
 73
7
 74
0
 42
0.0000001
 43
0.0000001
 44
0.0000000001
 40
0.0
 40
0.0
 40
0.0
 40
0.0
 40
0.2177288491
 40
0.4520661867
 40
0.7111879208
 40
1.0
 40
1.0
 40
1.0
 40
1.0
 10
18.1925554712
 20
12.3674979212
 30
0.0
 10
18.1920566591
 20
12.3674981544
 30
0.0
 10
18.1910168966
 20
12.3673515834
 30
0.0
 10
18.1894981364
 20
12.3667262643
 30
0.0
 10
18.188003604
 20
12.3657198719
 30
0.0
 10
18.1870864476
 20
12.3648551589
 30
0.0
 10
18.1866345509
 20
12.3643718511
 30
0.0
  0
SPLINE
  5
488
100
AcDbEntity
  8
0
100
AcDbSpline
 62
7
  6
CONTINUOUS
 70
0
 71
3
 72
9
 73
5
 74
0
 42
0.0000001
 43
0.0000001
 44
0.0000000001
 40
0.0
 40
0.0
 40
0.0
 40
0.0
 40
0.4681719683
 40
1.0
 40
1.0
 40
1.0
 40
1.0
 10
18.1866345509
 20
12.3643718511
 30
0.0
 10
18.1858285574
 20
12.3635098334
 30
0.0
 10
18.1843097
 20
12.3614784722
 30
0.0
 10
18.1831099404
 20
12.3592535944
 30
0.0
 10
18.1825429009
 20
12.3580388366
 30
0.0
  0
SPLINE
  5
489
100
AcDbEntity
  8
0
100
AcDbSpline
 62
7
  6
CONTINUOUS
 70
0
 71
3
 72
15
 73
11
 74
0
 42
0.0000001
 43
0.0000001
 44
0.0000000001
 40
0.0
 40
0.0
 40
0.0
 40
0.0
 40
0.0914345084
 40
0.1939183669
 40
0.3070771538
 40
0.4302095804
 40
0.5623805343
 40
0.7024097285
 40
0.8489034056
 40
1.0
 40
1.0
 40
1.0
 40
1.0
 10
15.9070785295
 20
11.5896782042
 30
0.0
 10
15.9048344337
 20
11.5869706015
 30
0.0
 10
15.9005174746
 20
11.5808574628
 30
0.0
 10
15.8948325355
 20
11.5704846489
 30
0.0
 10
15.8896506124
 20
11.5585121416
 30
0.0
 10
15.8850328201
 20
11.5451018255
 30
0.0
 10
15.8810415037
 20
11.5304199769
 30
0.0
 10
15.8777249693
 20
11.5146532882
 30
0.0
 10
15.8751352903
 20
11.498015353
 30
0.0
 10
15.8739249377
 20
11.4866287754
 30
0.0
 10
15.8734441564
 20
11.4808373331
 30
0.0
  0
SPLINE
  5
48A
100
AcDbEntity
  8
0
100
AcDbSpline
 62
7
  6
CONTINUOUS
 70
0
 71
3
 72
23
 73
19
 74
0
 42
0.0000001
 43
0.0000001
 44
0.0000000001
 40
0.0
 40
0.0
 40
0.0
 40
0.0
 40
0.0647127371
 40
0.1313571884
 40
0.1993432184
 40
0.2681740513
 40
0.3373490435
 40
0.4063092169
 40
0.4744947258
 40
0.541398072
 40
0.6065640756
 40
0.6696281259
 40
0.7303223049
 40
0.7885322058
 40
0.844290087
 40
0.8978233387
 40
0.9495324055
 40
1.0
 40
1.0
 40
1.0
 40
1.0
 10
13.3194255837
 20
12.2404453572
 30
0.0
 10
13.3118425015
 20
12.2404453572
 30
0.0
 10
13.2964398192
 20
12.2395763442
 30
0.0
 10
13.2733384142
 20
12.2358738771
 30
0.0
 10
13.2502488545
 20
12.2297814472
 30
0.0
 10
13.2275659574
 20
12.2214230251
 30
0.0
 10
13.2056644027
 20
12.2109248899
 30
0.0
 10
13.1848964997
 20
12.1984776317
 30
0.0
 10
13.1656198739
 20
12.1842687762
 30
0.0
 10
13.1481442865
 20
12.1685496765
 30
0.0
 10
13.1327725978
 20
12.1515648242
 30
0.0
 10
13.1197465125
 20
12.1336067691
 30
0.0
 10
13.1093031205
 20
12.1149563061
 30
0.0
 10
13.1016032473
 20
12.0959285901
 30
0.0
 10
13.0968055653
 20
12.0768265556
 30
0.0
 10
13.0949840047
 20
12.0579698423
 30
0.0
 10
13.0962091137
 20
12.0396829503
 30
0.0
 10
13.0990666676
 20
12.0279801892
 30
0.0
 10
13.1009824332
 20
12.0223852639
 30
0.0
  0
SPLINE
  5
48B
100
AcDbEntity
  8
0
100
AcDbSpline
 62
7
  6
CONTINUOUS
 70
0
 71
3
 72
11
 73
7
 74
0
 42
0.0000001
 43
0.0000001
 44
0.0000000001
 40
0.0
 40
0.0
 40
0.0
 40
0.0
 40
0.2853500319
 40
0.5439000811
 40
0.7799701843
 40
1.0
 40
1.0
 40
1.0
 40
1.0
 10
15.9586791525
 20
11.5898581435
 30
0.0
 10
15.9570891585
 20
11.591763411
 30
0.0
 10
15.9538530682
 20
11.5952333151
 30
0.0
 10
15.9485545421
 20
11.5995117072
 30
0.0
 10
15.9430917967
 20
11.6025473762
 30
0.0
 10
15.9392697986
 20
11.6037394125
 30
0.0
 10
15.9373892464
 20
11.6040929594
 30
0.0
  0
SPLINE
  5
48C
100
AcDbEntity
  8
0
100
AcDbSpline
 62
7
  6
CONTINUOUS
 70
0
 71
3
 72
9
 73
5
 74
0
 42
0.0000001
 43
0.0000001
 44
0.0000000001
 40
0.0
 40
0.0
 40
0.0
 40
0.0
 40
0.2554864463
 40
1.0
 40
1.0
 40
1.0
 40
1.0
 10
15.9377887201
 20
11.0316157656
 30
0.0
 10
15.9440930574
 20
11.0344570135
 30
0.0
 10
15.9686201421
 20
11.0459033774
 30
0.0
 10
15.9925333845
 20
11.0586780896
 30
0.0
 10
16.0098550141
 20
11.0689749675
 30
0.0
  0
SPLINE
  5
48D
100
AcDbEntity
  8
0
100
AcDbSpline
 62
7
  6
CONTINUOUS
 70
0
 71
3
 72
33
 73
29
 74
0
 42
0.0000001
 43
0.0000001
 44
0.0000000001
 40
0.0
 40
0.0
 40
0.0
 40
0.0
 40
0.0304388967
 40
0.0631280323
 40
0.1344159716
 40
0.2121282486
 40
0.2943238231
 40
0.3787639652
 40
0.4630929213
 40
0.5449646157
 40
0.6221629368
 40
0.658381803
 40
0.6927231686
 40
0.7249987155
 40
0.7550577598
 40
0.7828133748
 40
0.8082229002
 40
0.8313159609
 40
0.8522436415
 40
0.8712748278
 40
0.8888332999
 40
0.9055236987
 40
0.922063857
 40
0.9391984981
 40
0.9575875422
 40
0.9674237634
 40
0.9777484503
 40
1.0
 40
1.0
 40
1.0
 40
1.0
 10
15.9183932675
 20
11.3415318365
 30
0.0
 10
15.9170883513
 20
11.3441909761
 30
0.0
 10
15.9145932736
 20
11.3498109504
 30
0.0
 10
15.9100448121
 20
11.3620817174
 30
0.0
 10
15.9053153681
 20
11.379152841
 30
0.0
 10
15.9012609251
 20
11.401306553
 30
0.0
 10
15.898807553
 20
11.4249800589
 30
0.0
 10
15.8980312576
 20
11.4494094173
 30
0.0
 10
15.8989649734
 20
11.4738026615
 30
0.0
 10
15.9015775771
 20
11.4973644962
 30
0.0
 10
15.9051446352
 20
11.5160568079
 30
0.0
 10
15.9088251716
 20
11.5299616621
 30
0.0
 10
15.911872935
 20
11.5394984544
 30
0.0
 10
15.9152422941
 20
11.5482882683
 30
0.0
 10
15.9189100898
 20
11.5562588111
 30
0.0
 10
15.9228421938
 20
11.5633489937
 30
0.0
 10
15.9270089675
 20
11.5695037372
 30
0.0
 10
15.9313863539
 20
11.5746708639
 30
0.0
 10
15.9359415933
 20
11.578812343
 30
0.0
 10
15.9406495181
 20
11.5818920705
 30
0.0
 10
15.9454873133
 20
11.583858852
 30
0.0
 10
15.9504061007
 20
11.5846760311
 30
0.0
 10
15.9553403718
 20
11.5843221783
 30
0.0
 10
15.9602147172
 20
11.5827990737
 30
0.0
 10
15.9640964786
 20
11.5806410456
 30
0.0
 10
15.9671229823
 20
11.5784195613
 30
0.0
 10
15.9702516184
 20
11.5757223017
 30
0.0
 10
15.9724203311
 20
11.5733939087
 30
0.0
 10
15.9738069942
 20
11.5717308213
 30
0.0
  0
SPLINE
  5
48E
100
AcDbEntity
  8
0
100
AcDbSpline
 62
7
  6
CONTINUOUS
 70
0
 71
3
 72
15
 73
11
 74
0
 42
0.0000001
 43
0.0000001
 44
0.0000000001
 40
0.0
 40
0.0
 40
0.0
 40
0.0
 40
0.1792126378
 40
0.3438834864
 40
0.4926678161
 40
0.6245071448
 40
0.7391887074
 40
0.8379630159
 40
0.9233986113
 40
1.0
 40
1.0
 40
1.0
 40
1.0
 10
13.1342915037
 20
12.3580388366
 30
0.0
 10
13.1343899547
 20
12.3586897331
 30
0.0
 10
13.1346110188
 20
12.3599342272
 30
0.0
 10
13.1350358945
 20
12.361694667
 30
0.0
 10
13.1355348289
 20
12.3632542626
 30
0.0
 10
13.1361027061
 20
12.3645935361
 30
0.0
 10
13.136736406
 20
12.3656967811
 30
0.0
 10
13.1374310202
 20
12.3665550029
 30
0.0
 10
13.1381857631
 20
12.3671602538
 30
0.0
 10
13.1387488922
 20
12.3673874317
 30
0.0
 10
13.1390242374
 20
12.36744539
 30
0.0
  0
SPLINE
  5
48F
100
AcDbEntity
  8
0
100
AcDbSpline
 62
7
  6
CONTINUOUS
 70
0
 71
3
 72
9
 73
5
 74
0
 42
0.0000001
 43
0.0000001
 44
0.0000000001
 40
0.0
 40
0.0
 40
0.0
 40
0.0
 40
0.2416628346
 40
1.0
 40
1.0
 40
1.0
 40
1.0
 10
13.9994783916
 20
11.7263390653
 30
0.0
 10
14.0031147202
 20
11.7167725161
 30
0.0
 10
14.0191764443
 20
11.6775744121
 30
0.0
 10
14.0391151207
 20
11.6400057313
 30
0.0
 10
14.0558732396
 20
11.6126093838
 30
0.0
  0
SPLINE
  5
490
100
AcDbEntity
  8
0
100
AcDbSpline
 62
7
  6
CONTINUOUS
 70
0
 71
3
 72
9
 73
5
 74
0
 42
0.0000001
 43
0.0000001
 44
0.0000000001
 40
0.0
 40
0.0
 40
0.0
 40
0.0
 40
0.2593819899
 40
1.0
 40
1.0
 40
1.0
 40
1.0
 10
14.0534525764
 20
11.6047761147
 30
0.0
 10
14.0473452711
 20
11.614760401
 30
0.0
 10
14.0246643812
 20
11.6537679808
 30
0.0
 10
14.0055808362
 20
11.6949232415
 30
0.0
 10
13.9941480075
 20
11.7263256043
 30
0.0
  0
SPLINE
  5
491
100
AcDbEntity
  8
0
100
AcDbSpline
 62
7
  6
CONTINUOUS
 70
0
 71
3
 72
15
 73
11
 74
0
 42
0.0000001
 43
0.0000001
 44
0.0000000001
 40
0.0
 40
0.0
 40
0.0
 40
0.0
 40
0.1172631605
 40
0.2353846574
 40
0.3551573996
 40
0.4773043627
 40
0.6024661797
 40
0.7311681121
 40
0.8636852046
 40
1.0
 40
1.0
 40
1.0
 40
1.0
 10
12.8390266866
 20
11.8506675678
 30
0.0
 10
12.842583189
 20
11.8434182295
 30
0.0
 10
12.8506382835
 20
11.829295947
 30
0.0
 10
12.8653194851
 20
11.8096643852
 30
0.0
 10
12.8824840221
 20
11.7916927176
 30
0.0
 10
12.901999502
 20
11.7755413718
 30
0.0
 10
12.9237000722
 20
11.7613242501
 30
0.0
 10
12.947416767
 20
11.7491608712
 30
0.0
 10
12.9729372904
 20
11.7391464544
 30
0.0
 10
12.9907557177
 20
11.7340172772
 30
0.0
 10
12.9998815368
 20
11.7318198679
 30
0.0
  0
SPLINE
  5
492
100
AcDbEntity
  8
0
100
AcDbSpline
 62
7
  6
CONTINUOUS
 70
0
 71
3
 72
15
 73
11
 74
0
 42
0.0000001
 43
0.0000001
 44
0.0000000001
 40
0.0
 40
0.0
 40
0.0
 40
0.0
 40
0.1380672603
 40
0.2714446829
 40
0.4004219028
 40
0.5254360583
 40
0.6471248949
 40
0.7662279775
 40
0.883563913
 40
1.0
 40
1.0
 40
1.0
 40
1.0
 10
15.8923893064
 20
11.2871885322
 30
0.0
 10
15.8984659184
 20
11.2748056987
 30
0.0
 10
15.9095319658
 20
11.250013844
 30
0.0
 10
15.922911781
 20
11.2122684353
 30
0.0
 10
15.93271377
 20
11.1747784837
 30
0.0
 10
15.9388726172
 20
11.1376996101
 30
0.0
 10
15.9413721643
 20
11.1011803581
 30
0.0
 10
15.94019232
 20
11.0653567173
 30
0.0
 10
15.9353318928
 20
11.0303758831
 30
0.0
 10
15.9296445753
 20
11.0076689306
 30
0.0
 10
15.9262112174
 20
10.9965547304
 30
0.0
  0
SPLINE
  5
493
100
AcDbEntity
  8
0
100
AcDbSpline
 62
7
  6
CONTINUOUS
 70
0
 71
3
 72
15
 73
11
 74
0
 42
0.0000001
 43
0.0000001
 44
0.0000000001
 40
0.0
 40
0.0
 40
0.0
 40
0.0
 40
0.0956727982
 40
0.2005052328
 40
0.3144405541
 40
0.4371535464
 40
0.5680661811
 40
0.7063334715
 40
0.8508462258
 40
1.0
 40
1.0
 40
1.0
 40
1.0
 10
15.9070785295
 20
11.5896782042
 30
0.0
 10
15.9045006496
 20
11.5870127357
 30
0.0
 10
15.8995560451
 20
11.5809750295
 30
0.0
 10
15.8931299672
 20
11.5705869165
 30
0.0
 10
15.8874878393
 20
11.5585863535
 30
0.0
 10
15.8827094536
 20
11.5451446798
 30
0.0
 10
15.8788726907
 20
11.5304309579
 30
0.0
 10
15.8760089072
 20
11.5146406654
 30
0.0
 10
15.8741517601
 20
11.4979917161
 30
0.0
 10
15.8735763357
 20
11.4866167833
 30
0.0
 10
15.8734441564
 20
11.4808373331
 30
0.0
  0
SPLINE
  5
494
100
AcDbEntity
  8
0
100
AcDbSpline
 62
7
  6
CONTINUOUS
 70
0
 71
3
 72
15
 73
11
 74
0
 42
0.0000001
 43
0.0000001
 44
0.0000000001
 40
0.0
 40
0.0
 40
0.0
 40
0.0
 40
0.139561402
 40
0.2751094341
 40
0.4061334168
 40
0.5324804485
 40
0.6544447088
 40
0.7725214341
 40
0.8874178622
 40
1.0
 40
1.0
 40
1.0
 40
1.0
 10
14.6991872354
 20
11.9596452487
 30
0.0
 10
14.6947880356
 20
11.9596452487
 30
0.0
 10
14.6861101826
 20
11.9600379734
 30
0.0
 10
14.6734153414
 20
11.9618383932
 30
0.0
 10
14.6613720495
 20
11.9648302712
 30
0.0
 10
14.65013498
 20
11.9689933184
 30
0.0
 10
14.6398283763
 20
11.9742682519
 30
0.0
 10
14.6305713931
 20
11.980610171
 30
0.0
 10
14.6224717869
 20
11.9879421788
 30
0.0
 10
14.6178688603
 20
11.9934789034
 30
0.0
 10
14.6158089836
 20
11.9963686571
 30
0.0
  0
SPLINE
  5
495
100
AcDbEntity
  8
0
100
AcDbSpline
 62
7
  6
CONTINUOUS
 70
0
 71
3
 72
16
 73
12
 74
0
 42
0.0000001
 43
0.0000001
 44
0.0000000001
 40
0.0
 40
0.0
 40
0.0
 40
0.0
 40
0.1137250041
 40
0.2277334773
 40
0.3439514917
 40
0.4640207315
 40
0.5259544351
 40
0.5892732089
 40
0.720227264
 40
0.8572174904
 40
1.0
 40
1.0
 40
1.0
 40
1.0
 10
14.6158089836
 20
11.9963686571
 30
0.0
 10
14.6131849829
 20
12.0000498073
 30
0.0
 10
14.6086191371
 20
12.0079417601
 30
0.0
 10
14.6041271548
 20
12.0209397142
 30
0.0
 10
14.6021194693
 20
12.0347977253
 30
0.0
 10
14.602516303
 20
12.0467072157
 30
0.0
 10
14.6040328323
 20
12.0563488729
 30
0.0
 10
14.6064044038
 20
12.0662628604
 30
0.0
 10
14.6109163066
 20
12.0786874843
 30
0.0
 10
14.6185639226
 20
12.0931614346
 30
0.0
 10
14.6249638055
 20
12.1022954172
 30
0.0
 10
14.6284803462
 20
12.1067504749
 30
0.0
  0
SPLINE
  5
496
100
AcDbEntity
  8
0
100
AcDbSpline
 62
7
  6
CONTINUOUS
 70
0
 71
3
 72
15
 73
11
 74
0
 42
0.0000001
 43
0.0000001
 44
0.0000000001
 40
0.0
 40
0.0
 40
0.0
 40
0.0
 40
0.1215084945
 40
0.2463359022
 40
0.3734205579
 40
0.5015371371
 40
0.6294268552
 40
0.755934008
 40
0.8799094626
 40
1.0
 40
1.0
 40
1.0
 40
1.0
 10
14.6313180389
 20
12.1102366034
 30
0.0
 10
14.6352826429
 20
12.1149615883
 30
0.0
 10
14.643907859
 20
12.1240602337
 30
0.0
 10
14.6584178407
 20
12.1363118341
 30
0.0
 10
14.6744324681
 20
12.1471311101
 30
0.0
 10
14.6916113566
 20
12.1563168826
 30
0.0
 10
14.7096203407
 20
12.1636679848
 30
0.0
 10
14.7280962204
 20
12.1690491139
 30
0.0
 10
14.7466555879
 20
12.1723269946
 30
0.0
 10
14.7590543395
 20
12.1731018316
 30
0.0
 10
14.7651503086
 20
12.1731018316
 30
0.0
  0
SPLINE
  5
497
100
AcDbEntity
  8
0
100
AcDbSpline
 62
7
  6
CONTINUOUS
 70
0
 71
3
 72
24
 73
20
 74
0
 42
0.0000001
 43
0.0000001
 44
0.0000000001
 40
0.0
 40
0.0
 40
0.0
 40
0.0
 40
0.0664573752
 40
0.1343304381
 40
0.2028782936
 40
0.2715500877
 40
0.3398928921
 40
0.4074713979
 40
0.4738948602
 40
0.5388702596
 40
0.6021825693
 40
0.6637219188
 40
0.7234546179
 40
0.7526790103
 40
0.7814826723
 40
0.8378625088
 40
0.8928537865
 40
0.9467803726
 40
1.0
 40
1.0
 40
1.0
 40
1.0
 10
14.6261793821
 20
12.1083617764
 30
0.0
 10
14.6303403222
 20
12.1134446501
 30
0.0
 10
14.639264178
 20
12.1233082452
 30
0.0
 10
14.6540700534
 20
12.1368739479
 30
0.0
 10
14.6702695582
 20
12.1491123972
 30
0.0
 10
14.6876041141
 20
12.1597728789
 30
0.0
 10
14.7058261688
 20
12.1686212003
 30
0.0
 10
14.7246528843
 20
12.1754806394
 30
0.0
 10
14.7437939407
 20
12.1801752308
 30
0.0
 10
14.7629308173
 20
12.1826008634
 30
0.0
 10
14.7817427451
 20
12.1826926069
 30
0.0
 10
14.7998994269
 20
12.1804417629
 30
0.0
 10
14.8143329728
 20
12.1766321231
 30
0.0
 10
14.8252104933
 20
12.1724636417
 30
0.0
 10
14.8354581591
 20
12.1676627555
 30
0.0
 10
14.8473305885
 20
12.1604099711
 30
0.0
 10
14.8598374595
 20
12.1497923689
 30
0.0
 10
14.8702878459
 20
12.1375522929
 30
0.0
 10
14.8757643273
 20
12.1284194188
 30
0.0
 10
14.878082198
 20
12.1236972692
 30
0.0
  0
SPLINE
  5
498
100
AcDbEntity
  8
0
100
AcDbSpline
 62
7
  6
CONTINUOUS
 70
0
 71
3
 72
15
 73
11
 74
0
 42
0.0000001
 43
0.0000001
 44
0.0000000001
 40
0.0
 40
0.0
 40
0.0
 40
0.0
 40
0.1015371073
 40
0.2167334629
 40
0.3425339162
 40
0.4754152572
 40
0.61157485
 40
0.7470839813
 40
0.8779577573
 40
1.0
 40
1.0
 40
1.0
 40
1.0
 10
12.9693773501
 20
11.7939808647
 30
0.0
 10
12.9688393861
 20
11.7950771201
 30
0.0
 10
12.9679282359
 20
11.7975343073
 30
0.0
 10
12.9670379523
 20
11.801565743
 30
0.0
 10
12.9665814436
 20
11.8060479778
 30
0.0
 10
12.9665651802
 20
11.8108033519
 30
0.0
 10
12.96699519
 20
11.8156561953
 30
0.0
 10
12.9678505114
 20
11.8204282861
 30
0.0
 10
12.96910715
 20
11.8249344023
 30
0.0
 10
12.97021754
 20
11.8277743049
 30
0.0
 10
12.9708383652
 20
11.8291042867
 30
0.0
  0
SPLINE
  5
499
100
AcDbEntity
  8
0
100
AcDbSpline
 62
7
  6
CONTINUOUS
 70
0
 71
3
 72
9
 73
5
 74
0
 42
0.0000001
 43
0.0000001
 44
0.0000000001
 40
0.0
 40
0.0
 40
0.0
 40
0.0
 40
0.5082031172
 40
1.0
 40
1.0
 40
1.0
 40
1.0
 10
14.891578712
 20
12.2811447049
 30
0.0
 10
14.8615053908
 20
12.2830164777
 30
0.0
 10
14.8021993267
 20
12.284876726
 30
0.0
 10
14.7428916118
 20
12.2828041988
 30
0.0
 10
14.7138067221
 20
12.2807296168
 30
0.0
  0
SPLINE
  5
49A
100
AcDbEntity
  8
0
100
AcDbSpline
 62
7
  6
CONTINUOUS
 70
0
 71
3
 72
9
 73
5
 74
0
 42
0.0000001
 43
0.0000001
 44
0.0000000001
 40
0.0
 40
0.0
 40
0.0
 40
0.0
 40
0.4802383977
 40
1.0
 40
1.0
 40
1.0
 40
1.0
 10
17.3765007788
 20
11.7570206552
 30
0.0
 10
17.3784789067
 20
11.7544844936
 30
0.0
 10
17.3829948815
 20
11.7495088036
 30
0.0
 10
17.3880626745
 20
11.7451063946
 30
0.0
 10
17.3908109402
 20
11.7429698094
 30
0.0
  0
SPLINE
  5
49B
100
AcDbEntity
  8
0
100
AcDbSpline
 62
7
  6
CONTINUOUS
 70
0
 71
3
 72
9
 73
5
 74
0
 42
0.0000001
 43
0.0000001
 44
0.0000000001
 40
0.0
 40
0.0
 40
0.0
 40
0.0
 40
0.2607023189
 40
1.0
 40
1.0
 40
1.0
 40
1.0
 10
14.4507816008
 20
12.2271081396
 30
0.0
 10
14.4398448276
 20
12.2230639395
 30
0.0
 10
14.3982747729
 20
12.2065628799
 30
0.0
 10
14.3582762437
 20
12.1859279763
 30
0.0
 10
14.3304304334
 20
12.1680945292
 30
0.0
  0
SPLINE
  5
49C
100
AcDbEntity
  8
0
100
AcDbSpline
 62
7
  6
CONTINUOUS
 70
0
 71
3
 72
9
 73
5
 74
0
 42
0.0000001
 43
0.0000001
 44
0.0000000001
 40
0.0
 40
0.0
 40
0.0
 40
0.0
 40
0.2564509056
 40
1.0
 40
1.0
 40
1.0
 40
1.0
 10
15.9810515626
 20
11.7263447795
 30
0.0
 10
15.9846757669
 20
11.7205259931
 30
0.0
 10
15.9984570963
 20
11.697621038
 30
0.0
 10
16.0107953049
 20
11.6738373064
 30
0.0
 10
16.0189711045
 20
11.6557210134
 30
0.0
  0
SPLINE
  5
49D
100
AcDbEntity
  8
0
100
AcDbSpline
 62
7
  6
CONTINUOUS
 70
0
 71
3
 72
9
 73
5
 74
0
 42
0.0000001
 43
0.0000001
 44
0.0000000001
 40
0.0
 40
0.0
 40
0.0
 40
0.0
 40
0.2435320114
 40
1.0
 40
1.0
 40
1.0
 40
1.0
 10
16.0140991276
 20
11.6532424643
 30
0.0
 10
16.0112431203
 20
11.6593940165
 30
0.0
 10
15.9990516289
 20
11.6844370665
 30
0.0
 10
15.985070929
 20
11.7085977621
 30
0.0
 10
15.9736889998
 20
11.7263256043
 30
0.0
  0
SPLINE
  5
49E
100
AcDbEntity
  8
0
100
AcDbSpline
 62
7
  6
CONTINUOUS
 70
0
 71
3
 72
9
 73
5
 74
0
 42
0.0000001
 43
0.0000001
 44
0.0000000001
 40
0.0
 40
0.0
 40
0.0
 40
0.0
 40
0.4909118357
 40
1.0
 40
1.0
 40
1.0
 40
1.0
 10
15.8088809689
 20
11.9225307443
 30
0.0
 10
15.7873913795
 20
11.9411252402
 30
0.0
 10
15.742166224
 20
11.9773497031
 30
0.0
 10
15.6945668797
 20
12.0103747964
 30
0.0
 10
15.6698344085
 20
12.0263988526
 30
0.0
  0
SPLINE
  5
49F
100
AcDbEntity
  8
0
100
AcDbSpline
 62
7
  6
CONTINUOUS
 70
0
 71
3
 72
18
 73
14
 74
0
 42
0.0000001
 43
0.0000001
 44
0.0000000001
 40
0.0
 40
0.0
 40
0.0
 40
0.0
 40
0.1069734314
 40
0.2199206181
 40
0.3391489843
 40
0.4010674308
 40
0.4643658818
 40
0.528915968
 40
0.5945510636
 40
0.7282629442
 40
0.8640347505
 40
0.9321523912
 40
1.0
 40
1.0
 40
1.0
 40
1.0
 10
17.1771705996
 20
12.0315790197
 30
0.0
 10
17.1780723944
 20
12.0479118195
 30
0.0
 10
17.1834648504
 20
12.0813637394
 30
0.0
 10
17.2010518244
 20
12.1304065114
 30
0.0
 10
17.2230457153
 20
12.1698604896
 30
0.0
 10
17.2447341746
 20
12.2003329293
 30
0.0
 10
17.2632067589
 20
12.2227441343
 30
0.0
 10
17.2835558618
 20
12.2442517801
 30
0.0
 10
17.3131641019
 20
12.2717055709
 30
0.0
 10
17.3540174483
 20
12.3028751893
 30
0.0
 10
17.3986725188
 20
12.3290416706
 30
0.0
 10
17.4362800981
 20
12.3467580366
 30
0.0
 10
17.4555992766
 20
12.3544834848
 30
0.0
 10
17.4653458758
 20
12.3580388366
 30
0.0
  0
SPLINE
  5
4A0
100
AcDbEntity
  8
0
100
AcDbSpline
 62
7
  6
CONTINUOUS
 70
0
 71
3
 72
16
 73
12
 74
0
 42
0.0000001
 43
0.0000001
 44
0.0000000001
 40
0.0
 40
0.0
 40
0.0
 40
0.0
 40
0.3576695533
 40
0.5138619378
 40
0.6529212375
 40
0.7731072255
 40
0.8722444706
 40
0.9132491453
 40
0.9481949065
 40
0.9770171238
 40
1.0
 40
1.0
 40
1.0
 40
1.0
 10
13.0064318788
 20
12.8334677776
 30
0.0
 10
13.0042124565
 20
12.8360282295
 30
0.0
 10
13.0009649313
 20
12.8396577066
 30
0.0
 10
12.9966644672
 20
12.8441046892
 30
0.0
 10
12.9938377463
 20
12.8468448576
 30
0.0
 10
12.9912981602
 20
12.8490996495
 30
0.0
 10
12.9893510492
 20
12.850619641
 30
0.0
 10
12.9879581713
 20
12.8515222815
 30
0.0
 10
12.9870825212
 20
12.8519937126
 30
0.0
 10
12.9863164885
 20
12.8522959969
 30
0.0
 10
12.9858270438
 20
12.8523873829
 30
0.0
 10
12.9856093097
 20
12.8523873847
 30
0.0
  0
SPLINE
  5
4A1
100
AcDbEntity
  8
0
100
AcDbSpline
 62
7
  6
CONTINUOUS
 70
0
 71
3
 72
13
 73
9
 74
0
 42
0.0000001
 43
0.0000001
 44
0.0000000001
 40
0.0
 40
0.0
 40
0.0
 40
0.0
 40
0.2567554791
 40
0.5133753624
 40
0.6400300014
 40
0.7642795636
 40
0.8848256738
 40
1.0
 40
1.0
 40
1.0
 40
1.0
 10
12.5011184287
 20
11.1982728537
 30
0.0
 10
12.4963091733
 20
11.1950339829
 30
0.0
 10
12.487074571
 20
11.1879740869
 30
0.0
 10
12.4767155262
 20
11.1778300072
 30
0.0
 10
12.4694345944
 20
11.1689654184
 30
0.0
 10
12.464659409
 20
11.1620543878
 30
0.0
 10
12.4607127888
 20
11.1549315917
 30
0.0
 10
12.4587164737
 20
11.1499732757
 30
0.0
 10
12.4579485023
 20
11.1474883025
 30
0.0
  0
ELLIPSE
  5
4A2
100
AcDbEntity
  8
0
100
AcDbEllipse
 62
7
  6
CONTINUOUS
 10
15.8103552569
 20
4.2726395262
 30
0.0
 11
0.0
 21
1.3995190528
 31
0.0
 40
0.2679491924
 41
-1.223255469
 42
1.223255469
  0
ELLIPSE
  5
4A3
100
AcDbEntity
  8
0
100
AcDbEllipse
 62
7
  6
CONTINUOUS
 10
17.6808616999
 20
11.7941873043
 30
0.0
 11
-0.7514367864
 21
0.902982622
 31
0.0
 40
0.2216133796
 41
5.2031965479
 42
7.7120986679
  0
ENDSEC
  0
SECTION
  2
OBJECTS
  0
DICTIONARY
  5
C
100
AcDbDictionary
280
0
281
1
  3
ACAD_GROUP
350
D
  3
ACAD_MLINESTYLE
350
17
  3
ACAD_LAYOUT
350
1A
  3
ACAD_PLOTSETTINGS
350
19
  3
ACAD_PLOTSTYLENAME
350
E
  0
DICTIONARY
  5
D
102
{ACAD_REACTORS
330
C
102
}
100
AcDbDictionary
280
0
281
1
  0
ACDBDICTIONARYWDFLT
  5
E
102
{ACAD_REACTORS
330
C
102
}
100
AcDbDictionary
281
1
  3
Normal
350
F
100
AcDbDictionaryWithDefault
340
F
  0
DICTIONARY
  5
17
102
{ACAD_REACTORS
330
C
102
}
100
AcDbDictionary
280
0
281
1
  3
Standard
350
18
  0
DICTIONARY
  5
19
102
{ACAD_REACTORS
330
C
102
}
100
AcDbDictionary
281
1
  0
DICTIONARY
  5
1A
102
{ACAD_REACTORS
330
C
102
}
100
AcDbDictionary
281
1
  3
Model
350
4A4
  3
Layout1
350
4A5
  0
ACDBPLACEHOLDER
  5
F
102
{ACAD_REACTORS
330
E
102
}
  0
MLINESTYLE
  5
18
102
{ACAD_REACTORS
330
17
102
}
100
AcDbMlineStyle
  2
STANDARD
 70
0
  3

 62
256
 51
90.0
 52
90.0
 71
2
 49
0.5
 62
256
  6
BYLAYER
 49
-0.5
 62
256
  6
BYLAYER
  0
LAYOUT
  5
4A4
102
{ACAD_REACTORS
330
1A
102
}
100
AcDbPlotSettings
  1

  2
none_device
  4
ANSI_C_(22.00_x_17.00_Inches)
  6

 40
0.0
 41
0.0
 42
0.0
 43
0.0
 44
558.8
 45
431.8
 46
0.0
 47
0.0
 48
0.0
 49
0.0
140
0.0
141
0.0
142
1.0
143
1.0
 70
1024
 72
0
 73
0
 74
0
  7

 75
0
147
1.0
148
0.0
149
0.0
100
AcDbLayout
  1
Model
 70
0
 71
0
 10
0.0
 20
0.0
 11
22.0
 21
17.0
 12
0.0
 22
0.0
 32
0.0
 14
0.0
 24
0.0
 34
0.0
 15
0.0
 25
0.0
 35
0.0
146
0.0
 13
0.0
 23
0.0
 33
0.0
 16
1.0
 26
0.0
 36
0.0
 17
0.0
 27
1.0
 37
0.0
 76
0
330
262
345
0
346
0
  0
LAYOUT
  5
4A5
102
{ACAD_REACTORS
330
1A
102
}
100
AcDbPlotSettings
  1

  2
none_device
  4
ANSI_C_(22.00_x_17.00_Inches)
  6

 40
0.0
 41
0.0
 42
0.0
 43
0.0
 44
558.8
 45
431.8
 46
0.0
 47
0.0
 48
0.0
 49
0.0
140
0.0
141
0.0
142
1.0
143
1.0
 70
0
 72
0
 73
0
 74
0
  7

 75
0
147
1.0
148
0.0
149
0.0
100
AcDbLayout
  1
Layout1
 70
0
 71
1
 10
0.0
 20
0.0
 11
22.0
 21
17.0
 12
0.0
 22
0.0
 32
0.0
 14
0.0
 24
0.0
 34
0.0
 15
0.0
 25
0.0
 35
0.0
146
0.0
 13
0.0
 23
0.0
 33
0.0
 16
1.0
 26
0.0
 36
0.0
 17
0.0
 27
1.0
 37
0.0
 76
0
330
263
345
0
346
0
  0
ENDSEC
  0
EOF