999
DXF file: _cgs_temp_output.dxf
999
Pro/ENGINEER 2016360 by Parametric Technology Corporation
  0
SECTION
  2
HEADER
  9
$ACADVER
  1
AC1021
  9
$DWGCODEPAGE
  3
ANSI_1252
  9
$EXTMAX
 10
22.0
 20
17.0
 30
0.0
  9
$EXTMIN
 10
0.0
 20
0.0
 30
0.0
  9
$LIMMIN
 10
0.0
 20
0.0
  9
$LIMMAX
 10
22.0
 20
17.0
  9
$VIEWCTR
 10
11.0
 20
8.5
  9
$VIEWSIZE
 40
17.0
  9
$CLAYER
  8
0
  9
$LTSCALE
 40
1.21
  9
$CELTYPE
  6
BYLAYER
  9
$DIMSCALE
 40
1.0
  9
$DIMASZ
 40
0.1875
  9
$DIMEXO
 40
0.0625
  9
$DIMDLI
 40
0.836
  9
$DIMEXE
 40
0.125
  9
$DIMCEN
 40
0.198
  9
$DIMLFAC
 40
1.0
  9
$DIMBLK
  1
_CLOSED
  9
$DIMALT
 70
0
  9
$DIMALTF
 40
25.4
  9
$DIMTXT
 40
0.15625
  9
$DIMTOL
 70
0
  9
$DIMLIM
 70
0
  9
$DIMTFAC
 40
1.0
  9
$DIMGAP
 40
0.09
  9
$DIMDSEP
 70
46
  9
$AUNITS
 70
0
  9
$PDMODE
 70
3
  9
$PDSIZE
 40
0.3125
  9
$HANDSEED
  5
4EB
  9
$TILEMODE
 70
1
  9
$MEASUREMENT
 70
0
  9
$INSUNITS
 70
1
  0
ENDSEC
  0
SECTION
  2
CLASSES
  0
CLASS
  1
ACDBDICTIONARYWDFLT
  2
AcDbDictionaryWithDefault
  3
AutoCAD 2000
 90
0
 91
1
280
0
281
0
  0
CLASS
  1
ACDBPLACEHOLDER
  2
AcDbPlaceHolder
  3
AutoCAD 2000
 90
0
 91
1
280
0
281
0
  0
CLASS
  1
LAYOUT
  2
AcDbLayout
  3
AutoCAD 2000
 90
0
 91
0
280
0
281
0
  0
ENDSEC
  0
SECTION
  2
TABLES
  0
TABLE
  2
VPORT
  5
8
100
AcDbSymbolTable
 70
2
  0
VPORT
  5
1F4
100
AcDbSymbolTableRecord
100
AcDbViewportTableRecord
  2
*ACTIVE
 70
0
 10
0.0
 20
0.0
 11
1.0
 21
1.0
 12
11.0
 22
8.5
 13
0.0
 23
0.0
 14
1.0
 24
1.0
 15
0.0
 25
0.0
 16
0.0
 26
0.0
 36
1.0
 17
0.0
 27
0.0
 37
0.0
 40
17.0
 41
1.2941176471
 42
50.0
 43
0.0
 44
0.0
 50
0.0
 51
0.0
 71
0
 72
100
 73
1
 74
1
 75
0
 76
0
 77
0
 78
0
  0
ENDTAB
  0
TABLE
  2
LTYPE
  5
5
100
AcDbSymbolTable
 70
6
  0
LTYPE
  5
14
100
AcDbSymbolTableRecord
100
AcDbLinetypeTableRecord
  2
BYBLOCK
 70
0
  3

 72
65
 73
0
 40
0.0
  0
LTYPE
  5
15
100
AcDbSymbolTableRecord
100
AcDbLinetypeTableRecord
  2
BYLAYER
 70
0
  3

 72
65
 73
0
 40
0.0
  0
LTYPE
  5
16
100
AcDbSymbolTableRecord
100
AcDbLinetypeTableRecord
  2
CONTINUOUS
 70
64
  3
Solid line
 72
65
 73
0
 40
0.0
  0
LTYPE
  5
1F5
100
AcDbSymbolTableRecord
100
AcDbLinetypeTableRecord
  2
CENTER
 70
64
  3
____ _ ____ _ ____ _ ____ _ ____ _ ____ _ ____
 72
65
 73
4
 40
0.6
 49
0.375
 74
0
 49
-0.075
 74
0
 49
0.075
 74
0
 49
-0.075
 74
0
  0
LTYPE
  5
1F6
100
AcDbSymbolTableRecord
100
AcDbLinetypeTableRecord
  2
HIDDEN
 70
64
  3
- - - - - - - - - - - - - - - - - - - -
 72
65
 73
2
 40
0.2
 49
0.1
 74
0
 49
-0.1
 74
0
  0
LTYPE
  5
1F7
100
AcDbSymbolTableRecord
100
AcDbLinetypeTableRecord
  2
PHANTOM
 70
64
  3
_____ _ _ _____ _ _ _____ _ _ _____
 72
65
 73
6
 40
0.8
 49
0.45
 74
0
 49
-0.05
 74
0
 49
0.1
 74
0
 49
-0.05
 74
0
 49
0.1
 74
0
 49
-0.05
 74
0
  0
LTYPE
  5
1F8
100
AcDbSymbolTableRecord
100
AcDbLinetypeTableRecord
  2
DOT
 70
64
  3
. . . . . . . . . . . . . . . . . . . .
 72
65
 73
2
 40
0.2
 49
0.1
 74
0
 49
-0.1
 74
0
  0
LTYPE
  5
1F9
100
AcDbSymbolTableRecord
100
AcDbLinetypeTableRecord
  2
DASHED
 70
64
  3
- - - - - - - - - - - - - - - - - - - -
 72
65
 73
2
 40
0.2
 49
0.1
 74
0
 49
-0.1
 74
0
  0
ENDTAB
  0
TABLE
  2
LAYER
  5
2
100
AcDbSymbolTable
 70
36
  0
LAYER
  5
10
100
AcDbSymbolTableRecord
100
AcDbLayerTableRecord
  2
0
 70
0
 62
7
  6
CONTINUOUS
370
-3
390
F
  0
LAYER
  5
1FA
100
AcDbSymbolTableRecord
100
AcDbLayerTableRecord
  2
DEFAULT_1
 70
0
 62
7
  6
CENTER
370
-3
390
F
  0
LAYER
  5
1FB
100
AcDbSymbolTableRecord
100
AcDbLayerTableRecord
  2
DEFAULT_2
 70
0
 62
8
  6
HIDDEN
370
-3
390
F
  0
LAYER
  5
1FC
100
AcDbSymbolTableRecord
100
AcDbLayerTableRecord
  2
DEFAULT_3
 70
0
 62
7
  6
PHANTOM
370
-3
390
F
  0
LAYER
  5
1FD
100
AcDbSymbolTableRecord
100
AcDbLayerTableRecord
  2
01_ALL_DTM_PLN
 70
0
 62
7
  6
CONTINUOUS
370
-3
390
F
  0
LAYER
  5
1FE
100
AcDbSymbolTableRecord
100
AcDbLayerTableRecord
  2
01__ASM_ALL_DTM_PLN
 70
0
 62
7
  6
CONTINUOUS
370
-3
390
F
  0
LAYER
  5
1FF
100
AcDbSymbolTableRecord
100
AcDbLayerTableRecord
  2
01__ASM_DEF_DTM_PLN
 70
0
 62
7
  6
CONTINUOUS
370
-3
390
F
  0
LAYER
  5
200
100
AcDbSymbolTableRecord
100
AcDbLayerTableRecord
  2
01___PRT_ALL_DTM_PLN
 70
0
 62
7
  6
CONTINUOUS
370
-3
390
F
  0
LAYER
  5
201
100
AcDbSymbolTableRecord
100
AcDbLayerTableRecord
  2
01___PRT_DEF_DTM_PLN
 70
0
 62
7
  6
CONTINUOUS
370
-3
390
F
  0
LAYER
  5
202
100
AcDbSymbolTableRecord
100
AcDbLayerTableRecord
  2
02_ALL_AXES
 70
0
 62
7
  6
CONTINUOUS
370
-3
390
F
  0
LAYER
  5
203
100
AcDbSymbolTableRecord
100
AcDbLayerTableRecord
  2
02__ASM_ALL_AXES
 70
0
 62
7
  6
CONTINUOUS
370
-3
390
F
  0
LAYER
  5
204
100
AcDbSymbolTableRecord
100
AcDbLayerTableRecord
  2
02___PRT_ALL_AXES
 70
0
 62
7
  6
CONTINUOUS
370
-3
390
F
  0
LAYER
  5
205
100
AcDbSymbolTableRecord
100
AcDbLayerTableRecord
  2
03_ALL_CURVES
 70
0
 62
7
  6
CONTINUOUS
370
-3
390
F
  0
LAYER
  5
206
100
AcDbSymbolTableRecord
100
AcDbLayerTableRecord
  2
03__ASM_ALL_CURVES
 70
0
 62
7
  6
CONTINUOUS
370
-3
390
F
  0
LAYER
  5
207
100
AcDbSymbolTableRecord
100
AcDbLayerTableRecord
  2
03___PRT_ALL_CURVES
 70
0
 62
7
  6
CONTINUOUS
370
-3
390
F
  0
LAYER
  5
208
100
AcDbSymbolTableRecord
100
AcDbLayerTableRecord
  2
04_ALL_DTM_PNT
 70
0
 62
7
  6
CONTINUOUS
370
-3
390
F
  0
LAYER
  5
209
100
AcDbSymbolTableRecord
100
AcDbLayerTableRecord
  2
04__ASM_ALL_DTM_PNT
 70
0
 62
7
  6
CONTINUOUS
370
-3
390
F
  0
LAYER
  5
20A
100
AcDbSymbolTableRecord
100
AcDbLayerTableRecord
  2
04___PRT_ALL_DTM_PNT
 70
0
 62
7
  6
CONTINUOUS
370
-3
390
F
  0
LAYER
  5
20B
100
AcDbSymbolTableRecord
100
AcDbLayerTableRecord
  2
05_ALL_DTM_CSYS
 70
0
 62
7
  6
CONTINUOUS
370
-3
390
F
  0
LAYER
  5
20C
100
AcDbSymbolTableRecord
100
AcDbLayerTableRecord
  2
05__ASM_ALL_DTM_CSYS
 70
0
 62
7
  6
CONTINUOUS
370
-3
390
F
  0
LAYER
  5
20D
100
AcDbSymbolTableRecord
100
AcDbLayerTableRecord
  2
05__ASM_DEF_DTM_CSYS
 70
0
 62
7
  6
CONTINUOUS
370
-3
390
F
  0
LAYER
  5
20E
100
AcDbSymbolTableRecord
100
AcDbLayerTableRecord
  2
05___PRT_ALL_DTM_CSYS
 70
0
 62
7
  6
CONTINUOUS
370
-3
390
F
  0
LAYER
  5
20F
100
AcDbSymbolTableRecord
100
AcDbLayerTableRecord
  2
05___PRT_DEF_DTM_CSYS
 70
0
 62
7
  6
CONTINUOUS
370
-3
390
F
  0
LAYER
  5
210
100
AcDbSymbolTableRecord
100
AcDbLayerTableRecord
  2
06_ALL_SURFS
 70
0
 62
7
  6
CONTINUOUS
370
-3
390
F
  0
LAYER
  5
211
100
AcDbSymbolTableRecord
100
AcDbLayerTableRecord
  2
06__ASM_ALL_SURFS
 70
0
 62
7
  6
CONTINUOUS
370
-3
390
F
  0
LAYER
  5
212
100
AcDbSymbolTableRecord
100
AcDbLayerTableRecord
  2
06___PRT_ALL_SURFS
 70
0
 62
7
  6
CONTINUOUS
370
-3
390
F
  0
LAYER
  5
213
100
AcDbSymbolTableRecord
100
AcDbLayerTableRecord
  2
07__ASM_ALL_SKELETONS
 70
0
 62
7
  6
CONTINUOUS
370
-3
390
F
  0
LAYER
  5
214
100
AcDbSymbolTableRecord
100
AcDbLayerTableRecord
  2
NONE
 70
0
 62
7
  6
CONTINUOUS
370
-3
390
F
  0
LAYER
  5
215
100
AcDbSymbolTableRecord
100
AcDbLayerTableRecord
  2
_12227
 70
0
 62
7
  6
CONTINUOUS
370
-3
390
F
  0
LAYER
  5
216
100
AcDbSymbolTableRecord
100
AcDbLayerTableRecord
  2
_12360
 70
0
 62
7
  6
CONTINUOUS
370
-3
390
F
  0
LAYER
  5
217
100
AcDbSymbolTableRecord
100
AcDbLayerTableRecord
  2
_12364
 70
0
 62
7
  6
CONTINUOUS
370
-3
390
F
  0
LAYER
  5
218
100
AcDbSymbolTableRecord
100
AcDbLayerTableRecord
  2
_1253
 70
0
 62
7
  6
CONTINUOUS
370
-3
390
F
  0
LAYER
  5
219
100
AcDbSymbolTableRecord
100
AcDbLayerTableRecord
  2
_14044
 70
0
 62
7
  6
CONTINUOUS
370
-3
390
F
  0
LAYER
  5
21A
100
AcDbSymbolTableRecord
100
AcDbLayerTableRecord
  2
_14359
 70
0
 62
7
  6
CONTINUOUS
370
-3
390
F
  0
LAYER
  5
21B
100
AcDbSymbolTableRecord
100
AcDbLayerTableRecord
  2
_2257
 70
0
 62
7
  6
CONTINUOUS
370
-3
390
F
  0
LAYER
  5
21C
100
AcDbSymbolTableRecord
100
AcDbLayerTableRecord
  2
_3326
 70
0
 62
7
  6
CONTINUOUS
370
-3
390
F
  0
LAYER
  5
21D
100
AcDbSymbolTableRecord
100
AcDbLayerTableRecord
  2
_3762
 70
0
 62
7
  6
CONTINUOUS
370
-3
390
F
  0
LAYER
  5
21E
100
AcDbSymbolTableRecord
100
AcDbLayerTableRecord
  2
_3926
 70
0
 62
7
  6
CONTINUOUS
370
-3
390
F
  0
LAYER
  5
21F
100
AcDbSymbolTableRecord
100
AcDbLayerTableRecord
  2
_4954
 70
0
 62
7
  6
CONTINUOUS
370
-3
390
F
  0
LAYER
  5
220
100
AcDbSymbolTableRecord
100
AcDbLayerTableRecord
  2
_7586
 70
0
 62
7
  6
CONTINUOUS
370
-3
390
F
  0
LAYER
  5
221
100
AcDbSymbolTableRecord
100
AcDbLayerTableRecord
  2
_7993
 70
0
 62
7
  6
CONTINUOUS
370
-3
390
F
  0
ENDTAB
  0
TABLE
  2
STYLE
  5
3
100
AcDbSymbolTable
 70
1
  0
STYLE
  5
11
100
AcDbSymbolTableRecord
100
AcDbTextStyleTableRecord
  2
STANDARD
 70
0
 40
0.0
 41
0.8
 50
0.0
 71
0
 42
0.2
  3
txt
  4

  0
STYLE
  5
222
100
AcDbSymbolTableRecord
100
AcDbTextStyleTableRecord
  2
TEXTSTYLE_1
 70
0
 40
0.0
 41
0.8
 50
0.0
 71
0
 42
0.2
  3
gdt
  4

  0
ENDTAB
  0
TABLE
  2
VIEW
  5
6
100
AcDbSymbolTable
 70
0
  0
ENDTAB
  0
TABLE
  2
UCS
  5
7
100
AcDbSymbolTable
 70
0
  0
ENDTAB
  0
TABLE
  2
APPID
  5
9
100
AcDbSymbolTable
 70
1
  0
APPID
  5
223
100
AcDbSymbolTableRecord
100
AcDbRegAppTableRecord
  2
ACAD
 70
0
  0
ENDTAB
  0
TABLE
  2
BLOCK_RECORD
  5
1
100
AcDbSymbolTable
 70
0
  0
BLOCK_RECORD
  5
224
100
AcDbSymbolTableRecord
100
AcDbBlockTableRecord
  2
*Model_Space
  0
BLOCK_RECORD
  5
225
100
AcDbSymbolTableRecord
100
AcDbBlockTableRecord
  2
*Paper_Space
  0
BLOCK_RECORD
  5
226
100
AcDbSymbolTableRecord
100
AcDbBlockTableRecord
  2
_NONE
  0
ENDTAB
  0
TABLE
  2
DIMSTYLE
  5
A
100
AcDbSymbolTable
 70
1
100
AcDbDimStyleTable
 71
0
  0
DIMSTYLE
105
227
100
AcDbSymbolTableRecord
100
AcDbDimStyleTableRecord
  2
STANDARD
 70
0
  3

  4

 40
1.0
 41
0.1875
 42
0.0625
 43
0.38
 44
0.125
 45
0.0
 46
0.0
 47
0.0001
 48
0.0001
140
0.15625
141
0.09
142
0.0
143
25.4
144
1.0
145
0.0
146
1.0
147
0.09
 71
0.0
 72
0.0
 73
1
 74
1
 75
0
 76
0
 77
0
 78
4
 79
1
170
0
171
3
172
0
173
0
174
0
175
0
176
0
177
0
178
0
270
2
179
4
271
4
272
4
273
2
274
2
275
0
280
0
281
0
282
0
283
1
284
4
285
0
286
0
287
3
288
0
340
11
278
46
  0
ENDTAB
  0
ENDSEC
  0
SECTION
  2
BLOCKS
  0
BLOCK
  5
20
100
AcDbEntity
  8
0
100
AcDbBlockBegin
  2
*Model_Space
 70
0
 10
0.0
 20
0.0
 30
0.0
  3
*Model_Space
  1

  0
ENDBLK
  5
21
100
AcDbEntity
  8
0
100
AcDbBlockEnd
  0
BLOCK
  5
1C
100
AcDbEntity
  8
0
100
AcDbBlockBegin
  2
*Paper_Space
 70
0
 10
0.0
 20
0.0
 30
0.0
  3
*Paper_Space
  1

  0
ENDBLK
  5
1D
100
AcDbEntity
  8
0
100
AcDbBlockEnd
  0
BLOCK
  5
228
100
AcDbEntity
  8
0
100
AcDbBlockBegin
  2
_NONE
 70
64
 10
0.0
 20
0.0
  3
_NONE
  1

  0
ENDBLK
  5
229
100
AcDbEntity
  8
0
  6
BYBLOCK
 62
0
100
AcDbBlockEnd
  0
ENDSEC
  0
SECTION
  2
ENTITIES
  0
MTEXT
  5
22A
100
AcDbEntity
  8
0
100
AcDbMText
 62
7
  6
CONTINUOUS
  7
STANDARD
 71
1
 72
1
 10
15.9560215477
 20
0.9479130325
 30
0.0
 11
1.0
 21
0.0
 31
0.0
 44
0.9
  1
SCALE: 1:0.500
 40
0.3
 41
3.36
  0
LEADER
  5
22B
100
AcDbEntity
  8
0
100
AcDbLeader
 62
2
  6
CONTINUOUS
  3
STANDARD
 71
1
 72
0
 73
0
 75
0
 40
0.15625
 41
1.5
 76
3
 10
4.2553672762
 20
4.7600210434
 30
0.0
 10
8.4418964161
 20
3.6943075913
 30
0.0
 10
8.6918964161
 20
3.6943075913
 30
0.0
340
22C
1001
ACAD
1000
DSTYLE
1002
{
1070
77
1070
0
1070
341
1005
226
1002
}
  0
MTEXT
  5
22C
102
{ACAD_REACTORS
330
22B
102
}
100
AcDbEntity
  8
0
100
AcDbMText
 62
2
  6
CONTINUOUS
  7
STANDARD
 71
1
 72
1
 10
8.6918964161
 20
3.7724325913
 30
0.0
 11
1.0
 21
0.0
 31
0.0
 44
0.9
  1
 0.375 BOLTS
 40
0.15625
 41
1.5
  0
LEADER
  5
22D
100
AcDbEntity
  8
0
100
AcDbLeader
 62
2
  6
CONTINUOUS
  3
STANDARD
 71
1
 72
0
 73
0
 75
0
 40
0.15625
 41
1.5
 76
3
 10
5.7257070558
 20
4.6834858231
 30
0.0
 10
5.0656660071
 20
4.1376038911
 30
0.0
 10
4.8156660071
 20
4.1376038911
 30
0.0
340
22E
1001
ACAD
1000
DSTYLE
1002
{
1070
77
1070
0
1070
341
1005
226
1002
}
  0
MTEXT
  5
22E
102
{ACAD_REACTORS
330
22D
102
}
100
AcDbEntity
  8
0
100
AcDbMText
 62
2
  6
CONTINUOUS
  7
STANDARD
 71
2
 72
1
 10
4.0656660071
 20
4.2157288911
 30
0.0
 11
1.0
 21
0.0
 31
0.0
 44
0.9
  1
 Drain Plug 
 40
0.15625
 41
1.5
  0
LINE
  5
22F
100
AcDbEntity
  8
0
100
AcDbLine
 62
7
  6
CONTINUOUS
 10
0.0
 20
0.0
 11
0.0
 21
17.0
  0
LINE
  5
230
100
AcDbEntity
  8
0
100
AcDbLine
 62
7
  6
CONTINUOUS
 10
0.0
 20
0.0
 11
22.0
 21
0.0
  0
LINE
  5
231
100
AcDbEntity
  8
0
100
AcDbLine
 62
7
  6
CONTINUOUS
 10
0.0
 20
17.0
 11
22.0
 21
17.0
  0
LINE
  5
232
100
AcDbEntity
  8
0
100
AcDbLine
 62
7
  6
CONTINUOUS
 10
22.0
 20
0.0
 11
22.0
 21
17.0
  0
LINE
  5
233
100
AcDbEntity
  8
0
100
AcDbLine
 62
7
  6
CONTINUOUS
 10
4.0678672762
 20
4.7100210434
 11
4.0678672762
 21
4.3537710434
  0
LINE
  5
234
100
AcDbEntity
  8
0
100
AcDbLine
 62
7
  6
CONTINUOUS
 10
4.8126589428
 20
4.9290489648
 11
4.8126589428
 21
5.8131460434
  0
LINE
  5
235
100
AcDbEntity
  8
0
100
AcDbLine
 62
7
  6
CONTINUOUS
 10
4.8610964428
 20
5.8381460434
 11
4.8610964428
 21
6.0032992297
  0
LINE
  5
236
100
AcDbEntity
  8
0
100
AcDbLine
 62
7
  6
CONTINUOUS
 10
4.9853151928
 20
5.8881460434
 11
4.9853151928
 21
6.0032992297
  0
LINE
  5
237
100
AcDbEntity
  8
0
100
AcDbLine
 62
7
  6
CONTINUOUS
 10
4.8943807566
 20
6.0365835434
 11
4.8610964428
 21
6.0032992297
  0
LINE
  5
238
100
AcDbEntity
  8
0
100
AcDbLine
 62
7
  6
CONTINUOUS
 10
8.1928672762
 20
4.3537710434
 11
4.0678672762
 21
4.3537710434
  0
LINE
  5
239
100
AcDbEntity
  8
0
100
AcDbLine
 62
7
  6
CONTINUOUS
 10
5.5928672762
 20
4.4037710434
 11
6.6678672762
 21
4.4037710434
  0
LINE
  5
23A
100
AcDbEntity
  8
0
100
AcDbLine
 62
7
  6
CONTINUOUS
 10
5.0417029622
 20
5.2864843787
 11
5.0415301628
 21
5.2858622366
  0
LINE
  5
23B
100
AcDbEntity
  8
0
100
AcDbLine
 62
7
  6
CONTINUOUS
 10
6.6678672762
 20
4.4537710434
 11
5.5928672762
 21
4.4537710434
  0
LINE
  5
23C
100
AcDbEntity
  8
0
100
AcDbLine
 62
7
  6
CONTINUOUS
 10
5.8634922762
 20
4.7287710434
 11
5.8615627169
 21
4.7287710434
  0
LINE
  5
23D
100
AcDbEntity
  8
0
100
AcDbLine
 62
7
  6
CONTINUOUS
 10
5.6784922762
 20
4.7287710434
 11
5.6804218355
 21
4.7287710434
  0
LINE
  5
23E
100
AcDbEntity
  8
0
100
AcDbLine
 62
7
  6
CONTINUOUS
 10
5.7709922762
 20
4.6362710434
 11
5.6784922762
 21
4.7287710434
  0
LINE
  5
23F
100
AcDbEntity
  8
0
100
AcDbLine
 62
7
  6
CONTINUOUS
 10
5.6804218355
 20
4.7287710434
 11
5.7709922762
 21
4.6382006027
  0
LINE
  5
240
100
AcDbEntity
  8
0
100
AcDbLine
 62
7
  6
CONTINUOUS
 10
5.4928672762
 20
5.4787710434
 11
5.4928672762
 21
4.5037710434
  0
LINE
  5
241
100
AcDbEntity
  8
0
100
AcDbLine
 62
7
  6
CONTINUOUS
 10
7.6374855573
 20
4.7600210434
 11
6.7678672762
 21
4.7600210434
  0
LINE
  5
242
100
AcDbEntity
  8
0
100
AcDbLine
 62
7
  6
CONTINUOUS
 10
5.4928672762
 20
4.7600210434
 11
4.6232489951
 21
4.7600210434
  0
LINE
  5
243
100
AcDbEntity
  8
0
100
AcDbLine
 62
7
  6
CONTINUOUS
 10
4.1178672762
 20
4.7600210434
 11
4.3803672762
 21
4.7600210434
  0
LINE
  5
244
100
AcDbEntity
  8
0
100
AcDbLine
 62
7
  6
CONTINUOUS
 10
7.8803672762
 20
4.7600210434
 11
8.1428672762
 21
4.7600210434
  0
LINE
  5
245
100
AcDbEntity
  8
0
100
AcDbLine
 62
7
  6
CONTINUOUS
 10
5.8615627169
 20
4.7287710434
 11
5.7709922762
 21
4.8193414841
  0
LINE
  5
246
100
AcDbEntity
  8
0
100
AcDbLine
 62
7
  6
CONTINUOUS
 10
5.7709922762
 20
4.8212710434
 11
5.8634922762
 21
4.7287710434
  0
LINE
  5
247
100
AcDbEntity
  8
0
100
AcDbLine
 62
7
  6
CONTINUOUS
 10
5.5428672762
 20
4.5037710434
 11
5.5428672762
 21
5.4787710434
  0
LINE
  5
248
100
AcDbEntity
  8
0
100
AcDbLine
 62
7
  6
CONTINUOUS
 10
5.7709922762
 20
4.8212710434
 11
5.7709922762
 21
4.8193414841
  0
LINE
  5
249
100
AcDbEntity
  8
0
100
AcDbLine
 62
7
  6
CONTINUOUS
 10
5.7709922762
 20
4.6362710434
 11
5.7709922762
 21
4.6382006027
  0
LINE
  5
24A
100
AcDbEntity
  8
0
100
AcDbLine
 62
7
  6
CONTINUOUS
 10
5.7114506263
 20
6.4988559877
 11
5.7195387214
 21
6.4686708056
  0
LINE
  5
24B
100
AcDbEntity
  8
0
100
AcDbLine
 62
7
  6
CONTINUOUS
 10
5.4428729888
 20
5.4787710434
 11
5.4928672762
 21
5.4787710434
  0
LINE
  5
24C
100
AcDbEntity
  8
0
100
AcDbLine
 62
7
  6
CONTINUOUS
 10
6.7678672762
 20
5.4787710434
 11
6.8178625789
 21
5.4787710434
  0
LINE
  5
24D
100
AcDbEntity
  8
0
100
AcDbLine
 62
7
  6
CONTINUOUS
 10
5.7587794581
 20
6.4791853293
 11
5.7600001393
 21
6.474629685
  0
LINE
  5
24E
100
AcDbEntity
  8
0
100
AcDbLine
 62
7
  6
CONTINUOUS
 10
5.9010142323
 20
6.0735848221
 11
5.8920165249
 21
6.107164672
  0
LINE
  5
24F
100
AcDbEntity
  8
0
100
AcDbLine
 62
7
  6
CONTINUOUS
 10
5.9636529789
 20
6.1006137958
 11
5.9587428858
 21
6.118938485
  0
LINE
  5
250
100
AcDbEntity
  8
0
100
AcDbLine
 62
7
  6
CONTINUOUS
 10
5.8553720407
 20
6.5050672338
 11
5.8472839456
 21
6.5352524159
  0
LINE
  5
251
100
AcDbEntity
  8
0
100
AcDbLine
 62
7
  6
CONTINUOUS
 10
6.0314093191
 20
6.1085436792
 11
6.0224164982
 21
6.1421052928
  0
LINE
  5
252
100
AcDbEntity
  8
0
100
AcDbLine
 62
7
  6
CONTINUOUS
 10
5.9519646234
 20
6.5309491383
 11
5.9531853046
 21
6.526393494
  0
LINE
  5
253
100
AcDbEntity
  8
0
100
AcDbLine
 62
7
  6
CONTINUOUS
 10
5.9912053601
 20
6.5414636621
 11
5.9831172649
 21
6.5716488441
  0
LINE
  5
254
100
AcDbEntity
  8
0
100
AcDbLine
 62
7
  6
CONTINUOUS
 10
5.6784922762
 20
4.7287710434
 11
5.7709922762
 21
4.8212710434
  0
LINE
  5
255
100
AcDbEntity
  8
0
100
AcDbLine
 62
7
  6
CONTINUOUS
 10
5.7709922762
 20
4.8193414841
 11
5.6804218355
 21
4.7287710434
  0
LINE
  5
256
100
AcDbEntity
  8
0
100
AcDbLine
 62
7
  6
CONTINUOUS
 10
4.8376589428
 20
5.8381460434
 11
5.1304893539
 21
5.8381460434
  0
LINE
  5
257
100
AcDbEntity
  8
0
100
AcDbLine
 62
7
  6
CONTINUOUS
 10
7.1302451984
 20
5.8381460434
 11
7.4230756095
 21
5.8381460434
  0
LINE
  5
258
100
AcDbEntity
  8
0
100
AcDbLine
 62
7
  6
CONTINUOUS
 10
5.7709922762
 20
4.6382006027
 11
5.8615627169
 21
4.7287710434
  0
LINE
  5
259
100
AcDbEntity
  8
0
100
AcDbLine
 62
7
  6
CONTINUOUS
 10
5.8634922762
 20
4.7287710434
 11
5.7709922762
 21
4.6362710434
  0
LINE
  5
25A
100
AcDbEntity
  8
0
100
AcDbLine
 62
7
  6
CONTINUOUS
 10
4.8610964428
 20
5.8881460434
 11
5.153302534
 21
5.8881460434
  0
LINE
  5
25B
100
AcDbEntity
  8
0
100
AcDbLine
 62
7
  6
CONTINUOUS
 10
7.1074320073
 20
5.8881460434
 11
7.3996381095
 21
5.8881460434
  0
LINE
  5
25C
100
AcDbEntity
  8
0
100
AcDbLine
 62
7
  6
CONTINUOUS
 10
6.7178672762
 20
5.4787710434
 11
6.7178672762
 21
4.5037710434
  0
LINE
  5
25D
100
AcDbEntity
  8
0
100
AcDbLine
 62
7
  6
CONTINUOUS
 10
6.7678672762
 20
4.5037710434
 11
6.7678672762
 21
5.4787710434
  0
LINE
  5
25E
100
AcDbEntity
  8
0
100
AcDbLine
 62
7
  6
CONTINUOUS
 10
6.0288699699
 20
6.118020645
 11
5.8984699967
 21
6.0830800243
  0
LINE
  5
25F
100
AcDbEntity
  8
0
100
AcDbLine
 62
7
  6
CONTINUOUS
 10
4.8943908905
 20
6.0365835434
 11
5.2297920634
 21
6.0365835434
  0
LINE
  5
260
100
AcDbEntity
  8
0
100
AcDbLine
 62
7
  6
CONTINUOUS
 10
7.0309424882
 20
6.0365835434
 11
7.3663436618
 21
6.0365835434
  0
LINE
  5
261
100
AcDbEntity
  8
0
100
AcDbLine
 62
7
  6
CONTINUOUS
 10
5.7195387214
 20
6.4686708056
 11
5.9912053601
 21
6.5414636621
  0
LINE
  5
262
100
AcDbEntity
  8
0
100
AcDbLine
 62
7
  6
CONTINUOUS
 10
5.7114506263
 20
6.4988559877
 11
5.9831172649
 21
6.5716488441
  0
LINE
  5
263
100
AcDbEntity
  8
0
100
AcDbLine
 62
7
  6
CONTINUOUS
 10
5.7742816597
 20
6.5894549402
 11
5.8834045176
 21
6.6186943219
  0
LINE
  5
264
100
AcDbEntity
  8
0
100
AcDbLine
 62
7
  6
CONTINUOUS
 10
7.2192043895
 20
5.2858622366
 11
7.2190315901
 21
5.2864843787
  0
LINE
  5
265
100
AcDbEntity
  8
0
100
AcDbLine
 62
7
  6
CONTINUOUS
 10
7.2754193595
 20
5.8881460434
 11
7.2754193595
 21
6.0032992297
  0
LINE
  5
266
100
AcDbEntity
  8
0
100
AcDbLine
 62
7
  6
CONTINUOUS
 10
7.3996381095
 20
5.8381460434
 11
7.3996381095
 21
6.0032992297
  0
LINE
  5
267
100
AcDbEntity
  8
0
100
AcDbLine
 62
7
  6
CONTINUOUS
 10
5.7847270536
 20
6.6721253324
 11
5.8330233449
 21
6.6850662847
  0
LINE
  5
268
100
AcDbEntity
  8
0
100
AcDbLine
 62
7
  6
CONTINUOUS
 10
7.3663537958
 20
6.0365835434
 11
7.3996381095
 21
6.0032992297
  0
LINE
  5
269
100
AcDbEntity
  8
0
100
AcDbLine
 62
7
  6
CONTINUOUS
 10
7.4480756095
 20
4.9290489648
 11
7.4480756095
 21
5.8131460434
  0
LINE
  5
26A
100
AcDbEntity
  8
0
100
AcDbLine
 62
7
  6
CONTINUOUS
 10
8.1928672762
 20
4.3537710434
 11
8.1928672762
 21
4.7100210434
  0
LINE
  5
26B
100
AcDbEntity
  8
0
100
AcDbLine
 62
7
  6
CONTINUOUS
 10
4.0083720839
 20
13.0937977814
 11
4.0083720839
 21
12.1062977814
  0
LINE
  5
26C
100
AcDbEntity
  8
0
100
AcDbLine
 62
7
  6
CONTINUOUS
 10
4.7531637505
 20
12.8937977814
 11
4.7531637505
 21
12.3062977814
  0
LINE
  5
26D
100
AcDbEntity
  8
0
100
AcDbLine
 62
7
  6
CONTINUOUS
 10
5.0084114326
 20
12.0554598749
 11
5.0083825372
 21
12.0562978115
  0
LINE
  5
26E
100
AcDbEntity
  8
0
100
AcDbLine
 62
7
  6
CONTINUOUS
 10
5.0083837669
 20
13.1437977814
 11
5.0084138169
 21
13.1446628491
  0
LINE
  5
26F
100
AcDbEntity
  8
0
100
AcDbLine
 62
7
  6
CONTINUOUS
 10
4.8016012505
 20
12.6000977814
 11
4.9258200005
 21
12.8152509676
  0
LINE
  5
270
100
AcDbEntity
  8
0
100
AcDbLine
 62
7
  6
CONTINUOUS
 10
5.4833720839
 20
13.5062977814
 11
5.4333720839
 21
13.4562977814
  0
LINE
  5
271
100
AcDbEntity
  8
0
100
AcDbLine
 62
7
  6
CONTINUOUS
 10
5.4333720839
 20
11.7437977814
 11
5.4833720839
 21
11.6937977814
  0
LINE
  5
272
100
AcDbEntity
  8
0
100
AcDbLine
 62
7
  6
CONTINUOUS
 10
4.9258200005
 20
12.3849445951
 11
4.8016012505
 21
12.6000977814
  0
LINE
  5
273
100
AcDbEntity
  8
0
100
AcDbLine
 62
7
  6
CONTINUOUS
 10
5.0709941616
 20
13.1187977814
 11
5.0709941616
 21
12.9479045699
  0
LINE
  5
274
100
AcDbEntity
  8
0
100
AcDbLine
 62
7
  6
CONTINUOUS
 10
5.0709941616
 20
12.2522909928
 11
5.0709941616
 21
12.0812977814
  0
LINE
  5
275
100
AcDbEntity
  8
0
100
AcDbLine
 62
7
  6
CONTINUOUS
 10
5.8020675246
 20
11.6375477814
 11
5.6209266432
 21
11.6375477814
  0
LINE
  5
276
100
AcDbEntity
  8
0
100
AcDbLine
 62
7
  6
CONTINUOUS
 10
5.8039970839
 20
11.6687977814
 11
5.6189970839
 21
11.6687977814
  0
LINE
  5
277
100
AcDbEntity
  8
0
100
AcDbLine
 62
7
  6
CONTINUOUS
 10
6.6583720839
 20
11.6937977814
 11
5.4833720839
 21
11.6937977814
  0
LINE
  5
278
100
AcDbEntity
  8
0
100
AcDbLine
 62
7
  6
CONTINUOUS
 10
6.7083720839
 20
11.7437977814
 11
5.4333720839
 21
11.7437977814
  0
LINE
  5
279
100
AcDbEntity
  8
0
100
AcDbLine
 62
7
  6
CONTINUOUS
 10
5.9041577866
 20
11.8131949834
 11
5.8992476935
 21
11.8132269661
  0
LINE
  5
27A
100
AcDbEntity
  8
0
100
AcDbLine
 62
7
  6
CONTINUOUS
 10
5.9693747776
 20
11.8521660712
 11
5.9644646845
 21
11.8521980539
  0
LINE
  5
27B
100
AcDbEntity
  8
0
100
AcDbLine
 62
7
  6
CONTINUOUS
 10
5.4333720839
 20
11.7437977814
 11
5.4333720839
 21
11.9584155559
  0
LINE
  5
27C
100
AcDbEntity
  8
0
100
AcDbLine
 62
7
  6
CONTINUOUS
 10
5.4333720839
 20
13.241661868
 11
5.4333720839
 21
13.4562977814
  0
LINE
  5
27D
100
AcDbEntity
  8
0
100
AcDbLine
 62
7
  6
CONTINUOUS
 10
5.1742575005
 20
12.3849445951
 11
5.2984762505
 21
12.6000977814
  0
LINE
  5
27E
100
AcDbEntity
  8
0
100
AcDbLine
 62
7
  6
CONTINUOUS
 10
4.1083720839
 20
12.0062977814
 11
5.3915227856
 21
12.0062977814
  0
LINE
  5
27F
100
AcDbEntity
  8
0
100
AcDbLine
 62
7
  6
CONTINUOUS
 10
6.7502234273
 20
12.0062977814
 11
8.0333720839
 21
12.0062977814
  0
LINE
  5
280
100
AcDbEntity
  8
0
100
AcDbLine
 62
7
  6
CONTINUOUS
 10
5.9644986932
 20
11.9301402295
 11
5.9694087864
 21
11.9301082468
  0
LINE
  5
281
100
AcDbEntity
  8
0
100
AcDbLine
 62
7
  6
CONTINUOUS
 10
5.9042258041
 20
11.9690793346
 11
5.899315711
 21
11.9691113172
  0
LINE
  5
282
100
AcDbEntity
  8
0
100
AcDbLine
 62
7
  6
CONTINUOUS
 10
5.9042258041
 20
11.9690793346
 11
5.9694087864
 21
11.9301082468
  0
LINE
  5
283
100
AcDbEntity
  8
0
100
AcDbLine
 62
7
  6
CONTINUOUS
 10
5.2984762505
 20
12.6000977814
 11
5.1742575005
 21
12.8152509676
  0
LINE
  5
284
100
AcDbEntity
  8
0
100
AcDbLine
 62
7
  6
CONTINUOUS
 10
5.6189970839
 20
11.6687977814
 11
5.6209266432
 21
11.6375477814
  0
LINE
  5
285
100
AcDbEntity
  8
0
100
AcDbLine
 62
7
  6
CONTINUOUS
 10
5.6189970839
 20
11.6937977814
 11
5.6189970839
 21
11.6687977814
  0
LINE
  5
286
100
AcDbEntity
  8
0
100
AcDbLine
 62
7
  6
CONTINUOUS
 10
5.6189970839
 20
13.5062977814
 11
5.6189970839
 21
13.5312977814
  0
LINE
  5
287
100
AcDbEntity
  8
0
100
AcDbLine
 62
7
  6
CONTINUOUS
 10
5.6189970839
 20
13.5312977814
 11
5.6209266432
 21
13.5625477814
  0
LINE
  5
288
100
AcDbEntity
  8
0
100
AcDbLine
 62
7
  6
CONTINUOUS
 10
5.0031637505
 20
12.0562977814
 11
5.0623930716
 21
12.0562977814
  0
LINE
  5
289
100
AcDbEntity
  8
0
100
AcDbLine
 62
7
  6
CONTINUOUS
 10
7.0793510961
 20
12.0562977814
 11
7.1385804172
 21
12.0562977814
  0
LINE
  5
28A
100
AcDbEntity
  8
0
100
AcDbLine
 62
7
  6
CONTINUOUS
 10
5.651955434
 20
12.681237663
 11
5.651955434
 21
12.5188578998
  0
LINE
  5
28B
100
AcDbEntity
  8
0
100
AcDbLine
 62
7
  6
CONTINUOUS
 10
5.7114970839
 20
11.6687977814
 11
5.7114970839
 21
11.6375477814
  0
LINE
  5
28C
100
AcDbEntity
  8
0
100
AcDbLine
 62
7
  6
CONTINUOUS
 10
5.7114970839
 20
13.5312977814
 11
5.7114970839
 21
13.5625477814
  0
LINE
  5
28D
100
AcDbEntity
  8
0
100
AcDbLine
 62
7
  6
CONTINUOUS
 10
5.7877887533
 20
12.7624275446
 11
5.651955434
 21
12.681237663
  0
LINE
  5
28E
100
AcDbEntity
  8
0
100
AcDbLine
 62
7
  6
CONTINUOUS
 10
5.651955434
 20
12.5188578998
 11
5.7877887533
 21
12.4376680182
  0
LINE
  5
28F
100
AcDbEntity
  8
0
100
AcDbLine
 62
7
  6
CONTINUOUS
 10
5.8039970839
 20
13.5312977814
 11
5.8020675246
 21
13.5625477814
  0
LINE
  5
290
100
AcDbEntity
  8
0
100
AcDbLine
 62
7
  6
CONTINUOUS
 10
5.8039970839
 20
11.6937977814
 11
5.8039970839
 21
11.6687977814
  0
LINE
  5
291
100
AcDbEntity
  8
0
100
AcDbLine
 62
7
  6
CONTINUOUS
 10
5.8039970839
 20
13.5062977814
 11
5.8039970839
 21
13.5312977814
  0
LINE
  5
292
100
AcDbEntity
  8
0
100
AcDbLine
 62
7
  6
CONTINUOUS
 10
5.9236220726
 20
12.5188578998
 11
5.9236220726
 21
12.681237663
  0
LINE
  5
293
100
AcDbEntity
  8
0
100
AcDbLine
 62
7
  6
CONTINUOUS
 10
5.9317101678
 20
12.5188578998
 11
5.9317101678
 21
12.681237663
  0
LINE
  5
294
100
AcDbEntity
  8
0
100
AcDbLine
 62
7
  6
CONTINUOUS
 10
5.8039970839
 20
11.6687977814
 11
5.8020675246
 21
11.6375477814
  0
LINE
  5
295
100
AcDbEntity
  8
0
100
AcDbLine
 62
7
  6
CONTINUOUS
 10
4.3208720839
 20
12.3552561147
 11
4.5083720839
 21
12.3552561147
  0
LINE
  5
296
100
AcDbEntity
  8
0
100
AcDbLine
 62
7
  6
CONTINUOUS
 10
7.6333720839
 20
12.3552561147
 11
7.8208720839
 21
12.3552561147
  0
LINE
  5
297
100
AcDbEntity
  8
0
100
AcDbLine
 62
7
  6
CONTINUOUS
 10
7.2159241672
 20
12.3849445951
 11
6.9674866672
 21
12.3849445951
  0
LINE
  5
298
100
AcDbEntity
  8
0
100
AcDbLine
 62
7
  6
CONTINUOUS
 10
5.1742575005
 20
12.3849445951
 11
4.9258200005
 21
12.3849445951
  0
LINE
  5
299
100
AcDbEntity
  8
0
100
AcDbLine
 62
7
  6
CONTINUOUS
 10
5.7958768484
 20
12.4376680182
 11
5.7877887533
 21
12.4376680182
  0
LINE
  5
29A
100
AcDbEntity
  8
0
100
AcDbLine
 62
7
  6
CONTINUOUS
 10
5.9694087864
 20
11.9301082468
 11
5.9693747776
 21
11.8521660712
  0
LINE
  5
29B
100
AcDbEntity
  8
0
100
AcDbLine
 62
7
  6
CONTINUOUS
 10
5.7877887533
 20
12.4376680182
 11
5.9236220726
 21
12.5188578998
  0
LINE
  5
29C
100
AcDbEntity
  8
0
100
AcDbLine
 62
7
  6
CONTINUOUS
 10
5.7958768484
 20
12.4376680182
 11
5.9317101678
 21
12.5188578998
  0
LINE
  5
29D
100
AcDbEntity
  8
0
100
AcDbLine
 62
7
  6
CONTINUOUS
 10
7.8208720839
 20
12.4750477814
 11
7.6333720839
 21
12.4750477814
  0
LINE
  5
29E
100
AcDbEntity
  8
0
100
AcDbLine
 62
7
  6
CONTINUOUS
 10
4.5083720839
 20
12.4750477814
 11
4.3208720839
 21
12.4750477814
  0
LINE
  5
29F
100
AcDbEntity
  8
0
100
AcDbLine
 62
7
  6
CONTINUOUS
 10
5.9317101678
 20
12.5188578998
 11
5.9236220726
 21
12.5188578998
  0
LINE
  5
2A0
100
AcDbEntity
  8
0
100
AcDbLine
 62
7
  6
CONTINUOUS
 10
5.9236220726
 20
12.681237663
 11
5.7877887533
 21
12.7624275446
  0
LINE
  5
2A1
100
AcDbEntity
  8
0
100
AcDbLine
 62
7
  6
CONTINUOUS
 10
5.9317101678
 20
12.681237663
 11
5.7958768484
 21
12.7624275446
  0
LINE
  5
2A2
100
AcDbEntity
  8
0
100
AcDbLine
 62
7
  6
CONTINUOUS
 10
5.9236220726
 20
12.681237663
 11
5.9317101678
 21
12.681237663
  0
LINE
  5
2A3
100
AcDbEntity
  8
0
100
AcDbLine
 62
7
  6
CONTINUOUS
 10
4.3208720839
 20
12.7250477814
 11
4.5083720839
 21
12.7250477814
  0
LINE
  5
2A4
100
AcDbEntity
  8
0
100
AcDbLine
 62
7
  6
CONTINUOUS
 10
7.6333720839
 20
12.7250477814
 11
7.8208720839
 21
12.7250477814
  0
LINE
  5
2A5
100
AcDbEntity
  8
0
100
AcDbLine
 62
7
  6
CONTINUOUS
 10
5.7958768484
 20
12.7624275446
 11
5.7877887533
 21
12.7624275446
  0
LINE
  5
2A6
100
AcDbEntity
  8
0
100
AcDbLine
 62
7
  6
CONTINUOUS
 10
4.9258200005
 20
12.8152509676
 11
5.1742575005
 21
12.8152509676
  0
LINE
  5
2A7
100
AcDbEntity
  8
0
100
AcDbLine
 62
7
  6
CONTINUOUS
 10
6.9674866672
 20
12.8152509676
 11
7.2159241672
 21
12.8152509676
  0
LINE
  5
2A8
100
AcDbEntity
  8
0
100
AcDbLine
 62
7
  6
CONTINUOUS
 10
4.3208720839
 20
12.844839448
 11
4.5083720839
 21
12.844839448
  0
LINE
  5
2A9
100
AcDbEntity
  8
0
100
AcDbLine
 62
7
  6
CONTINUOUS
 10
7.6333720839
 20
12.844839448
 11
7.8208720839
 21
12.844839448
  0
LINE
  5
2AA
100
AcDbEntity
  8
0
100
AcDbLine
 62
7
  6
CONTINUOUS
 10
5.9693747776
 20
11.8521660712
 11
5.9041577866
 21
11.8131949834
  0
LINE
  5
2AB
100
AcDbEntity
  8
0
100
AcDbLine
 62
7
  6
CONTINUOUS
 10
7.1385804172
 20
13.1437977814
 11
7.0793510961
 21
13.1437977814
  0
LINE
  5
2AC
100
AcDbEntity
  8
0
100
AcDbLine
 62
7
  6
CONTINUOUS
 10
5.0623930716
 20
13.1437977814
 11
5.0031637505
 21
13.1437977814
  0
LINE
  5
2AD
100
AcDbEntity
  8
0
100
AcDbLine
 62
7
  6
CONTINUOUS
 10
4.1083720839
 20
13.1937977814
 11
5.3915187883
 21
13.1937977814
  0
LINE
  5
2AE
100
AcDbEntity
  8
0
100
AcDbLine
 62
7
  6
CONTINUOUS
 10
6.7502249169
 20
13.1937977814
 11
8.0333720839
 21
13.1937977814
  0
LINE
  5
2AF
100
AcDbEntity
  8
0
100
AcDbLine
 62
7
  6
CONTINUOUS
 10
6.7083720839
 20
11.7437977814
 11
6.7083720839
 21
11.9583534419
  0
LINE
  5
2B0
100
AcDbEntity
  8
0
100
AcDbLine
 62
7
  6
CONTINUOUS
 10
6.7083720839
 20
13.2416618693
 11
6.7083720839
 21
13.4562977814
  0
LINE
  5
2B1
100
AcDbEntity
  8
0
100
AcDbLine
 62
7
  6
CONTINUOUS
 10
6.8432679172
 20
12.6000977814
 11
6.9674866672
 21
12.8152509676
  0
LINE
  5
2B2
100
AcDbEntity
  8
0
100
AcDbLine
 62
7
  6
CONTINUOUS
 10
6.9674866672
 20
12.3849445951
 11
6.8432679172
 21
12.6000977814
  0
LINE
  5
2B3
100
AcDbEntity
  8
0
100
AcDbLine
 62
7
  6
CONTINUOUS
 10
5.4333720839
 20
13.4562977814
 11
6.7083720839
 21
13.4562977814
  0
LINE
  5
2B4
100
AcDbEntity
  8
0
100
AcDbLine
 62
7
  6
CONTINUOUS
 10
5.4833720839
 20
13.5062977814
 11
6.6583720839
 21
13.5062977814
  0
LINE
  5
2B5
100
AcDbEntity
  8
0
100
AcDbLine
 62
7
  6
CONTINUOUS
 10
7.1333303509
 20
13.1446628491
 11
7.1333604008
 21
13.1437977814
  0
LINE
  5
2B6
100
AcDbEntity
  8
0
100
AcDbLine
 62
7
  6
CONTINUOUS
 10
7.0707500061
 20
12.0812977814
 11
7.0707500061
 21
12.2522909928
  0
LINE
  5
2B7
100
AcDbEntity
  8
0
100
AcDbLine
 62
7
  6
CONTINUOUS
 10
7.0707500061
 20
12.9479045699
 11
7.0707500061
 21
13.1187977814
  0
LINE
  5
2B8
100
AcDbEntity
  8
0
100
AcDbLine
 62
7
  6
CONTINUOUS
 10
7.1333603894
 20
12.0562977814
 11
7.1333316243
 21
12.055462254
  0
LINE
  5
2B9
100
AcDbEntity
  8
0
100
AcDbLine
 62
7
  6
CONTINUOUS
 10
6.6583720839
 20
11.6937977814
 11
6.7083720839
 21
11.7437977814
  0
LINE
  5
2BA
100
AcDbEntity
  8
0
100
AcDbLine
 62
7
  6
CONTINUOUS
 10
5.6189970839
 20
13.5312977814
 11
5.8039970839
 21
13.5312977814
  0
LINE
  5
2BB
100
AcDbEntity
  8
0
100
AcDbLine
 62
7
  6
CONTINUOUS
 10
5.6209266432
 20
13.5625477814
 11
5.8020675246
 21
13.5625477814
  0
LINE
  5
2BC
100
AcDbEntity
  8
0
100
AcDbLine
 62
7
  6
CONTINUOUS
 10
6.6583720839
 20
13.5062977814
 11
6.7083720839
 21
13.4562977814
  0
LINE
  5
2BD
100
AcDbEntity
  8
0
100
AcDbLine
 62
7
  6
CONTINUOUS
 10
7.2159241672
 20
12.3849445951
 11
7.3401429172
 21
12.6000977814
  0
LINE
  5
2BE
100
AcDbEntity
  8
0
100
AcDbLine
 62
7
  6
CONTINUOUS
 10
7.3401429172
 20
12.6000977814
 11
7.2159241672
 21
12.8152509676
  0
LINE
  5
2BF
100
AcDbEntity
  8
0
100
AcDbLine
 62
7
  6
CONTINUOUS
 10
7.3885804172
 20
12.3062977814
 11
7.3885804172
 21
12.8937977814
  0
LINE
  5
2C0
100
AcDbEntity
  8
0
100
AcDbLine
 62
7
  6
CONTINUOUS
 10
8.1333720839
 20
12.1062977814
 11
8.1333720839
 21
13.0937977814
  0
LINE
  5
2C1
100
AcDbEntity
  8
0
100
AcDbLine
 62
7
  6
CONTINUOUS
 10
14.6541052569
 20
4.3942758511
 11
14.7041052569
 21
4.3442758511
  0
LINE
  5
2C2
100
AcDbEntity
  8
0
100
AcDbLine
 62
7
  6
CONTINUOUS
 10
16.1541052569
 20
4.2942758511
 11
14.9666052569
 21
4.2942758511
  0
LINE
  5
2C3
100
AcDbEntity
  8
0
100
AcDbLine
 62
7
  6
CONTINUOUS
 10
14.7041052569
 20
4.3442758511
 11
14.9666052569
 21
4.3442758511
  0
LINE
  5
2C4
100
AcDbEntity
  8
0
100
AcDbLine
 62
7
  6
CONTINUOUS
 10
16.1541052569
 20
4.3442758511
 11
16.4166052569
 21
4.3442758511
  0
LINE
  5
2C5
100
AcDbEntity
  8
0
100
AcDbLine
 62
7
  6
CONTINUOUS
 10
14.6541052569
 20
6.0067758511
 11
14.7041052569
 21
6.0567758511
  0
LINE
  5
2C6
100
AcDbEntity
  8
0
100
AcDbLine
 62
7
  6
CONTINUOUS
 10
14.5978552569
 20
4.5787054104
 11
14.5978552569
 21
4.7598462918
  0
LINE
  5
2C7
100
AcDbEntity
  8
0
100
AcDbLine
 62
7
  6
CONTINUOUS
 10
14.6291052569
 20
4.5767758511
 11
14.6291052569
 21
4.7617758511
  0
LINE
  5
2C8
100
AcDbEntity
  8
0
100
AcDbLine
 62
7
  6
CONTINUOUS
 10
14.6541052569
 20
4.3942758511
 11
14.6541052569
 21
6.0067757803
  0
LINE
  5
2C9
100
AcDbEntity
  8
0
100
AcDbLine
 62
7
  6
CONTINUOUS
 10
15.4114013071
 20
6.4817758511
 11
15.4791653753
 21
6.5121536518
  0
LINE
  5
2CA
100
AcDbEntity
  8
0
100
AcDbLine
 62
7
  6
CONTINUOUS
 10
16.4916052569
 20
4.5767758511
 11
16.5228552569
 21
4.5787054104
  0
LINE
  5
2CB
100
AcDbEntity
  8
0
100
AcDbLine
 62
7
  6
CONTINUOUS
 10
14.6291052569
 20
4.5767758511
 11
14.5978552569
 21
4.5787054104
  0
LINE
  5
2CC
100
AcDbEntity
  8
0
100
AcDbLine
 62
7
  6
CONTINUOUS
 10
14.7041052569
 20
4.3442758511
 11
14.7041052569
 21
6.0567758511
  0
LINE
  5
2CD
100
AcDbEntity
  8
0
100
AcDbLine
 62
7
  6
CONTINUOUS
 10
14.8124735468
 20
6.0585254527
 11
14.808556475
 21
6.0567758511
  0
LINE
  5
2CE
100
AcDbEntity
  8
0
100
AcDbLine
 62
7
  6
CONTINUOUS
 10
16.4916052569
 20
4.5767758511
 11
16.4666052569
 21
4.5767758511
  0
LINE
  5
2CF
100
AcDbEntity
  8
0
100
AcDbLine
 62
7
  6
CONTINUOUS
 10
14.6291052569
 20
4.5767758511
 11
14.6541052569
 21
4.5767758511
  0
LINE
  5
2D0
100
AcDbEntity
  8
0
100
AcDbLine
 62
7
  6
CONTINUOUS
 10
14.7735297861
 20
6.0567758511
 11
14.7735344416
 21
6.0594432927
  0
LINE
  5
2D1
100
AcDbEntity
  8
0
100
AcDbLine
 62
7
  6
CONTINUOUS
 10
14.8124735468
 20
6.0585254527
 11
14.8125055295
 21
6.076850142
  0
LINE
  5
2D2
100
AcDbEntity
  8
0
100
AcDbLine
 62
7
  6
CONTINUOUS
 10
14.6291052569
 20
4.6692758511
 11
14.5978552569
 21
4.6692758511
  0
LINE
  5
2D3
100
AcDbEntity
  8
0
100
AcDbLine
 62
7
  6
CONTINUOUS
 10
16.4916052569
 20
4.6692758511
 11
16.5228552569
 21
4.6692758511
  0
LINE
  5
2D4
100
AcDbEntity
  8
0
100
AcDbLine
 62
7
  6
CONTINUOUS
 10
15.0166052569
 20
4.7005258511
 11
16.1041052569
 21
4.7005258511
  0
LINE
  5
2D5
100
AcDbEntity
  8
0
100
AcDbLine
 62
7
  6
CONTINUOUS
 10
16.4916052569
 20
4.7617758511
 11
16.4666052569
 21
4.7617758511
  0
LINE
  5
2D6
100
AcDbEntity
  8
0
100
AcDbLine
 62
7
  6
CONTINUOUS
 10
14.6291052569
 20
4.7617758511
 11
14.6541052569
 21
4.7617758511
  0
LINE
  5
2D7
100
AcDbEntity
  8
0
100
AcDbLine
 62
7
  6
CONTINUOUS
 10
14.9666052569
 20
4.2942758511
 11
14.9666052569
 21
4.7005258511
  0
LINE
  5
2D8
100
AcDbEntity
  8
0
100
AcDbLine
 62
7
  6
CONTINUOUS
 10
14.890447705
 20
6.0767232197
 11
14.8904157224
 21
6.0583985305
  0
LINE
  5
2D9
100
AcDbEntity
  8
0
100
AcDbLine
 62
7
  6
CONTINUOUS
 10
14.9294174421
 20
6.0584155569
 11
14.9294187928
 21
6.0591894482
  0
LINE
  5
2DA
100
AcDbEntity
  8
0
100
AcDbLine
 62
7
  6
CONTINUOUS
 10
14.9666052569
 20
4.7005258511
 11
14.9696269993
 21
6.4318549428
  0
LINE
  5
2DB
100
AcDbEntity
  8
0
100
AcDbLine
 62
7
  6
CONTINUOUS
 10
14.6291052569
 20
4.7617758511
 11
14.5978552569
 21
4.7598462918
  0
LINE
  5
2DC
100
AcDbEntity
  8
0
100
AcDbLine
 62
7
  6
CONTINUOUS
 10
16.4916052569
 20
4.7617758511
 11
16.5228552569
 21
4.7598462918
  0
LINE
  5
2DD
100
AcDbEntity
  8
0
100
AcDbLine
 62
7
  6
CONTINUOUS
 10
15.0166052569
 20
5.7536508511
 11
15.0166052569
 21
5.3327512124
  0
LINE
  5
2DE
100
AcDbEntity
  8
0
100
AcDbLine
 62
7
  6
CONTINUOUS
 10
15.8541052569
 20
4.8695537725
 11
15.2666052569
 21
4.8695537725
  0
LINE
  5
2DF
100
AcDbEntity
  8
0
100
AcDbLine
 62
7
  6
CONTINUOUS
 10
15.3119677569
 20
5.7786508511
 11
15.3119677569
 21
5.8286508511
  0
LINE
  5
2E0
100
AcDbEntity
  8
0
100
AcDbLine
 62
7
  6
CONTINUOUS
 10
15.3155635903
 20
4.7339595517
 11
15.3155635903
 21
4.7006208453
  0
LINE
  5
2E1
100
AcDbEntity
  8
0
100
AcDbLine
 62
7
  6
CONTINUOUS
 10
15.3452520707
 20
5.8286508511
 11
15.3452520707
 21
5.9770883511
  0
LINE
  5
2E2
100
AcDbEntity
  8
0
100
AcDbLine
 62
7
  6
CONTINUOUS
 10
15.4791653753
 20
6.4819684697
 11
15.4791653753
 21
6.5121536518
  0
LINE
  5
2E3
100
AcDbEntity
  8
0
100
AcDbLine
 62
7
  6
CONTINUOUS
 10
15.5604052569
 20
5.8286508511
 11
15.5604052569
 21
5.9438040373
  0
LINE
  5
2E4
100
AcDbEntity
  8
0
100
AcDbLine
 62
7
  6
CONTINUOUS
 10
14.9186609106
 20
5.4192758511
 11
14.9678763082
 21
5.4192758511
  0
LINE
  5
2E5
100
AcDbEntity
  8
0
100
AcDbLine
 62
7
  6
CONTINUOUS
 10
16.1528355626
 20
5.4192758511
 11
16.2019693449
 21
5.4192758511
  0
LINE
  5
2E6
100
AcDbEntity
  8
0
100
AcDbLine
 62
7
  6
CONTINUOUS
 10
15.6415451385
 20
6.5121536518
 11
15.6415451385
 21
6.4819684697
  0
LINE
  5
2E7
100
AcDbEntity
  8
0
100
AcDbLine
 62
7
  6
CONTINUOUS
 10
15.7755584432
 20
5.8286508511
 11
15.7755584432
 21
5.9770883511
  0
LINE
  5
2E8
100
AcDbEntity
  8
0
100
AcDbLine
 62
7
  6
CONTINUOUS
 10
15.8051469236
 20
4.7006208453
 11
15.8051469236
 21
4.7339595517
  0
LINE
  5
2E9
100
AcDbEntity
  8
0
100
AcDbLine
 62
7
  6
CONTINUOUS
 10
15.8088427569
 20
5.7786508511
 11
15.8088427569
 21
5.8286508511
  0
LINE
  5
2EA
100
AcDbEntity
  8
0
100
AcDbLine
 62
7
  6
CONTINUOUS
 10
14.8940223383
 20
6.0567758511
 11
14.8904157224
 21
6.0583985305
  0
LINE
  5
2EB
100
AcDbEntity
  8
0
100
AcDbLine
 62
7
  6
CONTINUOUS
 10
15.0416052569
 20
5.7786508511
 11
16.0791052569
 21
5.7786508511
  0
LINE
  5
2EC
100
AcDbEntity
  8
0
100
AcDbLine
 62
7
  6
CONTINUOUS
 10
15.3119677569
 20
5.8286508511
 11
15.8088427569
 21
5.8286508511
  0
LINE
  5
2ED
100
AcDbEntity
  8
0
100
AcDbLine
 62
7
  6
CONTINUOUS
 10
15.3452520707
 20
5.9770883511
 11
15.7755584432
 21
5.9770883511
  0
LINE
  5
2EE
100
AcDbEntity
  8
0
100
AcDbLine
 62
7
  6
CONTINUOUS
 10
16.1041052569
 20
5.7536508511
 11
16.1041052569
 21
5.3327512124
  0
LINE
  5
2EF
100
AcDbEntity
  8
0
100
AcDbLine
 62
7
  6
CONTINUOUS
 10
16.1541052569
 20
4.2942758511
 11
16.1541052569
 21
4.6568774472
  0
LINE
  5
2F0
100
AcDbEntity
  8
0
100
AcDbLine
 62
7
  6
CONTINUOUS
 10
16.1541052569
 20
4.6568774472
 11
16.1510835141
 21
6.4318552324
  0
LINE
  5
2F1
100
AcDbEntity
  8
0
100
AcDbLine
 62
7
  6
CONTINUOUS
 10
14.7041052569
 20
6.0567758511
 11
14.9190263917
 21
6.0567758511
  0
LINE
  5
2F2
100
AcDbEntity
  8
0
100
AcDbLine
 62
7
  6
CONTINUOUS
 10
16.2016845008
 20
6.0567758511
 11
16.4166052569
 21
6.0567758511
  0
LINE
  5
2F3
100
AcDbEntity
  8
0
100
AcDbLine
 62
7
  6
CONTINUOUS
 10
14.8904157224
 20
6.0583985305
 11
14.8124735468
 21
6.0585254527
  0
LINE
  5
2F4
100
AcDbEntity
  8
0
100
AcDbLine
 62
7
  6
CONTINUOUS
 10
16.4166052569
 20
6.0567758511
 11
16.4166052569
 21
4.3442758511
  0
LINE
  5
2F5
100
AcDbEntity
  8
0
100
AcDbLine
 62
7
  6
CONTINUOUS
 10
16.4666052569
 20
4.3942758511
 11
16.4666052569
 21
6.0067757803
  0
LINE
  5
2F6
100
AcDbEntity
  8
0
100
AcDbLine
 62
7
  6
CONTINUOUS
 10
16.4916052569
 20
4.7617758511
 11
16.4916052569
 21
4.5767758511
  0
LINE
  5
2F7
100
AcDbEntity
  8
0
100
AcDbLine
 62
7
  6
CONTINUOUS
 10
16.5228552569
 20
4.7598462918
 11
16.5228552569
 21
4.5787054104
  0
LINE
  5
2F8
100
AcDbEntity
  8
0
100
AcDbLine
 62
7
  6
CONTINUOUS
 10
15.0195818965
 20
6.4817758511
 11
16.10112949
 21
6.4817758511
  0
LINE
  5
2F9
100
AcDbEntity
  8
0
100
AcDbLine
 62
7
  6
CONTINUOUS
 10
15.6415451385
 20
6.5121536518
 11
15.7093092067
 21
6.4817758511
  0
LINE
  5
2FA
100
AcDbEntity
  8
0
100
AcDbLine
 62
7
  6
CONTINUOUS
 10
15.4791653753
 20
6.5121536518
 11
15.6415451385
 21
6.5121536518
  0
LINE
  5
2FB
100
AcDbEntity
  8
0
100
AcDbLine
 62
7
  6
CONTINUOUS
 10
16.4666052569
 20
6.0067758511
 11
16.4166052569
 21
6.0567758511
  0
LINE
  5
2FC
100
AcDbEntity
  8
0
100
AcDbLine
 62
7
  6
CONTINUOUS
 10
16.4166052569
 20
4.3442758511
 11
16.4666052569
 21
4.3942758511
  0
LINE
  5
2FD
100
AcDbEntity
  8
0
100
AcDbLine
 62
7
  6
CONTINUOUS
 10
13.5097646923
 20
11.5027020277
 11
13.4010935273
 21
11.7241505789
  0
LINE
  5
2FE
100
AcDbEntity
  8
0
100
AcDbLine
 62
7
  6
CONTINUOUS
 10
13.3970426007
 20
11.7829672184
 11
13.6360830951
 21
12.5565025417
  0
LINE
  5
2FF
100
AcDbEntity
  8
0
100
AcDbLine
 62
7
  6
CONTINUOUS
 10
13.7958141053
 20
12.6179649123
 11
13.8787768121
 21
12.8864323297
  0
LINE
  5
300
100
AcDbEntity
  8
0
100
AcDbLine
 62
7
  6
CONTINUOUS
 10
13.9359427903
 20
13.0714215032
 11
13.9380280703
 21
13.0781694717
  0
LINE
  5
301
100
AcDbEntity
  8
0
100
AcDbLine
 62
7
  6
CONTINUOUS
 10
13.8025054367
 20
12.5004480508
 11
14.0600795744
 21
11.975567144
  0
LINE
  5
302
100
AcDbEntity
  8
0
100
AcDbLine
 62
7
  6
CONTINUOUS
 10
14.0372180629
 20
12.5222456075
 11
14.086599793
 21
12.6820449444
  0
LINE
  5
303
100
AcDbEntity
  8
0
100
AcDbLine
 62
7
  6
CONTINUOUS
 10
14.2500915308
 20
13.2111044018
 11
14.299449349
 21
13.3708263603
  0
LINE
  5
304
100
AcDbEntity
  8
0
100
AcDbLine
 62
7
  6
CONTINUOUS
 10
14.7648335744
 20
11.4126755478
 11
14.8758822508
 21
11.3563760591
  0
LINE
  5
305
100
AcDbEntity
  8
0
100
AcDbLine
 62
7
  6
CONTINUOUS
 10
14.7263452838
 20
11.3083422414
 11
14.698352748
 21
11.3389753847
  0
LINE
  5
306
100
AcDbEntity
  8
0
100
AcDbLine
 62
7
  6
CONTINUOUS
 10
14.720388086
 20
11.3168754437
 11
14.7263472486
 21
11.3083426567
  0
LINE
  5
307
100
AcDbEntity
  8
0
100
AcDbLine
 62
7
  6
CONTINUOUS
 10
14.6864383524
 20
11.3560417891
 11
14.698352748
 21
11.3389753847
  0
LINE
  5
308
100
AcDbEntity
  8
0
100
AcDbLine
 62
7
  6
CONTINUOUS
 10
13.8953238224
 20
12.7778985924
 11
13.9105759157
 21
12.746818094
  0
LINE
  5
309
100
AcDbEntity
  8
0
100
AcDbLine
 62
7
  6
CONTINUOUS
 10
13.9518596439
 20
12.7188106412
 11
13.916733101
 21
12.7903910096
  0
LINE
  5
30A
100
AcDbEntity
  8
0
100
AcDbLine
 62
7
  6
CONTINUOUS
 10
14.0746995828
 20
12.1858825567
 11
14.0746786321
 21
12.1859252915
  0
LINE
  5
30B
100
AcDbEntity
  8
0
100
AcDbLine
 62
7
  6
CONTINUOUS
 10
14.4972117156
 20
13.3017492309
 11
14.4667984679
 21
13.2033319254
  0
LINE
  5
30C
100
AcDbEntity
  8
0
100
AcDbLine
 62
7
  6
CONTINUOUS
 10
14.6397668141
 20
13.4167509651
 11
14.6016696252
 21
13.3921751938
  0
LINE
  5
30D
100
AcDbEntity
  8
0
100
AcDbLine
 62
7
  6
CONTINUOUS
 10
15.7848729792
 20
11.2872090208
 11
15.8252675703
 21
11.2967089435
  0
LINE
  5
30E
100
AcDbEntity
  8
0
100
AcDbLine
 62
7
  6
CONTINUOUS
 10
15.7718337976
 20
11.2857949452
 11
15.7848725405
 21
11.2872094816
  0
LINE
  5
30F
100
AcDbEntity
  8
0
100
AcDbLine
 62
7
  6
CONTINUOUS
 10
15.7718337976
 20
11.2857949452
 11
14.781693229
 21
11.2857949452
  0
LINE
  5
310
100
AcDbEntity
  8
0
100
AcDbLine
 62
7
  6
CONTINUOUS
 10
14.9316753747
 20
11.4126755478
 11
14.8206266982
 21
11.4689750366
  0
LINE
  5
311
100
AcDbEntity
  8
0
100
AcDbLine
 62
7
  6
CONTINUOUS
 10
14.8276026745
 20
11.4946534358
 11
14.9410171891
 21
11.4371545138
  0
LINE
  5
312
100
AcDbEntity
  8
0
100
AcDbLine
 62
7
  6
CONTINUOUS
 10
14.3890225325
 20
11.9621115082
 11
14.6864383524
 21
11.3560417891
  0
LINE
  5
313
100
AcDbEntity
  8
0
100
AcDbLine
 62
7
  6
CONTINUOUS
 10
14.720388086
 20
11.3168754437
 11
14.422972266
 21
11.9229451627
  0
LINE
  5
314
100
AcDbEntity
  8
0
100
AcDbLine
 62
7
  6
CONTINUOUS
 10
14.6948151434
 20
13.2485806905
 11
14.7341218156
 21
13.3757771286
  0
LINE
  5
315
100
AcDbEntity
  8
0
100
AcDbLine
 62
7
  6
CONTINUOUS
 10
14.3671181279
 20
12.1503317075
 11
14.4189988614
 21
12.3182178224
  0
LINE
  5
316
100
AcDbEntity
  8
0
100
AcDbLine
 62
7
  6
CONTINUOUS
 10
14.5611534695
 20
13.1623580889
 11
14.6948151434
 21
13.2485806905
  0
LINE
  5
317
100
AcDbEntity
  8
0
100
AcDbLine
 62
7
  6
CONTINUOUS
 10
14.5778108428
 20
13.1435946788
 11
14.7114725166
 21
13.2298172805
  0
LINE
  5
318
100
AcDbEntity
  8
0
100
AcDbLine
 62
7
  6
CONTINUOUS
 10
17.1904956267
 20
11.4684236077
 11
15.9080795472
 21
11.4684236077
  0
LINE
  5
319
100
AcDbEntity
  8
0
100
AcDbLine
 62
7
  6
CONTINUOUS
 10
14.631289366
 20
11.4684236077
 11
13.5753312253
 21
11.4684236077
  0
LINE
  5
31A
100
AcDbEntity
  8
0
100
AcDbLine
 62
7
  6
CONTINUOUS
 10
14.7114725166
 20
13.2298172805
 11
14.7507791889
 21
13.3570137186
  0
LINE
  5
31B
100
AcDbEntity
  8
0
100
AcDbLine
 62
7
  6
CONTINUOUS
 10
14.4895314236
 20
12.112503138
 11
14.4774281074
 21
12.0733367926
  0
LINE
  5
31C
100
AcDbEntity
  8
0
100
AcDbLine
 62
7
  6
CONTINUOUS
 10
16.6471380298
 20
11.7209526573
 11
15.8461665514
 21
11.7209526573
  0
LINE
  5
31D
100
AcDbEntity
  8
0
100
AcDbLine
 62
7
  6
CONTINUOUS
 10
14.5073661077
 20
11.7209526573
 11
13.8708423056
 21
11.7209526573
  0
LINE
  5
31E
100
AcDbEntity
  8
0
100
AcDbLine
 62
7
  6
CONTINUOUS
 10
14.2811090735
 20
13.0635011814
 11
14.2497218732
 21
13.1274615706
  0
LINE
  5
31F
100
AcDbEntity
  8
0
100
AcDbLine
 62
7
  6
CONTINUOUS
 10
14.7328853448
 20
12.5053385378
 11
14.7139481282
 21
12.4443632304
  0
LINE
  5
320
100
AcDbEntity
  8
0
100
AcDbLine
 62
7
  6
CONTINUOUS
 10
14.5943956006
 20
12.4340596546
 11
14.6045001513
 21
12.4226437922
  0
LINE
  5
321
100
AcDbEntity
  8
0
100
AcDbLine
 62
7
  6
CONTINUOUS
 10
14.6217809696
 20
12.4151488431
 11
14.6224524772
 21
12.414390191
  0
LINE
  5
322
100
AcDbEntity
  8
0
100
AcDbLine
 62
7
  6
CONTINUOUS
 10
14.6497555314
 20
12.4030158576
 11
14.6396509807
 21
12.41443172
  0
LINE
  5
323
100
AcDbEntity
  8
0
100
AcDbLine
 62
7
  6
CONTINUOUS
 10
16.955317968
 20
11.9943011101
 11
16.9475185901
 21
11.9943011101
  0
LINE
  5
324
100
AcDbEntity
  8
0
100
AcDbLine
 62
7
  6
CONTINUOUS
 10
13.7394038668
 20
11.9943011101
 11
13.731604489
 21
11.9943011101
  0
LINE
  5
325
100
AcDbEntity
  8
0
100
AcDbLine
 62
7
  6
CONTINUOUS
 10
14.7139481282
 20
12.4443632304
 11
14.7038435774
 21
12.4557790928
  0
LINE
  5
326
100
AcDbEntity
  8
0
100
AcDbLine
 62
7
  6
CONTINUOUS
 10
14.722780794
 20
12.5167544001
 11
14.7328853448
 21
12.5053385378
  0
LINE
  5
327
100
AcDbEntity
  8
0
100
AcDbLine
 62
7
  6
CONTINUOUS
 10
14.7706209052
 20
11.4371545138
 11
14.7648335744
 21
11.4126755478
  0
LINE
  5
328
100
AcDbEntity
  8
0
100
AcDbLine
 62
7
  6
CONTINUOUS
 10
14.8276026745
 20
11.4946534358
 11
14.8206266982
 21
11.4689750366
  0
LINE
  5
329
100
AcDbEntity
  8
0
100
AcDbLine
 62
7
  6
CONTINUOUS
 10
14.7674426191
 20
11.4644648956
 11
14.7734942771
 21
11.4840480684
  0
LINE
  5
32A
100
AcDbEntity
  8
0
100
AcDbLine
 62
7
  6
CONTINUOUS
 10
14.7139481282
 20
12.4443632304
 11
14.6497555314
 21
12.4030158576
  0
LINE
  5
32B
100
AcDbEntity
  8
0
100
AcDbLine
 62
7
  6
CONTINUOUS
 10
16.9843154963
 20
12.0881371462
 11
16.8116165599
 21
12.0881371462
  0
LINE
  5
32C
100
AcDbEntity
  8
0
100
AcDbLine
 62
7
  6
CONTINUOUS
 10
13.9333009537
 20
12.0881371462
 11
13.7606020173
 21
12.0881371462
  0
LINE
  5
32D
100
AcDbEntity
  8
0
100
AcDbLine
 62
7
  6
CONTINUOUS
 10
14.6497555314
 20
12.4030158576
 11
14.6045001513
 21
12.4226437922
  0
LINE
  5
32E
100
AcDbEntity
  8
0
100
AcDbLine
 62
7
  6
CONTINUOUS
 10
14.9441954752
 20
11.4098441319
 11
14.9502471333
 21
11.4294273047
  0
LINE
  5
32F
100
AcDbEntity
  8
0
100
AcDbLine
 62
7
  6
CONTINUOUS
 10
13.8211185981
 20
12.2839688736
 11
13.9087379872
 21
12.2839688736
  0
LINE
  5
330
100
AcDbEntity
  8
0
100
AcDbLine
 62
7
  6
CONTINUOUS
 10
16.8721331408
 20
12.2839688736
 11
17.0448320771
 21
12.2839688736
  0
LINE
  5
331
100
AcDbEntity
  8
0
100
AcDbLine
 62
7
  6
CONTINUOUS
 10
14.4667984679
 20
13.2033319254
 11
14.4834558412
 21
13.1845685153
  0
LINE
  5
332
100
AcDbEntity
  8
0
100
AcDbLine
 62
7
  6
CONTINUOUS
 10
14.5778108428
 20
13.1435946788
 11
14.5611534695
 21
13.1623580889
  0
LINE
  5
333
100
AcDbEntity
  8
0
100
AcDbLine
 62
7
  6
CONTINUOUS
 10
15.505218934
 20
11.9229451627
 11
15.8026347539
 21
11.3168754437
  0
LINE
  5
334
100
AcDbEntity
  8
0
100
AcDbLine
 62
7
  6
CONTINUOUS
 10
15.8607911198
 20
11.3560417891
 11
15.5633752998
 21
11.9621115082
  0
LINE
  5
335
100
AcDbEntity
  8
0
100
AcDbLine
 62
7
  6
CONTINUOUS
 10
14.9410171891
 20
11.4371545138
 11
14.9316753747
 21
11.4126755478
  0
LINE
  5
336
100
AcDbEntity
  8
0
100
AcDbLine
 62
7
  6
CONTINUOUS
 10
16.9011306691
 20
12.3778049096
 11
17.0738296055
 21
12.3778049096
  0
LINE
  5
337
100
AcDbEntity
  8
0
100
AcDbLine
 62
7
  6
CONTINUOUS
 10
13.8501161265
 20
12.3778049096
 11
13.8626618886
 21
12.3778620906
  0
LINE
  5
338
100
AcDbEntity
  8
0
100
AcDbLine
 62
7
  6
CONTINUOUS
 10
14.7114725166
 20
13.2298172805
 11
14.6948151434
 21
13.2485806905
  0
LINE
  5
339
100
AcDbEntity
  8
0
100
AcDbLine
 62
7
  6
CONTINUOUS
 10
15.9243335297
 20
11.5616651029
 11
15.8461665514
 21
11.7209526573
  0
LINE
  5
33A
100
AcDbEntity
  8
0
100
AcDbLine
 62
7
  6
CONTINUOUS
 10
15.8461665514
 20
11.7209526573
 11
15.6340801226
 21
12.1546906388
  0
LINE
  5
33B
100
AcDbEntity
  8
0
100
AcDbLine
 62
7
  6
CONTINUOUS
 10
17.3571749046
 20
12.6309065186
 11
17.1614494434
 21
12.6309065186
  0
LINE
  5
33C
100
AcDbEntity
  8
0
100
AcDbLine
 62
7
  6
CONTINUOUS
 10
13.7998133642
 20
12.6309065186
 11
13.7420105032
 21
12.6309065186
  0
LINE
  5
33D
100
AcDbEntity
  8
0
100
AcDbLine
 62
7
  6
CONTINUOUS
 10
14.7341218156
 20
13.3757771286
 11
14.7507791889
 21
13.3570137186
  0
LINE
  5
33E
100
AcDbEntity
  8
0
100
AcDbLine
 62
7
  6
CONTINUOUS
 10
15.4628664087
 20
11.8117198784
 11
15.4507630925
 21
11.7725535329
  0
LINE
  5
33F
100
AcDbEntity
  8
0
100
AcDbLine
 62
7
  6
CONTINUOUS
 10
15.4650927054
 20
11.7681253436
 11
15.4648670793
 21
11.7674006341
  0
LINE
  5
340
100
AcDbEntity
  8
0
100
AcDbLine
 62
7
  6
CONTINUOUS
 10
15.4650766762
 20
11.7681302965
 11
15.4648157726
 21
11.7674165685
  0
LINE
  5
341
100
AcDbEntity
  8
0
100
AcDbLine
 62
7
  6
CONTINUOUS
 10
16.2276796501
 20
12.8873459217
 11
16.061185264
 21
12.7188106412
  0
LINE
  5
342
100
AcDbEntity
  8
0
100
AcDbLine
 62
7
  6
CONTINUOUS
 10
14.7706209052
 20
11.4371545138
 11
14.8276026745
 21
11.4946534358
  0
LINE
  5
343
100
AcDbEntity
  8
0
100
AcDbLine
 62
7
  6
CONTINUOUS
 10
14.8206266982
 20
11.4689750366
 11
14.7648335744
 21
11.4126755478
  0
LINE
  5
344
100
AcDbEntity
  8
0
100
AcDbLine
 62
7
  6
CONTINUOUS
 10
16.061185264
 20
12.7188106412
 11
15.8323591733
 21
12.7188106412
  0
LINE
  5
345
100
AcDbEntity
  8
0
100
AcDbLine
 62
7
  6
CONTINUOUS
 10
14.0999075489
 20
12.7188106412
 11
13.9518596439
 21
12.7188106412
  0
LINE
  5
346
100
AcDbEntity
  8
0
100
AcDbLine
 62
7
  6
CONTINUOUS
 10
17.1462865968
 20
12.6313711304
 11
17.1463274391
 21
12.6313689157
  0
LINE
  5
347
100
AcDbEntity
  8
0
100
AcDbLine
 62
7
  6
CONTINUOUS
 10
14.4834558412
 20
13.1845685153
 11
14.5778108428
 21
13.1435946788
  0
LINE
  5
348
100
AcDbEntity
  8
0
100
AcDbLine
 62
7
  6
CONTINUOUS
 10
14.4667984679
 20
13.2033319254
 11
14.5611534695
 21
13.1623580889
  0
LINE
  5
349
100
AcDbEntity
  8
0
100
AcDbLine
 62
7
  6
CONTINUOUS
 10
15.8692204324
 20
12.4498754225
 11
15.9106121304
 21
12.5838190064
  0
LINE
  5
34A
100
AcDbEntity
  8
0
100
AcDbLine
 62
7
  6
CONTINUOUS
 10
16.0823003826
 20
13.139402394
 11
16.1203642429
 21
13.2625770913
  0
LINE
  5
34B
100
AcDbEntity
  8
0
100
AcDbLine
 62
7
  6
CONTINUOUS
 10
14.8758822508
 20
11.3563760591
 11
14.9316753747
 21
11.4126755478
  0
LINE
  5
34C
100
AcDbEntity
  8
0
100
AcDbLine
 62
7
  6
CONTINUOUS
 10
14.7341218156
 20
13.3757771286
 11
14.6397668141
 21
13.4167509651
  0
LINE
  5
34D
100
AcDbEntity
  8
0
100
AcDbLine
 62
7
  6
CONTINUOUS
 10
15.7758233518
 20
12.7778985924
 11
15.7910754451
 21
12.746818094
  0
LINE
  5
34E
100
AcDbEntity
  8
0
100
AcDbLine
 62
7
  6
CONTINUOUS
 10
15.8323591733
 20
12.7188106412
 11
15.7972326304
 21
12.7903910096
  0
LINE
  5
34F
100
AcDbEntity
  8
0
100
AcDbLine
 62
7
  6
CONTINUOUS
 10
16.061185264
 20
12.7188106412
 11
16.0260587211
 21
12.7903910096
  0
LINE
  5
350
100
AcDbEntity
  8
0
100
AcDbLine
 62
7
  6
CONTINUOUS
 10
15.8642271048
 20
11.326517052
 11
15.9277695147
 21
11.5321403658
  0
LINE
  5
351
100
AcDbEntity
  8
0
100
AcDbLine
 62
7
  6
CONTINUOUS
 10
14.2236172379
 20
13.2720368421
 11
14.2689210789
 21
13.2720368421
  0
LINE
  5
352
100
AcDbEntity
  8
0
100
AcDbLine
 62
7
  6
CONTINUOUS
 10
16.1310755246
 20
13.2720368421
 11
16.1904662355
 21
13.2720368421
  0
LINE
  5
353
100
AcDbEntity
  8
0
100
AcDbLine
 62
7
  6
CONTINUOUS
 10
16.2276796501
 20
12.8873459217
 11
16.1925531073
 21
12.9589262901
  0
LINE
  5
354
100
AcDbEntity
  8
0
100
AcDbLine
 62
7
  6
CONTINUOUS
 10
16.1653479456
 20
13.0558812022
 11
16.1302214027
 21
13.1274615706
  0
LINE
  5
355
100
AcDbEntity
  8
0
100
AcDbLine
 62
7
  6
CONTINUOUS
 10
16.2218837671
 20
12.9967932509
 11
16.2371358604
 21
12.9657127525
  0
LINE
  5
356
100
AcDbEntity
  8
0
100
AcDbLine
 62
7
  6
CONTINUOUS
 10
16.1653479456
 20
13.0558812022
 11
16.2276796501
 21
12.8873459217
  0
LINE
  5
357
100
AcDbEntity
  8
0
100
AcDbLine
 62
7
  6
CONTINUOUS
 10
16.6359531844
 20
12.5212247304
 11
16.4937392194
 21
12.061020171
  0
LINE
  5
358
100
AcDbEntity
  8
0
100
AcDbLine
 62
7
  6
CONTINUOUS
 10
16.3604342261
 20
13.1809239646
 11
16.6180083638
 21
12.6560430579
  0
LINE
  5
359
100
AcDbEntity
  8
0
100
AcDbLine
 62
7
  6
CONTINUOUS
 10
17.5435159188
 20
12.3643458928
 11
17.4348447538
 21
12.585794444
  0
LINE
  5
35A
100
AcDbEntity
  8
0
100
AcDbLine
 62
7
  6
CONTINUOUS
 10
17.5458488528
 20
12.3202916219
 11
17.3068083585
 21
11.5467562986
  0
ARC
  5
35B
100
AcDbEntity
  8
0
100
AcDbCircle
 62
7
  6
CONTINUOUS
 10
6.1302691177
 20
5.4787143478
 40
1.0623922622
100
AcDbArc
 50
161.6517862023
 51
179.9969423562
  0
ARC
  5
35C
100
AcDbEntity
  8
0
100
AcDbCircle
 62
7
  6
CONTINUOUS
 10
4.3457824144
 20
5.478895321
 40
0.722094171
100
AcDbArc
 50
353.1080879836
 51
359.9901389847
  0
ARC
  5
35D
100
AcDbEntity
  8
0
100
AcDbCircle
 62
7
  6
CONTINUOUS
 10
4.3482088459
 20
5.4787710434
 40
0.7196584302
100
AcDbArc
 50
273.1960662525
 51
344.4513759293
  0
ARC
  5
35E
100
AcDbEntity
  8
0
100
AcDbCircle
 62
7
  6
CONTINUOUS
 10
4.3485573455
 20
5.4787833878
 40
0.7193258933
100
AcDbArc
 50
344.4944185965
 51
353.0904165224
  0
ARC
  5
35F
100
AcDbEntity
  8
0
100
AcDbCircle
 62
7
  6
CONTINUOUS
 10
4.3803672762
 20
4.9100210434
 40
0.15
100
AcDbArc
 50
270.0
 51
273.2361890655
  0
ARC
  5
360
100
AcDbEntity
  8
0
100
AcDbCircle
 62
7
  6
CONTINUOUS
 10
5.5928672762
 20
4.5037710434
 40
0.1
100
AcDbArc
 50
180.0
 51
270.0
  0
CIRCLE
  5
361
100
AcDbEntity
  8
0
100
AcDbCircle
 62
7
  6
CONTINUOUS
 10
5.7709922762
 20
4.7287710434
 40
0.0925
  0
ARC
  5
362
100
AcDbEntity
  8
0
100
AcDbCircle
 62
7
  6
CONTINUOUS
 10
4.1178672762
 20
4.7100210434
 40
0.05
100
AcDbArc
 50
90.0
 51
180.0
  0
ARC
  5
363
100
AcDbEntity
  8
0
100
AcDbCircle
 62
7
  6
CONTINUOUS
 10
5.5928672762
 20
4.5037710434
 40
0.05
100
AcDbArc
 50
180.0
 51
270.0
  0
ARC
  5
364
100
AcDbEntity
  8
0
100
AcDbCircle
 62
7
  6
CONTINUOUS
 10
5.7186665919
 20
6.5609380289
 40
0.0625
100
AcDbArc
 50
306.6298953685
 51
27.1467154853
  0
ARC
  5
365
100
AcDbEntity
  8
0
100
AcDbCircle
 62
7
  6
CONTINUOUS
 10
5.9458270348
 20
6.6218054861
 40
0.0625
100
AcDbArc
 50
182.8532845147
 51
263.3701046315
  0
ARC
  5
366
100
AcDbEntity
  8
0
100
AcDbCircle
 62
7
  6
CONTINUOUS
 10
5.7963739107
 20
6.6286586702
 40
0.045
100
AcDbArc
 50
105.0
 51
240.597687854
  0
ARC
  5
367
100
AcDbEntity
  8
0
100
AcDbCircle
 62
7
  6
CONTINUOUS
 10
5.844670202
 20
6.6415996225
 40
0.045
100
AcDbArc
 50
329.402312146
 51
105.0
  0
ARC
  5
368
100
AcDbEntity
  8
0
100
AcDbCircle
 62
7
  6
CONTINUOUS
 10
4.8376589428
 20
5.8131460434
 40
0.025
100
AcDbArc
 50
90.0
 51
180.0
  0
ARC
  5
369
100
AcDbEntity
  8
0
100
AcDbCircle
 62
7
  6
CONTINUOUS
 10
6.1303672762
 20
5.4787710434
 40
1.0625
100
AcDbArc
 50
18.8767691339
 51
161.1232308661
  0
ARC
  5
36A
100
AcDbEntity
  8
0
100
AcDbCircle
 62
7
  6
CONTINUOUS
 10
6.130395211
 20
5.4787046349
 40
1.0624618244
100
AcDbArc
 50
0.0035812392
 51
18.3475188536
  0
ARC
  5
36B
100
AcDbEntity
  8
0
100
AcDbCircle
 62
7
  6
CONTINUOUS
 10
7.9151667744
 20
5.478913449
 40
0.7223094319
100
AcDbArc
 50
180.0112960403
 51
186.8912965761
  0
ARC
  5
36C
100
AcDbEntity
  8
0
100
AcDbCircle
 62
7
  6
CONTINUOUS
 10
7.9125257064
 20
5.4787710434
 40
0.7196584302
100
AcDbArc
 50
195.5486240709
 51
266.8039337475
  0
ARC
  5
36D
100
AcDbEntity
  8
0
100
AcDbCircle
 62
7
  6
CONTINUOUS
 10
7.9121772066
 20
5.4787833878
 40
0.7193258931
100
AcDbArc
 50
186.9095834765
 51
195.5055814024
  0
ARC
  5
36E
100
AcDbEntity
  8
0
100
AcDbCircle
 62
7
  6
CONTINUOUS
 10
6.1303672762
 20
5.4787710434
 40
0.6375
100
AcDbArc
 50
0.0
 51
180.0
  0
ARC
  5
36F
100
AcDbEntity
  8
0
100
AcDbCircle
 62
7
  6
CONTINUOUS
 10
6.1303672762
 20
5.4787710434
 40
0.5875
100
AcDbArc
 50
0.0
 51
180.0
  0
CIRCLE
  5
370
100
AcDbEntity
  8
0
100
AcDbCircle
 62
7
  6
CONTINUOUS
 10
6.1303672762
 20
5.4787710434
 40
0.524375
  0
CIRCLE
  5
371
100
AcDbEntity
  8
0
100
AcDbCircle
 62
7
  6
CONTINUOUS
 10
6.1303672762
 20
5.4787710434
 40
0.509375
  0
CIRCLE
  5
372
100
AcDbEntity
  8
0
100
AcDbCircle
 62
7
  6
CONTINUOUS
 10
6.1303672762
 20
5.4787710434
 40
0.359375
  0
ARC
  5
373
100
AcDbEntity
  8
0
100
AcDbCircle
 62
7
  6
CONTINUOUS
 10
7.8803672762
 20
4.9100210434
 40
0.15
100
AcDbArc
 50
266.7638109345
 51
270.0
  0
ARC
  5
374
100
AcDbEntity
  8
0
100
AcDbCircle
 62
7
  6
CONTINUOUS
 10
6.6678672762
 20
4.5037710434
 40
0.1
100
AcDbArc
 50
270.0
 51
360.0
  0
ARC
  5
375
100
AcDbEntity
  8
0
100
AcDbCircle
 62
7
  6
CONTINUOUS
 10
8.1428672762
 20
4.7100210434
 40
0.05
100
AcDbArc
 50
0.0
 51
90.0
  0
ARC
  5
376
100
AcDbEntity
  8
0
100
AcDbCircle
 62
7
  6
CONTINUOUS
 10
6.6678672762
 20
4.5037710434
 40
0.05
100
AcDbArc
 50
270.0
 51
360.0
  0
ARC
  5
377
100
AcDbEntity
  8
0
100
AcDbCircle
 62
7
  6
CONTINUOUS
 10
7.4230756095
 20
5.8131460434
 40
0.025
100
AcDbArc
 50
0.0
 51
90.0
  0
ARC
  5
378
100
AcDbEntity
  8
0
100
AcDbCircle
 62
7
  6
CONTINUOUS
 10
4.1083720839
 20
12.1062977814
 40
0.1
100
AcDbArc
 50
180.0
 51
270.0
  0
ARC
  5
379
100
AcDbEntity
  8
0
100
AcDbCircle
 62
7
  6
CONTINUOUS
 10
5.9037340579
 20
11.8910922185
 40
0.068180075
100
AcDbArc
 50
344.774062994
 51
15.3602559127
  0
ARC
  5
37A
100
AcDbEntity
  8
0
100
AcDbCircle
 62
7
  6
CONTINUOUS
 10
5.904541795
 20
11.8904585897
 40
0.0670886637
100
AcDbArc
 50
308.0398641296
 51
311.3495993205
  0
ARC
  5
37B
100
AcDbEntity
  8
0
100
AcDbCircle
 62
7
  6
CONTINUOUS
 10
5.9048168833
 20
11.8922117351
 40
0.0665879321
100
AcDbArc
 50
53.1467433878
 51
59.4889338762
  0
ARC
  5
37C
100
AcDbEntity
  8
0
100
AcDbCircle
 62
7
  6
CONTINUOUS
 10
5.9048518009
 20
11.889994584
 40
0.0665322055
100
AcDbArc
 50
295.052691024
 51
308.0758350526
  0
ARC
  5
37D
100
AcDbEntity
  8
0
100
AcDbCircle
 62
7
  6
CONTINUOUS
 10
5.9050656986
 20
11.892567116
 40
0.066155653
100
AcDbArc
 50
60.9615250729
 51
65.343395897
  0
ARC
  5
37E
100
AcDbEntity
  8
0
100
AcDbCircle
 62
7
  6
CONTINUOUS
 10
5.9052455187
 20
11.8928981906
 40
0.0657789124
100
AcDbArc
 50
59.507021836
 51
60.958487831
  0
ARC
  5
37F
100
AcDbEntity
  8
0
100
AcDbCircle
 62
7
  6
CONTINUOUS
 10
5.9053090396
 20
11.8890701991
 40
0.0655011734
100
AcDbArc
 50
292.8124092133
 51
295.0327568978
  0
ARC
  5
380
100
AcDbEntity
  8
0
100
AcDbCircle
 62
7
  6
CONTINUOUS
 10
5.3834047177
 20
11.9575999965
 40
0.0499709332
100
AcDbArc
 50
0.9350895547
 51
90.0308690259
  0
ARC
  5
381
100
AcDbEntity
  8
0
100
AcDbCircle
 62
7
  6
CONTINUOUS
 10
5.0500387505
 20
12.6000977814
 40
0.3484375
100
AcDbArc
 50
273.4479112621
 51
86.5520887379
  0
ARC
  5
382
100
AcDbEntity
  8
0
100
AcDbCircle
 62
7
  6
CONTINUOUS
 10
5.0031637505
 20
12.8937977814
 40
0.25
100
AcDbArc
 50
90.0
 51
180.0
  0
ARC
  5
383
100
AcDbEntity
  8
0
100
AcDbCircle
 62
7
  6
CONTINUOUS
 10
5.0031637505
 20
12.3062977814
 40
0.25
100
AcDbArc
 50
180.0
 51
270.0
  0
CIRCLE
  5
384
100
AcDbEntity
  8
0
100
AcDbCircle
 62
7
  6
CONTINUOUS
 10
5.0500387505
 20
12.6000977814
 40
0.2484375
  0
ARC
  5
385
100
AcDbEntity
  8
0
100
AcDbCircle
 62
7
  6
CONTINUOUS
 10
4.5083720839
 20
12.6000477814
 40
0.2447916667
100
AcDbArc
 50
270.0
 51
90.0
  0
CIRCLE
  5
386
100
AcDbEntity
  8
0
100
AcDbCircle
 62
7
  6
CONTINUOUS
 10
5.0500387505
 20
12.6000977814
 40
0.2151531863
  0
ARC
  5
387
100
AcDbEntity
  8
0
100
AcDbCircle
 62
7
  6
CONTINUOUS
 10
4.3208720839
 20
12.6000477814
 40
0.125
100
AcDbArc
 50
90.0
 51
270.0
  0
ARC
  5
388
100
AcDbEntity
  8
0
100
AcDbCircle
 62
7
  6
CONTINUOUS
 10
4.5083720839
 20
12.6000477814
 40
0.125
100
AcDbArc
 50
270.0
 51
90.0
  0
ARC
  5
389
100
AcDbEntity
  8
0
100
AcDbCircle
 62
7
  6
CONTINUOUS
 10
4.1083720839
 20
13.0937977814
 40
0.1
100
AcDbArc
 50
90.0
 51
180.0
  0
ARC
  5
38A
100
AcDbEntity
  8
0
100
AcDbCircle
 62
7
  6
CONTINUOUS
 10
5.3834050694
 20
13.2424965073
 40
0.049971011
100
AcDbArc
 50
269.9705702103
 51
359.0430328944
  0
ARC
  5
38B
100
AcDbEntity
  8
0
100
AcDbCircle
 62
7
  6
CONTINUOUS
 10
6.3014364981
 20
11.2203469671
 40
0.8498300266
100
AcDbArc
 50
120.8895417674
 51
123.3614642607
  0
ARC
  5
38C
100
AcDbEntity
  8
0
100
AcDbCircle
 62
7
  6
CONTINUOUS
 10
6.3620334852
 20
11.1106830219
 40
0.8412720621
100
AcDbArc
 50
120.8769667884
 51
123.3740392397
  0
ARC
  5
38D
100
AcDbEntity
  8
0
100
AcDbCircle
 62
7
  6
CONTINUOUS
 10
8.0333720839
 20
12.1062977814
 40
0.1
100
AcDbArc
 50
270.0
 51
360.0
  0
ARC
  5
38E
100
AcDbEntity
  8
0
100
AcDbCircle
 62
7
  6
CONTINUOUS
 10
6.7583394728
 20
11.9576018448
 40
0.04996986
100
AcDbArc
 50
89.9679920641
 51
179.1382438823
  0
ARC
  5
38F
100
AcDbEntity
  8
0
100
AcDbCircle
 62
7
  6
CONTINUOUS
 10
6.3754823574
 20
12.6933523123
 40
0.8667523834
100
AcDbArc
 50
236.6762847802
 51
239.098271697
  0
ARC
  5
390
100
AcDbEntity
  8
0
100
AcDbCircle
 62
7
  6
CONTINUOUS
 10
6.3056654829
 20
12.5691640097
 40
0.8581651763
100
AcDbArc
 50
236.6641651743
 51
239.1103913029
  0
ARC
  5
391
100
AcDbEntity
  8
0
100
AcDbCircle
 62
7
  6
CONTINUOUS
 10
7.0917054172
 20
12.6000977814
 40
0.3484375
100
AcDbArc
 50
93.4479112621
 51
266.5520887379
  0
ARC
  5
392
100
AcDbEntity
  8
0
100
AcDbCircle
 62
7
  6
CONTINUOUS
 10
7.1385804172
 20
12.3062977814
 40
0.25
100
AcDbArc
 50
270.0
 51
360.0
  0
ARC
  5
393
100
AcDbEntity
  8
0
100
AcDbCircle
 62
7
  6
CONTINUOUS
 10
7.1385804172
 20
12.8937977814
 40
0.25
100
AcDbArc
 50
0.0
 51
90.0
  0
CIRCLE
  5
394
100
AcDbEntity
  8
0
100
AcDbCircle
 62
7
  6
CONTINUOUS
 10
7.0917054172
 20
12.6000977814
 40
0.2484375
  0
ARC
  5
395
100
AcDbEntity
  8
0
100
AcDbCircle
 62
7
  6
CONTINUOUS
 10
7.6333720839
 20
12.6000477814
 40
0.2447916667
100
AcDbArc
 50
90.0
 51
270.0
  0
CIRCLE
  5
396
100
AcDbEntity
  8
0
100
AcDbCircle
 62
7
  6
CONTINUOUS
 10
7.0917054172
 20
12.6000977814
 40
0.2151531863
  0
ARC
  5
397
100
AcDbEntity
  8
0
100
AcDbCircle
 62
7
  6
CONTINUOUS
 10
7.6333720839
 20
12.6000477814
 40
0.125
100
AcDbArc
 50
90.0
 51
270.0
  0
ARC
  5
398
100
AcDbEntity
  8
0
100
AcDbCircle
 62
7
  6
CONTINUOUS
 10
7.8208720839
 20
12.6000477814
 40
0.125
100
AcDbArc
 50
270.0
 51
90.0
  0
ARC
  5
399
100
AcDbEntity
  8
0
100
AcDbCircle
 62
7
  6
CONTINUOUS
 10
8.0333720839
 20
13.0937977814
 40
0.1
100
AcDbArc
 50
0.0
 51
90.0
  0
ARC
  5
39A
100
AcDbEntity
  8
0
100
AcDbCircle
 62
7
  6
CONTINUOUS
 10
6.7583390983
 20
13.2424965055
 40
0.0499710044
100
AcDbArc
 50
180.9569650142
 51
270.0294297698
  0
ARC
  5
39B
100
AcDbEntity
  8
0
100
AcDbCircle
 62
7
  6
CONTINUOUS
 10
16.2040712527
 20
5.2097035275
 40
0.2095828639
100
AcDbArc
 50
90.3336296972
 51
90.5746293576
  0
ARC
  5
39C
100
AcDbEntity
  8
0
100
AcDbCircle
 62
7
  6
CONTINUOUS
 10
14.9174831142
 20
5.3253274814
 40
0.0939557523
100
AcDbArc
 50
89.281737169
 51
89.7700334757
  0
ARC
  5
39D
100
AcDbEntity
  8
0
100
AcDbCircle
 62
7
  6
CONTINUOUS
 10
15.6697567011
 20
6.5318783386
 40
0.0543165726
100
AcDbArc
 50
170.814613223
 51
201.5053331916
  0
ARC
  5
39E
100
AcDbEntity
  8
0
100
AcDbCircle
 62
7
  6
CONTINUOUS
 10
15.4509563095
 20
6.5318780424
 40
0.0543140092
100
AcDbArc
 50
338.4800618307
 51
9.194580865
  0
ARC
  5
39F
100
AcDbEntity
  8
0
100
AcDbCircle
 62
7
  6
CONTINUOUS
 10
15.6692411866
 20
6.5320254712
 40
0.0537842187
100
AcDbArc
 50
167.4238404381
 51
170.8816781413
  0
ARC
  5
3A0
100
AcDbEntity
  8
0
100
AcDbCircle
 62
7
  6
CONTINUOUS
 10
15.4515421625
 20
6.5320420595
 40
0.0537095191
100
AcDbArc
 50
9.1217229413
 51
12.5758060625
  0
ARC
  5
3A1
100
AcDbEntity
  8
0
100
AcDbCircle
 62
7
  6
CONTINUOUS
 10
15.0195818965
 20
6.431767755
 40
0.0500016078
100
AcDbArc
 50
90.0
 51
179.9
  0
ARC
  5
3A2
100
AcDbEntity
  8
0
100
AcDbCircle
 62
7
  6
CONTINUOUS
 10
16.10112949
 20
6.431768334
 40
0.0500014371
100
AcDbArc
 50
0.1
 51
90.0
  0
ARC
  5
3A3
100
AcDbEntity
  8
0
100
AcDbCircle
 62
7
  6
CONTINUOUS
 10
14.9190263917
 20
6.1067822652
 40
0.0500012251
100
AcDbArc
 50
270.0
 51
359.9
  0
ARC
  5
3A4
100
AcDbEntity
  8
0
100
AcDbCircle
 62
7
  6
CONTINUOUS
 10
15.0166052569
 20
4.6505258511
 40
0.05
100
AcDbArc
 50
90.0
 51
180.0
  0
ARC
  5
3A5
100
AcDbEntity
  8
0
100
AcDbCircle
 62
7
  6
CONTINUOUS
 10
16.1041052569
 20
4.6505258511
 40
0.05
100
AcDbArc
 50
0.0
 51
90.0
  0
ARC
  5
3A6
100
AcDbEntity
  8
0
100
AcDbCircle
 62
7
  6
CONTINUOUS
 10
16.2016845008
 20
6.1067808772
 40
0.0499999265
100
AcDbArc
 50
180.1
 51
270.0
  0
ARC
  5
3A7
100
AcDbEntity
  8
0
100
AcDbCircle
 62
7
  6
CONTINUOUS
 10
15.5816266661
 20
6.5769366123
 40
0.0491398863
100
AcDbArc
 50
316.0168926502
 51
316.6448075921
  0
ARC
  5
3A8
100
AcDbEntity
  8
0
100
AcDbCircle
 62
7
  6
CONTINUOUS
 10
15.0416052569
 20
5.7536508511
 40
0.025
100
AcDbArc
 50
90.0
 51
180.0
  0
ARC
  5
3A9
100
AcDbEntity
  8
0
100
AcDbCircle
 62
7
  6
CONTINUOUS
 10
16.0791052569
 20
5.7536508511
 40
0.025
100
AcDbArc
 50
0.0
 51
90.0
  0
ARC
  5
3AA
100
AcDbEntity
  8
0
100
AcDbCircle
 62
7
  6
CONTINUOUS
 10
14.4243697832
 20
12.4061403858
 40
0.4044691584
100
AcDbArc
 50
173.6770118948
 51
178.7518295467
  0
ARC
  5
3AB
100
AcDbEntity
  8
0
100
AcDbCircle
 62
7
  6
CONTINUOUS
 10
14.4061531213
 20
12.408314372
 40
0.3861239142
100
AcDbArc
 50
162.8260052405
 51
173.6999383002
  0
ARC
  5
3AC
100
AcDbEntity
  8
0
100
AcDbCircle
 62
7
  6
CONTINUOUS
 10
14.6932878551
 20
11.9168918452
 40
0.3576320706
100
AcDbArc
 50
117.2084688409
 51
118.2498799269
  0
ARC
  5
3AD
100
AcDbEntity
  8
0
100
AcDbCircle
 62
7
  6
CONTINUOUS
 10
15.1850471515
 20
11.7655200849
 40
0.3567835675
100
AcDbArc
 50
27.487210921
 51
28.6189828025
  0
ARC
  5
3AE
100
AcDbEntity
  8
0
100
AcDbCircle
 62
7
  6
CONTINUOUS
 10
15.1349132741
 20
11.7675682953
 40
0.3487393956
100
AcDbArc
 50
28.9027958182
 51
32.7655762893
  0
ARC
  5
3AF
100
AcDbEntity
  8
0
100
AcDbCircle
 62
7
  6
CONTINUOUS
 10
15.1960814989
 20
11.7712281664
 40
0.3443602775
100
AcDbArc
 50
26.1406607168
 51
27.492067884
  0
ARC
  5
3B0
100
AcDbEntity
  8
0
100
AcDbCircle
 62
7
  6
CONTINUOUS
 10
15.1589600938
 20
11.7811808302
 40
0.3211086803
100
AcDbArc
 50
27.4452975288
 51
28.8502409338
  0
ARC
  5
3B1
100
AcDbEntity
  8
0
100
AcDbCircle
 62
7
  6
CONTINUOUS
 10
15.1697891499
 20
11.7868360687
 40
0.3088919138
100
AcDbArc
 50
26.1445081336
 51
27.4401743444
  0
ARC
  5
3B2
100
AcDbEntity
  8
0
100
AcDbCircle
 62
7
  6
CONTINUOUS
 10
14.75840205
 20
12.0590542568
 40
0.3088919137
100
AcDbArc
 50
206.1445081336
 51
207.4401743445
  0
ARC
  5
3B3
100
AcDbEntity
  8
0
100
AcDbCircle
 62
7
  6
CONTINUOUS
 10
14.755203211
 20
12.0506833098
 40
0.2899294695
100
AcDbArc
 50
205.1895373244
 51
206.1411181247
  0
ARC
  5
3B4
100
AcDbEntity
  8
0
100
AcDbCircle
 62
7
  6
CONTINUOUS
 10
15.172987989
 20
11.7952070156
 40
0.2899294695
100
AcDbArc
 50
25.1895373244
 51
26.1411181247
  0
ARC
  5
3B5
100
AcDbEntity
  8
0
100
AcDbCircle
 62
7
  6
CONTINUOUS
 10
15.2554946759
 20
11.8175244547
 40
0.2175670705
100
AcDbArc
 50
8.6578192428
 51
12.096262523
  0
ARC
  5
3B6
100
AcDbEntity
  8
0
100
AcDbCircle
 62
7
  6
CONTINUOUS
 10
14.6554027398
 20
12.0083628239
 40
0.2057635604
100
AcDbArc
 50
137.2409991862
 51
139.3974591367
  0
ARC
  5
3B7
100
AcDbEntity
  8
0
100
AcDbCircle
 62
7
  6
CONTINUOUS
 10
13.9035622469
 20
12.0550894819
 40
0.203629548
100
AcDbArc
 50
342.8637587648
 51
345.7240999846
  0
ARC
  5
3B8
100
AcDbEntity
  8
0
100
AcDbCircle
 62
7
  6
CONTINUOUS
 10
15.3037105964
 20
11.8631118477
 40
0.182389207
100
AcDbArc
 50
328.4626977897
 51
329.6878657623
  0
ARC
  5
3B9
100
AcDbEntity
  8
0
100
AcDbCircle
 62
7
  6
CONTINUOUS
 10
14.6494615448
 20
12.0651623854
 40
0.1819182792
100
AcDbArc
 50
175.8900554815
 51
177.5395107008
  0
ARC
  5
3BA
100
AcDbEntity
  8
0
100
AcDbCircle
 62
7
  6
CONTINUOUS
 10
15.2910569873
 20
11.8202830827
 40
0.1818152541
100
AcDbArc
 50
355.2481852591
 51
357.4327043526
  0
ARC
  5
3BB
100
AcDbEntity
  8
0
100
AcDbCircle
 62
7
  6
CONTINUOUS
 10
14.6477304037
 20
12.0652850315
 40
0.1801827999
100
AcDbArc
 50
175.0751860151
 51
175.8895018222
  0
ARC
  5
3BC
100
AcDbEntity
  8
0
100
AcDbCircle
 62
7
  6
CONTINUOUS
 10
15.3072905485
 20
11.8610501339
 40
0.1782581084
100
AcDbArc
 50
329.6791922281
 51
335.3193333082
  0
ARC
  5
3BD
100
AcDbEntity
  8
0
100
AcDbCircle
 62
7
  6
CONTINUOUS
 10
14.6462167969
 20
12.0194041931
 40
0.177343164
100
AcDbArc
 50
148.4763518157
 51
149.4458052225
  0
ARC
  5
3BE
100
AcDbEntity
  8
0
100
AcDbCircle
 62
7
  6
CONTINUOUS
 10
14.6437545097
 20
12.0656956025
 40
0.1761863502
100
AcDbArc
 50
169.2345326263
 51
175.0972121426
  0
ARC
  5
3BF
100
AcDbEntity
  8
0
100
AcDbCircle
 62
7
  6
CONTINUOUS
 10
15.2983347988
 20
11.8195254017
 40
0.1744997575
100
AcDbArc
 50
342.8690479698
 51
355.2981539908
  0
ARC
  5
3C0
100
AcDbEntity
  8
0
100
AcDbCircle
 62
7
  6
CONTINUOUS
 10
14.6515310509
 20
12.0623098504
 40
0.1695960892
100
AcDbArc
 50
149.3610663187
 51
162.4759780266
  0
ARC
  5
3C1
100
AcDbEntity
  8
0
100
AcDbCircle
 62
7
  6
CONTINUOUS
 10
15.3009736269
 20
11.8616190189
 40
0.1694072833
100
AcDbArc
 50
343.3716188851
 51
354.6218485051
  0
ARC
  5
3C2
100
AcDbEntity
  8
0
100
AcDbCircle
 62
7
  6
CONTINUOUS
 10
15.3031331039
 20
11.8610643325
 40
0.1671794052
100
AcDbArc
 50
342.8331513121
 51
343.3419829873
  0
ARC
  5
3C3
100
AcDbEntity
  8
0
100
AcDbCircle
 62
7
  6
CONTINUOUS
 10
14.64923633
 20
12.0631674254
 40
0.1671496919
100
AcDbArc
 50
162.5194503373
 51
162.8331410794
  0
ARC
  5
3C4
100
AcDbEntity
  8
0
100
AcDbCircle
 62
7
  6
CONTINUOUS
 10
13.9919537948
 20
12.0379597223
 40
0.1141020606
100
AcDbArc
 50
337.5414686058
 51
340.2751421206
  0
ARC
  5
3C5
100
AcDbEntity
  8
0
100
AcDbCircle
 62
7
  6
CONTINUOUS
 10
14.6283517168
 20
12.515769324
 40
0.1121396682
100
AcDbArc
 50
297.5212933983
 51
300.2164684957
  0
ARC
  5
3C6
100
AcDbEntity
  8
0
100
AcDbCircle
 62
7
  6
CONTINUOUS
 10
14.8042543171
 20
11.4493487947
 40
0.0403731206
100
AcDbArc
 50
131.5668936
 51
132.7564230166
  0
ARC
  5
3C7
100
AcDbEntity
  8
0
100
AcDbCircle
 62
7
  6
CONTINUOUS
 10
14.803391691
 20
11.4502791584
 40
0.0391043821
100
AcDbArc
 50
132.753826792
 51
135.2423864645
  0
ARC
  5
3C8
100
AcDbEntity
  8
0
100
AcDbCircle
 62
7
  6
CONTINUOUS
 10
14.9149837279
 20
11.4188941214
 40
0.0305818746
100
AcDbArc
 50
334.5404101723
 51
340.3468668885
  0
ARC
  5
3C9
100
AcDbEntity
  8
0
100
AcDbCircle
 62
7
  6
CONTINUOUS
 10
14.8025900743
 20
11.4750534771
 40
0.0304541416
100
AcDbArc
 50
155.1272488388
 51
162.821658691
  0
ARC
  5
3CA
100
AcDbEntity
  8
0
100
AcDbCircle
 62
7
  6
CONTINUOUS
 10
14.9212319628
 20
11.4383909941
 40
0.0303679885
100
AcDbArc
 50
343.445504581
 51
344.9221157048
  0
ARC
  5
3CB
100
AcDbEntity
  8
0
100
AcDbCircle
 62
7
  6
CONTINUOUS
 10
14.915291758
 20
11.4187761886
 40
0.0302521258
100
AcDbArc
 50
340.3610041377
 51
342.8273861303
  0
ARC
  5
3CC
100
AcDbEntity
  8
0
100
AcDbCircle
 62
7
  6
CONTINUOUS
 10
13.8237906602
 20
13.2428546985
 40
0.8656445693
100
AcDbArc
 50
272.2270373877
 51
272.5675343856
  0
ARC
  5
3CD
100
AcDbEntity
  8
0
100
AcDbCircle
 62
7
  6
CONTINUOUS
 10
14.1354031243
 20
12.8585055776
 40
0.292242706
100
AcDbArc
 50
131.897527853
 51
135.3506625071
  0
ARC
  5
3CE
100
AcDbEntity
  8
0
100
AcDbCircle
 62
7
  6
CONTINUOUS
 10
14.0734428068
 20
12.9330529506
 40
0.2713953076
100
AcDbArc
 50
270.005270362
 51
271.4577102989
  0
ARC
  5
3CF
100
AcDbEntity
  8
0
100
AcDbCircle
 62
7
  6
CONTINUOUS
 10
14.2236282008
 20
13.0017993967
 40
0.2702374456
100
AcDbArc
 50
90.0023243606
 51
91.7605637319
  0
ARC
  5
3D0
100
AcDbEntity
  8
0
100
AcDbCircle
 62
7
  6
CONTINUOUS
 10
14.1166022675
 20
12.8768890974
 40
0.2659481013
100
AcDbArc
 50
131.6329012379
 51
135.3217555691
  0
ARC
  5
3D1
100
AcDbEntity
  8
0
100
AcDbCircle
 62
7
  6
CONTINUOUS
 10
14.1320580562
 20
13.0180910781
 40
0.2031183123
100
AcDbArc
 50
158.9222730131
 51
162.7956670414
  0
ARC
  5
3D2
100
AcDbEntity
  8
0
100
AcDbCircle
 62
7
  6
CONTINUOUS
 10
14.1629161874
 20
13.0241049592
 40
0.1149224483
100
AcDbArc
 50
12.2452758287
 51
20.2511758751
  0
ARC
  5
3D3
100
AcDbEntity
  8
0
100
AcDbCircle
 62
7
  6
CONTINUOUS
 10
14.64555374
 20
13.2576110942
 40
0.1083467331
100
AcDbArc
 50
108.085292569
 51
108.5019637193
  0
ARC
  5
3D4
100
AcDbEntity
  8
0
100
AcDbCircle
 62
7
  6
CONTINUOUS
 10
14.644664013
 20
13.2603584205
 40
0.1054589373
100
AcDbArc
 50
106.0299818894
 51
108.0891439158
  0
ARC
  5
3D5
100
AcDbEntity
  8
0
100
AcDbCircle
 62
7
  6
CONTINUOUS
 10
14.6237501242
 20
13.2423924234
 40
0.1049574598
100
AcDbArc
 50
155.0756046122
 51
157.5711275116
  0
ARC
  5
3D6
100
AcDbEntity
  8
0
100
AcDbCircle
 62
7
  6
CONTINUOUS
 10
14.542189298
 20
13.3629176636
 40
0.0695214051
100
AcDbArc
 50
338.7317604553
 51
342.8131600149
  0
ARC
  5
3D7
100
AcDbEntity
  8
0
100
AcDbCircle
 62
7
  6
CONTINUOUS
 10
14.5517143575
 20
13.3610696967
 40
0.0597827301
100
AcDbArc
 50
355.883567383
 51
1.393958645
  0
ARC
  5
3D8
100
AcDbEntity
  8
0
100
AcDbCircle
 62
7
  6
CONTINUOUS
 10
14.5529353404
 20
13.3610801238
 40
0.058561858
100
AcDbArc
 50
1.4128204516
 51
4.7627180787
  0
ARC
  5
3D9
100
AcDbEntity
  8
0
100
AcDbCircle
 62
7
  6
CONTINUOUS
 10
16.4871423379
 20
12.4386277591
 40
0.5123958271
100
AcDbArc
 50
213.8629469604
 51
223.2277554458
  0
ARC
  5
3DA
100
AcDbEntity
  8
0
100
AcDbCircle
 62
7
  6
CONTINUOUS
 10
15.7401274617
 20
12.0906056859
 40
0.1309386323
100
AcDbArc
 50
162.408655539
 51
162.6944557388
  0
ARC
  5
3DB
100
AcDbEntity
  8
0
100
AcDbCircle
 62
7
  6
CONTINUOUS
 10
15.9170025641
 20
13.6729043613
 40
1.7553074403
100
AcDbArc
 50
200.3014561401
 51
200.7259476275
  0
ARC
  5
3DC
100
AcDbEntity
  8
0
100
AcDbCircle
 62
7
  6
CONTINUOUS
 10
17.1616581269
 20
12.8688234641
 40
0.2379170371
100
AcDbArc
 50
266.3063238328
 51
269.9497443118
  0
LINE
  5
3DD
100
AcDbEntity
  8
0
100
AcDbLine
 62
7
  6
CONTINUOUS
 10
5.9897909983
 20
6.1334653293
 11
6.0201875041
 21
6.1415385232
  0
LINE
  5
3DE
100
AcDbEntity
  8
0
100
AcDbLine
 62
7
  6
CONTINUOUS
 10
6.0201875041
 20
6.1415385232
 11
6.0224164982
 21
6.1421052928
  0
LINE
  5
3DF
100
AcDbEntity
  8
0
100
AcDbLine
 62
7
  6
CONTINUOUS
 10
5.9245910117
 20
6.1159950189
 11
5.9897909983
 21
6.1334653293
  0
LINE
  5
3E0
100
AcDbEntity
  8
0
100
AcDbLine
 62
7
  6
CONTINUOUS
 10
5.8920165249
 20
6.107164672
 11
5.9245910117
 21
6.1159950189
  0
SPLINE
  5
3E1
100
AcDbEntity
  8
0
100
AcDbSpline
 62
7
  6
CONTINUOUS
 70
0
 71
3
 72
9
 73
5
 74
0
 42
0.0000001
 43
0.0000001
 44
0.0000000001
 40
0.0
 40
0.0
 40
0.0
 40
0.0
 40
0.4982005982
 40
1.0
 40
1.0
 40
1.0
 40
1.0
 10
5.9897909983
 20
6.1334653293
 30
0.0
 10
5.9842729781
 20
6.1319925329
 30
0.0
 10
5.9734847565
 20
6.1278892175
 30
0.0
 10
5.9635461446
 20
6.1221038156
 30
0.0
 10
5.9587428858
 20
6.118938485
 30
0.0
  0
SPLINE
  5
3E2
100
AcDbEntity
  8
0
100
AcDbSpline
 62
7
  6
CONTINUOUS
 70
0
 71
3
 72
9
 73
5
 74
0
 42
0.0000001
 43
0.0000001
 44
0.0000000001
 40
0.0
 40
0.0
 40
0.0
 40
0.0
 40
0.501881331
 40
1.0
 40
1.0
 40
1.0
 40
1.0
 10
6.0239598768
 20
6.1363453343
 30
0.0
 10
6.0182149626
 20
6.1366952066
 30
0.0
 10
6.0067101638
 20
6.1367763618
 30
0.0
 10
5.9953101967
 20
6.1349384401
 30
0.0
 10
5.9897909983
 20
6.1334653293
 30
0.0
  0
SPLINE
  5
3E3
100
AcDbEntity
  8
0
100
AcDbSpline
 62
7
  6
CONTINUOUS
 70
0
 71
3
 72
9
 73
5
 74
0
 42
0.0000001
 43
0.0000001
 44
0.0000000001
 40
0.0
 40
0.0
 40
0.0
 40
0.0
 40
0.4981270924
 40
1.0
 40
1.0
 40
1.0
 40
1.0
 10
5.9245910117
 20
6.1159950189
 30
0.0
 10
5.9190748487
 20
6.1145112092
 30
0.0
 10
5.9082911607
 20
6.1103853984
 30
0.0
 10
5.898359908
 20
6.1045799751
 30
0.0
 10
5.8935599035
 20
6.1014047135
 30
0.0
  0
SPLINE
  5
3E4
100
AcDbEntity
  8
0
100
AcDbSpline
 62
7
  6
CONTINUOUS
 70
0
 71
3
 72
9
 73
5
 74
0
 42
0.0000001
 43
0.0000001
 44
0.0000000001
 40
0.0
 40
0.0
 40
0.0
 40
0.0
 40
0.5018072637
 40
1.0
 40
1.0
 40
1.0
 40
1.0
 10
5.9587428858
 20
6.118938485
 30
0.0
 10
5.9530001254
 20
6.1192781287
 30
0.0
 10
5.9414989305
 20
6.1193382389
 30
0.0
 10
5.9301063178
 20
6.1174785981
 30
0.0
 10
5.9245910117
 20
6.1159950189
 30
0.0
  0
SPLINE
  5
3E5
100
AcDbEntity
  8
0
100
AcDbSpline
 62
7
  6
CONTINUOUS
 70
0
 71
3
 72
12
 73
8
 74
0
 42
0.0000001
 43
0.0000001
 44
0.0000000001
 40
0.0
 40
0.0
 40
0.0
 40
0.0
 40
0.2499411403
 40
0.4999392772
 40
0.6249782585
 40
0.7500549708
 40
1.0
 40
1.0
 40
1.0
 40
1.0
 10
7.2754193595
 20
6.0032992297
 30
0.0
 10
7.265751954
 20
6.0081329324
 30
0.0
 10
7.2460696153
 20
6.017137211
 30
0.0
 10
7.220507597
 20
6.026078815
 30
0.0
 10
7.199530916
 20
6.0314022377
 30
0.0
 10
7.1782560918
 20
6.0353334533
 30
0.0
 10
7.1620092656
 20
6.0365835434
 30
0.0
 10
7.1512006095
 20
6.0365835434
 30
0.0
  0
SPLINE
  5
3E6
100
AcDbEntity
  8
0
100
AcDbSpline
 62
7
  6
CONTINUOUS
 70
0
 71
3
 72
12
 73
8
 74
0
 42
0.0000001
 43
0.0000001
 44
0.0000000001
 40
0.0
 40
0.0
 40
0.0
 40
0.0
 40
0.2499357852
 40
0.37503154
 40
0.500057531
 40
0.7500445889
 40
1.0
 40
1.0
 40
1.0
 40
1.0
 10
7.1512006095
 20
6.0365835434
 30
0.0
 10
7.1421707359
 20
6.0365835434
 30
0.0
 10
7.128603844
 20
6.0357109835
 30
0.0
 10
7.1107436085
 20
6.0329458945
 30
0.0
 10
7.0930677161
 20
6.0291551874
 30
0.0
 10
7.0713977706
 20
6.0226782143
 30
0.0
 10
7.0545902074
 20
6.0160085602
 30
0.0
 10
7.0463190799
 20
6.0123836639
 30
0.0
  0
SPLINE
  5
3E7
100
AcDbEntity
  8
0
100
AcDbSpline
 62
7
  6
CONTINUOUS
 70
0
 71
3
 72
14
 73
10
 74
0
 42
0.0000001
 43
0.0000001
 44
0.0000000001
 40
0.0
 40
0.0
 40
0.0
 40
0.0
 40
0.1124312509
 40
0.2267852709
 40
0.3444181462
 40
0.466320055
 40
0.5929487257
 40
0.7242844652
 40
1.0
 40
1.0
 40
1.0
 40
1.0
 10
7.3375287345
 20
6.0365835434
 30
0.0
 10
7.3348201666
 20
6.0365835434
 30
0.0
 10
7.329348875
 20
6.0361595577
 30
0.0
 10
7.3212307383
 20
6.0343252438
 30
0.0
 10
7.3132178804
 20
6.0313472665
 30
0.0
 10
7.305346077
 20
6.0273306989
 30
0.0
 10
7.2976185477
 20
6.0224068127
 30
0.0
 10
7.2873469041
 20
6.0146581806
 30
0.0
 10
7.2801161255
 20
6.0079959957
 30
0.0
 10
7.2754193595
 20
6.0032992297
 30
0.0
  0
SPLINE
  5
3E8
100
AcDbEntity
  8
0
100
AcDbSpline
 62
7
  6
CONTINUOUS
 70
0
 71
3
 72
14
 73
10
 74
0
 42
0.0000001
 43
0.0000001
 44
0.0000000001
 40
0.0
 40
0.0
 40
0.0
 40
0.0
 40
0.11246323
 40
0.2268183231
 40
0.344435645
 40
0.4662904571
 40
0.5928660436
 40
0.7242235997
 40
1.0
 40
1.0
 40
1.0
 40
1.0
 10
7.3375287345
 20
6.0365835434
 30
0.0
 10
7.3402379191
 20
6.0365835434
 30
0.0
 10
7.3457098635
 20
6.0361560131
 30
0.0
 10
7.3538250214
 20
6.0343091579
 30
0.0
 10
7.3618348007
 20
6.0313309639
 30
0.0
 10
7.3697108336
 20
6.0273301004
 30
0.0
 10
7.3774385941
 20
6.022410292
 30
0.0
 10
7.3877093591
 20
6.0146605504
 30
0.0
 10
7.3949405732
 20
6.007996766
 30
0.0
 10
7.3996381095
 20
6.0032992297
 30
0.0
  0
LINE
  5
3E9
100
AcDbEntity
  8
0
100
AcDbLine
 62
7
  6
CONTINUOUS
 10
5.1218882639
 20
5.8131460434
 11
5.1250121227
 21
5.8225257021
  0
SPLINE
  5
3EA
100
AcDbEntity
  8
0
100
AcDbSpline
 62
7
  6
CONTINUOUS
 70
0
 71
3
 72
26
 73
22
 74
0
 42
0.0000001
 43
0.0000001
 44
0.0000000001
 40
0.0
 40
0.0
 40
0.0
 40
0.0
 40
0.0156258065
 40
0.031250302
 40
0.0468762719
 40
0.0625009713
 40
0.0937512834
 40
0.1250014592
 40
0.1562516474
 40
0.18750184
 40
0.2500019195
 40
0.312501986
 40
0.37500208
 40
0.4375022108
 40
0.5000023949
 40
0.6249993565
 40
0.7499966646
 40
0.8124972852
 40
0.8749982594
 40
0.9374990114
 40
1.0
 40
1.0
 40
1.0
 40
1.0
 10
7.6374855573
 20
4.7600210434
 30
0.0
 10
7.6384922654
 20
4.7597931465
 30
0.0
 10
7.6404961182
 20
4.7592912478
 30
0.0
 10
7.6434484006
 20
4.7583546764
 30
0.0
 10
7.6463921196
 20
4.7573950048
 30
0.0
 10
7.6503200159
 20
4.7561232607
 30
0.0
 10
7.6552241661
 20
4.7545165786
 30
0.0
 10
7.6611182287
 20
4.7526162192
 30
0.0
 10
7.6670208105
 20
4.7507425377
 30
0.0
 10
7.674904932
 20
4.7482889349
 30
0.0
 10
7.684787481
 20
4.7453105129
 30
0.0
 10
7.696695259
 20
4.7419021359
 30
0.0
 10
7.7086503784
 20
4.738663687
 30
0.0
 10
7.7206514216
 20
4.7355995835
 30
0.0
 10
7.736711489
 20
4.7317525948
 30
0.0
 10
7.7568935745
 20
4.7274024611
 30
0.0
 10
7.7771993216
 20
4.7236711645
 30
0.0
 10
7.793506981
 20
4.7210655688
 30
0.0
 10
7.8057661277
 20
4.7192958923
 30
0.0
 10
7.8180525554
 20
4.7177264391
 30
0.0
 10
7.8262587965
 20
4.7168083362
 30
0.0
 10
7.8303643197
 20
4.7163726395
 30
0.0
  0
LINE
  5
3EB
100
AcDbEntity
  8
0
100
AcDbLine
 62
7
  6
CONTINUOUS
 10
7.1357224296
 20
5.8225257021
 11
7.1388462884
 21
5.8131460434
  0
SPLINE
  5
3EC
100
AcDbEntity
  8
0
100
AcDbSpline
 62
7
  6
CONTINUOUS
 70
0
 71
3
 72
32
 73
28
 74
0
 42
0.0000001
 43
0.0000001
 44
0.0000000001
 40
0.0
 40
0.0
 40
0.0
 40
0.0
 40
0.0110902112
 40
0.0169829856
 40
0.0218260196
 40
0.0262579905
 40
0.0352959576
 40
0.0456580716
 40
0.0579795566
 40
0.0724705547
 40
0.1081779604
 40
0.1527832999
 40
0.2058208969
 40
0.2666039334
 40
0.3342962398
 40
0.4079499394
 40
0.4865453858
 40
0.5689708926
 40
0.6115184098
 40
0.6542808729
 40
0.7404635258
 40
0.7838416185
 40
0.8270608051
 40
0.8703624164
 40
0.9136333108
 40
0.956831598
 40
1.0
 40
1.0
 40
1.0
 40
1.0
 10
4.3890037519
 20
4.7602644915
 30
0.0
 10
4.389261308
 20
4.7602789226
 30
0.0
 10
4.3896560866
 20
4.7603067935
 30
0.0
 10
4.3901642344
 20
4.7602703572
 30
0.0
 10
4.3905087011
 20
4.7601849371
 30
0.0
 10
4.3908963859
 20
4.7600025427
 30
0.0
 10
4.3913247701
 20
4.7596361433
 30
0.0
 10
4.3917529412
 20
4.7590308478
 30
0.0
 10
4.3921575124
 20
4.7582651047
 30
0.0
 10
4.3927225469
 20
4.7569237725
 30
0.0
 10
4.393399024
 20
4.7548221472
 30
0.0
 10
4.3942212465
 20
4.751831579
 30
0.0
 10
4.3951288185
 20
4.7482598325
 30
0.0
 10
4.3961571278
 20
4.7441649498
 30
0.0
 10
4.3973520729
 20
4.7396179141
 30
0.0
 10
4.3987692281
 20
4.7346998783
 30
0.0
 10
4.40061164
 20
4.7295593093
 30
0.0
 10
4.4026728093
 20
4.7252684947
 30
0.0
 10
4.4049448882
 20
4.7220825913
 30
0.0
 10
4.4077550454
 20
4.7192190359
 30
0.0
 10
4.411417216
 20
4.7173333811
 30
0.0
 10
4.4153184135
 20
4.7163498733
 30
0.0
 10
4.4183247773
 20
4.7159817547
 30
0.0
 10
4.421342877
 20
4.7158686706
 30
0.0
 10
4.4243622188
 20
4.7158871334
 30
0.0
 10
4.4273747119
 20
4.7160419217
 30
0.0
 10
4.4293744157
 20
4.7162448167
 30
0.0
 10
4.430370328
 20
4.7163728148
 30
0.0
  0
SPLINE
  5
3ED
100
AcDbEntity
  8
0
100
AcDbSpline
 62
7
  6
CONTINUOUS
 70
0
 71
3
 72
26
 73
22
 74
0
 42
0.0000001
 43
0.0000001
 44
0.0000000001
 40
0.0
 40
0.0
 40
0.0
 40
0.0
 40
0.062500988
 40
0.1250017399
 40
0.1875027132
 40
0.2500033334
 40
0.3750006419
 40
0.4999976048
 40
0.5624977897
 40
0.6249979214
 40
0.6874980162
 40
0.7499980838
 40
0.8124981642
 40
0.8437483573
 40
0.874998546
 40
0.9062487223
 40
0.9374990351
 40
0.9531237351
 40
0.9687496989
 40
0.9843742006
 40
1.0
 40
1.0
 40
1.0
 40
1.0
 10
4.4303702326
 20
4.7163726395
 30
0.0
 10
4.434475757
 20
4.7168083258
 30
0.0
 10
4.4426819991
 20
4.7177264223
 30
0.0
 10
4.4549684237
 20
4.7192959004
 30
0.0
 10
4.4672275721
 20
4.7210655664
 30
0.0
 10
4.4835352316
 20
4.723671164
 30
0.0
 10
4.5038409788
 20
4.7274024627
 30
0.0
 10
4.5240230649
 20
4.7317525967
 30
0.0
 10
4.5400831338
 20
4.7355995813
 30
0.0
 10
4.5520841772
 20
4.7386636857
 30
0.0
 10
4.5640392963
 20
4.7419021379
 30
0.0
 10
4.5759470745
 20
4.7453105155
 30
0.0
 10
4.585829626
 20
4.7482889307
 30
0.0
 10
4.5937137468
 20
4.7507425368
 30
0.0
 10
4.599616328
 20
4.7526162206
 30
0.0
 10
4.6055103914
 20
4.7545165788
 30
0.0
 10
4.6104145455
 20
4.7561232492
 30
0.0
 10
4.614342422
 20
4.7573950543
 30
0.0
 10
4.6172861925
 20
4.7583545657
 30
0.0
 10
4.6202383931
 20
4.7592913931
 30
0.0
 10
4.6222422623
 20
4.7597932574
 30
0.0
 10
4.6232489951
 20
4.7600210434
 30
0.0
  0
SPLINE
  5
3EE
100
AcDbEntity
  8
0
100
AcDbSpline
 62
7
  6
CONTINUOUS
 70
0
 71
3
 72
9
 73
5
 74
0
 42
0.0000001
 43
0.0000001
 44
0.0000000001
 40
0.0
 40
0.0
 40
0.0
 40
0.0
 40
0.490635691
 40
1.0
 40
1.0
 40
1.0
 40
1.0
 10
4.9232058178
 20
6.0365835434
 30
0.0
 10
4.9189179771
 20
6.0365835434
 30
0.0
 10
4.9101527608
 20
6.0355034079
 30
0.0
 10
4.9018641552
 20
6.0325386744
 30
0.0
 10
4.8978193635
 20
6.0306797332
 30
0.0
  0
SPLINE
  5
3EF
100
AcDbEntity
  8
0
100
AcDbSpline
 62
7
  6
CONTINUOUS
 70
0
 71
3
 72
11
 73
7
 74
0
 42
0.0000001
 43
0.0000001
 44
0.0000000001
 40
0.0
 40
0.0
 40
0.0
 40
0.0
 40
0.2340637934
 40
0.4790640032
 40
0.7346862486
 40
1.0
 40
1.0
 40
1.0
 40
1.0
 10
4.8978193635
 20
6.0306797332
 30
0.0
 10
4.8945564539
 20
6.0291801364
 30
0.0
 10
4.8880871839
 20
6.0256457037
 30
0.0
 10
4.8788218055
 20
6.0192000227
 30
0.0
 10
4.869772068
 20
6.0116864354
 30
0.0
 10
4.8639746856
 20
6.0061774724
 30
0.0
 10
4.8610964428
 20
6.0032992297
 30
0.0
  0
SPLINE
  5
3F0
100
AcDbEntity
  8
0
100
AcDbSpline
 62
7
  6
CONTINUOUS
 70
0
 71
3
 72
14
 73
10
 74
0
 42
0.0000001
 43
0.0000001
 44
0.0000000001
 40
0.0
 40
0.0
 40
0.0
 40
0.0
 40
0.11246323
 40
0.2268183231
 40
0.344435645
 40
0.4662904571
 40
0.5928660436
 40
0.7242235997
 40
1.0
 40
1.0
 40
1.0
 40
1.0
 10
4.9232058178
 20
6.0365835434
 30
0.0
 10
4.9259150024
 20
6.0365835434
 30
0.0
 10
4.9313869468
 20
6.0361560131
 30
0.0
 10
4.9395021047
 20
6.0343091579
 30
0.0
 10
4.947511884
 20
6.0313309639
 30
0.0
 10
4.9553879169
 20
6.0273301004
 30
0.0
 10
4.9631156774
 20
6.022410292
 30
0.0
 10
4.9733864424
 20
6.0146605504
 30
0.0
 10
4.9806176565
 20
6.007996766
 30
0.0
 10
4.9853151928
 20
6.0032992297
 30
0.0
  0
SPLINE
  5
3F1
100
AcDbEntity
  8
0
100
AcDbSpline
 62
7
  6
CONTINUOUS
 70
0
 71
3
 72
12
 73
8
 74
0
 42
0.0000001
 43
0.0000001
 44
0.0000000001
 40
0.0
 40
0.0
 40
0.0
 40
0.0
 40
0.2499543425
 40
0.4999440223
 40
0.6249704974
 40
0.7500659499
 40
1.0
 40
1.0
 40
1.0
 40
1.0
 10
5.2144159377
 20
6.0123827487
 30
0.0
 10
5.2061446539
 20
6.0160072065
 30
0.0
 10
5.1893365581
 20
6.0226757083
 30
0.0
 10
5.1676663916
 20
6.029152059
 30
0.0
 10
5.1499905203
 20
6.032943339
 30
0.0
 10
5.1321305738
 20
6.0357098632
 30
0.0
 10
5.1185637596
 20
6.0365835434
 30
0.0
 10
5.1095339428
 20
6.0365835434
 30
0.0
  0
SPLINE
  5
3F2
100
AcDbEntity
  8
0
100
AcDbSpline
 62
7
  6
CONTINUOUS
 70
0
 71
3
 72
12
 73
8
 74
0
 42
0.0000001
 43
0.0000001
 44
0.0000000001
 40
0.0
 40
0.0
 40
0.0
 40
0.0
 40
0.2499461566
 40
0.3750225533
 40
0.5000602903
 40
0.750056244
 40
1.0
 40
1.0
 40
1.0
 40
1.0
 10
5.1095339428
 20
6.0365835434
 30
0.0
 10
5.0987251753
 20
6.0365835434
 30
0.0
 10
5.0824781653
 20
6.0353350956
 30
0.0
 10
5.0612029548
 20
6.0314051359
 30
0.0
 10
5.0402262923
 20
6.026081706
 30
0.0
 10
5.0146646461
 20
6.0171385009
 30
0.0
 10
4.9949827556
 20
6.008133011
 30
0.0
 10
4.9853151928
 20
6.0032992297
 30
0.0
  0
SPLINE
  5
3F3
100
AcDbEntity
  8
0
100
AcDbSpline
 62
7
  6
CONTINUOUS
 70
0
 71
3
 72
31
 73
27
 74
0
 42
0.0000001
 43
0.0000001
 44
0.0000000001
 40
0.0
 40
0.0
 40
0.0
 40
0.0
 40
0.0114651811
 40
0.0175029327
 40
0.0223899997
 40
0.0268376422
 40
0.045978905
 40
0.058216175
 40
0.072626161
 40
0.1081912171
 40
0.1526803348
 40
0.2056275333
 40
0.2663472281
 40
0.3340047957
 40
0.4076500073
 40
0.4862564672
 40
0.5687048643
 40
0.611274064
 40
0.6540656961
 40
0.740290163
 40
0.7836985751
 40
0.8269426705
 40
0.8702725291
 40
0.9135768121
 40
0.9568052959
 40
1.0
 40
1.0
 40
1.0
 40
1.0
 10
7.8717931034
 20
4.7602662987
 30
0.0
 10
7.8715266219
 20
4.760281556
 30
0.0
 10
7.871119712
 20
4.7603115818
 30
0.0
 10
7.8705975248
 20
4.7602817146
 30
0.0
 10
7.8702470208
 20
4.7602004152
 30
0.0
 10
7.8696379009
 20
4.7599263353
 30
0.0
 10
7.8690851633
 20
4.7592418805
 30
0.0
 10
7.8685903261
 20
4.7583053631
 30
0.0
 10
7.8680225625
 20
4.7569683547
 30
0.0
 10
7.8673466146
 20
4.7548746413
 30
0.0
 10
7.8665229844
 20
4.7518892705
 30
0.0
 10
7.865616275
 20
4.7483206734
 30
0.0
 10
7.8645901077
 20
4.7442258393
 30
0.0
 10
7.8633958295
 20
4.7396769287
 30
0.0
 10
7.861979736
 20
4.7347546099
 30
0.0
 10
7.860137208
 20
4.7296084797
 30
0.0
 10
7.8580827735
 20
4.7253086504
 30
0.0
 10
7.8558154015
 20
4.7221131491
 30
0.0
 10
7.8530103188
 20
4.7192366656
 30
0.0
 10
7.8493456005
 20
4.7173403708
 30
0.0
 10
7.8454392533
 20
4.7163531332
 30
0.0
 10
7.8424283287
 20
4.7159839745
 30
0.0
 10
7.8394056255
 20
4.7158698573
 30
0.0
 10
7.8363814766
 20
4.7158841713
 30
0.0
 10
7.8333640131
 20
4.7160359445
 30
0.0
 10
7.8313613217
 20
4.7162413841
 30
0.0
 10
7.8303643197
 20
4.7163726395
 30
0.0
  0
SPLINE
  5
3F4
100
AcDbEntity
  8
0
100
AcDbSpline
 62
7
  6
CONTINUOUS
 70
0
 71
3
 72
23
 73
19
 74
0
 42
0.0000001
 43
0.0000001
 44
0.0000000001
 40
0.0
 40
0.0
 40
0.0
 40
0.0
 40
0.0625994314
 40
0.1252529044
 40
0.1878088156
 40
0.2503294515
 40
0.3127994874
 40
0.3752217446
 40
0.4376131238
 40
0.4999865179
 40
0.562360512
 40
0.6247547974
 40
0.6871819083
 40
0.7496571899
 40
0.8121826156
 40
0.8747430441
 40
0.9373999509
 40
1.0
 40
1.0
 40
1.0
 40
1.0
 10
5.8301750097
 20
12.6000477814
 30
0.0
 10
5.8301750097
 20
12.5954941746
 30
0.0
 10
5.8292875693
 20
12.5863591968
 30
0.0
 10
5.8253640719
 20
12.573188017
 30
0.0
 10
5.8189687013
 20
12.5610230979
 30
0.0
 10
5.8103456349
 20
12.5503393833
 30
0.0
 10
5.7998107074
 20
12.5415480157
 30
0.0
 10
5.7877629706
 20
12.5349987761
 30
0.0
 10
5.7746651349
 20
12.5309587722
 30
0.0
 10
5.7610298023
 20
12.5295945105
 30
0.0
 10
5.7473942385
 20
12.5309579622
 30
0.0
 10
5.7342952971
 20
12.5349964933
 30
0.0
 10
5.7222463782
 20
12.5415456942
 30
0.0
 10
5.711710324
 20
12.5503373592
 30
0.0
 10
5.7030859
 20
12.5610213744
 30
0.0
 10
5.6966900263
 20
12.5731871201
 30
0.0
 10
5.6927662236
 20
12.5863588535
 30
0.0
 10
5.6918787184
 20
12.5954941297
 30
0.0
 10
5.6918787184
 20
12.6000477814
 30
0.0
  0
SPLINE
  5
3F5
100
AcDbEntity
  8
0
100
AcDbSpline
 62
7
  6
CONTINUOUS
 70
0
 71
3
 72
23
 73
19
 74
0
 42
0.0000001
 43
0.0000001
 44
0.0000000001
 40
0.0
 40
0.0
 40
0.0
 40
0.0
 40
0.0625994314
 40
0.1252529044
 40
0.1878088156
 40
0.2503294515
 40
0.3127994874
 40
0.3752217446
 40
0.4376131238
 40
0.4999865179
 40
0.562360512
 40
0.6247547974
 40
0.6871819083
 40
0.7496571899
 40
0.8121826156
 40
0.8747430441
 40
0.9373999509
 40
1.0
 40
1.0
 40
1.0
 40
1.0
 10
5.6918787184
 20
12.6000477814
 30
0.0
 10
5.6918787184
 20
12.6046013882
 30
0.0
 10
5.6927661588
 20
12.6137363659
 30
0.0
 10
5.6966896561
 20
12.6269075457
 30
0.0
 10
5.7030850267
 20
12.6390724648
 30
0.0
 10
5.7117080932
 20
12.6497561794
 30
0.0
 10
5.7222430207
 20
12.658547547
 30
0.0
 10
5.7342907574
 20
12.6650967866
 30
0.0
 10
5.7473885931
 20
12.6691367906
 30
0.0
 10
5.7610239258
 20
12.6705010522
 30
0.0
 10
5.7746594895
 20
12.6691376006
 30
0.0
 10
5.7877584309
 20
12.6650990694
 30
0.0
 10
5.7998073498
 20
12.6585498686
 30
0.0
 10
5.8103434041
 20
12.6497582036
 30
0.0
 10
5.818967828
 20
12.6390741884
 30
0.0
 10
5.8253637018
 20
12.6269084426
 30
0.0
 10
5.8292875044
 20
12.6137367092
 30
0.0
 10
5.8301750097
 20
12.6046014331
 30
0.0
 10
5.8301750097
 20
12.6000477814
 30
0.0
  0
SPLINE
  5
3F6
100
AcDbEntity
  8
0
100
AcDbSpline
 62
7
  6
CONTINUOUS
 70
0
 71
3
 72
9
 73
5
 74
0
 42
0.0000001
 43
0.0000001
 44
0.0000000001
 40
0.0
 40
0.0
 40
0.0
 40
0.0
 40
0.2533478285
 40
1.0
 40
1.0
 40
1.0
 40
1.0
 10
5.8325213326
 20
11.8911793054
 30
0.0
 10
5.8325227696
 20
11.8944726907
 30
0.0
 10
5.8326756971
 20
11.9074721447
 30
0.0
 10
5.8333709969
 20
11.9204614718
 30
0.0
 10
5.83409872
 20
11.9301402294
 30
0.0
  0
SPLINE
  5
3F7
100
AcDbEntity
  8
0
100
AcDbSpline
 62
7
  6
CONTINUOUS
 70
0
 71
3
 72
9
 73
5
 74
0
 42
0.0000001
 43
0.0000001
 44
0.0000000001
 40
0.0
 40
0.0
 40
0.0
 40
0.0
 40
0.4950055164
 40
1.0
 40
1.0
 40
1.0
 40
1.0
 10
5.8340647112
 20
11.8521980538
 30
0.0
 10
5.8335880396
 20
11.8586185425
 30
0.0
 10
5.8328034273
 20
11.8716035281
 30
0.0
 10
5.8325184668
 20
11.8846112282
 30
0.0
 10
5.8325213326
 20
11.8911793054
 30
0.0
  0
SPLINE
  5
3F8
100
AcDbEntity
  8
0
100
AcDbSpline
 62
7
  6
CONTINUOUS
 70
0
 71
3
 72
9
 73
5
 74
0
 42
0.0000001
 43
0.0000001
 44
0.0000000001
 40
0.0
 40
0.0
 40
0.0
 40
0.0
 40
0.2472467295
 40
1.0
 40
1.0
 40
1.0
 40
1.0
 10
5.8651468325
 20
11.9496359371
 30
0.0
 10
5.8679293621
 20
11.9512986665
 30
0.0
 10
5.879224466
 20
11.9579550125
 30
0.0
 10
5.8906613669
 20
11.9643683705
 30
0.0
 10
5.899315711
 20
11.9691113172
 30
0.0
  0
SPLINE
  5
3F9
100
AcDbEntity
  8
0
100
AcDbSpline
 62
7
  6
CONTINUOUS
 70
0
 71
3
 72
9
 73
5
 74
0
 42
0.0000001
 43
0.0000001
 44
0.0000000001
 40
0.0
 40
0.0
 40
0.0
 40
0.0
 40
0.2513930104
 40
1.0
 40
1.0
 40
1.0
 40
1.0
 10
5.8992476935
 20
11.8132269661
 30
0.0
 10
5.896359436
 20
11.8148136973
 30
0.0
 10
5.8848897946
 20
11.8211603533
 30
0.0
 10
5.8735184634
 20
11.8276870097
 30
0.0
 10
5.8650958194
 20
11.8327226738
 30
0.0
  0
SPLINE
  5
3FA
100
AcDbEntity
  8
0
100
AcDbSpline
 62
7
  6
CONTINUOUS
 70
0
 71
3
 72
9
 73
5
 74
0
 42
0.0000001
 43
0.0000001
 44
0.0000000001
 40
0.0
 40
0.0
 40
0.0
 40
0.0
 40
0.2532589183
 40
1.0
 40
1.0
 40
1.0
 40
1.0
 10
5.9629213059
 20
11.8911793055
 30
0.0
 10
5.9629198687
 20
11.8878854767
 30
0.0
 10
5.9630615438
 20
11.8748795787
 30
0.0
 10
5.9637456264
 20
11.8618833465
 30
0.0
 10
5.9644646845
 20
11.8521980539
 30
0.0
  0
SPLINE
  5
3FB
100
AcDbEntity
  8
0
100
AcDbSpline
 62
7
  6
CONTINUOUS
 70
0
 71
3
 72
9
 73
5
 74
0
 42
0.0000001
 43
0.0000001
 44
0.0000000001
 40
0.0
 40
0.0
 40
0.0
 40
0.0
 40
0.4948914406
 40
1.0
 40
1.0
 40
1.0
 40
1.0
 10
5.9644986932
 20
11.9301402295
 30
0.0
 10
5.9640163312
 20
11.923724787
 30
0.0
 10
5.9632202772
 20
11.9107468157
 30
0.0
 10
5.962924171
 20
11.8977456774
 30
0.0
 10
5.9629213059
 20
11.8911793055
 30
0.0
  0
SPLINE
  5
3FC
100
AcDbEntity
  8
0
100
AcDbSpline
 62
7
  6
CONTINUOUS
 70
0
 71
3
 72
9
 73
5
 74
0
 42
0.0000001
 43
0.0000001
 44
0.0000000001
 40
0.0
 40
0.0
 40
0.0
 40
0.0
 40
0.2513520702
 40
1.0
 40
1.0
 40
1.0
 40
1.0
 10
5.9644646845
 20
11.8521980539
 30
0.0
 10
5.9615749272
 20
11.8506143446
 30
0.0
 10
5.9500978478
 20
11.8442778834
 30
0.0
 10
5.9387210843
 20
11.837757286
 30
0.0
 10
5.930295806
 20
11.8327226738
 30
0.0
  0
SPLINE
  5
3FD
100
AcDbEntity
  8
0
100
AcDbSpline
 62
7
  6
CONTINUOUS
 70
0
 71
3
 72
11
 73
7
 74
0
 42
0.0000001
 43
0.0000001
 44
0.0000000001
 40
0.0
 40
0.0
 40
0.0
 40
0.0
 40
0.2471138366
 40
0.4964533085
 40
0.7476901959
 40
1.0
 40
1.0
 40
1.0
 40
1.0
 10
5.8651468325
 20
11.9496359371
 30
0.0
 10
5.8602111795
 20
11.9466865866
 30
0.0
 10
5.8510472187
 20
11.939396063
 30
0.0
 10
5.8405927345
 20
11.9252558064
 30
0.0
 10
5.8340191168
 20
11.908819331
 30
0.0
 10
5.8325238942
 20
11.8970499272
 30
0.0
 10
5.8325213326
 20
11.8911793054
 30
0.0
  0
SPLINE
  5
3FE
100
AcDbEntity
  8
0
100
AcDbSpline
 62
7
  6
CONTINUOUS
 70
0
 71
3
 72
11
 73
7
 74
0
 42
0.0000001
 43
0.0000001
 44
0.0000000001
 40
0.0
 40
0.0
 40
0.0
 40
0.0
 40
0.2505375542
 40
0.4999458356
 40
0.7493832412
 40
1.0
 40
1.0
 40
1.0
 40
1.0
 10
5.9303468191
 20
11.9496359371
 30
0.0
 10
5.9254524913
 20
11.9525621193
 30
0.0
 10
5.9148517312
 20
11.957123756
 30
0.0
 10
5.8977500856
 20
11.9594548341
 30
0.0
 10
5.8806467607
 20
11.9571232451
 30
0.0
 10
5.8700433799
 20
11.9525619197
 30
0.0
 10
5.8651468325
 20
11.9496359371
 30
0.0
  0
SPLINE
  5
3FF
100
AcDbEntity
  8
0
100
AcDbSpline
 62
7
  6
CONTINUOUS
 70
0
 71
3
 72
11
 73
7
 74
0
 42
0.0000001
 43
0.0000001
 44
0.0000000001
 40
0.0
 40
0.0
 40
0.0
 40
0.0
 40
0.2523610459
 40
0.5036007741
 40
0.7529140216
 40
1.0
 40
1.0
 40
1.0
 40
1.0
 10
5.9629213059
 20
11.8911793055
 30
0.0
 10
5.9629238671
 20
11.8970492861
 30
0.0
 10
5.9614393733
 20
11.908817657
 30
0.0
 10
5.9548801922
 20
11.925254915
 30
0.0
 10
5.9444375996
 20
11.9393960473
 30
0.0
 10
5.9352796974
 20
11.9466867067
 30
0.0
 10
5.9303468191
 20
11.9496359371
 30
0.0
  0
SPLINE
  5
400
100
AcDbEntity
  8
0
100
AcDbSpline
 62
7
  6
CONTINUOUS
 70
0
 71
3
 72
11
 73
7
 74
0
 42
0.0000001
 43
0.0000001
 44
0.0000000001
 40
0.0
 40
0.0
 40
0.0
 40
0.0
 40
0.2471138366
 40
0.4964533085
 40
0.7476901959
 40
1.0
 40
1.0
 40
1.0
 40
1.0
 10
5.930295806
 20
11.8327226738
 30
0.0
 10
5.9352314589
 20
11.8356720243
 30
0.0
 10
5.9443954198
 20
11.8429625479
 30
0.0
 10
5.954849904
 20
11.8571028045
 30
0.0
 10
5.9614235217
 20
11.8735392799
 30
0.0
 10
5.9629187443
 20
11.8853086837
 30
0.0
 10
5.9629213059
 20
11.8911793055
 30
0.0
  0
SPLINE
  5
401
100
AcDbEntity
  8
0
100
AcDbSpline
 62
7
  6
CONTINUOUS
 70
0
 71
3
 72
11
 73
7
 74
0
 42
0.0000001
 43
0.0000001
 44
0.0000000001
 40
0.0
 40
0.0
 40
0.0
 40
0.0
 40
0.2505375542
 40
0.4999458356
 40
0.7493832412
 40
1.0
 40
1.0
 40
1.0
 40
1.0
 10
5.8650958194
 20
11.8327226738
 30
0.0
 10
5.8699901472
 20
11.8297964916
 30
0.0
 10
5.8805909073
 20
11.8252348549
 30
0.0
 10
5.8976925529
 20
11.8229037768
 30
0.0
 10
5.9147958778
 20
11.8252353658
 30
0.0
 10
5.9253992586
 20
11.8297966912
 30
0.0
 10
5.930295806
 20
11.8327226738
 30
0.0
  0
SPLINE
  5
402
100
AcDbEntity
  8
0
100
AcDbSpline
 62
7
  6
CONTINUOUS
 70
0
 71
3
 72
11
 73
7
 74
0
 42
0.0000001
 43
0.0000001
 44
0.0000000001
 40
0.0
 40
0.0
 40
0.0
 40
0.0
 40
0.2523610459
 40
0.5036007741
 40
0.7529140216
 40
1.0
 40
1.0
 40
1.0
 40
1.0
 10
5.8325213326
 20
11.8911793054
 30
0.0
 10
5.8325187714
 20
11.8853093248
 30
0.0
 10
5.8340032652
 20
11.8735409539
 30
0.0
 10
5.8405624463
 20
11.8571036959
 30
0.0
 10
5.8510050389
 20
11.8429625636
 30
0.0
 10
5.8601629411
 20
11.8356719042
 30
0.0
 10
5.8650958194
 20
11.8327226738
 30
0.0
  0
SPLINE
  5
403
100
AcDbEntity
  8
0
100
AcDbSpline
 62
7
  6
CONTINUOUS
 70
0
 71
3
 72
36
 73
32
 74
0
 42
0.0000001
 43
0.0000001
 44
0.0000000001
 40
0.0
 40
0.0
 40
0.0
 40
0.0
 40
0.0095797034
 40
0.0191383878
 40
0.0287268746
 40
0.0382858534
 40
0.0478364709
 40
0.0573857973
 40
0.0764446164
 40
0.1143649044
 40
0.1519087467
 40
0.1889439181
 40
0.2253399172
 40
0.2609691332
 40
0.2957090902
 40
0.362060317
 40
0.4235416682
 40
0.4794552883
 40
0.529362905
 40
0.5733538077
 40
0.5935901645
 40
0.6131290358
 40
0.6326476758
 40
0.6534201901
 40
0.6769183429
 40
0.7043323949
 40
0.7363249681
 40
0.7718012584
 40
0.8470338347
 40
0.9237147334
 40
1.0
 40
1.0
 40
1.0
 40
1.0
 10
7.8122356082
 20
13.1438843934
 30
0.0
 10
7.8120597359
 20
13.1440641043
 30
0.0
 10
7.8117471472
 20
13.1444654194
 30
0.0
 10
7.811445363
 20
13.1451620748
 30
0.0
 10
7.8112431628
 20
13.1458881723
 30
0.0
 10
7.8110486354
 20
13.1466159033
 30
0.0
 10
7.8108780783
 20
13.1473486945
 30
0.0
 10
7.8106721366
 20
13.1483289265
 30
0.0
 10
7.8103498194
 20
13.1500453393
 30
0.0
 10
7.8099503256
 20
13.1524942818
 30
0.0
 10
7.809525094
 20
13.1554164376
 30
0.0
 10
7.8091177896
 20
13.1583007143
 30
0.0
 10
7.8087202183
 20
13.1611356088
 30
0.0
 10
7.8083257547
 20
13.163910113
 30
0.0
 10
7.8078021236
 20
13.1674603634
 30
0.0
 10
7.8071254037
 20
13.1716740503
 30
0.0
 10
7.8062211984
 20
13.1764122952
 30
0.0
 10
7.8052040055
 20
13.1806874071
 30
0.0
 10
7.8040233543
 20
13.1844407058
 30
0.0
 10
7.8028165388
 20
13.1871992521
 30
0.0
 10
7.8016151505
 20
13.1890471823
 30
0.0
 10
7.8005996981
 20
13.190233362
 30
0.0
 10
7.7993987176
 20
13.1912577411
 30
0.0
 10
7.7979326642
 20
13.192087524
 30
0.0
 10
7.7961492821
 20
13.1927112302
 30
0.0
 10
7.7940133632
 20
13.1931505679
 30
0.0
 10
7.7915350858
 20
13.1934182953
 30
0.0
 10
7.7877947718
 20
13.1936293239
 30
0.0
 10
7.7828760465
 20
13.1937234586
 30
0.0
 10
7.7768865245
 20
13.1937568907
 30
0.0
 10
7.772871381
 20
13.1937647446
 30
0.0
 10
7.770869032
 20
13.1937620233
 30
0.0
  0
SPLINE
  5
404
100
AcDbEntity
  8
0
100
AcDbSpline
 62
7
  6
CONTINUOUS
 70
0
 71
3
 72
36
 73
32
 74
0
 42
0.0000001
 43
0.0000001
 44
0.0000000001
 40
0.0
 40
0.0
 40
0.0
 40
0.0
 40
0.0095797034
 40
0.0191383878
 40
0.0287268746
 40
0.0382858534
 40
0.0478364709
 40
0.0573857973
 40
0.0764446164
 40
0.1143649044
 40
0.1519087467
 40
0.1889439181
 40
0.2253399172
 40
0.2609691332
 40
0.2957090902
 40
0.362060317
 40
0.4235416682
 40
0.4794552883
 40
0.529362905
 40
0.5733538077
 40
0.5935901645
 40
0.6131290358
 40
0.6326476758
 40
0.6534201901
 40
0.6769183429
 40
0.7043323949
 40
0.7363249681
 40
0.7718012584
 40
0.8470338347
 40
0.9237147334
 40
1.0
 40
1.0
 40
1.0
 40
1.0
 10
4.3295085596
 20
12.0562111694
 30
0.0
 10
4.3296844319
 20
12.0560314585
 30
0.0
 10
4.3299970205
 20
12.0556301433
 30
0.0
 10
4.3302988048
 20
12.0549334879
 30
0.0
 10
4.3305010049
 20
12.0542073904
 30
0.0
 10
4.3306955323
 20
12.0534796595
 30
0.0
 10
4.3308660894
 20
12.0527468682
 30
0.0
 10
4.3310720312
 20
12.0517666363
 30
0.0
 10
4.3313943483
 20
12.0500502234
 30
0.0
 10
4.3317938421
 20
12.0476012809
 30
0.0
 10
4.3322190737
 20
12.0446791251
 30
0.0
 10
4.3326263781
 20
12.0417948485
 30
0.0
 10
4.3330239494
 20
12.0389599539
 30
0.0
 10
4.3334184131
 20
12.0361854497
 30
0.0
 10
4.3339420441
 20
12.0326351993
 30
0.0
 10
4.334618764
 20
12.0284215124
 30
0.0
 10
4.3355229694
 20
12.0236832675
 30
0.0
 10
4.3365401622
 20
12.0194081556
 30
0.0
 10
4.3377208134
 20
12.015654857
 30
0.0
 10
4.338927629
 20
12.0128963106
 30
0.0
 10
4.3401290172
 20
12.0110483805
 30
0.0
 10
4.3411444696
 20
12.0098622007
 30
0.0
 10
4.3423454502
 20
12.0088378217
 30
0.0
 10
4.3438115035
 20
12.0080080387
 30
0.0
 10
4.3455948856
 20
12.0073843325
 30
0.0
 10
4.3477308045
 20
12.0069449949
 30
0.0
 10
4.3502090819
 20
12.0066772674
 30
0.0
 10
4.353949396
 20
12.0064662389
 30
0.0
 10
4.3588681212
 20
12.0063721041
 30
0.0
 10
4.3648576432
 20
12.006338672
 30
0.0
 10
4.3688727867
 20
12.0063308181
 30
0.0
 10
4.3708751357
 20
12.0063335395
 30
0.0
  0
SPLINE
  5
405
100
AcDbEntity
  8
0
100
AcDbSpline
 62
7
  6
CONTINUOUS
 70
0
 71
3
 72
11
 73
7
 74
0
 42
0.0000001
 43
0.0000001
 44
0.0000000001
 40
0.0
 40
0.0
 40
0.0
 40
0.0
 40
0.2963783292
 40
0.5552195624
 40
0.7852678903
 40
1.0
 40
1.0
 40
1.0
 40
1.0
 10
5.0655169304
 20
13.1419715165
 30
0.0
 10
5.0652792451
 20
13.1422529958
 30
0.0
 10
5.0648028979
 20
13.1427560099
 30
0.0
 10
5.0640197392
 20
13.1433484031
 30
0.0
 10
5.0632157113
 20
13.1437141822
 30
0.0
 10
5.062659991
 20
13.1437977814
 30
0.0
 10
5.0623930716
 20
13.1437977814
 30
0.0
  0
SPLINE
  5
406
100
AcDbEntity
  8
0
100
AcDbSpline
 62
7
  6
CONTINUOUS
 70
0
 71
3
 72
13
 73
9
 74
0
 42
0.0000001
 43
0.0000001
 44
0.0000000001
 40
0.0
 40
0.0
 40
0.0
 40
0.0
 40
0.3084373103
 40
0.5899125934
 40
0.7137978045
 40
0.8240654747
 40
0.9195850057
 40
1.0
 40
1.0
 40
1.0
 40
1.0
 10
5.0709941616
 20
13.1187977814
 30
0.0
 10
5.0709941616
 20
13.1212825481
 30
0.0
 10
5.0707429878
 20
13.1260382235
 30
0.0
 10
5.0698018172
 20
13.1317279993
 30
0.0
 10
5.0686843403
 20
13.1357325356
 30
0.0
 10
5.0677586907
 20
13.1382262495
 30
0.0
 10
5.0667341695
 20
13.1402964734
 30
0.0
 10
5.0659349866
 20
13.1414766403
 30
0.0
 10
5.0655169304
 20
13.1419715165
 30
0.0
  0
SPLINE
  5
407
100
AcDbEntity
  8
0
100
AcDbSpline
 62
7
  6
CONTINUOUS
 70
0
 71
3
 72
13
 73
9
 74
0
 42
0.0000001
 43
0.0000001
 44
0.0000000001
 40
0.0
 40
0.0
 40
0.0
 40
0.0
 40
0.3083853417
 40
0.5899477897
 40
0.7137412706
 40
0.8239532754
 40
0.9195385165
 40
1.0
 40
1.0
 40
1.0
 40
1.0
 10
7.0707500061
 20
13.1187977814
 30
0.0
 10
7.0707500061
 20
13.1212820333
 30
0.0
 10
7.0710074084
 20
13.1260372818
 30
0.0
 10
7.0719416375
 20
13.1317273887
 30
0.0
 10
7.0730602602
 20
13.1357310992
 30
0.0
 10
7.0739873197
 20
13.1382234214
 30
0.0
 10
7.0750106213
 20
13.1402944915
 30
0.0
 10
7.0758089556
 20
13.1414763734
 30
0.0
 10
7.0762272373
 20
13.1419715165
 30
0.0
  0
SPLINE
  5
408
100
AcDbEntity
  8
0
100
AcDbSpline
 62
7
  6
CONTINUOUS
 70
0
 71
3
 72
13
 73
9
 74
0
 42
0.0000001
 43
0.0000001
 44
0.0000000001
 40
0.0
 40
0.0
 40
0.0
 40
0.0
 40
0.3083853417
 40
0.5899477897
 40
0.7137412706
 40
0.8239532754
 40
0.9195385165
 40
1.0
 40
1.0
 40
1.0
 40
1.0
 10
5.0709941616
 20
12.0812977814
 30
0.0
 10
5.0709941616
 20
12.0788135294
 30
0.0
 10
5.0707367593
 20
12.0740582809
 30
0.0
 10
5.0698025302
 20
12.0683681741
 30
0.0
 10
5.0686839076
 20
12.0643644636
 30
0.0
 10
5.0677568481
 20
12.0618721413
 30
0.0
 10
5.0667335464
 20
12.0598010712
 30
0.0
 10
5.0659352121
 20
12.0586191893
 30
0.0
 10
5.0655169304
 20
12.0581240462
 30
0.0
  0
SPLINE
  5
409
100
AcDbEntity
  8
0
100
AcDbSpline
 62
7
  6
CONTINUOUS
 70
0
 71
3
 72
11
 73
7
 74
0
 42
0.0000001
 43
0.0000001
 44
0.0000000001
 40
0.0
 40
0.0
 40
0.0
 40
0.0
 40
0.2147321321
 40
0.4447805473
 40
0.7036214922
 40
1.0
 40
1.0
 40
1.0
 40
1.0
 10
5.0623930716
 20
12.0562977814
 30
0.0
 10
5.0626599911
 20
12.0562977814
 30
0.0
 10
5.0632157114
 20
12.0563813807
 30
0.0
 10
5.0640197394
 20
12.0567471591
 30
0.0
 10
5.0648028975
 20
12.0573395534
 30
0.0
 10
5.0652792431
 20
12.0578425684
 30
0.0
 10
5.0655169304
 20
12.0581240462
 30
0.0
  0
SPLINE
  5
40A
100
AcDbEntity
  8
0
100
AcDbSpline
 62
7
  6
CONTINUOUS
 70
0
 71
3
 72
11
 73
7
 74
0
 42
0.0000001
 43
0.0000001
 44
0.0000000001
 40
0.0
 40
0.0
 40
0.0
 40
0.0
 40
0.2147321097
 40
0.4447804372
 40
0.7036216714
 40
1.0
 40
1.0
 40
1.0
 40
1.0
 10
7.0793510961
 20
13.1437977814
 30
0.0
 10
7.0790841767
 20
13.1437977814
 30
0.0
 10
7.0785284564
 20
13.1437141822
 30
0.0
 10
7.0777244285
 20
13.1433484031
 30
0.0
 10
7.0769412698
 20
13.1427560099
 30
0.0
 10
7.0764649226
 20
13.1422529958
 30
0.0
 10
7.0762272373
 20
13.1419715165
 30
0.0
  0
SPLINE
  5
40B
100
AcDbEntity
  8
0
100
AcDbSpline
 62
7
  6
CONTINUOUS
 70
0
 71
3
 72
36
 73
32
 74
0
 42
0.0000001
 43
0.0000001
 44
0.0000000001
 40
0.0
 40
0.0
 40
0.0
 40
0.0
 40
0.0095850744
 40
0.0191309209
 40
0.0287204438
 40
0.0382813373
 40
0.0573756232
 40
0.0764344807
 40
0.0954347044
 40
0.114358955
 40
0.151911317
 40
0.1889597503
 40
0.2253734198
 40
0.261024198
 40
0.2957891214
 40
0.3621982517
 40
0.4237431657
 40
0.4797197771
 40
0.5296864947
 40
0.5737234582
 40
0.5939756005
 40
0.6135178701
 40
0.6330118928
 40
0.6537301084
 40
0.6771583316
 40
0.7044956733
 40
0.7364241765
 40
0.7718682717
 40
0.8470728529
 40
0.9237380383
 40
1.0
 40
1.0
 40
1.0
 40
1.0
 10
7.8122979111
 20
12.0562977814
 30
0.0
 10
7.8121257435
 20
12.0561137062
 30
0.0
 10
7.8118066432
 20
12.0557197137
 30
0.0
 10
7.8114769223
 20
12.055033515
 30
0.0
 10
7.8112701755
 20
12.0543068749
 30
0.0
 10
7.81100805
 20
12.053336164
 30
0.0
 10
7.8107385371
 20
12.052110078
 30
0.0
 10
7.8104580514
 20
12.0506336458
 30
0.0
 10
7.8102037818
 20
12.0491568996
 30
0.0
 10
7.8098908227
 20
12.0471970148
 30
0.0
 10
7.8095371935
 20
12.04476323
 30
0.0
 10
7.8091299205
 20
12.0418726388
 30
0.0
 10
7.808732358
 20
12.0390311591
 30
0.0
 10
7.8083375753
 20
12.0362499175
 30
0.0
 10
7.8078131691
 20
12.032690497
 30
0.0
 10
7.8071356182
 20
12.0284652933
 30
0.0
 10
7.8062317583
 20
12.023713273
 30
0.0
 10
7.8052167666
 20
12.0194245363
 30
0.0
 10
7.8040370121
 20
12.0156589151
 30
0.0
 10
7.8028309665
 20
12.0128907575
 30
0.0
 10
7.8016301434
 20
12.0110357208
 30
0.0
 10
7.8006158679
 20
12.009845131
 30
0.0
 10
7.7994179694
 20
12.0088159756
 30
0.0
 10
7.797955589
 20
12.0079814224
 30
0.0
 10
7.7961753647
 20
12.007354145
 30
0.0
 10
7.7940416395
 20
12.0069120034
 30
0.0
 10
7.7915635754
 20
12.0066426202
 30
0.0
 10
7.7878198417
 20
12.0064308535
 30
0.0
 10
7.7828942992
 20
12.0063355486
 30
0.0
 10
7.7768957678
 20
12.0063044471
 30
0.0
 10
7.7728744579
 20
12.0062977814
 30
0.0
 10
7.7708691274
 20
12.0062977814
 30
0.0
  0
SPLINE
  5
40C
100
AcDbEntity
  8
0
100
AcDbSpline
 62
7
  6
CONTINUOUS
 70
0
 71
3
 72
24
 73
20
 74
0
 42
0.0000001
 43
0.0000001
 44
0.0000000001
 40
0.0
 40
0.0
 40
0.0
 40
0.0
 40
0.0631185438
 40
0.0945844444
 40
0.1259621281
 40
0.1883900239
 40
0.2504831251
 40
0.312305511
 40
0.373946066
 40
0.4355204301
 40
0.4971467173
 40
0.5589437229
 40
0.6210033668
 40
0.6833942993
 40
0.7461483284
 40
0.8092356945
 40
0.8726357413
 40
0.9363176015
 40
1.0
 40
1.0
 40
1.0
 40
1.0
 10
5.7067952632
 20
12.643734104
 30
0.0
 10
5.7091257286
 20
12.6483652851
 30
0.0
 10
5.7131949827
 20
12.6550372381
 30
0.0
 10
5.7196363818
 20
12.6631446943
 30
0.0
 10
5.7266836666
 20
12.6706566824
 30
0.0
 10
5.736593817
 20
12.6788683605
 30
0.0
 10
5.7499091591
 20
12.6865612648
 30
0.0
 10
5.7642798204
 20
12.691859489
 30
0.0
 10
5.7793006707
 20
12.6946259475
 30
0.0
 10
5.794558282
 20
12.6947738971
 30
0.0
 10
5.8096270467
 20
12.6923009479
 30
0.0
 10
5.8240912557
 20
12.6872827375
 30
0.0
 10
5.8375458039
 20
12.6798488793
 30
0.0
 10
5.8496260513
 20
12.6702187183
 30
0.0
 10
5.859990416
 20
12.6586500384
 30
0.0
 10
5.86836546
 20
12.6454731573
 30
0.0
 10
5.8745189931
 20
12.6310395688
 30
0.0
 10
5.8782671798
 20
12.6157587925
 30
0.0
 10
5.8791158769
 20
12.6052785829
 30
0.0
 10
5.8791158769
 20
12.6000477814
 30
0.0
  0
SPLINE
  5
40D
100
AcDbEntity
  8
0
100
AcDbSpline
 62
7
  6
CONTINUOUS
 70
0
 71
3
 72
24
 73
20
 74
0
 42
0.0000001
 43
0.0000001
 44
0.0000000001
 40
0.0
 40
0.0
 40
0.0
 40
0.0
 40
0.0636825599
 40
0.1273620187
 40
0.1907582484
 40
0.2538428186
 40
0.316594341
 40
0.3789842082
 40
0.441044122
 40
0.5028431575
 40
0.56447104
 40
0.626046142
 40
0.6876866354
 40
0.7495083231
 40
0.811602256
 40
0.8740319759
 40
0.9054110465
 40
0.9368783135
 40
1.0
 40
1.0
 40
1.0
 40
1.0
 10
5.8791158769
 20
12.6000477814
 30
0.0
 10
5.8791158769
 20
12.5948190841
 30
0.0
 10
5.8782679532
 20
12.5843433067
 30
0.0
 10
5.8745228828
 20
12.5690689039
 30
0.0
 10
5.8683748327
 20
12.5546407574
 30
0.0
 10
5.8600068231
 20
12.5414678726
 30
0.0
 10
5.8496511456
 20
12.5299006612
 30
0.0
 10
5.8375798904
 20
12.5202697398
 30
0.0
 10
5.8241342884
 20
12.512832573
 30
0.0
 10
5.8096786327
 20
12.5078077505
 30
0.0
 10
5.7946171475
 20
12.5053268421
 30
0.0
 10
5.7793654901
 20
12.5054634778
 30
0.0
 10
5.7643487208
 20
12.5082177646
 30
0.0
 10
5.7499794993
 20
12.5135017186
 30
0.0
 10
5.736662616
 20
12.5211797893
 30
0.0
 10
5.726748709
 20
12.5293792178
 30
0.0
 10
5.7196967183
 20
12.536881562
 30
0.0
 10
5.7132493427
 20
12.5449795279
 30
0.0
 10
5.7091748648
 20
12.551645009
 30
0.0
 10
5.7068403952
 20
12.5562721113
 30
0.0
  0
SPLINE
  5
40E
100
AcDbEntity
  8
0
100
AcDbSpline
 62
7
  6
CONTINUOUS
 70
0
 71
3
 72
11
 73
7
 74
0
 42
0.0000001
 43
0.0000001
 44
0.0000000001
 40
0.0
 40
0.0
 40
0.0
 40
0.0
 40
0.2963784829
 40
0.5552194708
 40
0.7852678626
 40
1.0
 40
1.0
 40
1.0
 40
1.0
 10
7.0762272373
 20
12.0581240462
 30
0.0
 10
7.0764649244
 20
12.0578425682
 30
0.0
 10
7.0769412702
 20
12.0573395533
 30
0.0
 10
7.0777244284
 20
12.0567471592
 30
0.0
 10
7.0785284563
 20
12.0563813807
 30
0.0
 10
7.0790841766
 20
12.0562977814
 30
0.0
 10
7.0793510961
 20
12.0562977814
 30
0.0
  0
SPLINE
  5
40F
100
AcDbEntity
  8
0
100
AcDbSpline
 62
7
  6
CONTINUOUS
 70
0
 71
3
 72
13
 73
9
 74
0
 42
0.0000001
 43
0.0000001
 44
0.0000000001
 40
0.0
 40
0.0
 40
0.0
 40
0.0
 40
0.3084373103
 40
0.5899125934
 40
0.7137978045
 40
0.8240654747
 40
0.9195850057
 40
1.0
 40
1.0
 40
1.0
 40
1.0
 10
7.0707500061
 20
12.0812977814
 30
0.0
 10
7.0707500061
 20
12.0788130147
 30
0.0
 10
7.0710011799
 20
12.0740573392
 30
0.0
 10
7.0719423505
 20
12.0683675635
 30
0.0
 10
7.0730598274
 20
12.0643630271
 30
0.0
 10
7.073985477
 20
12.0618693133
 30
0.0
 10
7.0750099982
 20
12.0597990893
 30
0.0
 10
7.0758091811
 20
12.0586189224
 30
0.0
 10
7.0762272373
 20
12.0581240462
 30
0.0
  0
SPLINE
  5
410
100
AcDbEntity
  8
0
100
AcDbSpline
 62
7
  6
CONTINUOUS
 70
0
 71
3
 72
36
 73
32
 74
0
 42
0.0000001
 43
0.0000001
 44
0.0000000001
 40
0.0
 40
0.0
 40
0.0
 40
0.0
 40
0.0095850744
 40
0.0191309209
 40
0.0287204438
 40
0.0382813373
 40
0.0573756232
 40
0.0764344807
 40
0.0954347044
 40
0.114358955
 40
0.151911317
 40
0.1889597503
 40
0.2253734198
 40
0.261024198
 40
0.2957891214
 40
0.3621982517
 40
0.4237431657
 40
0.4797197771
 40
0.5296864947
 40
0.5737234582
 40
0.5939756005
 40
0.6135178701
 40
0.6330118928
 40
0.6537301084
 40
0.6771583316
 40
0.7044956733
 40
0.7364241765
 40
0.7718682717
 40
0.8470728529
 40
0.9237380383
 40
1.0
 40
1.0
 40
1.0
 40
1.0
 10
4.3294462566
 20
13.1437977814
 30
0.0
 10
4.3296184242
 20
13.1439818565
 30
0.0
 10
4.3299375246
 20
13.1443758491
 30
0.0
 10
4.3302672454
 20
13.1450620477
 30
0.0
 10
4.3304739922
 20
13.1457886878
 30
0.0
 10
4.3307361177
 20
13.1467593987
 30
0.0
 10
4.3310056306
 20
13.1479854848
 30
0.0
 10
4.3312861163
 20
13.1494619169
 30
0.0
 10
4.3315403859
 20
13.1509386631
 30
0.0
 10
4.331853345
 20
13.152898548
 30
0.0
 10
4.3322069742
 20
13.1553323327
 30
0.0
 10
4.3326142472
 20
13.1582229239
 30
0.0
 10
4.3330118097
 20
13.1610644036
 30
0.0
 10
4.3334065924
 20
13.1638456452
 30
0.0
 10
4.3339309987
 20
13.1674050657
 30
0.0
 10
4.3346085495
 20
13.1716302695
 30
0.0
 10
4.3355124094
 20
13.1763822897
 30
0.0
 10
4.3365274011
 20
13.1806710264
 30
0.0
 10
4.3377071556
 20
13.1844366476
 30
0.0
 10
4.3389132013
 20
13.1872048052
 30
0.0
 10
4.3401140243
 20
13.189059842
 30
0.0
 10
4.3411282998
 20
13.1902504317
 30
0.0
 10
4.3423261983
 20
13.1912795871
 30
0.0
 10
4.3437885788
 20
13.1921141403
 30
0.0
 10
4.345568803
 20
13.1927414177
 30
0.0
 10
4.3477025282
 20
13.1931835593
 30
0.0
 10
4.3501805923
 20
13.1934529426
 30
0.0
 10
4.353924326
 20
13.1936647092
 30
0.0
 10
4.3588498685
 20
13.1937600142
 30
0.0
 10
4.3648484
 20
13.1937911156
 30
0.0
 10
4.3688697099
 20
13.1937977814
 30
0.0
 10
4.3708750403
 20
13.1937977814
 30
0.0
  0
SPLINE
  5
411
100
AcDbEntity
  8
0
100
AcDbSpline
 62
7
  6
CONTINUOUS
 70
0
 71
3
 72
9
 73
5
 74
0
 42
0.0000001
 43
0.0000001
 44
0.0000000001
 40
0.0
 40
0.0
 40
0.0
 40
0.0
 40
0.2472006202
 40
1.0
 40
1.0
 40
1.0
 40
1.0
 10
5.9303468191
 20
11.9496359371
 30
0.0
 10
5.9331281114
 20
11.9479730801
 30
0.0
 10
5.9444194675
 20
11.9413135216
 30
0.0
 10
5.9558497219
 20
11.9348917426
 30
0.0
 10
5.9644986932
 20
11.9301402295
 30
0.0
  0
SPLINE
  5
412
100
AcDbEntity
  8
0
100
AcDbSpline
 62
7
  6
CONTINUOUS
 70
0
 71
3
 72
23
 73
19
 74
0
 42
0.0000001
 43
0.0000001
 44
0.0000000001
 40
0.0
 40
0.0
 40
0.0
 40
0.0
 40
0.0641493719
 40
0.127046946
 40
0.1877587792
 40
0.247037999
 40
0.3062168595
 40
0.366651017
 40
0.4284519695
 40
0.4912341455
 40
0.5545625736
 40
0.6181728865
 40
0.6819293855
 40
0.7457477279
 40
0.8095908855
 40
0.8733816327
 40
0.9368513464
 40
1.0
 40
1.0
 40
1.0
 40
1.0
 10
15.5603552569
 20
6.6271044302
 30
0.0
 10
15.5575059029
 20
6.6271044302
 30
0.0
 10
15.5518613444
 20
6.6269331669
 30
0.0
 10
15.5435510945
 20
6.6261674883
 30
0.0
 10
15.5355270899
 20
6.6248505381
 30
0.0
 10
15.5277995154
 20
6.6228993878
 30
0.0
 10
15.5203298233
 20
6.6201365068
 30
0.0
 10
15.5131756361
 20
6.61636953
 30
0.0
 10
15.5065438985
 20
6.6114568138
 30
0.0
 10
15.5007158417
 20
6.6054252757
 30
0.0
 10
15.4959805534
 20
6.5984009248
 30
0.0
 10
15.4925497583
 20
6.5906067082
 30
0.0
 10
15.4905713114
 20
6.5823000641
 30
0.0
 10
15.490133384
 20
6.5737616397
 30
0.0
 10
15.491251535
 20
6.5652837453
 30
0.0
 10
15.49388633
 20
6.5571654308
 30
0.0
 10
15.4979058586
 20
6.5496749728
 30
0.0
 10
15.5014249752
 20
6.5452444888
 30
0.0
 10
15.5033503321
 20
6.5432047607
 30
0.0
  0
SPLINE
  5
413
100
AcDbEntity
  8
0
100
AcDbSpline
 62
7
  6
CONTINUOUS
 70
0
 71
3
 72
23
 73
19
 74
0
 42
0.0000001
 43
0.0000001
 44
0.0000000001
 40
0.0
 40
0.0
 40
0.0
 40
0.0
 40
0.0630560703
 40
0.1264836256
 40
0.1902108215
 40
0.2540217328
 40
0.3178477121
 40
0.3816461372
 40
0.4453200683
 40
0.5087308136
 40
0.5715552595
 40
0.6334042892
 40
0.6937699382
 40
0.7529947713
 40
0.8122648543
 40
0.8729407091
 40
0.9358818846
 40
1.0
 40
1.0
 40
1.0
 40
1.0
 10
15.6173568562
 20
6.5432011422
 30
0.0
 10
15.6192797104
 20
6.5452376976
 30
0.0
 10
15.6227959441
 20
6.5496629362
 30
0.0
 10
15.6268144591
 20
6.5571439057
 30
0.0
 10
15.6294543456
 20
6.5652545274
 30
0.0
 10
15.630573864
 20
6.5737284355
 30
0.0
 10
15.6301445017
 20
6.5822683324
 30
0.0
 10
15.6281679988
 20
6.5905807794
 30
0.0
 10
15.624740851
 20
6.5983867446
 30
0.0
 10
15.6199949749
 20
6.6054137763
 30
0.0
 10
15.6141711565
 20
6.6114611732
 30
0.0
 10
15.6075291287
 20
6.6163618291
 30
0.0
 10
15.6003820079
 20
6.6201447075
 30
0.0
 10
15.5929080124
 20
6.6228936666
 30
0.0
 10
15.5851840261
 20
6.6248585873
 30
0.0
 10
15.5771575287
 20
6.6261643737
 30
0.0
 10
15.5688487077
 20
6.626932781
 30
0.0
 10
15.5632033113
 20
6.6271044302
 30
0.0
 10
15.5603552569
 20
6.6271044302
 30
0.0
  0
SPLINE
  5
414
100
AcDbEntity
  8
0
100
AcDbSpline
 62
7
  6
CONTINUOUS
 70
0
 71
3
 72
9
 73
5
 74
0
 42
0.0000001
 43
0.0000001
 44
0.0000000001
 40
0.0
 40
0.0
 40
0.0
 40
0.0
 40
0.2556527089
 40
1.0
 40
1.0
 40
1.0
 40
1.0
 10
14.9294187928
 20
6.0591894482
 30
0.0
 10
14.9288672527
 20
6.0597457186
 30
0.0
 10
14.9266911258
 20
6.061902697
 30
0.0
 10
14.9244315328
 20
6.0639773264
 30
0.0
 10
14.9226886939
 20
6.0654485096
 30
0.0
  0
SPLINE
  5
415
100
AcDbEntity
  8
0
100
AcDbSpline
 62
7
  6
CONTINUOUS
 70
0
 71
3
 72
9
 73
5
 74
0
 42
0.0000001
 43
0.0000001
 44
0.0000000001
 40
0.0
 40
0.0
 40
0.0
 40
0.0
 40
0.519776175
 40
1.0
 40
1.0
 40
1.0
 40
1.0
 10
14.9226886939
 20
6.0654485096
 30
0.0
 10
14.9206679284
 20
6.067154299
 30
0.0
 10
14.9166184537
 20
6.070253142
 30
0.0
 10
14.9121715221
 20
6.0727772883
 30
0.0
 10
14.9099434127
 20
6.0737797536
 30
0.0
  0
SPLINE
  5
416
100
AcDbEntity
  8
0
100
AcDbSpline
 62
7
  6
CONTINUOUS
 70
0
 71
3
 72
10
 73
6
 74
0
 42
0.0000001
 43
0.0000001
 44
0.0000000001
 40
0.0
 40
0.0
 40
0.0
 40
0.0
 40
0.4718964377
 40
0.7297172478
 40
1.0
 40
1.0
 40
1.0
 40
1.0
 10
14.7930301493
 20
6.073970137
 30
0.0
 10
14.7895230895
 20
6.0724036716
 30
0.0
 10
14.7844558118
 20
6.069176915
 30
0.0
 10
14.7782010483
 20
6.0639718245
 30
0.0
 10
14.7750874401
 20
6.0610015116
 30
0.0
 10
14.7735344416
 20
6.0594432927
 30
0.0
  0
SPLINE
  5
417
100
AcDbEntity
  8
0
100
AcDbSpline
 62
7
  6
CONTINUOUS
 70
0
 71
3
 72
10
 73
6
 74
0
 42
0.0000001
 43
0.0000001
 44
0.0000000001
 40
0.0
 40
0.0
 40
0.0
 40
0.0
 40
0.5238701536
 40
0.7707518016
 40
1.0
 40
1.0
 40
1.0
 40
1.0
 10
14.851486781
 20
6.0826101005
 30
0.0
 10
14.8584635995
 20
6.0825987393
 30
0.0
 10
14.8687362061
 20
6.0821813544
 30
0.0
 10
14.8819807225
 20
6.0807555836
 30
0.0
 10
14.88824768
 20
6.0797633843
 30
0.0
 10
14.8912469553
 20
6.079192652
 30
0.0
  0
SPLINE
  5
418
100
AcDbEntity
  8
0
100
AcDbSpline
 62
7
  6
CONTINUOUS
 70
0
 71
3
 72
10
 73
6
 74
0
 42
0.0000001
 43
0.0000001
 44
0.0000000001
 40
0.0
 40
0.0
 40
0.0
 40
0.0
 40
0.5499609341
 40
0.7885260006
 40
1.0
 40
1.0
 40
1.0
 40
1.0
 10
14.8912469553
 20
6.079192652
 30
0.0
 10
14.8947587266
 20
6.0785243968
 30
0.0
 10
14.8997677546
 20
6.0773888128
 30
0.0
 10
14.905964961
 20
6.0754179806
 30
0.0
 10
14.9086898496
 20
6.0743437535
 30
0.0
 10
14.9099434127
 20
6.0737797536
 30
0.0
  0
SPLINE
  5
419
100
AcDbEntity
  8
0
100
AcDbSpline
 62
7
  6
CONTINUOUS
 70
0
 71
3
 72
10
 73
6
 74
0
 42
0.0000001
 43
0.0000001
 44
0.0000000001
 40
0.0
 40
0.0
 40
0.0
 40
0.0
 40
0.2114334173
 40
0.4499810922
 40
1.0
 40
1.0
 40
1.0
 40
1.0
 10
14.7930301493
 20
6.073970137
 30
0.0
 10
14.7942830807
 20
6.0745297721
 30
0.0
 10
14.797006465
 20
6.0755945997
 30
0.0
 10
14.8031999212
 20
6.077544405
 30
0.0
 10
14.8082049979
 20
6.0786631598
 30
0.0
 10
14.8117137999
 20
6.0793197483
 30
0.0
  0
SPLINE
  5
41A
100
AcDbEntity
  8
0
100
AcDbSpline
 62
7
  6
CONTINUOUS
 70
0
 71
3
 72
10
 73
6
 74
0
 42
0.0000001
 43
0.0000001
 44
0.0000000001
 40
0.0
 40
0.0
 40
0.0
 40
0.0
 40
0.229178784
 40
0.4760393003
 40
1.0
 40
1.0
 40
1.0
 40
1.0
 10
14.8117137999
 20
6.0793197483
 30
0.0
 10
14.8147140598
 20
6.0798811753
 30
0.0
 10
14.8209832397
 20
6.0808537186
 30
0.0
 10
14.8342329576
 20
6.0822374136
 30
0.0
 10
14.8445083759
 20
6.0826214642
 30
0.0
 10
14.851486781
 20
6.0826101005
 30
0.0
  0
SPLINE
  5
41B
100
AcDbEntity
  8
0
100
AcDbSpline
 62
7
  6
CONTINUOUS
 70
0
 71
3
 72
9
 73
5
 74
0
 42
0.0000001
 43
0.0000001
 44
0.0000000001
 40
0.0
 40
0.0
 40
0.0
 40
0.0
 40
0.5037484361
 40
1.0
 40
1.0
 40
1.0
 40
1.0
 10
16.1041052569
 20
5.3327512124
 30
0.0
 10
16.1041052569
 20
5.3148866695
 30
0.0
 10
16.1040557212
 20
5.2794235412
 30
0.0
 10
16.1036259774
 20
5.2439608261
 30
0.0
 10
16.1032108062
 20
5.2263670442
 30
0.0
  0
SPLINE
  5
41C
100
AcDbEntity
  8
0
100
AcDbSpline
 62
7
  6
CONTINUOUS
 70
0
 71
3
 72
43
 73
39
 74
0
 42
0.0000001
 43
0.0000001
 44
0.0000000001
 40
0.0
 40
0.0
 40
0.0
 40
0.0
 40
0.0174028342
 40
0.0370995931
 40
0.0771403728
 40
0.1174895111
 40
0.1579566645
 40
0.2389610247
 40
0.3199894584
 40
0.4009418146
 40
0.4817333503
 40
0.5622617881
 40
0.6423664517
 40
0.7217273351
 40
0.7994210818
 40
0.8371003938
 40
0.8733054155
 40
0.9070605708
 40
0.9363520243
 40
0.9592724889
 40
0.9682642405
 40
0.9756790878
 40
0.9815662108
 40
0.98600869
 40
0.9891889818
 40
0.991307149
 40
0.9920306046
 40
0.9925638918
 40
0.9929325315
 40
0.9931629082
 40
0.9932834612
 40
0.9933428799
 40
0.9934741765
 40
0.9937134079
 40
0.9945388563
 40
0.9958481226
 40
0.9976619416
 40
1.0
 40
1.0
 40
1.0
 40
1.0
 10
16.1041918689
 20
4.7007692992
 30
0.0
 10
16.1046186338
 20
4.7007927004
 30
0.0
 10
16.1055303617
 20
4.7008048808
 30
0.0
 10
16.107424371
 20
4.7007548758
 30
0.0
 10
16.1098776418
 20
4.700574922
 30
0.0
 10
16.1128206619
 20
4.7001749376
 30
0.0
 10
16.1167209385
 20
4.6994013778
 30
0.0
 10
16.1215044389
 20
4.6979932812
 30
0.0
 10
16.1269984029
 20
4.6956276453
 30
0.0
 10
16.1321658054
 20
4.692624416
 30
0.0
 10
16.1369277672
 20
4.6890332647
 30
0.0
 10
16.141212918
 20
4.6849149204
 30
0.0
 10
16.1449563665
 20
4.6803440798
 30
0.0
 10
16.1480956506
 20
4.6754222778
 30
0.0
 10
16.1501858261
 20
4.671107736
 30
0.0
 10
16.151516515
 20
4.6676293364
 30
0.0
 10
16.1523236532
 20
4.6651104231
 30
0.0
 10
16.1529383031
 20
4.6627505866
 30
0.0
 10
16.1533841071
 20
4.660686354
 30
0.0
 10
16.153646712
 20
4.6592059758
 30
0.0
 10
16.1537893981
 20
4.6582506803
 30
0.0
 10
16.1538627674
 20
4.6577080873
 30
0.0
 10
16.1539173505
 20
4.6572757061
 30
0.0
 10
16.153959436
 20
4.6569466294
 30
0.0
 10
16.1539907541
 20
4.6567093606
 30
0.0
 10
16.1540114415
 20
4.656563093
 30
0.0
 10
16.1540245658
 20
4.6564810129
 30
0.0
 10
16.1540319172
 20
4.6564421751
 30
0.0
 10
16.1540376777
 20
4.6564140815
 30
0.0
 10
16.1540433875
 20
4.6563989373
 30
0.0
 10
16.1540470208
 20
4.656386984
 30
0.0
 10
16.1540561073
 20
4.6563884435
 30
0.0
 10
16.1540577264
 20
4.6564008221
 30
0.0
 10
16.1540641487
 20
4.6564278016
 30
0.0
 10
16.154066544
 20
4.6564878881
 30
0.0
 10
16.1540702057
 20
4.6565837814
 30
0.0
 10
16.1540706683
 20
4.6567183753
 30
0.0
 10
16.154070106
 20
4.656820204
 30
0.0
 10
16.1540694988
 20
4.6568776225
 30
0.0
  0
SPLINE
  5
41D
100
AcDbEntity
  8
0
100
AcDbSpline
 62
7
  6
CONTINUOUS
 70
0
 71
3
 72
24
 73
20
 74
0
 42
0.0000001
 43
0.0000001
 44
0.0000000001
 40
0.0
 40
0.0
 40
0.0
 40
0.0
 40
0.1320248798
 40
0.1963675595
 40
0.2594104031
 40
0.3210838736
 40
0.3814005424
 40
0.4404577653
 40
0.498528628
 40
0.5560593435
 40
0.6137624168
 40
0.6429714428
 40
0.6725676717
 40
0.7026440984
 40
0.7332959412
 40
0.7965363323
 40
0.8624413156
 40
0.9306099027
 40
1.0
 40
1.0
 40
1.0
 40
1.0
 10
15.0174997077
 20
5.2263670442
 30
0.0
 10
15.0180154756
 20
5.2045122966
 30
0.0
 10
15.0192314796
 20
5.1720059901
 30
0.0
 10
15.0227164975
 20
5.1291866332
 30
0.0
 10
15.0264624902
 20
5.0980964836
 30
0.0
 10
15.0316797012
 20
5.0678891771
 30
0.0
 10
15.0386814387
 20
5.0387132045
 30
0.0
 10
15.0478618622
 20
5.0107610282
 30
0.0
 10
15.0596042484
 20
4.9842678238
 30
0.0
 10
15.0743398342
 20
4.959552793
 30
0.0
 10
15.0893654364
 20
4.9408271772
 30
0.0
 10
15.1030504905
 20
4.9272078027
 30
0.0
 10
15.1142524463
 20
4.917640034
 30
0.0
 10
15.1263409192
 20
4.9088087545
 30
0.0
 10
15.1437996819
 20
4.8979809486
 30
0.0
 10
15.1678049294
 20
4.8866139627
 30
0.0
 10
15.19907022
 20
4.8768135409
 30
0.0
 10
15.2323158279
 20
4.8708809898
 30
0.0
 10
15.2551155641
 20
4.8695537725
 30
0.0
 10
15.2666052569
 20
4.8695537725
 30
0.0
  0
SPLINE
  5
41E
100
AcDbEntity
  8
0
100
AcDbSpline
 62
7
  6
CONTINUOUS
 70
0
 71
3
 72
24
 73
20
 74
0
 42
0.0000001
 43
0.0000001
 44
0.0000000001
 40
0.0
 40
0.0
 40
0.0
 40
0.0
 40
0.0693938762
 40
0.1375671713
 40
0.2034734393
 40
0.2667109588
 40
0.2973616545
 40
0.3274358197
 40
0.3570307108
 40
0.386241149
 40
0.4439512894
 40
0.5014819488
 40
0.5595435857
 40
0.618598878
 40
0.6789190021
 40
0.7405920242
 40
0.8036312487
 40
0.8679723839
 40
1.0
 40
1.0
 40
1.0
 40
1.0
 10
15.8541052569
 20
4.8695537725
 30
0.0
 10
15.8655955435
 20
4.8695537725
 30
0.0
 10
15.8883968837
 20
4.8708767894
 30
0.0
 10
15.9216436995
 20
4.8768139131
 30
0.0
 10
15.9529070415
 20
4.886621377
 30
0.0
 10
15.9769120221
 20
4.8979866029
 30
0.0
 10
15.9943727851
 20
4.9088090742
 30
0.0
 10
16.0064625002
 20
4.9176373177
 30
0.0
 10
16.0176649049
 20
4.9272040455
 30
0.0
 10
16.0313481336
 20
4.9408271326
 30
0.0
 10
16.0463647451
 20
4.9595614928
 30
0.0
 10
16.0611010966
 20
4.9842746768
 30
0.0
 10
16.0728501168
 20
5.0107629746
 30
0.0
 10
16.0820302582
 20
5.038714042
 30
0.0
 10
16.0890298346
 20
5.0678905939
 30
0.0
 10
16.0942470211
 20
5.098097673
 30
0.0
 10
16.0979940992
 20
5.1291866639
 30
0.0
 10
16.1014801379
 20
5.1720054357
 30
0.0
 10
16.102695029
 20
5.2045119045
 30
0.0
 10
16.1032108062
 20
5.2263670442
 30
0.0
  0
SPLINE
  5
41F
100
AcDbEntity
  8
0
100
AcDbSpline
 62
7
  6
CONTINUOUS
 70
0
 71
3
 72
23
 73
19
 74
0
 42
0.0000001
 43
0.0000001
 44
0.0000000001
 40
0.0
 40
0.0
 40
0.0
 40
0.0
 40
0.0281799819
 40
0.0439614816
 40
0.0610174025
 40
0.0991694412
 40
0.1428520326
 40
0.1919545025
 40
0.246220777
 40
0.3053337893
 40
0.3689641272
 40
0.4368020848
 40
0.5085374863
 40
0.5838859086
 40
0.6625176812
 40
0.744033732
 40
0.8279527318
 40
1.0
 40
1.0
 40
1.0
 40
1.0
 10
15.8051469236
 20
4.7339595517
 30
0.0
 10
15.8051469236
 20
4.7367380746
 30
0.0
 10
15.8044235652
 20
4.7410809707
 30
0.0
 10
15.8024814351
 20
4.7467769159
 30
0.0
 10
15.7995976838
 20
4.7531671116
 30
0.0
 10
15.7945005069
 20
4.7615193486
 30
0.0
 10
15.7865338805
 20
4.7717033455
 30
0.0
 10
15.7765999174
 20
4.7822873387
 30
0.0
 10
15.7647825424
 20
4.7931231092
 30
0.0
 10
15.7511660926
 20
4.8040593078
 30
0.0
 10
15.7358142068
 20
4.8149151989
 30
0.0
 10
15.7187878912
 20
4.8254984846
 30
0.0
 10
15.7001386258
 20
4.8355898044
 30
0.0
 10
15.679919782
 20
4.8449280358
 30
0.0
 10
15.6582188166
 20
4.8532388673
 30
0.0
 10
15.63515514
 20
4.8601957992
 30
0.0
 10
15.6026262946
 20
4.8673111871
 30
0.0
 10
15.577318975
 20
4.8695537725
 30
0.0
 10
15.5603552569
 20
4.8695537725
 30
0.0
  0
SPLINE
  5
420
100
AcDbEntity
  8
0
100
AcDbSpline
 62
7
  6
CONTINUOUS
 70
0
 71
3
 72
16
 73
12
 74
0
 42
0.0000001
 43
0.0000001
 44
0.0000000001
 40
0.0
 40
0.0
 40
0.0
 40
0.0
 40
0.1595805021
 40
0.3159140726
 40
0.4648589997
 40
0.6031601014
 40
0.7279262067
 40
0.8367056354
 40
0.9275815907
 40
0.9660891593
 40
1.0
 40
1.0
 40
1.0
 40
1.0
 10
15.5603552569
 20
6.5591991295
 30
0.0
 10
15.5632974555
 20
6.5591991295
 30
0.0
 10
15.5691226576
 20
6.5590803884
 30
0.0
 10
15.5776797593
 20
6.5585573154
 30
0.0
 10
15.585815605
 20
6.5576957678
 30
0.0
 10
15.5933244025
 20
6.5565234098
 30
0.0
 10
15.6000291253
 20
6.5550670468
 30
0.0
 10
15.6057704833
 20
6.5533701428
 30
0.0
 10
15.609849422
 20
6.5517072188
 30
0.0
 10
15.6124858883
 20
6.5502470046
 30
0.0
 10
15.6135877566
 20
6.5494867308
 30
0.0
 10
15.6140767758
 20
6.5490971716
 30
0.0
  0
SPLINE
  5
421
100
AcDbEntity
  8
0
100
AcDbSpline
 62
7
  6
CONTINUOUS
 70
0
 71
3
 72
11
 73
7
 74
0
 42
0.0000001
 43
0.0000001
 44
0.0000000001
 40
0.0
 40
0.0
 40
0.0
 40
0.0
 40
0.3025165987
 40
0.5592271246
 40
0.7844375864
 40
1.0
 40
1.0
 40
1.0
 40
1.0
 10
15.6140767758
 20
6.5490971716
 30
0.0
 10
15.614574307
 20
6.5487008318
 30
0.0
 10
15.615446384
 20
6.5479016759
 30
0.0
 10
15.6164123075
 20
6.5465441969
 30
0.0
 10
15.6168895708
 20
6.5451290247
 30
0.0
 10
15.6168460096
 20
6.5441785846
 30
0.0
 10
15.6167468536
 20
6.5437363017
 30
0.0
  0
SPLINE
  5
422
100
AcDbEntity
  8
0
100
AcDbSpline
 62
7
  6
CONTINUOUS
 70
0
 71
3
 72
22
 73
18
 74
0
 42
0.0000001
 43
0.0000001
 44
0.0000000001
 40
0.0
 40
0.0
 40
0.0
 40
0.0
 40
0.1720725705
 40
0.3374006125
 40
0.4160404858
 40
0.4913965855
 40
0.5631382199
 40
0.6309824023
 40
0.6946207373
 40
0.7537417559
 40
0.8080148136
 40
0.8571244157
 40
0.9008154026
 40
0.9389748828
 40
0.9560334003
 40
0.9718169016
 40
1.0
 40
1.0
 40
1.0
 40
1.0
 10
15.5603552569
 20
4.8695537725
 30
0.0
 10
15.5433911374
 20
4.8695537725
 30
0.0
 10
15.5100607063
 20
4.8665936008
 30
0.0
 10
15.4702068781
 20
4.8562013881
 30
0.0
 10
15.4407906633
 20
4.8449300635
 30
0.0
 10
15.4205725237
 20
4.8355900181
 30
0.0
 10
15.40192329
 20
4.8255004486
 30
0.0
 10
15.3848968203
 20
4.8149180922
 30
0.0
 10
15.3695457723
 20
4.8040612427
 30
0.0
 10
15.3559293525
 20
4.7931248877
 30
0.0
 10
15.3441117112
 20
4.7822891461
 30
0.0
 10
15.3341772274
 20
4.771705061
 30
0.0
 10
15.3262106059
 20
4.761520172
 30
0.0
 10
15.3211134994
 20
4.7531672013
 30
0.0
 10
15.3182294983
 20
4.7467767708
 30
0.0
 10
15.3162871266
 20
4.7410808957
 30
0.0
 10
15.3155635903
 20
4.736738039
 30
0.0
 10
15.3155635903
 20
4.7339595517
 30
0.0
  0
SPLINE
  5
423
100
AcDbEntity
  8
0
100
AcDbSpline
 62
7
  6
CONTINUOUS
 70
0
 71
3
 72
11
 73
7
 74
0
 42
0.0000001
 43
0.0000001
 44
0.0000000001
 40
0.0
 40
0.0
 40
0.0
 40
0.0
 40
0.2638945761
 40
0.5154788604
 40
0.759526707
 40
1.0
 40
1.0
 40
1.0
 40
1.0
 10
14.9099434127
 20
6.0737797536
 30
0.0
 10
14.9083434303
 20
6.0744996135
 30
0.0
 10
14.9051154835
 20
6.0756921951
 30
0.0
 10
14.900158009
 20
6.076737339
 30
0.0
 10
14.8952615482
 20
6.0770729458
 30
0.0
 10
14.8920372709
 20
6.0768943448
 30
0.0
 10
14.890447705
 20
6.0767232197
 30
0.0
  0
SPLINE
  5
424
100
AcDbEntity
  8
0
100
AcDbSpline
 62
7
  6
CONTINUOUS
 70
0
 71
3
 72
9
 73
5
 74
0
 42
0.0000001
 43
0.0000001
 44
0.0000000001
 40
0.0
 40
0.0
 40
0.0
 40
0.0
 40
0.4962515639
 40
1.0
 40
1.0
 40
1.0
 40
1.0
 10
15.0174997077
 20
5.2263670442
 30
0.0
 10
15.0170845364
 20
5.2439608261
 30
0.0
 10
15.0166547926
 20
5.2794235412
 30
0.0
 10
15.0166052569
 20
5.3148866695
 30
0.0
 10
15.0166052569
 20
5.3327512124
 30
0.0
  0
SPLINE
  5
425
100
AcDbEntity
  8
0
100
AcDbSpline
 62
7
  6
CONTINUOUS
 70
0
 71
3
 72
40
 73
36
 74
0
 42
0.0000001
 43
0.0000001
 44
0.0000000001
 40
0.0
 40
0.0
 40
0.0
 40
0.0
 40
0.036862963
 40
0.0768749968
 40
0.1172103734
 40
0.1576699241
 40
0.2386623404
 40
0.3196773034
 40
0.4006164658
 40
0.4813978903
 40
0.5619200353
 40
0.6420184433
 40
0.7213754623
 40
0.7990747477
 40
0.8367733654
 40
0.8730095289
 40
0.9068198499
 40
0.9361938707
 40
0.9485390891
 40
0.9591944779
 40
0.9682142318
 40
0.975650683
 40
0.9815540184
 40
0.9860064918
 40
0.9891920516
 40
0.9913141217
 40
0.9925765852
 40
0.9929497237
 40
0.9931858624
 40
0.993348492
 40
0.9936894144
 40
0.9944921523
 40
0.9957920586
 40
0.9976185226
 40
1.0
 40
1.0
 40
1.0
 40
1.0
 10
15.0166052569
 20
4.7007711064
 30
0.0
 10
15.0156996713
 20
4.7008196015
 30
0.0
 10
15.0138053769
 20
4.7007955551
 30
0.0
 10
15.0109280005
 20
4.7005947845
 30
0.0
 10
15.0079797946
 20
4.7002016014
 30
0.0
 10
15.0040718277
 20
4.6994368776
 30
0.0
 10
14.9992775049
 20
4.6980379463
 30
0.0
 10
14.9937698179
 20
4.6956807668
 30
0.0
 10
14.9885882821
 20
4.6926832829
 30
0.0
 10
14.9838121857
 20
4.689095117
 30
0.0
 10
14.9795134266
 20
4.6849770544
 30
0.0
 10
14.9757571851
 20
4.680404109
 30
0.0
 10
14.9726068087
 20
4.6754776729
 30
0.0
 10
14.97050793
 20
4.671157637
 30
0.0
 10
14.9691716037
 20
4.6676731064
 30
0.0
 10
14.9683602673
 20
4.6651480581
 30
0.0
 10
14.9677421888
 20
4.6627805272
 30
0.0
 10
14.967349377
 20
4.6609638617
 30
0.0
 10
14.9671143856
 20
4.6596969134
 30
0.0
 10
14.9669849205
 20
4.6589198319
 30
0.0
 10
14.9668863504
 20
4.6582601474
 30
0.0
 10
14.9668125951
 20
4.6577150137
 30
0.0
 10
14.9667579108
 20
4.657280752
 30
0.0
 10
14.9667153367
 20
4.6569502818
 30
0.0
 10
14.9666843807
 20
4.6567123195
 30
0.0
 10
14.9666604579
 20
4.6565521362
 30
0.0
 10
14.9666476519
 20
4.6564611295
 30
0.0
 10
14.9666358636
 20
4.6564157641
 30
0.0
 10
14.9666334772
 20
4.6563979608
 30
0.0
 10
14.9666169023
 20
4.6563798811
 30
0.0
 10
14.9666147468
 20
4.6564330339
 30
0.0
 10
14.9666088707
 20
4.6564773978
 30
0.0
 10
14.9666073037
 20
4.6565825253
 30
0.0
 10
14.9666053191
 20
4.6567141786
 30
0.0
 10
14.9666052569
 20
4.6568188593
 30
0.0
 10
14.9666052569
 20
4.6568774472
 30
0.0
  0
SPLINE
  5
426
100
AcDbEntity
  8
0
100
AcDbSpline
 62
7
  6
CONTINUOUS
 70
0
 71
3
 72
11
 73
7
 74
0
 42
0.0000001
 43
0.0000001
 44
0.0000000001
 40
0.0
 40
0.0
 40
0.0
 40
0.0
 40
0.2468787481
 40
0.4953923825
 40
0.7464152909
 40
1.0
 40
1.0
 40
1.0
 40
1.0
 10
15.6679818501
 20
5.9770883511
 30
0.0
 10
15.6773511464
 20
5.9770883511
 30
0.0
 10
15.6961858659
 20
5.9753972393
 30
0.0
 10
15.7237203503
 20
5.9683379757
 30
0.0
 10
15.7502726813
 20
5.9575835536
 30
0.0
 10
15.7672239929
 20
5.9486159345
 30
0.0
 10
15.7755584432
 20
5.9438040373
 30
0.0
  0
SPLINE
  5
427
100
AcDbEntity
  8
0
100
AcDbSpline
 62
7
  6
CONTINUOUS
 70
0
 71
3
 72
12
 73
8
 74
0
 42
0.0000001
 43
0.0000001
 44
0.0000000001
 40
0.0
 40
0.0
 40
0.0
 40
0.0
 40
0.2468349773
 40
0.3709095304
 40
0.4955022241
 40
0.7464987448
 40
1.0
 40
1.0
 40
1.0
 40
1.0
 10
15.6679818501
 20
5.9770883511
 30
0.0
 10
15.6586123833
 20
5.9770883511
 30
0.0
 10
15.6444999328
 20
5.9758352284
 30
0.0
 10
15.6260942
 20
5.971907557
 30
0.0
 10
15.607878362
 20
5.9665649336
 30
0.0
 10
15.5856889997
 20
5.957581204
 30
0.0
 10
15.5687385934
 20
5.9486152914
 30
0.0
 10
15.5604052569
 20
5.9438040373
 30
0.0
  0
SPLINE
  5
428
100
AcDbEntity
  8
0
100
AcDbSpline
 62
7
  6
CONTINUOUS
 70
0
 71
3
 72
9
 73
5
 74
0
 42
0.0000001
 43
0.0000001
 44
0.0000000001
 40
0.0
 40
0.0
 40
0.0
 40
0.0
 40
0.500271997
 40
1.0
 40
1.0
 40
1.0
 40
1.0
 10
14.851486781
 20
6.0826101005
 30
0.0
 10
14.8449004409
 20
6.0826208258
 30
0.0
 10
14.831717991
 20
6.0815121875
 30
0.0
 10
14.8188458408
 20
6.0786068868
 30
0.0
 10
14.8125055295
 20
6.076850142
 30
0.0
  0
SPLINE
  5
429
100
AcDbEntity
  8
0
100
AcDbSpline
 62
7
  6
CONTINUOUS
 70
0
 71
3
 72
11
 73
7
 74
0
 42
0.0000001
 43
0.0000001
 44
0.0000000001
 40
0.0
 40
0.0
 40
0.0
 40
0.0
 40
0.2468787481
 40
0.4953923825
 40
0.7464152909
 40
1.0
 40
1.0
 40
1.0
 40
1.0
 10
15.4528286638
 20
5.9770883511
 30
0.0
 10
15.4621979601
 20
5.9770883511
 30
0.0
 10
15.4810326796
 20
5.9753972393
 30
0.0
 10
15.508567164
 20
5.9683379757
 30
0.0
 10
15.535119495
 20
5.9575835536
 30
0.0
 10
15.5520708066
 20
5.9486159345
 30
0.0
 10
15.5604052569
 20
5.9438040373
 30
0.0
  0
SPLINE
  5
42A
100
AcDbEntity
  8
0
100
AcDbSpline
 62
7
  6
CONTINUOUS
 70
0
 71
3
 72
9
 73
5
 74
0
 42
0.0000001
 43
0.0000001
 44
0.0000000001
 40
0.0
 40
0.0
 40
0.0
 40
0.0
 40
0.4997140179
 40
1.0
 40
1.0
 40
1.0
 40
1.0
 10
14.890447705
 20
6.0767232197
 30
0.0
 10
14.8841133649
 20
6.0785006591
 30
0.0
 10
14.8712542051
 20
6.0814663235
 30
0.0
 10
14.8580732961
 20
6.0825993749
 30
0.0
 10
14.851486781
 20
6.0826101005
 30
0.0
  0
SPLINE
  5
42B
100
AcDbEntity
  8
0
100
AcDbSpline
 62
7
  6
CONTINUOUS
 70
0
 71
3
 72
12
 73
8
 74
0
 42
0.0000001
 43
0.0000001
 44
0.0000000001
 40
0.0
 40
0.0
 40
0.0
 40
0.0
 40
0.2468349773
 40
0.3709095304
 40
0.4955022241
 40
0.7464987448
 40
1.0
 40
1.0
 40
1.0
 40
1.0
 10
15.4528286638
 20
5.9770883511
 30
0.0
 10
15.4434591971
 20
5.9770883511
 30
0.0
 10
15.4293467466
 20
5.9758352284
 30
0.0
 10
15.4109410137
 20
5.971907557
 30
0.0
 10
15.3927251757
 20
5.9665649336
 30
0.0
 10
15.3705358134
 20
5.957581204
 30
0.0
 10
15.3535854072
 20
5.9486152914
 30
0.0
 10
15.3452520707
 20
5.9438040373
 30
0.0
  0
SPLINE
  5
42C
100
AcDbEntity
  8
0
100
AcDbSpline
 62
7
  6
CONTINUOUS
 70
0
 71
3
 72
11
 73
7
 74
0
 42
0.0000001
 43
0.0000001
 44
0.0000000001
 40
0.0
 40
0.0
 40
0.0
 40
0.0
 40
0.2404016965
 40
0.4843781966
 40
0.736016937
 40
1.0
 40
1.0
 40
1.0
 40
1.0
 10
14.8125055295
 20
6.076850142
 30
0.0
 10
14.8109191459
 20
6.0770264289
 30
0.0
 10
14.8077013833
 20
6.0772235556
 30
0.0
 10
14.8028100558
 20
6.0769071222
 30
0.0
 10
14.7978569989
 20
6.0758701216
 30
0.0
 10
14.7946304835
 20
6.0746849432
 30
0.0
 10
14.7930301493
 20
6.073970137
 30
0.0
  0
SPLINE
  5
42D
100
AcDbEntity
  8
0
100
AcDbSpline
 62
7
  6
CONTINUOUS
 70
0
 71
3
 72
11
 73
7
 74
0
 42
0.0000001
 43
0.0000001
 44
0.0000000001
 40
0.0
 40
0.0
 40
0.0
 40
0.0
 40
0.2155624136
 40
0.4407728754
 40
0.6974834013
 40
1.0
 40
1.0
 40
1.0
 40
1.0
 10
15.5039636603
 20
6.5437363017
 30
0.0
 10
15.5038645043
 20
6.5441785846
 30
0.0
 10
15.5038209431
 20
6.5451290247
 30
0.0
 10
15.5042982064
 20
6.5465441969
 30
0.0
 10
15.5052641298
 20
6.5479016759
 30
0.0
 10
15.5061362069
 20
6.5487008318
 30
0.0
 10
15.506633738
 20
6.5490971716
 30
0.0
  0
SPLINE
  5
42E
100
AcDbEntity
  8
0
100
AcDbSpline
 62
7
  6
CONTINUOUS
 70
0
 71
3
 72
16
 73
12
 74
0
 42
0.0000001
 43
0.0000001
 44
0.0000000001
 40
0.0
 40
0.0
 40
0.0
 40
0.0
 40
0.0339108407
 40
0.0724184093
 40
0.1632943646
 40
0.2720737933
 40
0.3968398986
 40
0.5351410003
 40
0.6840859274
 40
0.8404194979
 40
1.0
 40
1.0
 40
1.0
 40
1.0
 10
15.506633738
 20
6.5490971716
 30
0.0
 10
15.5071227573
 20
6.5494867308
 30
0.0
 10
15.5082246255
 20
6.5502470046
 30
0.0
 10
15.5108610919
 20
6.5517072188
 30
0.0
 10
15.5149400306
 20
6.5533701428
 30
0.0
 10
15.5206813885
 20
6.5550670468
 30
0.0
 10
15.5273861114
 20
6.5565234098
 30
0.0
 10
15.5348949088
 20
6.5576957678
 30
0.0
 10
15.5430307546
 20
6.5585573154
 30
0.0
 10
15.5515878563
 20
6.5590803884
 30
0.0
 10
15.5574130584
 20
6.5591991295
 30
0.0
 10
15.5603552569
 20
6.5591991295
 30
0.0
  0
SPLINE
  5
42F
100
AcDbEntity
  8
0
100
AcDbSpline
 62
7
  6
CONTINUOUS
 70
0
 71
3
 72
9
 73
5
 74
0
 42
0.0000001
 43
0.0000001
 44
0.0000000001
 40
0.0
 40
0.0
 40
0.0
 40
0.0
 40
0.4890308048
 40
1.0
 40
1.0
 40
1.0
 40
1.0
 10
14.8231539067
 20
6.0568993803
 30
0.0
 10
14.8277428526
 20
6.0574401449
 30
0.0
 10
14.8371657941
 20
6.0582250695
 30
0.0
 10
14.846616654
 20
6.0584698536
 30
0.0
 10
14.8514446346
 20
6.0584619916
 30
0.0
  0
SPLINE
  5
430
100
AcDbEntity
  8
0
100
AcDbSpline
 62
7
  6
CONTINUOUS
 70
0
 71
3
 72
9
 73
5
 74
0
 42
0.0000001
 43
0.0000001
 44
0.0000000001
 40
0.0
 40
0.0
 40
0.0
 40
0.0
 40
0.5102033471
 40
1.0
 40
1.0
 40
1.0
 40
1.0
 10
14.8514446346
 20
6.0584619916
 30
0.0
 10
14.8561234482
 20
6.0584543725
 30
0.0
 10
14.8652951453
 20
6.0581944763
 30
0.0
 10
14.8744397551
 20
6.0574279029
 30
0.0
 10
14.8789010704
 20
6.0569065044
 30
0.0
  0
SPLINE
  5
431
100
AcDbEntity
  8
0
100
AcDbSpline
 62
7
  6
CONTINUOUS
 70
0
 71
3
 72
39
 73
35
 74
0
 42
0.0000001
 43
0.0000001
 44
0.0000000001
 40
0.0
 40
0.0
 40
0.0
 40
0.0
 40
0.0652591648
 40
0.0969817301
 40
0.1280354047
 40
0.1584124394
 40
0.1881566553
 40
0.2173536313
 40
0.2461860811
 40
0.2749250759
 40
0.3039524774
 40
0.3187127157
 40
0.3337067971
 40
0.364535667
 40
0.3967037145
 40
0.4302116865
 40
0.4648038906
 40
0.5000034197
 40
0.5352012536
 40
0.5697937111
 40
0.6033009778
 40
0.6354675456
 40
0.6662976224
 40
0.6812912187
 40
0.6960500776
 40
0.725074962
 40
0.7538139704
 40
0.7826468802
 40
0.8118442119
 40
0.8415888423
 40
0.8719659503
 40
0.9030191476
 40
0.9347413076
 40
1.0
 40
1.0
 40
1.0
 40
1.0
 10
15.2125984684
 20
5.7786508511
 30
0.0
 10
15.2132217948
 20
5.8074352068
 30
0.0
 10
15.2149298082
 20
5.8502166197
 30
0.0
 10
15.2201755902
 20
5.9064731394
 30
0.0
 10
15.2258455633
 20
5.9471961001
 30
0.0
 10
15.2337169145
 20
5.9866716645
 30
0.0
 10
15.2442035944
 20
6.024699943
 30
0.0
 10
15.257800345
 20
6.0610237095
 30
0.0
 10
15.2749899282
 20
6.0953228849
 30
0.0
 10
15.2962528792
 20
6.1271947531
 30
0.0
 10
15.3175938997
 20
6.1511942299
 30
0.0
 10
15.3368357252
 20
6.1686107873
 30
0.0
 10
15.3579319961
 20
6.1850570696
 30
0.0
 10
15.3873333312
 20
6.2031771453
 30
0.0
 10
15.4264498563
 20
6.220302397
 30
0.0
 10
15.4690190631
 20
6.2327406554
 30
0.0
 10
15.5140667405
 20
6.2402758295
 30
0.0
 10
15.5604104864
 20
6.2427931373
 30
0.0
 10
15.6067536579
 20
6.2402693156
 30
0.0
 10
15.6518009321
 20
6.2327396452
 30
0.0
 10
15.6943707705
 20
6.2203040682
 30
0.0
 10
15.7334822907
 20
6.2031695273
 30
0.0
 10
15.7628886489
 20
6.1850592255
 30
0.0
 10
15.783987457
 20
6.1686163259
 30
0.0
 10
15.8032257646
 20
6.1511984583
 30
0.0
 10
15.824555864
 20
6.1271916439
 30
0.0
 10
15.8458170074
 20
6.0953204901
 30
0.0
 10
15.8630118917
 20
6.0610235111
 30
0.0
 10
15.8766102755
 20
6.0246996123
 30
0.0
 10
15.8870959135
 20
5.986670627
 30
0.0
 10
15.8949654432
 20
5.9471946967
 30
0.0
 10
15.9006339884
 20
5.9064719078
 30
0.0
 10
15.905878841
 20
5.8502159345
 30
0.0
 10
15.9075887236
 20
5.8074349984
 30
0.0
 10
15.9082120455
 20
5.7786508511
 30
0.0
  0
SPLINE
  5
432
100
AcDbEntity
  8
0
100
AcDbSpline
 62
7
  6
CONTINUOUS
 70
0
 71
3
 72
11
 73
7
 74
0
 42
0.0000001
 43
0.0000001
 44
0.0000000001
 40
0.0
 40
0.0
 40
0.0
 40
0.0
 40
0.2336479463
 40
0.4745077242
 40
0.7287055553
 40
1.0
 40
1.0
 40
1.0
 40
1.0
 10
14.7674428626
 20
11.4644648218
 30
0.0
 10
14.7667959838
 20
11.46237154
 30
0.0
 10
14.765946384
 20
11.4579624038
 30
0.0
 10
14.7660955266
 20
11.4510853414
 30
0.0
 10
14.7676424818
 20
11.4440278415
 30
0.0
 10
14.769500177
 20
11.4394383177
 30
0.0
 10
14.7706209052
 20
11.4371545138
 30
0.0
  0
SPLINE
  5
433
100
AcDbEntity
  8
0
100
AcDbSpline
 62
7
  6
CONTINUOUS
 70
0
 71
3
 72
15
 73
11
 74
0
 42
0.0000001
 43
0.0000001
 44
0.0000000001
 40
0.0
 40
0.0
 40
0.0
 40
0.0
 40
0.12179452
 40
0.2468627835
 40
0.373996723
 40
0.502068625
 40
0.6298779855
 40
0.7562337733
 40
0.8799783416
 40
1.0
 40
1.0
 40
1.0
 40
1.0
 10
17.1462865654
 20
12.6313712216
 30
0.0
 10
17.1197234662
 20
12.6325286171
 30
0.0
 10
17.0659539165
 20
12.636879201
 30
0.0
 10
16.9851636083
 20
12.6490608
 30
0.0
 10
16.9040179876
 20
12.6668650401
 30
0.0
 10
16.8236233784
 20
12.690053071
 30
0.0
 10
16.7450501547
 20
12.7183175117
 30
0.0
 10
16.6693523504
 20
12.7512738337
 30
0.0
 10
16.5975544264
 20
12.7884662305
 30
0.0
 10
16.5520989859
 20
12.8162453636
 30
0.0
 10
16.5302836905
 20
12.8307574229
 30
0.0
  0
SPLINE
  5
434
100
AcDbEntity
  8
0
100
AcDbSpline
 62
7
  6
CONTINUOUS
 70
0
 71
3
 72
22
 73
18
 74
0
 42
0.0000001
 43
0.0000001
 44
0.0000000001
 40
0.0
 40
0.0
 40
0.0
 40
0.0
 40
0.0434774674
 40
0.0899550846
 40
0.1407727679
 40
0.196565176
 40
0.2573775481
 40
0.3227817039
 40
0.3920082668
 40
0.464052483
 40
0.6116520946
 40
0.6848333493
 40
0.7558944762
 40
0.8237020538
 40
0.8873641173
 40
0.9462601536
 40
1.0
 40
1.0
 40
1.0
 40
1.0
 10
14.7749607326
 20
11.4878626228
 30
0.0
 10
14.7761812015
 20
11.4904958764
 30
0.0
 10
14.7795033924
 20
11.4956006474
 30
0.0
 10
14.7865046468
 20
11.5019894273
 30
0.0
 10
14.7954017946
 20
11.5071487848
 30
0.0
 10
14.8059474883
 20
11.5109896076
 30
0.0
 10
14.8178852314
 20
11.5134420982
 30
0.0
 10
14.8309221457
 20
11.514452315
 30
0.0
 10
14.8447379
 20
11.5140053417
 30
0.0
 10
14.8638748219
 20
11.5114510928
 30
0.0
 10
14.8828277345
 20
11.5061468173
 30
0.0
 10
14.9007156711
 20
11.4983764903
 30
0.0
 10
14.9131199743
 20
11.4915053971
 30
0.0
 10
14.9242294762
 20
11.4837553047
 30
0.0
 10
14.9337722228
 20
11.4753123985
 30
0.0
 10
14.9414932331
 20
11.4663819415
 30
0.0
 10
14.9454884427
 20
11.4599582123
 30
0.0
 10
14.9470688472
 20
11.4567376865
 30
0.0
  0
SPLINE
  5
435
100
AcDbEntity
  8
0
100
AcDbSpline
 62
7
  6
CONTINUOUS
 70
0
 71
3
 72
12
 73
8
 74
0
 42
0.0000001
 43
0.0000001
 44
0.0000000001
 40
0.0
 40
0.0
 40
0.0
 40
0.0
 40
0.1150238598
 40
0.2314523484
 40
0.4717345749
 40
0.7265232832
 40
1.0
 40
1.0
 40
1.0
 40
1.0
 10
14.1009036207
 20
12.0048761867
 30
0.0
 10
14.1022999531
 20
12.0103641321
 30
0.0
 10
14.1046487605
 20
12.0215306374
 30
0.0
 10
14.1075356782
 20
12.0445960901
 30
0.0
 10
14.1075947659
 20
12.0748386577
 30
0.0
 10
14.1019394369
 20
12.1123758912
 30
0.0
 10
14.0945138028
 20
12.1373932524
 30
0.0
 10
14.0899204426
 20
12.1500491411
 30
0.0
  0
SPLINE
  5
436
100
AcDbEntity
  8
0
100
AcDbSpline
 62
7
  6
CONTINUOUS
 70
0
 71
3
 72
9
 73
5
 74
0
 42
0.0000001
 43
0.0000001
 44
0.0000000001
 40
0.0
 40
0.0
 40
0.0
 40
0.0
 40
0.2438512047
 40
1.0
 40
1.0
 40
1.0
 40
1.0
 10
14.0899204426
 20
12.1500491411
 30
0.0
 10
14.0888405842
 20
12.1530244287
 30
0.0
 10
14.0842405479
 20
12.1651629451
 30
0.0
 10
14.078968474
 20
12.1770445428
 30
0.0
 10
14.0746569247
 20
12.1858616382
 30
0.0
  0
SPLINE
  5
437
100
AcDbEntity
  8
0
100
AcDbSpline
 62
7
  6
CONTINUOUS
 70
0
 71
3
 72
15
 73
11
 74
0
 42
0.0000001
 43
0.0000001
 44
0.0000000001
 40
0.0
 40
0.0
 40
0.0
 40
0.0
 40
0.1109994984
 40
0.2297143248
 40
0.3547094026
 40
0.4840220849
 40
0.6154424385
 40
0.7467894111
 40
0.8758318155
 40
1.0
 40
1.0
 40
1.0
 40
1.0
 10
14.7263461546
 20
11.3083424244
 30
0.0
 10
14.7278749582
 20
11.3066677921
 30
0.0
 10
14.7312959403
 20
11.3034322795
 30
0.0
 10
14.7371290047
 20
11.2991097271
 30
0.0
 10
14.7437128121
 20
11.2952462697
 30
0.0
 10
14.7508746498
 20
11.291932116
 30
0.0
 10
14.7584369482
 20
11.2892590626
 30
0.0
 10
14.7662070592
 20
11.2872901908
 30
0.0
 10
14.7739812315
 20
11.2860853475
 30
0.0
 10
14.7791566996
 20
11.2857949452
 30
0.0
 10
14.781693229
 20
11.2857949452
 30
0.0
  0
SPLINE
  5
438
100
AcDbEntity
  8
0
100
AcDbSpline
 62
7
  6
CONTINUOUS
 70
0
 71
3
 72
14
 73
10
 74
0
 42
0.0000001
 43
0.0000001
 44
0.0000000001
 40
0.0
 40
0.0
 40
0.0
 40
0.0
 40
0.2892758036
 40
0.4224841871
 40
0.5484208539
 40
0.6678226812
 40
0.7818078886
 40
0.891925648
 40
1.0
 40
1.0
 40
1.0
 40
1.0
 10
15.8252677556
 20
11.2967087492
 30
0.0
 10
15.8300819339
 20
11.2978409603
 30
0.0
 10
15.8370162721
 20
11.3000595851
 30
0.0
 10
15.8453921523
 20
11.3043082223
 30
0.0
 10
15.8507977256
 20
11.3078972921
 30
0.0
 10
15.855445927
 20
11.3119431431
 30
0.0
 10
15.8592835354
 20
11.3164187017
 30
0.0
 10
15.8622724601
 20
11.3212752301
 30
0.0
 10
15.8636817033
 20
11.3247517197
 30
0.0
 10
15.8642272015
 20
11.3265170221
 30
0.0
  0
SPLINE
  5
439
100
AcDbEntity
  8
0
100
AcDbSpline
 62
7
  6
CONTINUOUS
 70
0
 71
3
 72
23
 73
19
 74
0
 42
0.0000001
 43
0.0000001
 44
0.0000000001
 40
0.0
 40
0.0
 40
0.0
 40
0.0
 40
0.0504420703
 40
0.101716593
 40
0.1545517033
 40
0.2095117447
 40
0.2669499481
 40
0.3270091683
 40
0.389635263
 40
0.4546016954
 40
0.5215443486
 40
0.5899934632
 40
0.6594049619
 40
0.7291751634
 40
0.7986830292
 40
0.8673687138
 40
0.9346882005
 40
1.0
 40
1.0
 40
1.0
 40
1.0
 10
17.1267890699
 20
12.2411202712
 30
0.0
 10
17.1285864889
 20
12.2374589233
 30
0.0
 10
17.1315162699
 20
12.2297123897
 30
0.0
 10
17.1337125542
 20
12.217343216
 30
0.0
 10
17.1336974899
 20
12.2044172868
 30
0.0
 10
17.1314869774
 20
12.1911847737
 30
0.0
 10
17.1271329349
 20
12.1778862857
 30
0.0
 10
17.1207299122
 20
12.1647576978
 30
0.0
 10
17.1123938986
 20
12.1520348803
 30
0.0
 10
17.1022862621
 20
12.1399388336
 30
0.0
 10
17.0905842605
 20
12.1286909353
 30
0.0
 10
17.0775065129
 20
12.1184851195
 30
0.0
 10
17.0632828717
 20
12.1095145095
 30
0.0
 10
17.0481791035
 20
12.101929534
 30
0.0
 10
17.0324613636
 20
12.0958769679
 30
0.0
 10
17.0164120677
 20
12.091458104
 30
0.0
 10
17.0003288261
 20
12.0887693197
 30
0.0
 10
16.9895966109
 20
12.0881371462
 30
0.0
 10
16.9843154963
 20
12.0881371462
 30
0.0
  0
SPLINE
  5
43A
100
AcDbEntity
  8
0
100
AcDbSpline
 62
7
  6
CONTINUOUS
 70
0
 71
3
 72
10
 73
6
 74
0
 42
0.0000001
 43
0.0000001
 44
0.0000000001
 40
0.0
 40
0.0
 40
0.0
 40
0.0
 40
0.5099701612
 40
0.7587222466
 40
1.0
 40
1.0
 40
1.0
 40
1.0
 10
13.9977722653
 20
12.1025019209
 30
0.0
 10
13.9874616481
 20
12.0978834239
 30
0.0
 10
13.9713822164
 20
12.0924843151
 30
0.0
 10
13.9495119227
 20
12.0887850097
 30
0.0
 10
13.9386461639
 20
12.0881371462
 30
0.0
 10
13.9333009537
 20
12.0881371462
 30
0.0
  0
SPLINE
  5
43B
100
AcDbEntity
  8
0
100
AcDbSpline
 62
7
  6
CONTINUOUS
 70
0
 71
3
 72
13
 73
9
 74
0
 42
0.0000001
 43
0.0000001
 44
0.0000000001
 40
0.0
 40
0.0
 40
0.0
 40
0.0
 40
0.2529366115
 40
0.5026510957
 40
0.6271868989
 40
0.7515026803
 40
0.8756838084
 40
1.0
 40
1.0
 40
1.0
 40
1.0
 10
17.3571749046
 20
12.6309065186
 30
0.0
 10
17.3651463874
 20
12.6309065186
 30
0.0
 10
17.3810601452
 20
12.629078906
 30
0.0
 10
17.399715395
 20
12.621795859
 30
0.0
 10
17.4128493185
 20
12.6130832743
 30
0.0
 10
17.4216327444
 20
12.6052008281
 30
0.0
 10
17.4291144949
 20
12.5960850258
 30
0.0
 10
17.4331187445
 20
12.5893116811
 30
0.0
 10
17.4348447538
 20
12.585794444
 30
0.0
  0
SPLINE
  5
43C
100
AcDbEntity
  8
0
100
AcDbSpline
 62
7
  6
CONTINUOUS
 70
0
 71
3
 72
11
 73
7
 74
0
 42
0.0000001
 43
0.0000001
 44
0.0000000001
 40
0.0
 40
0.0
 40
0.0
 40
0.0
 40
0.239040065
 40
0.4828737631
 40
0.7357657998
 40
1.0
 40
1.0
 40
1.0
 40
1.0
 10
17.5435144724
 20
12.3643451778
 30
0.0
 10
17.5450994698
 20
12.3611170404
 30
0.0
 10
17.5476252035
 20
12.354240471
 30
0.0
 10
17.5492632841
 20
12.3432216339
 30
0.0
 10
17.5487386535
 20
12.3317214933
 30
0.0
 10
17.5470225485
 20
12.3240897024
 30
0.0
 10
17.5458488528
 20
12.3202916219
 30
0.0
  0
SPLINE
  5
43D
100
AcDbEntity
  8
0
100
AcDbSpline
 62
7
  6
CONTINUOUS
 70
0
 71
3
 72
11
 73
7
 74
0
 42
0.0000001
 43
0.0000001
 44
0.0000000001
 40
0.0
 40
0.0
 40
0.0
 40
0.0
 40
0.2495803693
 40
0.4991529675
 40
0.7491342524
 40
1.0
 40
1.0
 40
1.0
 40
1.0
 10
13.4010935273
 20
11.7241505789
 30
0.0
 10
13.3988832831
 20
11.7286545831
 30
0.0
 10
13.3953484821
 20
11.7381285167
 30
0.0
 10
13.3929382491
 20
11.7530860416
 30
0.0
 10
13.3934021573
 20
11.7682499326
 30
0.0
 10
13.395553688
 20
11.7781490952
 30
0.0
 10
13.3970426007
 20
11.7829672184
 30
0.0
  0
SPLINE
  5
43E
100
AcDbEntity
  8
0
100
AcDbSpline
 62
7
  6
CONTINUOUS
 70
0
 71
3
 72
14
 73
10
 74
0
 42
0.0000001
 43
0.0000001
 44
0.0000000001
 40
0.0
 40
0.0
 40
0.0
 40
0.0
 40
0.1219644118
 40
0.2453011343
 40
0.3700383848
 40
0.4961263192
 40
0.6229883202
 40
0.7498517386
 40
1.0
 40
1.0
 40
1.0
 40
1.0
 10
13.6360830951
 20
12.5565025417
 30
0.0
 10
13.637737159
 20
12.5618550943
 30
0.0
 10
13.6421069772
 20
12.5723225889
 30
0.0
 10
13.6513458028
 20
12.5866815766
 30
0.0
 10
13.6629406235
 20
12.5994688627
 30
0.0
 10
13.676484453
 20
12.6104121551
 30
0.0
 10
13.6915840769
 20
12.619288826
 30
0.0
 10
13.7130757868
 20
12.6280109711
 30
0.0
 10
13.7305202235
 20
12.6309065186
 30
0.0
 10
13.7420105032
 20
12.6309065186
 30
0.0
  0
SPLINE
  5
43F
100
AcDbEntity
  8
0
100
AcDbSpline
 62
7
  6
CONTINUOUS
 70
0
 71
3
 72
9
 73
5
 74
0
 42
0.0000001
 43
0.0000001
 44
0.0000000001
 40
0.0
 40
0.0
 40
0.0
 40
0.0
 40
0.2598944772
 40
1.0
 40
1.0
 40
1.0
 40
1.0
 10
15.4470769587
 20
11.9229451627
 30
0.0
 10
15.449502153
 20
11.9180031363
 30
0.0
 10
15.4583120755
 20
11.8987412496
 30
0.0
 10
15.4649481083
 20
11.8784457814
 30
0.0
 10
15.4682310847
 20
11.8631166744
 30
0.0
  0
SPLINE
  5
440
100
AcDbEntity
  8
0
100
AcDbSpline
 62
7
  6
CONTINUOUS
 70
0
 71
3
 72
9
 73
5
 74
0
 42
0.0000001
 43
0.0000001
 44
0.0000000001
 40
0.0
 40
0.0
 40
0.0
 40
0.0
 40
0.5058525783
 40
1.0
 40
1.0
 40
1.0
 40
1.0
 10
15.4705825644
 20
11.8502754909
 30
0.0
 10
15.471550533
 20
11.84390057
 30
0.0
 10
15.4728860957
 20
11.8312023309
 30
0.0
 10
15.4729720929
 20
11.8184315301
 30
0.0
 10
15.4726897535
 20
11.8121390739
 30
0.0
  0
SPLINE
  5
441
100
AcDbEntity
  8
0
100
AcDbSpline
 62
7
  6
CONTINUOUS
 70
0
 71
3
 72
13
 73
9
 74
0
 42
0.0000001
 43
0.0000001
 44
0.0000000001
 40
0.0
 40
0.0
 40
0.0
 40
0.0
 40
0.2302811428
 40
0.3553241904
 40
0.4846826553
 40
0.6162224209
 40
0.7475838773
 40
1.0
 40
1.0
 40
1.0
 40
1.0
 10
15.6153119981
 20
12.1301787253
 30
0.0
 10
15.6170699337
 20
12.135552759
 30
0.0
 10
15.6216134364
 20
12.143295165
 30
0.0
 10
15.6298708838
 20
12.1518891886
 30
0.0
 10
15.6374047509
 20
12.1577002474
 30
0.0
 10
15.6458112369
 20
12.1624687351
 30
0.0
 10
15.6575960596
 20
12.167137069
 30
0.0
 10
15.6670763633
 20
12.1687312146
 30
0.0
 10
15.6732741116
 20
12.1687304706
 30
0.0
  0
SPLINE
  5
442
100
AcDbEntity
  8
0
100
AcDbSpline
 62
7
  6
CONTINUOUS
 70
0
 71
3
 72
15
 73
11
 74
0
 42
0.0000001
 43
0.0000001
 44
0.0000000001
 40
0.0
 40
0.0
 40
0.0
 40
0.0
 40
0.1212963542
 40
0.2441126929
 40
0.368104727
 40
0.4930278967
 40
0.6187265635
 40
0.7451394091
 40
0.8722978392
 40
1.0
 40
1.0
 40
1.0
 40
1.0
 10
16.5806751638
 20
12.1626606765
 30
0.0
 10
16.5851332191
 20
12.1535748038
 30
0.0
 10
16.5952403522
 20
12.1358267482
 30
0.0
 10
16.6134056207
 20
12.1109867913
 30
0.0
 10
16.6343972515
 20
12.088068264
 30
0.0
 10
16.6579412058
 20
12.0674145182
 30
0.0
 10
16.6837908149
 20
12.0493708361
 30
0.0
 10
16.711689735
 20
12.0342831954
 30
0.0
 10
16.7413292778
 20
12.0225301893
 30
0.0
 10
16.7619633052
 20
12.0171287724
 30
0.0
 10
16.7724203531
 20
12.0150838317
 30
0.0
  0
SPLINE
  5
443
100
AcDbEntity
  8
0
100
AcDbSpline
 62
7
  6
CONTINUOUS
 70
0
 71
3
 72
10
 73
6
 74
0
 42
0.0000001
 43
0.0000001
 44
0.0000000001
 40
0.0
 40
0.0
 40
0.0
 40
0.0
 40
0.5229526578
 40
0.7679841999
 40
1.0
 40
1.0
 40
1.0
 40
1.0
 10
14.2371741004
 20
13.1307259798
 30
0.0
 10
14.237736971
 20
13.1449405115
 30
0.0
 10
14.2397146971
 20
13.1658065785
 30
0.0
 10
14.2448854871
 20
13.1925273705
 30
0.0
 10
14.2482311653
 20
13.2050805714
 30
0.0
 10
14.2500950375
 20
13.2111105105
 30
0.0
  0
SPLINE
  5
444
100
AcDbEntity
  8
0
100
AcDbSpline
 62
7
  6
CONTINUOUS
 70
0
 71
3
 72
18
 73
14
 74
0
 42
0.0000001
 43
0.0000001
 44
0.0000000001
 40
0.0
 40
0.0
 40
0.0
 40
0.0
 40
0.1132885216
 40
0.2311021595
 40
0.2916591566
 40
0.3532615684
 40
0.4158635101
 40
0.4794037929
 40
0.6087438137
 40
0.7399881802
 40
0.8057562349
 40
0.8712433121
 40
1.0
 40
1.0
 40
1.0
 40
1.0
 10
15.9106121304
 20
12.5838190064
 30
0.0
 10
15.897238632
 20
12.5973562975
 30
0.0
 10
15.8695400554
 20
12.6245590702
 30
0.0
 10
15.8340411143
 20
12.6583211223
 30
0.0
 10
15.8047606215
 20
12.6860235327
 30
0.0
 10
15.7822705471
 20
12.7074090616
 30
0.0
 10
15.7595562291
 20
12.7292855425
 30
0.0
 10
15.7289490877
 20
12.7593659108
 30
0.0
 10
15.6909954221
 20
12.7984161056
 30
0.0
 10
15.654783546
 20
12.839625177
 30
0.0
 10
15.6276430339
 20
12.8743952624
 30
0.0
 10
15.6023994004
 20
12.9100409098
 30
0.0
 10
15.5857473489
 20
12.9382433298
 30
0.0
 10
15.576219426
 20
12.9576588158
 30
0.0
  0
SPLINE
  5
445
100
AcDbEntity
  8
0
100
AcDbSpline
 62
7
  6
CONTINUOUS
 70
0
 71
3
 72
11
 73
7
 74
0
 42
0.0000001
 43
0.0000001
 44
0.0000000001
 40
0.0
 40
0.0
 40
0.0
 40
0.0
 40
0.2395821449
 40
0.4835115396
 40
0.7358432269
 40
1.0
 40
1.0
 40
1.0
 40
1.0
 10
14.4774300833
 20
12.0733361855
 30
0.0
 10
14.4746880554
 20
12.0644600646
 30
0.0
 10
14.4706484297
 20
12.0460472037
 30
0.0
 10
14.4691877412
 20
12.0174334559
 30
0.0
 10
14.4722803925
 20
11.9880012997
 30
0.0
 10
14.4772258651
 20
11.9685193925
 30
0.0
 10
14.4803658619
 20
11.9587696423
 30
0.0
  0
SPLINE
  5
446
100
AcDbEntity
  8
0
100
AcDbSpline
 62
7
  6
CONTINUOUS
 70
0
 71
3
 72
9
 73
5
 74
0
 42
0.0000001
 43
0.0000001
 44
0.0000000001
 40
0.0
 40
0.0
 40
0.0
 40
0.0
 40
0.2448983542
 40
1.0
 40
1.0
 40
1.0
 40
1.0
 10
14.4803658619
 20
11.9587696423
 30
0.0
 10
14.4812137114
 20
11.9561370537
 30
0.0
 10
14.4848585477
 20
11.9454466937
 30
0.0
 10
14.4892152502
 20
11.9350020735
 30
0.0
 10
14.4928446458
 20
11.9272852524
 30
0.0
  0
SPLINE
  5
447
100
AcDbEntity
  8
0
100
AcDbSpline
 62
7
  6
CONTINUOUS
 70
0
 71
3
 72
11
 73
7
 74
0
 42
0.0000001
 43
0.0000001
 44
0.0000000001
 40
0.0
 40
0.0
 40
0.0
 40
0.0
 40
0.2433459373
 40
0.4895177605
 40
0.7411653334
 40
1.0
 40
1.0
 40
1.0
 40
1.0
 10
16.2218830036
 20
12.9967928792
 30
0.0
 10
16.2189211114
 20
13.0028313092
 30
0.0
 10
16.2119959841
 20
13.0145294037
 30
0.0
 10
16.1989193241
 20
13.0303967168
 30
0.0
 10
16.1833034822
 20
13.0444153452
 30
0.0
 10
16.1715393203
 20
13.0522973549
 30
0.0
 10
16.1653479456
 20
13.0558812022
 30
0.0
  0
SPLINE
  5
448
100
AcDbEntity
  8
0
100
AcDbSpline
 62
7
  6
CONTINUOUS
 70
0
 71
3
 72
9
 73
5
 74
0
 42
0.0000001
 43
0.0000001
 44
0.0000000001
 40
0.0
 40
0.0
 40
0.0
 40
0.0
 40
0.5203363028
 40
1.0
 40
1.0
 40
1.0
 40
1.0
 10
14.6006530745
 20
12.4681751655
 30
0.0
 10
14.6021848227
 20
12.47310719
 30
0.0
 10
14.605811854
 20
12.4823915428
 30
0.0
 10
14.6107330795
 20
12.4910467429
 30
0.0
 10
14.6133328172
 20
12.495034962
 30
0.0
  0
SPLINE
  5
449
100
AcDbEntity
  8
0
100
AcDbSpline
 62
7
  6
CONTINUOUS
 70
0
 71
3
 72
9
 73
5
 74
0
 42
0.0000001
 43
0.0000001
 44
0.0000000001
 40
0.0
 40
0.0
 40
0.0
 40
0.0
 40
0.5148374117
 40
1.0
 40
1.0
 40
1.0
 40
1.0
 10
14.5943956006
 20
12.4340596546
 30
0.0
 10
14.5949493622
 20
12.4399941816
 30
0.0
 10
14.5963786859
 20
12.4514944495
 30
0.0
 10
14.5989871603
 20
12.4628111445
 30
0.0
 10
14.6006530745
 20
12.4681751655
 30
0.0
  0
SPLINE
  5
44A
100
AcDbEntity
  8
0
100
AcDbSpline
 62
7
  6
CONTINUOUS
 70
0
 71
3
 72
9
 73
5
 74
0
 42
0.0000001
 43
0.0000001
 44
0.0000000001
 40
0.0
 40
0.0
 40
0.0
 40
0.0
 40
0.4975498959
 40
1.0
 40
1.0
 40
1.0
 40
1.0
 10
14.6422179812
 20
12.5193365056
 30
0.0
 10
14.6476930385
 20
12.5228630686
 30
0.0
 10
14.6592165453
 20
12.5291607087
 30
0.0
 10
14.6713475159
 20
12.5341271161
 30
0.0
 10
14.6775254139
 20
12.5363823347
 30
0.0
  0
SPLINE
  5
44B
100
AcDbEntity
  8
0
100
AcDbSpline
 62
7
  6
CONTINUOUS
 70
0
 71
3
 72
9
 73
5
 74
0
 42
0.0000001
 43
0.0000001
 44
0.0000000001
 40
0.0
 40
0.0
 40
0.0
 40
0.0
 40
0.4938327049
 40
1.0
 40
1.0
 40
1.0
 40
1.0
 10
14.6133328172
 20
12.495034962
 30
0.0
 10
14.6176232046
 20
12.4995454418
 30
0.0
 10
14.6267222513
 20
12.5083055333
 30
0.0
 10
14.6368538405
 20
12.5158813857
 30
0.0
 10
14.6422179812
 20
12.5193365056
 30
0.0
  0
SPLINE
  5
44C
100
AcDbEntity
  8
0
100
AcDbSpline
 62
7
  6
CONTINUOUS
 70
0
 71
3
 72
9
 73
5
 74
0
 42
0.0000001
 43
0.0000001
 44
0.0000000001
 40
0.0
 40
0.0
 40
0.0
 40
0.0
 40
0.501193739
 40
1.0
 40
1.0
 40
1.0
 40
1.0
 10
14.5518819624
 20
13.2887898509
 30
0.0
 10
14.5488571124
 20
13.2880104021
 30
0.0
 10
14.542711405
 20
13.2868517184
 30
0.0
 10
14.5364589887
 20
13.2865778303
 30
0.0
 10
14.5333518457
 20
13.2866787393
 30
0.0
  0
SPLINE
  5
44D
100
AcDbEntity
  8
0
100
AcDbSpline
 62
7
  6
CONTINUOUS
 70
0
 71
3
 72
16
 73
12
 74
0
 42
0.0000001
 43
0.0000001
 44
0.0000000001
 40
0.0
 40
0.0
 40
0.0
 40
0.0
 40
0.1246378001
 40
0.2495627909
 40
0.3122417872
 40
0.3749807829
 40
0.5002904951
 40
0.6255322037
 40
0.750520201
 40
0.8751248875
 40
1.0
 40
1.0
 40
1.0
 40
1.0
 10
14.5333518457
 20
13.2866787393
 30
0.0
 10
14.5289982873
 20
13.2868201274
 30
0.0
 10
14.520279067
 20
13.288032139
 30
0.0
 10
14.5099987105
 20
13.2919953121
 30
0.0
 10
14.5025066267
 20
13.2965505985
 30
0.0
 10
14.4956125095
 20
13.3019890687
 30
0.0
 10
14.4883097299
 20
13.3103049963
 30
0.0
 10
14.4822375263
 20
13.3220838727
 30
0.0
 10
14.4791416103
 20
13.3349374606
 30
0.0
 10
14.479013383
 20
13.3481262174
 30
0.0
 10
14.4807936352
 20
13.3567333202
 30
0.0
 10
14.4820821383
 20
13.3609029175
 30
0.0
  0
SPLINE
  5
44E
100
AcDbEntity
  8
0
100
AcDbSpline
 62
7
  6
CONTINUOUS
 70
0
 71
3
 72
9
 73
5
 74
0
 42
0.0000001
 43
0.0000001
 44
0.0000000001
 40
0.0
 40
0.0
 40
0.0
 40
0.0
 40
0.4690701995
 40
1.0
 40
1.0
 40
1.0
 40
1.0
 10
14.6969419696
 20
12.5301962247
 30
0.0
 10
14.70112162
 20
12.5283834479
 30
0.0
 10
14.7098421811
 20
12.5240836325
 30
0.0
 10
14.7183190651
 20
12.5193397377
 30
0.0
 10
14.722780794
 20
12.5167544001
 30
0.0
  0
SPLINE
  5
44F
100
AcDbEntity
  8
0
100
AcDbSpline
 62
7
  6
CONTINUOUS
 70
0
 71
3
 72
9
 73
5
 74
0
 42
0.0000001
 43
0.0000001
 44
0.0000000001
 40
0.0
 40
0.0
 40
0.0
 40
0.0
 40
0.4466308076
 40
1.0
 40
1.0
 40
1.0
 40
1.0
 10
14.6775254139
 20
12.5363823347
 30
0.0
 10
14.6805146674
 20
12.5358353062
 30
0.0
 10
14.6871280461
 20
12.5341531643
 30
0.0
 10
14.6934877196
 20
12.5316943846
 30
0.0
 10
14.6969419696
 20
12.5301962247
 30
0.0
  0
SPLINE
  5
450
100
AcDbEntity
  8
0
100
AcDbSpline
 62
7
  6
CONTINUOUS
 70
0
 71
3
 72
9
 73
5
 74
0
 42
0.0000001
 43
0.0000001
 44
0.0000000001
 40
0.0
 40
0.0
 40
0.0
 40
0.0
 40
0.4970296855
 40
1.0
 40
1.0
 40
1.0
 40
1.0
 10
14.4820821383
 20
13.3609029175
 30
0.0
 10
14.4832277935
 20
13.3646102594
 30
0.0
 10
14.4861785492
 20
13.3718811339
 30
0.0
 10
14.4902165796
 20
13.3786001208
 30
0.0
 10
14.4924765428
 20
13.3818112819
 30
0.0
  0
SPLINE
  5
451
100
AcDbEntity
  8
0
100
AcDbSpline
 62
7
  6
CONTINUOUS
 70
0
 71
3
 72
22
 73
18
 74
0
 42
0.0000001
 43
0.0000001
 44
0.0000000001
 40
0.0
 40
0.0
 40
0.0
 40
0.0
 40
0.1269339965
 40
0.1906563828
 40
0.2540536895
 40
0.316901973
 40
0.3792409391
 40
0.4412371647
 40
0.50308669
 40
0.5649904784
 40
0.6269890985
 40
0.6891067565
 40
0.7513264291
 40
0.813571712
 40
0.8757958007
 40
0.9379432694
 40
1.0
 40
1.0
 40
1.0
 40
1.0
 10
14.4924765428
 20
13.3818112819
 30
0.0
 10
14.496313235
 20
13.3872628028
 30
0.0
 10
14.5031103947
 20
13.3947805739
 30
0.0
 10
14.5136327377
 20
13.4030143427
 30
0.0
 10
14.5221740766
 20
13.4082194938
 30
0.0
 10
14.5312207285
 20
13.4123132812
 30
0.0
 10
14.5406573378
 20
13.4151731416
 30
0.0
 10
14.5503534793
 20
13.4166805663
 30
0.0
 10
14.5601484512
 20
13.416706447
 30
0.0
 10
14.5698258012
 20
13.4151597125
 30
0.0
 10
14.5791184948
 20
13.4119902985
 30
0.0
 10
14.5877310317
 20
13.4072345476
 30
0.0
 10
14.5953569847
 20
13.4009954964
 30
0.0
 10
14.6017363953
 20
13.3934791508
 30
0.0
 10
14.6066443438
 20
13.3849327734
 30
0.0
 10
14.6099388202
 20
13.3756601399
 30
0.0
 10
14.6110243125
 20
13.3691902968
 30
0.0
 10
14.61129499
 20
13.3659424806
 30
0.0
  0
SPLINE
  5
452
100
AcDbEntity
  8
0
100
AcDbSpline
 62
7
  6
CONTINUOUS
 70
0
 71
3
 72
9
 73
5
 74
0
 42
0.0000001
 43
0.0000001
 44
0.0000000001
 40
0.0
 40
0.0
 40
0.0
 40
0.0
 40
0.2495347149
 40
1.0
 40
1.0
 40
1.0
 40
1.0
 10
14.6113428622
 20
13.3567782825
 30
0.0
 10
14.6112555621
 20
13.3555604118
 30
0.0
 10
14.6107594266
 20
13.350691028
 30
0.0
 10
14.6096904881
 20
13.3458832737
 30
0.0
 10
14.6086063121
 20
13.342374879
 30
0.0
  0
SPLINE
  5
453
100
AcDbEntity
  8
0
100
AcDbSpline
 62
7
  6
CONTINUOUS
 70
0
 71
3
 72
9
 73
5
 74
0
 42
0.0000001
 43
0.0000001
 44
0.0000000001
 40
0.0
 40
0.0
 40
0.0
 40
0.0
 40
0.5948619518
 40
1.0
 40
1.0
 40
1.0
 40
1.0
 10
14.528443484
 20
13.2877051605
 30
0.0
 10
14.5295460935
 20
13.286434253
 30
0.0
 10
14.5311161846
 20
13.2840486988
 30
0.0
 10
14.5321850592
 20
13.2813938785
 30
0.0
 10
14.5324147701
 20
13.2802712214
 30
0.0
  0
SPLINE
  5
454
100
AcDbEntity
  8
0
100
AcDbSpline
 62
7
  6
CONTINUOUS
 70
0
 71
3
 72
22
 73
18
 74
0
 42
0.0000001
 43
0.0000001
 44
0.0000000001
 40
0.0
 40
0.0
 40
0.0
 40
0.0
 40
0.0702223268
 40
0.1213053568
 40
0.1397022983
 40
0.1533376976
 40
0.1663694113
 40
0.1713927857
 40
0.1929250227
 40
0.2295420594
 40
0.279960171
 40
0.3430594041
 40
0.4175277523
 40
0.5015178637
 40
0.5931344032
 40
0.7917999104
 40
1.0
 40
1.0
 40
1.0
 40
1.0
 10
14.6165388351
 20
13.3559700262
 30
0.0
 10
14.6167837984
 20
13.3559698408
 30
0.0
 10
14.6172126161
 20
13.3559602871
 30
0.0
 10
14.6176833629
 20
13.355932942
 30
0.0
 10
14.6179933236
 20
13.3559004586
 30
0.0
 10
14.6181081992
 20
13.3558903443
 30
0.0
 10
14.6183279465
 20
13.3558527623
 30
0.0
 10
14.618147451
 20
13.3558954895
 30
0.0
 10
14.6179697157
 20
13.3559438187
 30
0.0
 10
14.6175877493
 20
13.3560640437
 30
0.0
 10
14.6171068989
 20
13.3562476589
 30
0.0
 10
14.6165054386
 20
13.3565186128
 30
0.0
 10
14.6158220891
 20
13.356877962
 30
0.0
 10
14.6150696127
 20
13.3573206978
 30
0.0
 10
14.6139763201
 20
13.3580347645
 30
0.0
 10
14.6125877836
 20
13.3590866937
 30
0.0
 10
14.6115553341
 20
13.3600660038
 30
0.0
 10
14.6110581905
 20
13.3605954731
 30
0.0
  0
SPLINE
  5
455
100
AcDbEntity
  8
0
100
AcDbSpline
 62
7
  6
CONTINUOUS
 70
0
 71
3
 72
9
 73
5
 74
0
 42
0.0000001
 43
0.0000001
 44
0.0000000001
 40
0.0
 40
0.0
 40
0.0
 40
0.0
 40
0.5148775519
 40
1.0
 40
1.0
 40
1.0
 40
1.0
 10
13.9547493669
 20
13.0882030051
 30
0.0
 10
13.9651615631
 20
13.0963590218
 30
0.0
 10
13.9865476304
 20
13.110761156
 30
0.0
 10
14.0095178993
 20
13.1223779399
 30
0.0
 10
14.0208957825
 20
13.1274615706
 30
0.0
  0
SPLINE
  5
456
100
AcDbEntity
  8
0
100
AcDbSpline
 62
7
  6
CONTINUOUS
 70
0
 71
3
 72
11
 73
7
 74
0
 42
0.0000001
 43
0.0000001
 44
0.0000000001
 40
0.0
 40
0.0
 40
0.0
 40
0.0
 40
0.241259652
 40
0.4906269151
 40
0.744420182
 40
1.0
 40
1.0
 40
1.0
 40
1.0
 10
14.1251557187
 20
13.1481514318
 30
0.0
 10
14.1353418911
 20
13.1481514318
 30
0.0
 10
14.1560661099
 20
13.1470640019
 30
0.0
 10
14.1872190085
 20
13.1426830075
 30
0.0
 10
14.2185763391
 20
13.1360346991
 30
0.0
 10
14.2393567152
 20
13.130462313
 30
0.0
 10
14.2497218732
 20
13.1274615706
 30
0.0
  0
SPLINE
  5
457
100
AcDbEntity
  8
0
100
AcDbSpline
 62
7
  6
CONTINUOUS
 70
0
 71
3
 72
12
 73
8
 74
0
 42
0.0000001
 43
0.0000001
 44
0.0000000001
 40
0.0
 40
0.0
 40
0.0
 40
0.0
 40
0.2297977084
 40
0.4715949932
 40
0.597848905
 40
0.728046684
 40
1.0
 40
1.0
 40
1.0
 40
1.0
 10
14.0208957825
 20
13.1274615706
 30
0.0
 10
14.0284902818
 20
13.1305328591
 30
0.0
 10
14.0443180166
 20
13.1362601949
 30
0.0
 10
14.0649566016
 20
13.1417134238
 30
0.0
 10
14.0824259388
 20
13.1449655283
 30
0.0
 10
14.1011077851
 20
13.1474300473
 30
0.0
 10
14.1154608977
 20
13.1481514318
 30
0.0
 10
14.1251557187
 20
13.1481514318
 30
0.0
  0
SPLINE
  5
458
100
AcDbEntity
  8
0
100
AcDbSpline
 62
7
  6
CONTINUOUS
 70
0
 71
3
 72
10
 73
6
 74
0
 42
0.0000001
 43
0.0000001
 44
0.0000000001
 40
0.0
 40
0.0
 40
0.0
 40
0.0
 40
0.2221703936
 40
0.4674801947
 40
1.0
 40
1.0
 40
1.0
 40
1.0
 10
13.8754141395
 20
12.8953485111
 30
0.0
 10
13.878311888
 20
12.8875134477
 30
0.0
 10
13.8845373728
 20
12.8710746471
 30
0.0
 10
13.8982193802
 20
12.836051229
 30
0.0
 10
13.909171794
 20
12.8089315283
 30
0.0
 10
13.916733101
 20
12.7903910096
 30
0.0
  0
SPLINE
  5
459
100
AcDbEntity
  8
0
100
AcDbSpline
 62
7
  6
CONTINUOUS
 70
0
 71
3
 72
11
 73
7
 74
0
 42
0.0000001
 43
0.0000001
 44
0.0000000001
 40
0.0
 40
0.0
 40
0.0
 40
0.0
 40
0.3243588936
 40
0.5956138137
 40
0.818053852
 40
1.0
 40
1.0
 40
1.0
 40
1.0
 10
13.8754141395
 20
12.8953485111
 30
0.0
 10
13.8729020298
 20
12.9021408669
 30
0.0
 10
13.8683718712
 20
12.9146445741
 30
0.0
 10
13.8624726858
 20
12.9319319256
 30
0.0
 10
13.8579324408
 20
12.9463191768
 30
0.0
 10
13.8554516354
 20
12.9550020547
 30
0.0
 10
13.8544013964
 20
12.9589262901
 30
0.0
  0
SPLINE
  5
45A
100
AcDbEntity
  8
0
100
AcDbSpline
 62
7
  6
CONTINUOUS
 70
0
 71
3
 72
10
 73
6
 74
0
 42
0.0000001
 43
0.0000001
 44
0.0000000001
 40
0.0
 40
0.0
 40
0.0
 40
0.0
 40
0.4947551295
 40
0.7472594332
 40
1.0
 40
1.0
 40
1.0
 40
1.0
 10
13.9274954803
 20
13.0638837916
 30
0.0
 10
13.9126275131
 20
13.0488335723
 30
0.0
 10
13.8926015661
 20
13.0236414115
 30
0.0
 10
13.8698471798
 20
12.9874355011
 30
0.0
 10
13.8594122128
 20
12.9685016322
 30
0.0
 10
13.8544013964
 20
12.9589262901
 30
0.0
  0
SPLINE
  5
45B
100
AcDbEntity
  8
0
100
AcDbSpline
 62
7
  6
CONTINUOUS
 70
0
 71
3
 72
11
 73
7
 74
0
 42
0.0000001
 43
0.0000001
 44
0.0000000001
 40
0.0
 40
0.0
 40
0.0
 40
0.0
 40
0.2607229346
 40
0.5125166623
 40
0.7579144878
 40
1.0
 40
1.0
 40
1.0
 40
1.0
 10
13.8846173213
 20
12.8676409481
 30
0.0
 10
13.8831321064
 20
12.859795215
 30
0.0
 10
13.8812802404
 20
12.8441409913
 30
0.0
 10
13.8821236952
 20
12.8208483744
 30
0.0
 10
13.8866308082
 20
12.7985563986
 30
0.0
 10
13.8920594722
 20
12.7845555735
 30
0.0
 10
13.8953245858
 20
12.7778989641
 30
0.0
  0
SPLINE
  5
45C
100
AcDbEntity
  8
0
100
AcDbSpline
 62
7
  6
CONTINUOUS
 70
0
 71
3
 72
11
 73
7
 74
0
 42
0.0000001
 43
0.0000001
 44
0.0000000001
 40
0.0
 40
0.0
 40
0.0
 40
0.0
 40
0.2477464036
 40
0.4995447239
 40
0.7515730788
 40
1.0
 40
1.0
 40
1.0
 40
1.0
 10
15.3257245511
 20
13.701748721
 30
0.0
 10
15.3545039794
 20
13.6983415053
 30
0.0
 10
15.4122430065
 20
13.6887679634
 30
0.0
 10
15.4974908537
 20
13.6668486384
 30
0.0
 10
15.5806208667
 20
13.6376760934
 30
0.0
 10
15.6340489832
 20
13.6135253193
 30
0.0
 10
15.6599495112
 20
13.6003477804
 30
0.0
  0
SPLINE
  5
45D
100
AcDbEntity
  8
0
100
AcDbSpline
 62
7
  6
CONTINUOUS
 70
0
 71
3
 72
10
 73
6
 74
0
 42
0.0000001
 43
0.0000001
 44
0.0000000001
 40
0.0
 40
0.0
 40
0.0
 40
0.0
 40
0.2425231997
 40
0.4911457202
 40
1.0
 40
1.0
 40
1.0
 40
1.0
 10
16.0056552481
 20
13.1481514318
 30
0.0
 10
16.0117771442
 20
13.1481514318
 30
0.0
 10
16.0241776234
 20
13.1477562695
 30
0.0
 10
16.049332012
 20
13.1455376794
 30
0.0
 10
16.0682262963
 20
13.1423879658
 30
0.0
 10
16.080809862
 20
13.1398107948
 30
0.0
  0
SPLINE
  5
45E
100
AcDbEntity
  8
0
100
AcDbSpline
 62
7
  6
CONTINUOUS
 70
0
 71
3
 72
9
 73
5
 74
0
 42
0.0000001
 43
0.0000001
 44
0.0000000001
 40
0.0
 40
0.0
 40
0.0
 40
0.0
 40
0.2491025566
 40
1.0
 40
1.0
 40
1.0
 40
1.0
 10
16.080809862
 20
13.1398107948
 30
0.0
 10
16.0849535709
 20
13.1389621445
 30
0.0
 10
16.1015462895
 20
13.1353510207
 30
0.0
 10
16.1179741943
 20
13.1310071718
 30
0.0
 10
16.1302214027
 20
13.1274615706
 30
0.0
  0
SPLINE
  5
45F
100
AcDbEntity
  8
0
100
AcDbSpline
 62
7
  6
CONTINUOUS
 70
0
 71
3
 72
12
 73
8
 74
0
 42
0.0000001
 43
0.0000001
 44
0.0000000001
 40
0.0
 40
0.0
 40
0.0
 40
0.0
 40
0.2297977084
 40
0.4715949932
 40
0.597848905
 40
0.728046684
 40
1.0
 40
1.0
 40
1.0
 40
1.0
 10
15.901395312
 20
13.1274615706
 30
0.0
 10
15.9089898112
 20
13.1305328591
 30
0.0
 10
15.924817546
 20
13.1362601949
 30
0.0
 10
15.945456131
 20
13.1417134238
 30
0.0
 10
15.9629254682
 20
13.1449655283
 30
0.0
 10
15.9816073146
 20
13.1474300473
 30
0.0
 10
15.9959604271
 20
13.1481514318
 30
0.0
 10
16.0056552481
 20
13.1481514318
 30
0.0
  0
SPLINE
  5
460
100
AcDbEntity
  8
0
100
AcDbSpline
 62
7
  6
CONTINUOUS
 70
0
 71
3
 72
10
 73
6
 74
0
 42
0.0000001
 43
0.0000001
 44
0.0000000001
 40
0.0
 40
0.0
 40
0.0
 40
0.0
 40
0.2221703936
 40
0.4674801947
 40
1.0
 40
1.0
 40
1.0
 40
1.0
 10
15.755913669
 20
12.8953485111
 30
0.0
 10
15.7588114174
 20
12.8875134477
 30
0.0
 10
15.7650369022
 20
12.8710746471
 30
0.0
 10
15.7787189096
 20
12.836051229
 30
0.0
 10
15.7896713234
 20
12.8089315283
 30
0.0
 10
15.7972326304
 20
12.7903910096
 30
0.0
  0
SPLINE
  5
461
100
AcDbEntity
  8
0
100
AcDbSpline
 62
7
  6
CONTINUOUS
 70
0
 71
3
 72
11
 73
7
 74
0
 42
0.0000001
 43
0.0000001
 44
0.0000000001
 40
0.0
 40
0.0
 40
0.0
 40
0.0
 40
0.3243588936
 40
0.5956138137
 40
0.818053852
 40
1.0
 40
1.0
 40
1.0
 40
1.0
 10
15.755913669
 20
12.8953485111
 30
0.0
 10
15.7534015592
 20
12.9021408669
 30
0.0
 10
15.7488714006
 20
12.9146445741
 30
0.0
 10
15.7429722153
 20
12.9319319256
 30
0.0
 10
15.7384319702
 20
12.9463191768
 30
0.0
 10
15.7359511648
 20
12.9550020547
 30
0.0
 10
15.7349009259
 20
12.9589262901
 30
0.0
  0
SPLINE
  5
462
100
AcDbEntity
  8
0
100
AcDbSpline
 62
7
  6
CONTINUOUS
 70
0
 71
3
 72
10
 73
6
 74
0
 42
0.0000001
 43
0.0000001
 44
0.0000000001
 40
0.0
 40
0.0
 40
0.0
 40
0.0
 40
0.4947551295
 40
0.7472594332
 40
1.0
 40
1.0
 40
1.0
 40
1.0
 10
15.8079950097
 20
13.0638837916
 30
0.0
 10
15.7931270426
 20
13.0488335723
 30
0.0
 10
15.7731010956
 20
13.0236414115
 30
0.0
 10
15.7503467093
 20
12.9874355011
 30
0.0
 10
15.7399117422
 20
12.9685016322
 30
0.0
 10
15.7349009259
 20
12.9589262901
 30
0.0
  0
SPLINE
  5
463
100
AcDbEntity
  8
0
100
AcDbSpline
 62
7
  6
CONTINUOUS
 70
0
 71
3
 72
12
 73
8
 74
0
 42
0.0000001
 43
0.0000001
 44
0.0000000001
 40
0.0
 40
0.0
 40
0.0
 40
0.0
 40
0.2668851009
 40
0.3960408044
 40
0.5221498806
 40
0.7659207382
 40
1.0
 40
1.0
 40
1.0
 40
1.0
 10
15.8079950097
 20
13.0638837916
 30
0.0
 10
15.8150994215
 20
13.0710752895
 30
0.0
 10
15.8262020356
 20
13.0812173395
 30
0.0
 10
15.8418257687
 20
13.0933546217
 30
0.0
 10
15.8573373522
 20
13.1041699702
 30
0.0
 10
15.8770184564
 20
13.1158962423
 30
0.0
 10
15.8933002558
 20
13.1238447048
 30
0.0
 10
15.901395312
 20
13.1274615706
 30
0.0
  0
SPLINE
  5
464
100
AcDbEntity
  8
0
100
AcDbSpline
 62
7
  6
CONTINUOUS
 70
0
 71
3
 72
11
 73
7
 74
0
 42
0.0000001
 43
0.0000001
 44
0.0000000001
 40
0.0
 40
0.0
 40
0.0
 40
0.0
 40
0.2607229346
 40
0.5125166623
 40
0.7579144878
 40
1.0
 40
1.0
 40
1.0
 40
1.0
 10
15.7651168507
 20
12.8676409481
 30
0.0
 10
15.7636316358
 20
12.859795215
 30
0.0
 10
15.7617797698
 20
12.8441409913
 30
0.0
 10
15.7626232246
 20
12.8208483744
 30
0.0
 10
15.7671303376
 20
12.7985563986
 30
0.0
 10
15.7725590017
 20
12.7845555735
 30
0.0
 10
15.7758241152
 20
12.7778989641
 30
0.0
  0
SPLINE
  5
465
100
AcDbEntity
  8
0
100
AcDbSpline
 62
7
  6
CONTINUOUS
 70
0
 71
3
 72
15
 73
11
 74
0
 42
0.0000001
 43
0.0000001
 44
0.0000000001
 40
0.0
 40
0.0
 40
0.0
 40
0.0
 40
0.1166842474
 40
0.2342627797
 40
0.3536890271
 40
0.4757321326
 40
0.6010407411
 40
0.7300796583
 40
0.8631459004
 40
1.0
 40
1.0
 40
1.0
 40
1.0
 10
16.3604342261
 20
13.1809239646
 30
0.0
 10
16.3569529316
 20
13.188018097
 30
0.0
 10
16.3487516973
 20
13.201700578
 30
0.0
 10
16.3331585228
 20
13.2200154003
 30
0.0
 10
16.3145821694
 20
13.2358594861
 30
0.0
 10
16.2933991664
 20
13.2489991417
 30
0.0
 10
16.2699983458
 20
13.2593014786
 30
0.0
 10
16.2447477783
 20
13.266680326
 30
0.0
 10
16.2180316566
 20
13.2710876922
 30
0.0
 10
16.199734498
 20
13.2720368421
 30
0.0
 10
16.1904662355
 20
13.2720368421
 30
0.0
  0
SPLINE
  5
466
100
AcDbEntity
  8
0
100
AcDbSpline
 62
7
  6
CONTINUOUS
 70
0
 71
3
 72
34
 73
30
 74
0
 42
0.0000001
 43
0.0000001
 44
0.0000000001
 40
0.0
 40
0.0
 40
0.0
 40
0.0
 40
0.0265218033
 40
0.0543742038
 40
0.0835432181
 40
0.1140019858
 40
0.145706305
 40
0.1785800863
 40
0.2473770058
 40
0.3194088207
 40
0.3934623409
 40
0.4682052847
 40
0.5422692423
 40
0.5786382312
 40
0.6143462423
 40
0.6492447964
 40
0.6832000582
 40
0.7160903929
 40
0.7478163403
 40
0.7782969544
 40
0.8074803819
 40
0.8353432956
 40
0.861898404
 40
0.88719955
 40
0.9113436787
 40
0.9344788129
 40
0.9567991033
 40
0.9785473701
 40
1.0
 40
1.0
 40
1.0
 40
1.0
 10
14.4949301562
 20
11.9229451627
 30
0.0
 10
14.4993156996
 20
11.9140083647
 30
0.0
 10
14.5092407217
 20
11.8961338935
 30
0.0
 10
14.5268617501
 20
11.8701529157
 30
0.0
 10
14.547464235
 20
11.8445418527
 30
0.0
 10
14.5708947476
 20
11.8194785934
 30
0.0
 10
14.5969979961
 20
11.7951274568
 30
0.0
 10
14.6357126516
 20
11.7633449137
 30
0.0
 10
14.6897330022
 20
11.7265702819
 30
0.0
 10
14.7609215318
 20
11.6883782301
 30
0.0
 10
14.8375611253
 20
11.6564699961
 30
0.0
 10
14.9175866306
 20
11.6317079334
 30
0.0
 10
14.9857419384
 20
11.6174861493
 30
0.0
 10
15.0401403135
 20
11.6102863397
 30
0.0
 10
15.0801808032
 20
11.6070432689
 30
0.0
 10
15.1194316856
 20
11.6059548486
 30
0.0
 10
15.1576271368
 20
11.6070186751
 30
0.0
 10
15.1945083308
 20
11.6102383624
 30
0.0
 10
15.2298260205
 20
11.6155833851
 30
0.0
 10
15.263341322
 20
11.6230264155
 30
0.0
 10
15.2948285182
 20
11.6325147821
 30
0.0
 10
15.3240757276
 20
11.6439888913
 30
0.0
 10
15.3508835538
 20
11.6573791251
 30
0.0
 10
15.3750726745
 20
11.6725958152
 30
0.0
 10
15.3964686446
 20
11.6895538355
 30
0.0
 10
15.414926062
 20
11.7081352357
 30
0.0
 10
15.4302954044
 20
11.7282325179
 30
0.0
 10
15.4424629885
 20
11.7496934477
 30
0.0
 10
15.4483844477
 20
11.7648607094
 30
0.0
 10
15.4507611167
 20
11.77255414
 30
0.0
  0
SPLINE
  5
467
100
AcDbEntity
  8
0
100
AcDbSpline
 62
7
  6
CONTINUOUS
 70
0
 71
3
 72
12
 73
8
 74
0
 42
0.0000001
 43
0.0000001
 44
0.0000000001
 40
0.0
 40
0.0
 40
0.0
 40
0.0
 40
0.271402637
 40
0.5253782639
 40
0.7660568762
 40
0.8834757142
 40
1.0
 40
1.0
 40
1.0
 40
1.0
 10
15.2951018947
 20
11.9229451627
 30
0.0
 10
15.2994593337
 20
11.9140656355
 30
0.0
 10
15.3066861757
 20
11.8962334981
 30
0.0
 10
15.3126859674
 20
11.868820251
 30
0.0
 10
15.3131660041
 20
11.8463473489
 30
0.0
 10
15.3107794766
 20
11.8291882903
 30
0.0
 10
15.3087015382
 20
11.8208986622
 30
0.0
 10
15.3074478111
 20
11.8168413059
 30
0.0
  0
SPLINE
  5
468
100
AcDbEntity
  8
0
100
AcDbSpline
 62
7
  6
CONTINUOUS
 70
0
 71
3
 72
14
 73
10
 74
0
 42
0.0000001
 43
0.0000001
 44
0.0000000001
 40
0.0
 40
0.0
 40
0.0
 40
0.0
 40
0.2592823671
 40
0.3860014874
 40
0.510974526
 40
0.6344914392
 40
0.7569105803
 40
0.8786173159
 40
1.0
 40
1.0
 40
1.0
 40
1.0
 10
13.7958141053
 20
12.6179649123
 30
0.0
 10
13.7927385259
 20
12.6080123336
 30
0.0
 10
13.7893304092
 20
12.5927820886
 30
0.0
 10
13.7875591804
 20
12.5723084353
 30
0.0
 10
13.787655347
 20
12.5572106468
 30
0.0
 10
13.7891741686
 20
12.5423633349
 30
0.0
 10
13.7921291218
 20
12.5278657132
 30
0.0
 10
13.796506139
 20
12.513823338
 30
0.0
 10
13.8003570489
 20
12.5048260048
 30
0.0
 10
13.8025054367
 20
12.5004480508
 30
0.0
  0
SPLINE
  5
469
100
AcDbEntity
  8
0
100
AcDbSpline
 62
7
  6
CONTINUOUS
 70
0
 71
3
 72
27
 73
23
 74
0
 42
0.0000001
 43
0.0000001
 44
0.0000000001
 40
0.0
 40
0.0
 40
0.0
 40
0.0
 40
0.012725137
 40
0.0271459862
 40
0.0433884508
 40
0.061519462
 40
0.0815864914
 40
0.1036111081
 40
0.1275660395
 40
0.1534098859
 40
0.181085699
 40
0.2104943768
 40
0.2740389545
 40
0.3429785418
 40
0.4160346678
 40
0.4918072148
 40
0.5688957978
 40
0.7219054765
 40
0.7957789329
 40
0.8669853021
 40
0.9351030632
 40
1.0
 40
1.0
 40
1.0
 40
1.0
 10
14.3213249402
 20
13.2646596132
 30
0.0
 10
14.3222853624
 20
13.2627025977
 30
0.0
 10
14.3240204665
 20
13.2583708434
 30
0.0
 10
14.3259537355
 20
13.2511801551
 30
0.0
 10
14.3273190929
 20
13.2429213849
 30
0.0
 10
14.328069079
 20
13.2336160416
 30
0.0
 10
14.3281503883
 20
13.2232914316
 30
0.0
 10
14.327516394
 20
13.2119878729
 30
0.0
 10
14.3261426818
 20
13.1997548058
 30
0.0
 10
14.3240006009
 20
13.1866512322
 30
0.0
 10
14.3210676743
 20
13.1727459919
 30
0.0
 10
14.3159835563
 20
13.1527108849
 30
0.0
 10
14.3076329836
 20
13.126238302
 30
0.0
 10
14.2950177559
 20
13.0933461285
 30
0.0
 10
14.2799188107
 20
13.0592174139
 30
0.0
 10
14.2628540613
 20
13.0244713506
 30
0.0
 10
14.2383083325
 20
12.9781691802
 30
0.0
 10
14.2124365157
 20
12.9329671944
 30
0.0
 10
14.1867493443
 20
12.8888327557
 30
0.0
 10
14.1684798751
 20
12.8572062374
 30
0.0
 10
14.1513426521
 20
12.8267039431
 30
0.0
 10
14.1405586203
 20
12.8066272252
 30
0.0
 10
14.1354362169
 20
12.7967599039
 30
0.0
  0
LINE
  5
46A
100
AcDbEntity
  8
0
100
AcDbLine
 62
7
  6
CONTINUOUS
 10
14.1354362169
 20
12.7967599039
 11
14.1347245758
 21
12.7953868448
  0
SPLINE
  5
46B
100
AcDbEntity
  8
0
100
AcDbSpline
 62
7
  6
CONTINUOUS
 70
0
 71
3
 72
10
 73
6
 74
0
 42
0.0000001
 43
0.0000001
 44
0.0000000001
 40
0.0
 40
0.0
 40
0.0
 40
0.0
 40
0.2700805686
 40
0.5259437689
 40
1.0
 40
1.0
 40
1.0
 40
1.0
 10
14.1347245758
 20
12.7953868448
 30
0.0
 10
14.1296243188
 20
12.7855302531
 30
0.0
 10
14.1199651222
 20
12.766190504
 30
0.0
 10
14.1029595816
 20
12.728780489
 30
0.0
 10
14.0923517528
 20
12.7006502474
 30
0.0
 10
14.0865996041
 20
12.6820392851
 30
0.0
  0
SPLINE
  5
46C
100
AcDbEntity
  8
0
100
AcDbSpline
 62
7
  6
CONTINUOUS
 70
0
 71
3
 72
16
 73
12
 74
0
 42
0.0000001
 43
0.0000001
 44
0.0000000001
 40
0.0
 40
0.0
 40
0.0
 40
0.0
 40
0.1244167632
 40
0.2522089142
 40
0.3169302387
 40
0.3819085042
 40
0.5116308884
 40
0.6396605999
 40
0.7644155931
 40
0.8847109926
 40
1.0
 40
1.0
 40
1.0
 40
1.0
 10
14.2153257502
 20
13.2719092749
 30
0.0
 10
14.2010367372
 20
13.2714717559
 30
0.0
 10
14.1721048739
 20
13.2683390165
 30
0.0
 10
14.1367011386
 20
13.2593267765
 30
0.0
 10
14.108890103
 20
13.2491755293
 30
0.0
 10
14.081615842
 20
13.2371026841
 30
0.0
 10
14.0492585697
 20
13.2187463552
 30
0.0
 10
14.0141720662
 20
13.1920564803
 30
0.0
 10
13.9839097694
 20
13.1614778889
 30
0.0
 10
13.9594429602
 20
13.1278771686
 30
0.0
 10
13.9472915192
 20
13.1035008149
 30
0.0
 10
13.9425296978
 20
13.0911393509
 30
0.0
  0
SPLINE
  5
46D
100
AcDbEntity
  8
0
100
AcDbSpline
 62
7
  6
CONTINUOUS
 70
0
 71
3
 72
12
 73
8
 74
0
 42
0.0000001
 43
0.0000001
 44
0.0000000001
 40
0.0
 40
0.0
 40
0.0
 40
0.0
 40
0.2344788814
 40
0.4797565341
 40
0.606290936
 40
0.7352725621
 40
1.0
 40
1.0
 40
1.0
 40
1.0
 10
13.8941047469
 20
12.0150838317
 30
0.0
 10
13.9042329593
 20
12.0175349004
 30
0.0
 10
13.9245454432
 20
12.0243543376
 30
0.0
 10
13.9486320877
 20
12.0366133262
 30
0.0
 10
13.967431741
 20
12.0485474159
 30
0.0
 10
13.9861903703
 20
12.0620809541
 30
0.0
 10
13.99950657
 20
12.0734946987
 30
0.0
 10
14.0080683672
 20
12.0815636332
 30
0.0
  0
SPLINE
  5
46E
100
AcDbEntity
  8
0
100
AcDbSpline
 62
7
  6
CONTINUOUS
 70
0
 71
3
 72
14
 73
10
 74
0
 42
0.0000001
 43
0.0000001
 44
0.0000000001
 40
0.0
 40
0.0
 40
0.0
 40
0.0
 40
0.1164609212
 40
0.2338218828
 40
0.3529503685
 40
0.4746651596
 40
0.5997059789
 40
0.7287107079
 40
1.0
 40
1.0
 40
1.0
 40
1.0
 10
14.3671188186
 20
12.1503314941
 30
0.0
 10
14.3648953107
 20
12.1431337264
 30
0.0
 10
14.3612120977
 20
12.1284282646
 30
0.0
 10
14.3580643824
 20
12.1057740411
 30
0.0
 10
14.3573003309
 20
12.0825738527
 30
0.0
 10
14.358918938
 20
12.0589237371
 30
0.0
 10
14.3629080974
 20
12.034909012
 30
0.0
 10
14.3715120794
 20
12.0019987257
 30
0.0
 10
14.3812916254
 20
11.9778654405
 30
0.0
 10
14.3890225325
 20
11.9621115082
 30
0.0
  0
SPLINE
  5
46F
100
AcDbEntity
  8
0
100
AcDbSpline
 62
7
  6
CONTINUOUS
 70
0
 71
3
 72
15
 73
11
 74
0
 42
0.0000001
 43
0.0000001
 44
0.0000000001
 40
0.0
 40
0.0
 40
0.0
 40
0.0
 40
0.1412329818
 40
0.2776837483
 40
0.408787668
 40
0.5346409846
 40
0.6557486507
 40
0.7729160399
 40
0.8872117162
 40
1.0
 40
1.0
 40
1.0
 40
1.0
 10
13.7606020173
 20
12.0881371462
 30
0.0
 10
13.7560164414
 20
12.0881371462
 30
0.0
 10
13.7469924725
 20
12.0885998803
 30
0.0
 10
13.7338636896
 20
12.0907301285
 30
0.0
 10
13.7215585496
 20
12.0942785198
 30
0.0
 10
13.7102672658
 20
12.0991877314
 30
0.0
 10
13.7001580429
 20
12.1053979142
 30
0.0
 10
13.6913791454
 20
12.1128175573
 30
0.0
 10
13.6840757407
 20
12.121342208
 30
0.0
 10
13.6802588041
 20
12.1276984747
 30
0.0
 10
13.6786450245
 20
12.1309857486
 30
0.0
  0
SPLINE
  5
470
100
AcDbEntity
  8
0
100
AcDbSpline
 62
7
  6
CONTINUOUS
 70
0
 71
3
 72
12
 73
8
 74
0
 42
0.0000001
 43
0.0000001
 44
0.0000000001
 40
0.0
 40
0.0
 40
0.0
 40
0.0
 40
0.2546269084
 40
0.506549454
 40
0.63131982
 40
0.7552332795
 40
1.0
 40
1.0
 40
1.0
 40
1.0
 10
16.7724203531
 20
12.0150838317
 30
0.0
 10
16.7871567119
 20
12.0122020452
 30
0.0
 10
16.816581185
 20
12.0070062101
 30
0.0
 10
16.8534746758
 20
12.0019462029
 30
0.0
 10
16.8828271351
 20
11.9987801801
 30
0.0
 10
16.9118125334
 20
11.9961997493
 30
0.0
 10
16.9335231816
 20
11.9949004517
 30
0.0
 10
16.9479470959
 20
11.9943601594
 30
0.0
  0
SPLINE
  5
471
100
AcDbEntity
  8
0
100
AcDbSpline
 62
7
  6
CONTINUOUS
 70
0
 71
3
 72
11
 73
7
 74
0
 42
0.0000001
 43
0.0000001
 44
0.0000000001
 40
0.0
 40
0.0
 40
0.0
 40
0.0
 40
0.2625341782
 40
0.5157461885
 40
0.7609776468
 40
1.0
 40
1.0
 40
1.0
 40
1.0
 10
14.0746786321
 20
12.1859252915
 30
0.0
 10
14.065543799
 20
12.2046014918
 30
0.0
 10
14.0493771161
 20
12.2422021118
 30
0.0
 10
14.0317203079
 20
12.2999556596
 30
0.0
 10
14.0214124987
 20
12.3575858502
 30
0.0
 10
14.0195817971
 20
12.3960268899
 30
0.0
 10
14.0199965961
 20
12.4149509217
 30
0.0
  0
SPLINE
  5
472
100
AcDbEntity
  8
0
100
AcDbSpline
 62
7
  6
CONTINUOUS
 70
0
 71
3
 72
15
 73
11
 74
0
 42
0.0000001
 43
0.0000001
 44
0.0000000001
 40
0.0
 40
0.0
 40
0.0
 40
0.0
 40
0.1412329818
 40
0.2776837483
 40
0.408787668
 40
0.5346409846
 40
0.6557486507
 40
0.7729160399
 40
0.8872117162
 40
1.0
 40
1.0
 40
1.0
 40
1.0
 10
16.8116165599
 20
12.0881371462
 30
0.0
 10
16.807030984
 20
12.0881371462
 30
0.0
 10
16.7980070151
 20
12.0885998803
 30
0.0
 10
16.7848782322
 20
12.0907301285
 30
0.0
 10
16.7725730923
 20
12.0942785198
 30
0.0
 10
16.7612818084
 20
12.0991877314
 30
0.0
 10
16.7511725856
 20
12.1053979142
 30
0.0
 10
16.742393688
 20
12.1128175573
 30
0.0
 10
16.7350902834
 20
12.121342208
 30
0.0
 10
16.7312733468
 20
12.1276984747
 30
0.0
 10
16.7296595672
 20
12.1309857486
 30
0.0
  0
SPLINE
  5
473
100
AcDbEntity
  8
0
100
AcDbSpline
 62
7
  6
CONTINUOUS
 70
0
 71
3
 72
33
 73
29
 74
0
 42
0.0000001
 43
0.0000001
 44
0.0000000001
 40
0.0
 40
0.0
 40
0.0
 40
0.0
 40
0.0306207506
 40
0.0622072014
 40
0.0947041261
 40
0.1280420061
 40
0.1968789011
 40
0.2679467807
 40
0.3403220256
 40
0.4130103356
 40
0.4850007033
 40
0.5553193703
 40
0.5895809771
 40
0.6231054101
 40
0.655806447
 40
0.6876125366
 40
0.718465789
 40
0.7483289074
 40
0.7771818979
 40
0.805029647
 40
0.8318996735
 40
0.8578444838
 40
0.8829443244
 40
0.9072996837
 40
0.9310370317
 40
0.9542963178
 40
0.9772295862
 40
1.0
 40
1.0
 40
1.0
 40
1.0
 10
16.1556082504
 20
13.2724494609
 30
0.0
 10
16.140808027
 20
13.2882286025
 30
0.0
 10
16.1097020888
 20
13.3193238271
 30
0.0
 10
16.0596557161
 20
13.3637847173
 30
0.0
 10
16.0057261847
 20
13.4066082975
 30
0.0
 10
15.928200071
 20
13.4618301257
 30
0.0
 10
15.823301216
 20
13.5252917387
 30
0.0
 10
15.6882956395
 20
13.5910435888
 30
0.0
 10
15.5455894921
 20
13.6458962676
 30
0.0
 10
15.3981497677
 20
13.6887243176
 30
0.0
 10
15.2490411789
 20
13.7186348865
 30
0.0
 10
15.1248620896
 20
13.7323871644
 30
0.0
 10
15.0273331321
 20
13.7362362647
 30
0.0
 10
14.9563101324
 20
13.7355596204
 30
0.0
 10
14.8871466492
 20
13.7313321442
 30
0.0
 10
14.8201866046
 20
13.7235667891
 30
0.0
 10
14.7557614549
 20
13.7122735118
 30
0.0
 10
14.6941856316
 20
13.6974895443
 30
0.0
 10
14.6357602978
 20
13.6792443452
 30
0.0
 10
14.5807711922
 20
13.6575878576
 30
0.0
 10
14.5294981915
 20
13.6325648954
 30
0.0
 10
14.4822134387
 20
13.6042365558
 30
0.0
 10
14.4392004657
 20
13.5726673693
 30
0.0
 10
14.400740986
 20
13.5379568514
 30
0.0
 10
14.3671490215
 20
13.5002265799
 30
0.0
 10
14.3387169026
 20
13.4596760985
 30
0.0
 10
14.3157558092
 20
13.416566849
 30
0.0
 10
14.3042386775
 20
13.3862914015
 30
0.0
 10
14.2994822
 20
13.3709230427
 30
0.0
  0
SPLINE
  5
474
100
AcDbEntity
  8
0
100
AcDbSpline
 62
7
  6
CONTINUOUS
 70
0
 71
3
 72
9
 73
5
 74
0
 42
0.0000001
 43
0.0000001
 44
0.0000000001
 40
0.0
 40
0.0
 40
0.0
 40
0.0
 40
0.4973855343
 40
1.0
 40
1.0
 40
1.0
 40
1.0
 10
14.4630984945
 20
12.0777649818
 30
0.0
 10
14.4652306253
 20
12.0846669684
 30
0.0
 10
14.4703999114
 20
12.0982860566
 30
0.0
 10
14.4772325091
 20
12.1111486947
 30
0.0
 10
14.4810363184
 20
12.1173790553
 30
0.0
  0
SPLINE
  5
475
100
AcDbEntity
  8
0
100
AcDbSpline
 62
7
  6
CONTINUOUS
 70
0
 71
3
 72
9
 73
5
 74
0
 42
0.0000001
 43
0.0000001
 44
0.0000000001
 40
0.0
 40
0.0
 40
0.0
 40
0.0
 40
0.246894444
 40
1.0
 40
1.0
 40
1.0
 40
1.0
 10
14.4810363184
 20
12.1173790553
 30
0.0
 10
14.4823581892
 20
12.1195441827
 30
0.0
 10
14.4878937281
 20
12.1282018896
 30
0.0
 10
14.494142741
 20
12.1364001649
 30
0.0
 10
14.4991783107
 20
12.142275372
 30
0.0
  0
SPLINE
  5
476
100
AcDbEntity
  8
0
100
AcDbSpline
 62
7
  6
CONTINUOUS
 70
0
 71
3
 72
9
 73
5
 74
0
 42
0.0000001
 43
0.0000001
 44
0.0000000001
 40
0.0
 40
0.0
 40
0.0
 40
0.0
 40
0.481133615
 40
1.0
 40
1.0
 40
1.0
 40
1.0
 10
14.5043278693
 20
12.1480590168
 30
0.0
 10
14.5144639335
 20
12.1590242326
 30
0.0
 10
14.5380027605
 20
12.1795959709
 30
0.0
 10
14.5647784475
 20
12.1955875819
 30
0.0
 10
14.5791687231
 20
12.2028153579
 30
0.0
  0
SPLINE
  5
477
100
AcDbEntity
  8
0
100
AcDbSpline
 62
7
  6
CONTINUOUS
 70
0
 71
3
 72
23
 73
19
 74
0
 42
0.0000001
 43
0.0000001
 44
0.0000000001
 40
0.0
 40
0.0
 40
0.0
 40
0.0
 40
0.0506216032
 40
0.1047227287
 40
0.1622010835
 40
0.2227964379
 40
0.2861280515
 40
0.3517156935
 40
0.4190077106
 40
0.4874021702
 40
0.5562634561
 40
0.6249450033
 40
0.6928035456
 40
0.7592186215
 40
0.8236147256
 40
0.8854788141
 40
0.9443780969
 40
1.0
 40
1.0
 40
1.0
 40
1.0
 10
14.5791687231
 20
12.2028153579
 30
0.0
 10
14.5927591667
 20
12.2096414038
 30
0.0
 10
14.6218758531
 20
12.221820777
 30
0.0
 10
14.6688020139
 20
12.2352858942
 30
0.0
 10
14.7198045273
 20
12.2443958299
 30
0.0
 10
14.7741751437
 20
12.2490368121
 30
0.0
 10
14.8311721131
 20
12.2491456396
 30
0.0
 10
14.8900088744
 20
12.244724308
 30
0.0
 10
14.9498727797
 20
12.2358381648
 30
0.0
 10
15.0099332062
 20
12.2226048606
 30
0.0
 10
15.0693574841
 20
12.2052117968
 30
0.0
 10
15.1273211131
 20
12.1839014928
 30
0.0
 10
15.183017062
 20
12.1589646753
 30
0.0
 10
15.2356752115
 20
12.1307527319
 30
0.0
 10
15.2845659571
 20
12.0996544274
 30
0.0
 10
15.3290111883
 20
12.0660914795
 30
0.0
 10
15.3684001315
 20
12.0305385958
 30
0.0
 10
15.3916242678
 20
12.0050527178
 30
0.0
 10
15.4021605099
 20
11.9920822456
 30
0.0
  0
SPLINE
  5
478
100
AcDbEntity
  8
0
100
AcDbSpline
 62
7
  6
CONTINUOUS
 70
0
 71
3
 72
9
 73
5
 74
0
 42
0.0000001
 43
0.0000001
 44
0.0000000001
 40
0.0
 40
0.0
 40
0.0
 40
0.0
 40
0.2558838452
 40
1.0
 40
1.0
 40
1.0
 40
1.0
 10
15.4021605099
 20
11.9920822456
 30
0.0
 10
15.4045397265
 20
11.9891533491
 30
0.0
 10
15.4136893423
 20
11.9775878806
 30
0.0
 10
15.4222294385
 20
11.965536362
 30
0.0
 10
15.4281654119
 20
11.9563071353
 30
0.0
  0
SPLINE
  5
479
100
AcDbEntity
  8
0
100
AcDbSpline
 62
7
  6
CONTINUOUS
 70
0
 71
3
 72
30
 73
26
 74
0
 42
0.0000001
 43
0.0000001
 44
0.0000000001
 40
0.0
 40
0.0
 40
0.0
 40
0.0
 40
0.0214553187
 40
0.0432062624
 40
0.0655292751
 40
0.0886663214
 40
0.112813976
 40
0.138117244
 40
0.1646766238
 40
0.1925425108
 40
0.2217297564
 40
0.2522145259
 40
0.3168059726
 40
0.3856400429
 40
0.4577005392
 40
0.5317715986
 40
0.6065221621
 40
0.6805831833
 40
0.7526223277
 40
0.821428503
 40
0.8859808955
 40
0.9164451522
 40
0.9456208906
 40
0.9734777582
 40
1.0
 40
1.0
 40
1.0
 40
1.0
 10
14.6207433888
 20
12.0290490195
 30
0.0
 10
14.6224205874
 20
12.0344768296
 30
0.0
 10
14.6265969191
 20
12.0451782254
 30
0.0
 10
14.6351818437
 20
12.0603194871
 30
0.0
 10
14.6460259802
 20
12.0744976252
 30
0.0
 10
14.6590464254
 20
12.0876090515
 30
0.0
 10
14.6741439867
 20
12.0995700172
 30
0.0
 10
14.6912077015
 20
12.1103097258
 30
0.0
 10
14.7101232265
 20
12.1197531419
 30
0.0
 10
14.7307567599
 20
12.1278512028
 30
0.0
 10
14.752972864
 20
12.134544329
 30
0.0
 10
14.7851181618
 20
12.1416812234
 30
0.0
 10
14.8283636823
 20
12.1466591552
 30
0.0
 10
14.8828778765
 20
12.1465178475
 30
0.0
 10
14.9395650038
 20
12.1403832336
 30
0.0
 10
14.9969054864
 20
12.1284206131
 30
0.0
 10
15.053367515
 20
12.1109499053
 30
0.0
 10
15.107435401
 20
12.0884392964
 30
0.0
 10
15.1576657584
 20
12.0614911919
 30
0.0
 10
15.2027086949
 20
12.0308249906
 30
0.0
 10
15.2355614222
 20
12.00230043
 30
0.0
 10
15.2580374374
 20
11.9782620618
 30
0.0
 10
15.2725731671
 20
11.9601902524
 30
0.0
 10
15.2850054987
 20
11.9418599186
 30
0.0
 10
15.2920081073
 20
11.9292496386
 30
0.0
 10
15.2951018947
 20
11.9229451627
 30
0.0
  0
SPLINE
  5
47A
100
AcDbEntity
  8
0
100
AcDbSpline
 62
7
  6
CONTINUOUS
 70
0
 71
3
 72
13
 73
9
 74
0
 42
0.0000001
 43
0.0000001
 44
0.0000000001
 40
0.0
 40
0.0
 40
0.0
 40
0.0
 40
0.2915328227
 40
0.5527705723
 40
0.6727706774
 40
0.7864683009
 40
0.8950186589
 40
1.0
 40
1.0
 40
1.0
 40
1.0
 10
14.900736139
 20
11.3808528897
 30
0.0
 10
14.9055973212
 20
11.3815817063
 30
0.0
 10
14.914735051
 20
11.3836462027
 30
0.0
 10
14.9252219405
 20
11.3882170988
 30
0.0
 10
14.9321514831
 20
11.3929048572
 30
0.0
 10
14.9364707687
 20
11.3967616102
 30
0.0
 10
14.9400045989
 20
11.4010263402
 30
0.0
 10
14.9418351287
 20
11.4041494331
 30
0.0
 10
14.9425957568
 20
11.4057477562
 30
0.0
  0
SPLINE
  5
47B
100
AcDbEntity
  8
0
100
AcDbSpline
 62
7
  6
CONTINUOUS
 70
0
 71
3
 72
16
 73
12
 74
0
 42
0.0000001
 43
0.0000001
 44
0.0000000001
 40
0.0
 40
0.0
 40
0.0
 40
0.0
 40
0.1115149543
 40
0.230160061
 40
0.2918781504
 40
0.3549456353
 40
0.4841032549
 40
0.6155494339
 40
0.7468638538
 40
0.8757813395
 40
1.0
 40
1.0
 40
1.0
 40
1.0
 10
17.3068083585
 20
11.5467562986
 30
0.0
 10
17.3051747398
 20
11.5414699067
 30
0.0
 10
17.3006069442
 20
11.5309077477
 30
0.0
 10
17.2924822743
 20
11.5188325248
 30
0.0
 10
17.2845642038
 20
11.5096972604
 30
0.0
 10
17.275577554
 20
11.5008493363
 30
0.0
 10
17.2628770793
 20
11.4909168631
 30
0.0
 10
17.2459516282
 20
11.4812161509
 30
0.0
 10
17.2278431282
 20
11.4739805815
 30
0.0
 10
17.2092362415
 20
11.4694969032
 30
0.0
 10
17.1966589987
 20
11.4684236077
 30
0.0
 10
17.1904956267
 20
11.4684236077
 30
0.0
  0
SPLINE
  5
47C
100
AcDbEntity
  8
0
100
AcDbSpline
 62
7
  6
CONTINUOUS
 70
0
 71
3
 72
9
 73
5
 74
0
 42
0.0000001
 43
0.0000001
 44
0.0000000001
 40
0.0
 40
0.0
 40
0.0
 40
0.0
 40
0.5183493869
 40
1.0
 40
1.0
 40
1.0
 40
1.0
 10
14.9470688472
 20
11.4567376865
 30
0.0
 10
14.9483591945
 20
11.4541082351
 30
0.0
 10
14.9504362022
 20
11.4488161344
 30
0.0
 10
14.9514222561
 20
11.4432001524
 30
0.0
 10
14.9515701643
 20
11.4404825504
 30
0.0
  0
SPLINE
  5
47D
100
AcDbEntity
  8
0
100
AcDbSpline
 62
7
  6
CONTINUOUS
 70
0
 71
3
 72
9
 73
5
 74
0
 42
0.0000001
 43
0.0000001
 44
0.0000000001
 40
0.0
 40
0.0
 40
0.0
 40
0.0
 40
0.5055036704
 40
1.0
 40
1.0
 40
1.0
 40
1.0
 10
14.9515701643
 20
11.4404825504
 30
0.0
 10
14.9516725264
 20
11.4386017917
 30
0.0
 10
14.9515654503
 20
11.4348561754
 30
0.0
 10
14.9507908015
 20
11.4311877861
 30
0.0
 10
14.9502469208
 20
11.429427359
 30
0.0
  0
SPLINE
  5
47E
100
AcDbEntity
  8
0
100
AcDbSpline
 62
7
  6
CONTINUOUS
 70
0
 71
3
 72
15
 73
11
 74
0
 42
0.0000001
 43
0.0000001
 44
0.0000000001
 40
0.0
 40
0.0
 40
0.0
 40
0.0
 40
0.141232017
 40
0.2776815372
 40
0.4087830034
 40
0.534633335
 40
0.6557383321
 40
0.7729047412
 40
0.8872056064
 40
1.0
 40
1.0
 40
1.0
 40
1.0
 10
13.5753312253
 20
11.4684236077
 30
0.0
 10
13.5716627988
 20
11.4684236077
 30
0.0
 10
13.5644436994
 20
11.4687938052
 30
0.0
 10
13.5539408236
 20
11.47049801
 30
0.0
 10
13.5440969177
 20
11.4733367221
 30
0.0
 10
13.5350641231
 20
11.4772640163
 30
0.0
 10
13.5269767798
 20
11.4822318034
 30
0.0
 10
13.5199533786
 20
11.4881672546
 30
0.0
 10
13.5141109006
 20
11.4949875604
 30
0.0
 10
13.5110573925
 20
11.500072868
 30
0.0
 10
13.5097661387
 20
11.5027027427
 30
0.0
  0
SPLINE
  5
47F
100
AcDbEntity
  8
0
100
AcDbSpline
 62
7
  6
CONTINUOUS
 70
0
 71
3
 72
12
 73
8
 74
0
 42
0.0000001
 43
0.0000001
 44
0.0000000001
 40
0.0
 40
0.0
 40
0.0
 40
0.0
 40
0.2602696068
 40
0.3879793508
 40
0.5140201229
 40
0.7607631831
 40
1.0
 40
1.0
 40
1.0
 40
1.0
 10
13.7389174066
 20
11.9943601594
 30
0.0
 10
13.7525108699
 20
11.9948887785
 30
0.0
 10
13.7727598628
 20
11.9961559819
 30
0.0
 10
13.799501831
 20
11.9987587104
 30
0.0
 10
13.8254760875
 20
12.001885892
 30
0.0
 10
13.8570900119
 20
12.0068615902
 30
0.0
 10
13.8819511774
 20
12.0121426183
 30
0.0
 10
13.8941047469
 20
12.0150838317
 30
0.0
  0
SPLINE
  5
480
100
AcDbEntity
  8
0
100
AcDbSpline
 62
7
  6
CONTINUOUS
 70
0
 71
3
 72
12
 73
8
 74
0
 42
0.0000001
 43
0.0000001
 44
0.0000000001
 40
0.0
 40
0.0
 40
0.0
 40
0.0
 40
0.2613470708
 40
0.522280082
 40
0.7715535997
 40
0.8889700104
 40
1.0
 40
1.0
 40
1.0
 40
1.0
 10
14.6685361446
 20
12.4387332636
 30
0.0
 10
14.6734506351
 20
12.4418987574
 30
0.0
 10
14.6827712761
 20
12.4490366139
 30
0.0
 10
14.6947551153
 20
12.4615402294
 30
0.0
 10
14.7027773249
 20
12.4731574899
 30
0.0
 10
14.707555389
 20
12.48273078
 30
0.0
 10
14.7093644572
 20
12.4875228692
 30
0.0
 10
14.7101010513
 20
12.4898946037
 30
0.0
  0
SPLINE
  5
481
100
AcDbEntity
  8
0
100
AcDbSpline
 62
7
  6
CONTINUOUS
 70
0
 71
3
 72
13
 73
9
 74
0
 42
0.0000001
 43
0.0000001
 44
0.0000000001
 40
0.0
 40
0.0
 40
0.0
 40
0.0
 40
0.2052621963
 40
0.3195520162
 40
0.4418458797
 40
0.5719339029
 40
0.7091636146
 40
1.0
 40
1.0
 40
1.0
 40
1.0
 10
14.6138121562
 20
12.4278735445
 30
0.0
 10
14.6174394419
 20
12.4263003366
 30
0.0
 10
14.6236213086
 20
12.4250217812
 30
0.0
 10
14.6321388661
 20
12.4251294979
 30
0.0
 10
14.6391529937
 20
12.4261226998
 30
0.0
 10
14.6464292439
 20
12.4280153903
 30
0.0
 10
14.6565216129
 20
12.4317593809
 30
0.0
 10
14.6638264875
 20
12.4356997059
 30
0.0
 10
14.6685361446
 20
12.4387332636
 30
0.0
  0
SPLINE
  5
482
100
AcDbEntity
  8
0
100
AcDbSpline
 62
7
  6
CONTINUOUS
 70
0
 71
3
 72
13
 73
9
 74
0
 42
0.0000001
 43
0.0000001
 44
0.0000000001
 40
0.0
 40
0.0
 40
0.0
 40
0.0
 40
0.2864603308
 40
0.5445202805
 40
0.6642280696
 40
0.778992347
 40
0.8903248383
 40
1.0
 40
1.0
 40
1.0
 40
1.0
 10
14.6006530745
 20
12.4681751656
 30
0.0
 10
14.5996331831
 20
12.4648912515
 30
0.0
 10
14.5981999096
 20
12.4584706565
 30
0.0
 10
14.5981322815
 20
12.4504149277
 30
0.0
 10
14.5992702394
 20
12.4445950036
 30
0.0
 10
14.6006509819
 20
12.4406633202
 30
0.0
 10
14.6025681066
 20
12.4370993469
 30
0.0
 10
14.604197226
 20
12.4349873776
 30
0.0
 10
14.6050855191
 20
12.4340156841
 30
0.0
  0
SPLINE
  5
483
100
AcDbEntity
  8
0
100
AcDbSpline
 62
7
  6
CONTINUOUS
 70
0
 71
3
 72
9
 73
5
 74
0
 42
0.0000001
 43
0.0000001
 44
0.0000000001
 40
0.0
 40
0.0
 40
0.0
 40
0.0
 40
0.492570403
 40
1.0
 40
1.0
 40
1.0
 40
1.0
 10
14.6050855191
 20
12.4340156841
 30
0.0
 10
14.6062743587
 20
12.4327152262
 30
0.0
 10
14.6089920273
 20
12.4303396691
 30
0.0
 10
14.6121469143
 20
12.4285957849
 30
0.0
 10
14.6138121562
 20
12.4278735445
 30
0.0
  0
SPLINE
  5
484
100
AcDbEntity
  8
0
100
AcDbSpline
 62
7
  6
CONTINUOUS
 70
0
 71
3
 72
11
 73
7
 74
0
 42
0.0000001
 43
0.0000001
 44
0.0000000001
 40
0.0
 40
0.0
 40
0.0
 40
0.0
 40
0.2336321475
 40
0.4775649065
 40
0.7332511149
 40
1.0
 40
1.0
 40
1.0
 40
1.0
 10
16.6359531844
 20
12.5212247304
 30
0.0
 10
16.639151986
 20
12.5315760563
 30
0.0
 10
16.6430481239
 20
12.5536259996
 30
0.0
 10
16.641355881
 20
12.5878208766
 30
0.0
 10
16.632837939
 20
12.6225062287
 30
0.0
 10
16.623458364
 20
12.6449388873
 30
0.0
 10
16.6180078804
 20
12.6560434018
 30
0.0
  0
SPLINE
  5
485
100
AcDbEntity
  8
0
100
AcDbSpline
 62
7
  6
CONTINUOUS
 70
0
 71
3
 72
9
 73
5
 74
0
 42
0.0000001
 43
0.0000001
 44
0.0000000001
 40
0.0
 40
0.0
 40
0.0
 40
0.0
 40
0.2628740959
 40
1.0
 40
1.0
 40
1.0
 40
1.0
 10
15.8734205736
 20
12.4220130523
 30
0.0
 10
15.8738038533
 20
12.4213236625
 30
0.0
 10
15.8753330378
 20
12.4187430595
 30
0.0
 10
15.8771671388
 20
12.4163300179
 30
0.0
 10
15.8787169495
 20
12.4147520006
 30
0.0
  0
SPLINE
  5
486
100
AcDbEntity
  8
0
100
AcDbSpline
 62
7
  6
CONTINUOUS
 70
0
 71
3
 72
11
 73
7
 74
0
 42
0.0000001
 43
0.0000001
 44
0.0000000001
 40
0.0
 40
0.0
 40
0.0
 40
0.0
 40
0.2433459373
 40
0.4895177605
 40
0.7411653334
 40
1.0
 40
1.0
 40
1.0
 40
1.0
 10
13.8953245858
 20
12.7778989641
 30
0.0
 10
13.8982864781
 20
12.7718605342
 30
0.0
 10
13.9052116053
 20
12.7601624396
 30
0.0
 10
13.9182882654
 20
12.7442951265
 30
0.0
 10
13.9339041073
 20
12.7302764981
 30
0.0
 10
13.9456682692
 20
12.7223944885
 30
0.0
 10
13.9518596439
 20
12.7188106412
 30
0.0
  0
SPLINE
  5
487
100
AcDbEntity
  8
0
100
AcDbSpline
 62
7
  6
CONTINUOUS
 70
0
 71
3
 72
11
 73
7
 74
0
 42
0.0000001
 43
0.0000001
 44
0.0000000001
 40
0.0
 40
0.0
 40
0.0
 40
0.0
 40
0.2297510599
 40
0.4824784234
 40
0.7440646563
 40
1.0
 40
1.0
 40
1.0
 40
1.0
 10
15.8692204324
 20
12.4498754225
 30
0.0
 10
15.868568524
 20
12.4477658463
 30
0.0
 10
15.8678767128
 20
12.4431205346
 30
0.0
 10
15.8683697497
 20
12.4359465895
 30
0.0
 10
15.8702006894
 20
12.428737082
 30
0.0
 10
15.8722251579
 20
12.4241626704
 30
0.0
 10
15.8734205736
 20
12.4220130523
 30
0.0
  0
SPLINE
  5
488
100
AcDbEntity
  8
0
100
AcDbSpline
 62
7
  6
CONTINUOUS
 70
0
 71
3
 72
11
 73
7
 74
0
 42
0.0000001
 43
0.0000001
 44
0.0000000001
 40
0.0
 40
0.0
 40
0.0
 40
0.0
 40
0.233267022
 40
0.4776520988
 40
0.7332827723
 40
1.0
 40
1.0
 40
1.0
 40
1.0
 10
16.0304628118
 20
12.2069011675
 30
0.0
 10
16.0216113094
 20
12.2249358332
 30
0.0
 10
16.0016713551
 20
12.2609949523
 30
0.0
 10
15.9663969701
 20
12.3134599589
 30
0.0
 10
15.9252960576
 20
12.36522251
 30
0.0
 10
15.8948124879
 20
12.3983635236
 30
0.0
 10
15.8787169495
 20
12.4147520006
 30
0.0
  0
SPLINE
  5
489
100
AcDbEntity
  8
0
100
AcDbSpline
 62
7
  6
CONTINUOUS
 70
0
 71
3
 72
9
 73
5
 74
0
 42
0.0000001
 43
0.0000001
 44
0.0000000001
 40
0.0
 40
0.0
 40
0.0
 40
0.0
 40
0.2607506163
 40
1.0
 40
1.0
 40
1.0
 40
1.0
 10
14.7286075059
 20
12.4689864859
 30
0.0
 10
14.7289568754
 20
12.4701170459
 30
0.0
 10
14.7301588114
 20
12.4744927173
 30
0.0
 10
14.7307924189
 20
12.4790362818
 30
0.0
 10
14.730842998
 20
12.4823906844
 30
0.0
  0
SPLINE
  5
48A
100
AcDbEntity
  8
0
100
AcDbSpline
 62
7
  6
CONTINUOUS
 70
0
 71
3
 72
9
 73
5
 74
0
 42
0.0000001
 43
0.0000001
 44
0.0000000001
 40
0.0
 40
0.0
 40
0.0
 40
0.0
 40
0.5116532929
 40
1.0
 40
1.0
 40
1.0
 40
1.0
 10
14.730842998
 20
12.4823906844
 30
0.0
 10
14.7308717585
 20
12.4842980824
 30
0.0
 10
14.730663016
 20
12.4880363233
 30
0.0
 10
14.7298651526
 20
12.4916982672
 30
0.0
 10
14.7293235851
 20
12.4934365785
 30
0.0
  0
SPLINE
  5
48B
100
AcDbEntity
  8
0
100
AcDbSpline
 62
7
  6
CONTINUOUS
 70
0
 71
3
 72
10
 73
6
 74
0
 42
0.0000001
 43
0.0000001
 44
0.0000000001
 40
0.0
 40
0.0
 40
0.0
 40
0.0
 40
0.3242041294
 40
0.5955804966
 40
1.0
 40
1.0
 40
1.0
 40
1.0
 10
14.2707346163
 20
13.0638837916
 30
0.0
 10
14.2682238004
 20
13.0706726491
 30
0.0
 10
14.2636952248
 20
13.0831760516
 30
0.0
 10
14.2564850054
 20
13.1043057858
 30
0.0
 10
14.2520561959
 20
13.118739335
 30
0.0
 10
14.2497218732
 20
13.1274615706
 30
0.0
  0
SPLINE
  5
48C
100
AcDbEntity
  8
0
100
AcDbSpline
 62
7
  6
CONTINUOUS
 70
0
 71
3
 72
34
 73
30
 74
0
 42
0.0000001
 43
0.0000001
 44
0.0000000001
 40
0.0
 40
0.0
 40
0.0
 40
0.0
 40
0.0265240946
 40
0.0543758073
 40
0.08354277
 40
0.1140008828
 40
0.1457062478
 40
0.1785798418
 40
0.212519255
 40
0.2474041456
 40
0.2831000187
 40
0.3194598023
 40
0.3935123372
 40
0.4682544588
 40
0.5423177295
 40
0.6143710046
 40
0.6831980273
 40
0.7160894611
 40
0.7478147541
 40
0.7782963466
 40
0.8074793772
 40
0.8353427855
 40
0.8618978734
 40
0.8871989086
 40
0.9113432279
 40
0.934478133
 40
0.9567990746
 40
0.9785474297
 40
1.0
 40
1.0
 40
1.0
 40
1.0
 10
15.5633752998
 20
11.9621115082
 30
0.0
 10
15.5578861644
 20
11.9732971902
 30
0.0
 10
15.5454649108
 20
11.9956687141
 30
0.0
 10
15.5234113945
 20
12.0281845274
 30
0.0
 10
15.4976267847
 20
12.0602355991
 30
0.0
 10
15.4683037399
 20
12.0916033725
 30
0.0
 10
15.4356343179
 20
12.1220782509
 30
0.0
 10
15.3998442949
 20
12.1514647283
 30
0.0
 10
15.3611709886
 20
12.1795574267
 30
0.0
 10
15.3198809383
 20
12.2061698437
 30
0.0
 10
15.2762515038
 20
12.2311200544
 30
0.0
 10
15.2149931273
 20
12.2621295397
 30
0.0
 10
15.1345590916
 20
12.2956152013
 30
0.0
 10
15.0344055859
 20
12.3266059696
 30
0.0
 10
14.9326834383
 20
12.3478283452
 30
0.0
 10
14.8321348668
 20
12.3587109963
 30
0.0
 10
14.7503158154
 20
12.3589241862
 30
0.0
 10
14.6878315513
 20
12.3534786339
 30
0.0
 10
14.6436295244
 20
12.3467837362
 30
0.0
 10
14.601683309
 20
12.3374727728
 30
0.0
 10
14.562276136
 20
12.3255949805
 30
0.0
 10
14.5256718995
 20
12.3112358533
 30
0.0
 10
14.4921204254
 20
12.2944778349
 30
0.0
 10
14.4618481938
 20
12.2754318598
 30
0.0
 10
14.4350678613
 20
12.2542112926
 30
0.0
 10
14.4119712597
 20
12.2309523341
 30
0.0
 10
14.3927316789
 20
12.2058027746
 30
0.0
 10
14.3775079946
 20
12.1789407908
 30
0.0
 10
14.370093246
 20
12.1599600803
 30
0.0
 10
14.3671188186
 20
12.1503314941
 30
0.0
  0
SPLINE
  5
48D
100
AcDbEntity
  8
0
100
AcDbSpline
 62
7
  6
CONTINUOUS
 70
0
 71
3
 72
12
 73
8
 74
0
 42
0.0000001
 43
0.0000001
 44
0.0000000001
 40
0.0
 40
0.0
 40
0.0
 40
0.0
 40
0.2719532967
 40
0.4021510405
 40
0.5284049573
 40
0.77020227
 40
1.0
 40
1.0
 40
1.0
 40
1.0
 10
14.0209930372
 20
12.8110808709
 30
0.0
 10
14.0112982168
 20
12.8110808709
 30
0.0
 10
13.996945106
 20
12.8103594896
 30
0.0
 10
13.9782632618
 20
12.8078949671
 30
0.0
 10
13.9607939249
 20
12.8046428624
 30
0.0
 10
13.9401553374
 20
12.7991896351
 30
0.0
 10
13.924327601
 20
12.7934622984
 30
0.0
 10
13.916733101
 20
12.7903910096
 30
0.0
  0
SPLINE
  5
48E
100
AcDbEntity
  8
0
100
AcDbSpline
 62
7
  6
CONTINUOUS
 70
0
 71
3
 72
10
 73
6
 74
0
 42
0.0000001
 43
0.0000001
 44
0.0000000001
 40
0.0
 40
0.0
 40
0.0
 40
0.0
 40
0.2559327842
 40
0.5097066736
 40
1.0
 40
1.0
 40
1.0
 40
1.0
 10
14.1339008095
 20
12.7936687445
 30
0.0
 10
14.1244753409
 20
12.7962371263
 30
0.0
 10
14.1055934541
 20
12.8009737695
 30
0.0
 10
14.0681378502
 20
12.8083353284
 30
0.0
 10
14.0397078839
 20
12.8110808709
 30
0.0
 10
14.0209930372
 20
12.8110808709
 30
0.0
  0
SPLINE
  5
48F
100
AcDbEntity
  8
0
100
AcDbSpline
 62
7
  6
CONTINUOUS
 70
0
 71
3
 72
23
 73
19
 74
0
 42
0.0000001
 43
0.0000001
 44
0.0000000001
 40
0.0
 40
0.0
 40
0.0
 40
0.0
 40
0.051456075
 40
0.1067838382
 40
0.1658385029
 40
0.2282809855
 40
0.2936006958
 40
0.3611765294
 40
0.4302984846
 40
0.5002027354
 40
0.5700994595
 40
0.6391982269
 40
0.7067366607
 40
0.7720078996
 40
0.8343894066
 40
0.8933774904
 40
0.9486277789
 40
1.0
 40
1.0
 40
1.0
 40
1.0
 10
15.4982404479
 20
11.9364132479
 30
0.0
 10
15.4892826491
 20
11.9528331365
 30
0.0
 10
15.4680619078
 20
11.9855109646
 30
0.0
 10
15.4289925173
 20
12.0315890257
 30
0.0
 10
15.3821826631
 20
12.0758100728
 30
0.0
 10
15.3284190442
 20
12.1174533765
 30
0.0
 10
15.2685815
 20
12.1558394324
 30
0.0
 10
15.2036659164
 20
12.1903335627
 30
0.0
 10
15.134752519
 20
12.220364743
 30
0.0
 10
15.0629907443
 20
12.2454319901
 30
0.0
 10
14.989578234
 20
12.2651157523
 30
0.0
 10
14.9157403328
 20
12.2790866534
 30
0.0
 10
14.8427086128
 20
12.2871137299
 30
0.0
 10
14.7716969925
 20
12.2890626885
 30
0.0
 10
14.7038833423
 20
12.2848976786
 30
0.0
 10
14.6403797771
 20
12.2746774361
 30
0.0
 10
14.5822424984
 20
12.2585639137
 30
0.0
 10
14.546375425
 20
12.2434901032
 30
0.0
 10
14.529767963
 20
12.2349514981
 30
0.0
  0
SPLINE
  5
490
100
AcDbEntity
  8
0
100
AcDbSpline
 62
7
  6
CONTINUOUS
 70
0
 71
3
 72
20
 73
16
 74
0
 42
0.0000001
 43
0.0000001
 44
0.0000000001
 40
0.0
 40
0.0
 40
0.0
 40
0.0
 40
0.1367329073
 40
0.2642739146
 40
0.3253264232
 40
0.3849833945
 40
0.443657686
 40
0.5017955176
 40
0.5598648486
 40
0.6183322189
 40
0.677649081
 40
0.7382428915
 40
0.800500659
 40
0.8647569959
 40
1.0
 40
1.0
 40
1.0
 40
1.0
 10
14.5240142226
 20
12.2319269786
 30
0.0
 10
14.5093495
 20
12.2240462219
 30
0.0
 10
14.4820198475
 20
12.2067814997
 30
0.0
 10
14.4524358518
 20
12.180084357
 30
0.0
 10
14.4331841219
 20
12.1567227662
 30
0.0
 10
14.4210660553
 20
12.1385029731
 30
0.0
 10
14.4111126151
 20
12.1194143993
 30
0.0
 10
14.4033703098
 20
12.0995324837
 30
0.0
 10
14.3978770532
 20
12.0789417411
 30
0.0
 10
14.3946463908
 20
12.0577329392
 30
0.0
 10
14.3936965373
 20
12.0359943344
 30
0.0
 10
14.3950277076
 20
12.013816697
 30
0.0
 10
14.398628032
 20
11.9912842987
 30
0.0
 10
14.4065708084
 20
11.9603841082
 30
0.0
 10
14.4157179682
 20
11.9377278674
 30
0.0
 10
14.422972266
 20
11.9229451627
 30
0.0
  0
SPLINE
  5
491
100
AcDbEntity
  8
0
100
AcDbSpline
 62
7
  6
CONTINUOUS
 70
0
 71
3
 72
15
 73
11
 74
0
 42
0.0000001
 43
0.0000001
 44
0.0000000001
 40
0.0
 40
0.0
 40
0.0
 40
0.0
 40
0.1133561023
 40
0.2275816101
 40
0.3442067196
 40
0.4647225938
 40
0.5901546602
 40
0.7211133369
 40
0.8578649508
 40
1.0
 40
1.0
 40
1.0
 40
1.0
 10
13.8754141395
 20
12.8953485111
 30
0.0
 10
13.8777611688
 20
12.8890025072
 30
0.0
 10
13.8836455793
 20
12.8766610049
 30
0.0
 10
13.8957541071
 20
12.8599322153
 30
0.0
 10
13.9109256688
 20
12.8452994208
 30
0.0
 10
13.9288603232
 20
12.8330220125
 30
0.0
 10
13.9492304218
 20
12.8232812351
 30
0.0
 10
13.9716904107
 20
12.816235204
 30
0.0
 10
13.9958446202
 20
12.8119931222
 30
0.0
 10
14.012509135
 20
12.8110808709
 30
0.0
 10
14.0209930372
 20
12.8110808709
 30
0.0
  0
SPLINE
  5
492
100
AcDbEntity
  8
0
100
AcDbSpline
 62
7
  6
CONTINUOUS
 70
0
 71
3
 72
15
 73
11
 74
0
 42
0.0000001
 43
0.0000001
 44
0.0000000001
 40
0.0
 40
0.0
 40
0.0
 40
0.0
 40
0.1422270018
 40
0.2798763545
 40
0.4121907965
 40
0.5390129278
 40
0.660470832
 40
0.7770822459
 40
0.8898655855
 40
1.0
 40
1.0
 40
1.0
 40
1.0
 10
13.9274954803
 20
13.0638837916
 30
0.0
 10
13.9213007147
 20
13.0576130903
 30
0.0
 10
13.9097325022
 20
13.0446369953
 30
0.0
 10
13.8948911483
 20
13.023779764
 30
0.0
 10
13.8830731782
 20
13.0021428153
 30
0.0
 10
13.874491098
 20
12.9800961683
 30
0.0
 10
13.8692893924
 20
12.9580056247
 30
0.0
 10
13.8675858474
 20
12.9362340131
 30
0.0
 10
13.8694345773
 20
12.9151754963
 30
0.0
 10
13.8730464665
 20
12.9017503326
 30
0.0
 10
13.8754141395
 20
12.8953485111
 30
0.0
  0
SPLINE
  5
493
100
AcDbEntity
  8
0
100
AcDbSpline
 62
7
  6
CONTINUOUS
 70
0
 71
3
 72
13
 73
9
 74
0
 42
0.0000001
 43
0.0000001
 44
0.0000000001
 40
0.0
 40
0.0
 40
0.0
 40
0.0
 40
0.1193569715
 40
0.2419940158
 40
0.4935391494
 40
0.621137633
 40
0.7486767341
 40
1.0
 40
1.0
 40
1.0
 40
1.0
 10
14.1251557187
 20
13.1481514318
 30
0.0
 10
14.1170795077
 20
13.1481514318
 30
0.0
 10
14.1006938646
 20
13.1472967834
 30
0.0
 10
14.0676284445
 20
13.1423610455
 30
0.0
 10
14.0348577681
 20
13.1326824352
 30
0.0
 10
14.003476914
 20
13.1187911559
 30
0.0
 10
13.9734321876
 20
13.1022454901
 30
0.0
 10
13.9526268514
 20
13.0869627515
 30
0.0
 10
13.9399181797
 20
13.0756631544
 30
0.0
  0
SPLINE
  5
494
100
AcDbEntity
  8
0
100
AcDbSpline
 62
7
  6
CONTINUOUS
 70
0
 71
3
 72
15
 73
11
 74
0
 42
0.0000001
 43
0.0000001
 44
0.0000000001
 40
0.0
 40
0.0
 40
0.0
 40
0.0
 40
0.1133561023
 40
0.2275816101
 40
0.3442067196
 40
0.4647225938
 40
0.5901546602
 40
0.7211133369
 40
0.8578649508
 40
1.0
 40
1.0
 40
1.0
 40
1.0
 10
14.2707346163
 20
13.0638837916
 30
0.0
 10
14.2683875871
 20
13.0702297954
 30
0.0
 10
14.2625031766
 20
13.0825712977
 30
0.0
 10
14.2503946487
 20
13.0993000874
 30
0.0
 10
14.2352230871
 20
13.1139328819
 30
0.0
 10
14.2172884327
 20
13.1262102902
 30
0.0
 10
14.1969183341
 20
13.1359510675
 30
0.0
 10
14.1744583452
 20
13.1429970987
 30
0.0
 10
14.1503041357
 20
13.1472391805
 30
0.0
 10
14.1336396208
 20
13.1481514318
 30
0.0
 10
14.1251557187
 20
13.1481514318
 30
0.0
  0
SPLINE
  5
495
100
AcDbEntity
  8
0
100
AcDbSpline
 62
7
  6
CONTINUOUS
 70
0
 71
3
 72
11
 73
7
 74
0
 42
0.0000001
 43
0.0000001
 44
0.0000000001
 40
0.0
 40
0.0
 40
0.0
 40
0.0
 40
0.2407722832
 40
0.4902239928
 40
0.7446555882
 40
1.0
 40
1.0
 40
1.0
 40
1.0
 10
14.0209930372
 20
12.8110808709
 30
0.0
 10
14.0335034357
 20
12.8110808709
 30
0.0
 10
14.0590073901
 20
12.8131304908
 30
0.0
 10
14.0968481732
 20
12.8217545984
 30
0.0
 10
14.1338723152
 20
12.8357007058
 30
0.0
 10
14.1572863332
 20
12.8482826905
 30
0.0
 10
14.1685228189
 20
12.8553374404
 30
0.0
  0
SPLINE
  5
496
100
AcDbEntity
  8
0
100
AcDbSpline
 62
7
  6
CONTINUOUS
 70
0
 71
3
 72
9
 73
5
 74
0
 42
0.0000001
 43
0.0000001
 44
0.0000000001
 40
0.0
 40
0.0
 40
0.0
 40
0.0
 40
0.2466559885
 40
1.0
 40
1.0
 40
1.0
 40
1.0
 10
14.0582156778
 20
12.6927381426
 30
0.0
 10
14.06093997
 20
12.6927381426
 30
0.0
 10
14.0719844125
 20
12.6929068365
 30
0.0
 10
14.0830172912
 20
12.6937366665
 30
0.0
 10
14.0912811945
 20
12.6947064697
 30
0.0
  0
SPLINE
  5
497
100
AcDbEntity
  8
0
100
AcDbSpline
 62
7
  6
CONTINUOUS
 70
0
 71
3
 72
11
 73
7
 74
0
 42
0.0000001
 43
0.0000001
 44
0.0000000001
 40
0.0
 40
0.0
 40
0.0
 40
0.0
 40
0.234314534
 40
0.4790145179
 40
0.7343993233
 40
1.0
 40
1.0
 40
1.0
 40
1.0
 10
13.9518596439
 20
12.7188106412
 30
0.0
 10
13.959341254
 20
12.7144799474
 30
0.0
 10
13.9753558648
 20
12.7068263317
 30
0.0
 10
14.0012823218
 20
12.6986903496
 30
0.0
 10
14.0291753651
 20
12.6937894827
 30
0.0
 10
14.0484168147
 20
12.6927381426
 30
0.0
 10
14.0582156778
 20
12.6927381426
 30
0.0
  0
SPLINE
  5
498
100
AcDbEntity
  8
0
100
AcDbSpline
 62
7
  6
CONTINUOUS
 70
0
 71
3
 72
14
 73
10
 74
0
 42
0.0000001
 43
0.0000001
 44
0.0000000001
 40
0.0
 40
0.0
 40
0.0
 40
0.0
 40
0.2712712184
 40
0.4002870192
 40
0.5253381307
 40
0.6470559219
 40
0.766182452
 40
0.8835397321
 40
1.0
 40
1.0
 40
1.0
 40
1.0
 10
14.4811142412
 20
11.9229451627
 30
0.0
 10
14.47475562
 20
11.9359026705
 30
0.0
 10
14.4667127383
 20
11.9557535093
 30
0.0
 10
14.4596341779
 20
11.9828235816
 30
0.0
 10
14.4563521477
 20
12.0025781086
 30
0.0
 10
14.4550215916
 20
12.0220321014
 30
0.0
 10
14.4556488216
 20
12.0411152684
 30
0.0
 10
14.4582389366
 20
12.0597490855
 30
0.0
 10
14.4612695663
 20
12.0718445017
 30
0.0
 10
14.4630984945
 20
12.0777649818
 30
0.0
  0
SPLINE
  5
499
100
AcDbEntity
  8
0
100
AcDbSpline
 62
7
  6
CONTINUOUS
 70
0
 71
3
 72
9
 73
5
 74
0
 42
0.0000001
 43
0.0000001
 44
0.0000000001
 40
0.0
 40
0.0
 40
0.0
 40
0.0
 40
0.4872976247
 40
1.0
 40
1.0
 40
1.0
 40
1.0
 10
14.9441952317
 20
11.4098442057
 30
0.0
 10
14.9450484851
 20
11.4126053105
 30
0.0
 10
14.9459773241
 20
11.4185547178
 30
0.0
 10
14.9452533724
 20
11.4245131884
 30
0.0
 10
14.9445498949
 20
11.4274712923
 30
0.0
  0
SPLINE
  5
49A
100
AcDbEntity
  8
0
100
AcDbSpline
 62
7
  6
CONTINUOUS
 70
0
 71
3
 72
9
 73
5
 74
0
 42
0.0000001
 43
0.0000001
 44
0.0000000001
 40
0.0
 40
0.0
 40
0.0
 40
0.0
 40
0.2417502043
 40
1.0
 40
1.0
 40
1.0
 40
1.0
 10
14.9445498949
 20
11.4274712923
 30
0.0
 10
14.9443574948
 20
11.4282803294
 30
0.0
 10
14.9434588859
 20
11.4316021822
 30
0.0
 10
14.9421662632
 20
11.434812947
 30
0.0
 10
14.9410171891
 20
11.4371545138
 30
0.0
  0
LINE
  5
49B
100
AcDbEntity
  8
0
100
AcDbLine
 62
7
  6
CONTINUOUS
 10
14.5238069789
 20
13.2743430914
 11
14.5267322883
 21
13.2824374964
  0
SPLINE
  5
49C
100
AcDbEntity
  8
0
100
AcDbSpline
 62
7
  6
CONTINUOUS
 70
0
 71
3
 72
21
 73
17
 74
0
 42
0.0000001
 43
0.0000001
 44
0.0000000001
 40
0.0
 40
0.0
 40
0.0
 40
0.0
 40
0.1486112337
 40
0.2173593592
 40
0.2823613425
 40
0.3438438955
 40
0.4022275903
 40
0.4581781528
 40
0.5125388955
 40
0.5663095636
 40
0.6205388649
 40
0.6762267687
 40
0.734261079
 40
0.8597058334
 40
0.928044202
 40
1.0
 40
1.0
 40
1.0
 40
1.0
 10
14.6155425473
 20
13.3617168326
 30
0.0
 10
14.6207537814
 20
13.363212772
 30
0.0
 10
14.6285818495
 20
13.3648137012
 30
0.0
 10
14.6388880235
 20
13.3652971889
 30
0.0
 10
14.6460123305
 20
13.3648250761
 30
0.0
 10
14.6526523493
 20
13.363533421
 30
0.0
 10
14.6587338702
 20
13.3614208226
 30
0.0
 10
14.6641883539
 20
13.358512853
 30
0.0
 10
14.6689487771
 20
13.3548342317
 30
0.0
 10
14.6729478106
 20
13.350422959
 30
0.0
 10
14.6761435075
 20
13.3453432332
 30
0.0
 10
14.6784938925
 20
13.3396541898
 30
0.0
 10
14.6805238037
 20
13.3311372844
 30
0.0
 10
14.6806538117
 20
13.321828143
 30
0.0
 10
14.6791777644
 20
13.3122389119
 30
0.0
 10
14.6778883648
 20
13.3072740582
 30
0.0
 10
14.6771133047
 20
13.3047659626
 30
0.0
  0
SPLINE
  5
49D
100
AcDbEntity
  8
0
100
AcDbSpline
 62
7
  6
CONTINUOUS
 70
0
 71
3
 72
28
 73
24
 74
0
 42
0.0000001
 43
0.0000001
 44
0.0000000001
 40
0.0
 40
0.0
 40
0.0
 40
0.0
 40
0.0660152505
 40
0.1371671607
 40
0.2119339098
 40
0.2886752026
 40
0.3654989099
 40
0.4405201712
 40
0.5120061324
 40
0.5785292492
 40
0.6391892539
 40
0.6672759586
 40
0.6939228225
 40
0.7192665539
 40
0.7435324733
 40
0.7670161011
 40
0.7900715721
 40
0.8130937465
 40
0.8364727614
 40
0.8605742454
 40
0.8857114809
 40
0.9399014761
 40
1.0
 40
1.0
 40
1.0
 40
1.0
 10
14.6771133047
 20
13.3047659626
 30
0.0
 10
14.6755499716
 20
13.2997070148
 30
0.0
 10
14.6713472493
 20
13.2894791817
 30
0.0
 10
14.6626653747
 20
13.2748094758
 30
0.0
 10
14.6516453378
 20
13.2606965992
 30
0.0
 10
14.6387121706
 20
13.2476714982
 30
0.0
 10
14.6243440928
 20
13.2362151644
 30
0.0
 10
14.6090797551
 20
13.2267568374
 30
0.0
 10
14.5934827944
 20
13.2196506919
 30
0.0
 10
14.5781309016
 20
13.2151652037
 30
0.0
 10
14.5656770542
 20
13.2137182236
 30
0.0
 10
14.5564132625
 20
13.2141289173
 30
0.0
 10
14.5500562038
 20
13.2151534314
 30
0.0
 10
14.5441758013
 20
13.2169033927
 30
0.0
 10
14.5388309178
 20
13.2193637806
 30
0.0
 10
14.534074744
 20
13.222510778
 30
0.0
 10
14.529965628
 20
13.2263226621
 30
0.0
 10
14.5265468839
 20
13.2307531381
 30
0.0
 10
14.5238508702
 20
13.2357514531
 30
0.0
 10
14.5219107053
 20
13.2412669609
 30
0.0
 10
14.5203040245
 20
13.249431273
 30
0.0
 10
14.5203891473
 20
13.2607299523
 30
0.0
 10
14.5223837621
 20
13.2697375603
 30
0.0
 10
14.5238069789
 20
13.2743430914
 30
0.0
  0
SPLINE
  5
49E
100
AcDbEntity
  8
0
100
AcDbSpline
 62
7
  6
CONTINUOUS
 70
0
 71
3
 72
9
 73
5
 74
0
 42
0.0000001
 43
0.0000001
 44
0.0000000001
 40
0.0
 40
0.0
 40
0.0
 40
0.0
 40
0.5068425447
 40
1.0
 40
1.0
 40
1.0
 40
1.0
 10
15.4320538394
 20
11.7331446639
 30
0.0
 10
15.4372478322
 20
11.7384621481
 30
0.0
 10
15.4469599486
 20
11.7494939653
 30
0.0
 10
15.455377988
 20
11.761548155
 30
0.0
 10
15.4591608834
 20
11.7677125233
 30
0.0
  0
SPLINE
  5
49F
100
AcDbEntity
  8
0
100
AcDbSpline
 62
7
  6
CONTINUOUS
 70
0
 71
3
 72
11
 73
7
 74
0
 42
0.0000001
 43
0.0000001
 44
0.0000000001
 40
0.0
 40
0.0
 40
0.0
 40
0.0
 40
0.2336507478
 40
0.4745100459
 40
0.7287054591
 40
1.0
 40
1.0
 40
1.0
 40
1.0
 10
15.8642272015
 20
11.3265170221
 30
0.0
 10
15.8649265105
 20
11.3287800762
 30
0.0
 10
15.8658448801
 20
11.3335467781
 30
0.0
 10
15.8656835875
 20
11.3409814639
 30
0.0
 10
15.8640111049
 20
11.348611183
 30
0.0
 10
15.8620027236
 20
11.3535728002
 30
0.0
 10
15.8607911198
 20
11.3560417891
 30
0.0
  0
SPLINE
  5
4A0
100
AcDbEntity
  8
0
100
AcDbSpline
 62
7
  6
CONTINUOUS
 70
0
 71
3
 72
9
 73
5
 74
0
 42
0.0000001
 43
0.0000001
 44
0.0000000001
 40
0.0
 40
0.0
 40
0.0
 40
0.0
 40
0.2486146868
 40
1.0
 40
1.0
 40
1.0
 40
1.0
 10
14.6224532433
 20
12.4143909633
 30
0.0
 10
14.622723686
 20
12.4140851652
 30
0.0
 10
14.6238474979
 20
12.4128873591
 30
0.0
 10
14.6251149419
 20
12.4118253221
 30
0.0
 10
14.626124513
 20
12.4111160967
 30
0.0
  0
SPLINE
  5
4A1
100
AcDbEntity
  8
0
100
AcDbSpline
 62
7
  6
CONTINUOUS
 70
0
 71
3
 72
9
 73
5
 74
0
 42
0.0000001
 43
0.0000001
 44
0.0000000001
 40
0.0
 40
0.0
 40
0.0
 40
0.0
 40
0.4852497949
 40
1.0
 40
1.0
 40
1.0
 40
1.0
 10
14.626124513
 20
12.4111160967
 30
0.0
 10
14.6273597354
 20
12.410248351
 30
0.0
 10
14.6300956314
 20
12.4087213055
 30
0.0
 10
14.633057817
 20
12.4077187989
 30
0.0
 10
14.6346093988
 20
12.4073227637
 30
0.0
  0
SPLINE
  5
4A2
100
AcDbEntity
  8
0
100
AcDbSpline
 62
7
  6
CONTINUOUS
 70
0
 71
3
 72
9
 73
5
 74
0
 42
0.0000001
 43
0.0000001
 44
0.0000000001
 40
0.0
 40
0.0
 40
0.0
 40
0.0
 40
0.2419940706
 40
1.0
 40
1.0
 40
1.0
 40
1.0
 10
14.6346093988
 20
12.4073227637
 30
0.0
 10
14.6350781905
 20
12.4072031064
 30
0.0
 10
14.6370267789
 20
12.4067536195
 30
0.0
 10
14.639014075
 20
12.4064784633
 30
0.0
 10
14.6405243718
 20
12.4063530998
 30
0.0
  0
SPLINE
  5
4A3
100
AcDbEntity
  8
0
100
AcDbSpline
 62
7
  6
CONTINUOUS
 70
0
 71
3
 72
9
 73
5
 74
0
 42
0.0000001
 43
0.0000001
 44
0.0000000001
 40
0.0
 40
0.0
 40
0.0
 40
0.0
 40
0.4827393645
 40
1.0
 40
1.0
 40
1.0
 40
1.0
 10
14.6578198562
 20
12.407870889
 30
0.0
 10
14.6615738562
 20
12.4087353295
 30
0.0
 10
14.669219683
 20
12.4111153433
 30
0.0
 10
14.6765082397
 20
12.4144124353
 30
0.0
 10
14.6801690162
 20
12.416319474
 30
0.0
  0
SPLINE
  5
4A4
100
AcDbEntity
  8
0
100
AcDbSpline
 62
7
  6
CONTINUOUS
 70
0
 71
3
 72
9
 73
5
 74
0
 42
0.0000001
 43
0.0000001
 44
0.0000000001
 40
0.0
 40
0.0
 40
0.0
 40
0.0
 40
0.5006202056
 40
1.0
 40
1.0
 40
1.0
 40
1.0
 10
14.6847880619
 20
12.418866052
 30
0.0
 10
14.68955516
 20
12.4216410804
 30
0.0
 10
14.6986909472
 20
12.4278731205
 30
0.0
 10
14.7068492426
 20
12.4353493895
 30
0.0
 10
14.7105955526
 20
12.4393793496
 30
0.0
  0
SPLINE
  5
4A5
100
AcDbEntity
  8
0
100
AcDbSpline
 62
7
  6
CONTINUOUS
 70
0
 71
3
 72
9
 73
5
 74
0
 42
0.0000001
 43
0.0000001
 44
0.0000000001
 40
0.0
 40
0.0
 40
0.0
 40
0.0
 40
0.2563280819
 40
1.0
 40
1.0
 40
1.0
 40
1.0
 10
14.7105955526
 20
12.4393793496
 30
0.0
 10
14.7116611321
 20
12.440525609
 30
0.0
 10
14.7157133659
 20
12.4450926652
 30
0.0
 10
14.7193400432
 20
12.4500460508
 30
0.0
 10
14.7216992328
 20
12.4539256377
 30
0.0
  0
SPLINE
  5
4A6
100
AcDbEntity
  8
0
100
AcDbSpline
 62
7
  6
CONTINUOUS
 70
0
 71
3
 72
9
 73
5
 74
0
 42
0.0000001
 43
0.0000001
 44
0.0000000001
 40
0.0
 40
0.0
 40
0.0
 40
0.0
 40
0.2604161972
 40
1.0
 40
1.0
 40
1.0
 40
1.0
 10
14.7216992328
 20
12.4539256377
 30
0.0
 10
14.7224475836
 20
12.4551562687
 30
0.0
 10
14.7251897187
 20
12.4599589421
 30
0.0
 10
14.7273998027
 20
12.465078357
 30
0.0
 10
14.7286075059
 20
12.4689864859
 30
0.0
  0
SPLINE
  5
4A7
100
AcDbEntity
  8
0
100
AcDbSpline
 62
7
  6
CONTINUOUS
 70
0
 71
3
 72
10
 73
6
 74
0
 42
0.0000001
 43
0.0000001
 44
0.0000000001
 40
0.0
 40
0.0
 40
0.0
 40
0.0
 40
0.3242041294
 40
0.5955804966
 40
1.0
 40
1.0
 40
1.0
 40
1.0
 10
16.1512341458
 20
13.0638837916
 30
0.0
 10
16.1487233299
 20
13.0706726491
 30
0.0
 10
16.1441947542
 20
13.0831760516
 30
0.0
 10
16.1369845348
 20
13.1043057858
 30
0.0
 10
16.1325557253
 20
13.118739335
 30
0.0
 10
16.1302214027
 20
13.1274615706
 30
0.0
  0
SPLINE
  5
4A8
100
AcDbEntity
  8
0
100
AcDbSpline
 62
7
  6
CONTINUOUS
 70
0
 71
3
 72
10
 73
6
 74
0
 42
0.0000001
 43
0.0000001
 44
0.0000000001
 40
0.0
 40
0.0
 40
0.0
 40
0.0
 40
0.2220967635
 40
0.4674805051
 40
1.0
 40
1.0
 40
1.0
 40
1.0
 10
16.1512341458
 20
13.0638837916
 30
0.0
 10
16.1541309342
 20
13.056051324
 30
0.0
 10
16.1603549234
 20
13.0396119421
 30
0.0
 10
16.1740390151
 20
13.0045893228
 30
0.0
 10
16.1849918038
 20
12.9774667998
 30
0.0
 10
16.1925531073
 20
12.9589262901
 30
0.0
  0
SPLINE
  5
4A9
100
AcDbEntity
  8
0
100
AcDbSpline
 62
7
  6
CONTINUOUS
 70
0
 71
3
 72
11
 73
7
 74
0
 42
0.0000001
 43
0.0000001
 44
0.0000000001
 40
0.0
 40
0.0
 40
0.0
 40
0.0
 40
0.2668691922
 40
0.522081711
 40
0.7658740023
 40
1.0
 40
1.0
 40
1.0
 40
1.0
 10
16.099152805
 20
12.8953485111
 30
0.0
 10
16.1062561283
 20
12.9025389072
 30
0.0
 10
16.1208953576
 20
12.9158957028
 30
0.0
 10
16.1442863859
 20
12.9331310965
 30
0.0
 10
16.1681736917
 20
12.9473610335
 30
0.0
 10
16.1844571927
 20
12.9553090408
 30
0.0
 10
16.1925531073
 20
12.9589262901
 30
0.0
  0
SPLINE
  5
4AA
100
AcDbEntity
  8
0
100
AcDbSpline
 62
7
  6
CONTINUOUS
 70
0
 71
3
 72
11
 73
7
 74
0
 42
0.0000001
 43
0.0000001
 44
0.0000000001
 40
0.0
 40
0.0
 40
0.0
 40
0.0
 40
0.2448523087
 40
0.4950254109
 40
0.7474208223
 40
1.0
 40
1.0
 40
1.0
 40
1.0
 10
16.099152805
 20
12.8953485111
 30
0.0
 10
16.091790942
 20
12.8878964062
 30
0.0
 10
16.0776954809
 20
12.8720352509
 30
0.0
 10
16.0587058031
 20
12.8462662292
 30
0.0
 10
16.0415021352
 20
12.8188940283
 30
0.0
 10
16.031068901
 20
12.7999651353
 30
0.0
 10
16.0260587211
 20
12.7903910096
 30
0.0
  0
SPLINE
  5
4AB
100
AcDbEntity
  8
0
100
AcDbSpline
 62
7
  6
CONTINUOUS
 70
0
 71
3
 72
12
 73
8
 74
0
 42
0.0000001
 43
0.0000001
 44
0.0000000001
 40
0.0
 40
0.0
 40
0.0
 40
0.0
 40
0.2719532967
 40
0.4021510405
 40
0.5284049573
 40
0.77020227
 40
1.0
 40
1.0
 40
1.0
 40
1.0
 10
15.9014925666
 20
12.8110808709
 30
0.0
 10
15.8917977462
 20
12.8110808709
 30
0.0
 10
15.8774446354
 20
12.8103594896
 30
0.0
 10
15.8587627912
 20
12.8078949671
 30
0.0
 10
15.8412934543
 20
12.8046428624
 30
0.0
 10
15.8206548668
 20
12.7991896351
 30
0.0
 10
15.8048271304
 20
12.7934622984
 30
0.0
 10
15.7972326304
 20
12.7903910096
 30
0.0
  0
SPLINE
  5
4AC
100
AcDbEntity
  8
0
100
AcDbSpline
 62
7
  6
CONTINUOUS
 70
0
 71
3
 72
11
 73
7
 74
0
 42
0.0000001
 43
0.0000001
 44
0.0000000001
 40
0.0
 40
0.0
 40
0.0
 40
0.0
 40
0.2555805696
 40
0.5093742966
 40
0.7587411129
 40
1.0
 40
1.0
 40
1.0
 40
1.0
 10
16.0260587211
 20
12.7903910096
 30
0.0
 10
16.0156935325
 20
12.7933917609
 30
0.0
 10
15.9949131258
 20
12.7989642379
 30
0.0
 10
15.9635557361
 20
12.8056124278
 30
0.0
 10
15.9324028772
 20
12.809993465
 30
0.0
 10
15.9116787068
 20
12.8110808709
 30
0.0
 10
15.9014925666
 20
12.8110808709
 30
0.0
  0
SPLINE
  5
4AD
100
AcDbEntity
  8
0
100
AcDbSpline
 62
7
  6
CONTINUOUS
 70
0
 71
3
 72
12
 73
8
 74
0
 42
0.0000001
 43
0.0000001
 44
0.0000000001
 40
0.0
 40
0.0
 40
0.0
 40
0.0
 40
0.2869529715
 40
0.5415665319
 40
0.6596905276
 40
0.7740001947
 40
1.0
 40
1.0
 40
1.0
 40
1.0
 10
16.1203642429
 20
13.2625770913
 30
0.0
 10
16.1207966319
 20
13.2639763024
 30
0.0
 10
16.1218955272
 20
13.2665453116
 30
0.0
 10
16.1240391415
 20
13.2692149567
 30
0.0
 10
16.1260501824
 20
13.2706982247
 30
0.0
 10
16.1281627332
 20
13.2717277687
 30
0.0
 10
16.1299229055
 20
13.2720320629
 30
0.0
 10
16.1310763213
 20
13.2720318791
 30
0.0
  0
SPLINE
  5
4AE
100
AcDbEntity
  8
0
100
AcDbSpline
 62
7
  6
CONTINUOUS
 70
0
 71
3
 72
15
 73
11
 74
0
 42
0.0000001
 43
0.0000001
 44
0.0000000001
 40
0.0
 40
0.0
 40
0.0
 40
0.0
 40
0.1133561023
 40
0.2275816101
 40
0.3442067196
 40
0.4647225938
 40
0.5901546602
 40
0.7211133369
 40
0.8578649508
 40
1.0
 40
1.0
 40
1.0
 40
1.0
 10
16.1512341458
 20
13.0638837916
 30
0.0
 10
16.1488871165
 20
13.0702297954
 30
0.0
 10
16.143002706
 20
13.0825712977
 30
0.0
 10
16.1308941782
 20
13.0993000874
 30
0.0
 10
16.1157226165
 20
13.1139328819
 30
0.0
 10
16.0977879621
 20
13.1262102902
 30
0.0
 10
16.0774178635
 20
13.1359510675
 30
0.0
 10
16.0549578746
 20
13.1429970987
 30
0.0
 10
16.0308036651
 20
13.1472391805
 30
0.0
 10
16.0141391503
 20
13.1481514318
 30
0.0
 10
16.0056552481
 20
13.1481514318
 30
0.0
  0
SPLINE
  5
4AF
100
AcDbEntity
  8
0
100
AcDbSpline
 62
7
  6
CONTINUOUS
 70
0
 71
3
 72
15
 73
11
 74
0
 42
0.0000001
 43
0.0000001
 44
0.0000000001
 40
0.0
 40
0.0
 40
0.0
 40
0.0
 40
0.1422270018
 40
0.2798763545
 40
0.4121907965
 40
0.5390129278
 40
0.660470832
 40
0.7770822459
 40
0.8898655855
 40
1.0
 40
1.0
 40
1.0
 40
1.0
 10
16.099152805
 20
12.8953485111
 30
0.0
 10
16.1053475706
 20
12.9016192123
 30
0.0
 10
16.1169157831
 20
12.9145953074
 30
0.0
 10
16.131757137
 20
12.9354525387
 30
0.0
 10
16.1435751071
 20
12.9570894873
 30
0.0
 10
16.1521571873
 20
12.9791361343
 30
0.0
 10
16.1573588929
 20
13.001226678
 30
0.0
 10
16.1590624379
 20
13.0229982896
 30
0.0
 10
16.157213708
 20
13.0440568064
 30
0.0
 10
16.1536018188
 20
13.0574819701
 30
0.0
 10
16.1512341458
 20
13.0638837916
 30
0.0
  0
SPLINE
  5
4B0
100
AcDbEntity
  8
0
100
AcDbSpline
 62
7
  6
CONTINUOUS
 70
0
 71
3
 72
13
 73
9
 74
0
 42
0.0000001
 43
0.0000001
 44
0.0000000001
 40
0.0
 40
0.0
 40
0.0
 40
0.0
 40
0.1196980358
 40
0.2428785337
 40
0.495546694
 40
0.7505515712
 40
0.8765483809
 40
1.0
 40
1.0
 40
1.0
 40
1.0
 10
15.9014925666
 20
12.8110808709
 30
0.0
 10
15.9102732232
 20
12.8110808709
 30
0.0
 10
15.9281035387
 20
12.8120907658
 30
0.0
 10
15.9640386206
 20
12.8179085318
 30
0.0
 10
16.0084006454
 20
12.8321242609
 30
0.0
 10
16.0495231486
 20
12.8544173227
 30
0.0
 10
16.0792333333
 20
12.8765565758
 30
0.0
 10
16.0927883674
 20
12.888906058
 30
0.0
 10
16.099152805
 20
12.8953485111
 30
0.0
  0
SPLINE
  5
4B1
100
AcDbEntity
  8
0
100
AcDbSpline
 62
7
  6
CONTINUOUS
 70
0
 71
3
 72
15
 73
11
 74
0
 42
0.0000001
 43
0.0000001
 44
0.0000000001
 40
0.0
 40
0.0
 40
0.0
 40
0.0
 40
0.1133561023
 40
0.2275816101
 40
0.3442067196
 40
0.4647225938
 40
0.5901546602
 40
0.7211133369
 40
0.8578649508
 40
1.0
 40
1.0
 40
1.0
 40
1.0
 10
15.755913669
 20
12.8953485111
 30
0.0
 10
15.7582606982
 20
12.8890025072
 30
0.0
 10
15.7641451087
 20
12.8766610049
 30
0.0
 10
15.7762536366
 20
12.8599322153
 30
0.0
 10
15.7914251982
 20
12.8452994208
 30
0.0
 10
15.8093598526
 20
12.8330220125
 30
0.0
 10
15.8297299512
 20
12.8232812351
 30
0.0
 10
15.8521899401
 20
12.816235204
 30
0.0
 10
15.8763441496
 20
12.8119931222
 30
0.0
 10
15.8930086644
 20
12.8110808709
 30
0.0
 10
15.9014925666
 20
12.8110808709
 30
0.0
  0
SPLINE
  5
4B2
100
AcDbEntity
  8
0
100
AcDbSpline
 62
7
  6
CONTINUOUS
 70
0
 71
3
 72
15
 73
11
 74
0
 42
0.0000001
 43
0.0000001
 44
0.0000000001
 40
0.0
 40
0.0
 40
0.0
 40
0.0
 40
0.1422270018
 40
0.2798763545
 40
0.4121907965
 40
0.5390129278
 40
0.660470832
 40
0.7770822459
 40
0.8898655855
 40
1.0
 40
1.0
 40
1.0
 40
1.0
 10
15.8079950097
 20
13.0638837916
 30
0.0
 10
15.8018002441
 20
13.0576130903
 30
0.0
 10
15.7902320316
 20
13.0446369953
 30
0.0
 10
15.7753906777
 20
13.023779764
 30
0.0
 10
15.7635727076
 20
13.0021428153
 30
0.0
 10
15.7549906274
 20
12.9800961683
 30
0.0
 10
15.7497889218
 20
12.9580056247
 30
0.0
 10
15.7480853768
 20
12.9362340131
 30
0.0
 10
15.7499341067
 20
12.9151754963
 30
0.0
 10
15.7535459959
 20
12.9017503326
 30
0.0
 10
15.755913669
 20
12.8953485111
 30
0.0
  0
SPLINE
  5
4B3
100
AcDbEntity
  8
0
100
AcDbSpline
 62
7
  6
CONTINUOUS
 70
0
 71
3
 72
13
 73
9
 74
0
 42
0.0000001
 43
0.0000001
 44
0.0000000001
 40
0.0
 40
0.0
 40
0.0
 40
0.0
 40
0.1196980358
 40
0.2428785337
 40
0.495546694
 40
0.7505515712
 40
0.8765483809
 40
1.0
 40
1.0
 40
1.0
 40
1.0
 10
16.0056552481
 20
13.1481514318
 30
0.0
 10
15.9968745915
 20
13.1481514318
 30
0.0
 10
15.979044276
 20
13.1471415368
 30
0.0
 10
15.9431091941
 20
13.1413237709
 30
0.0
 10
15.8987471693
 20
13.1271080418
 30
0.0
 10
15.8576246662
 20
13.1048149799
 30
0.0
 10
15.8279144814
 20
13.0826757269
 30
0.0
 10
15.8143594473
 20
13.0703262447
 30
0.0
 10
15.8079950097
 20
13.0638837916
 30
0.0
  0
SPLINE
  5
4B4
100
AcDbEntity
  8
0
100
AcDbSpline
 62
7
  6
CONTINUOUS
 70
0
 71
3
 72
11
 73
7
 74
0
 42
0.0000001
 43
0.0000001
 44
0.0000000001
 40
0.0
 40
0.0
 40
0.0
 40
0.0
 40
0.2414616936
 40
0.4898068426
 40
0.7433130675
 40
1.0
 40
1.0
 40
1.0
 40
1.0
 10
15.9387152072
 20
12.6927381426
 30
0.0
 10
15.948856661
 20
12.6927381426
 30
0.0
 10
15.9694429332
 20
12.6939023572
 30
0.0
 10
16.0003112825
 20
12.6989009795
 30
0.0
 10
16.0311467137
 20
12.7071040103
 30
0.0
 10
16.0512679911
 20
12.7145826528
 30
0.0
 10
16.061185264
 20
12.7188106412
 30
0.0
  0
SPLINE
  5
4B5
100
AcDbEntity
  8
0
100
AcDbSpline
 62
7
  6
CONTINUOUS
 70
0
 71
3
 72
11
 73
7
 74
0
 42
0.0000001
 43
0.0000001
 44
0.0000000001
 40
0.0
 40
0.0
 40
0.0
 40
0.0
 40
0.234314534
 40
0.4790145179
 40
0.7343993233
 40
1.0
 40
1.0
 40
1.0
 40
1.0
 10
15.8323591733
 20
12.7188106412
 30
0.0
 10
15.8398407834
 20
12.7144799474
 30
0.0
 10
15.8558553943
 20
12.7068263317
 30
0.0
 10
15.8817818513
 20
12.6986903496
 30
0.0
 10
15.9096748946
 20
12.6937894827
 30
0.0
 10
15.9289163441
 20
12.6927381426
 30
0.0
 10
15.9387152072
 20
12.6927381426
 30
0.0
  0
SPLINE
  5
4B6
100
AcDbEntity
  8
0
100
AcDbSpline
 62
7
  6
CONTINUOUS
 70
0
 71
3
 72
14
 73
10
 74
0
 42
0.0000001
 43
0.0000001
 44
0.0000000001
 40
0.0
 40
0.0
 40
0.0
 40
0.0
 40
0.1372502869
 40
0.271227395
 40
0.5278763648
 40
0.6507650006
 40
0.7701895112
 40
0.8864635507
 40
1.0
 40
1.0
 40
1.0
 40
1.0
 10
14.0734677711
 20
12.6616576441
 30
0.0
 10
14.0668291771
 20
12.6616576441
 30
0.0
 10
14.0537025019
 20
12.6621474793
 30
0.0
 10
14.0283242684
 20
12.6650898591
 30
0.0
 10
14.0040366216
 20
12.6709846691
 30
0.0
 10
13.9815911255
 20
12.6799377181
 30
0.0
 10
13.9661670183
 20
12.6879386002
 30
0.0
 10
13.9520375188
 20
12.6972507222
 30
0.0
 10
13.94346226
 20
12.7043673652
 30
0.0
 10
13.9394478887
 20
12.708114683
 30
0.0
  0
SPLINE
  5
4B7
100
AcDbEntity
  8
0
100
AcDbSpline
 62
7
  6
CONTINUOUS
 70
0
 71
3
 72
9
 73
5
 74
0
 42
0.0000001
 43
0.0000001
 44
0.0000000001
 40
0.0
 40
0.0
 40
0.0
 40
0.0
 40
0.5039959606
 40
1.0
 40
1.0
 40
1.0
 40
1.0
 10
13.9394478887
 20
12.708114683
 30
0.0
 10
13.9334932533
 20
12.7136731901
 30
0.0
 10
13.9226052019
 20
12.7257488857
 30
0.0
 10
13.9141081741
 20
12.7396215528
 30
0.0
 10
13.9105771877
 20
12.746818713
 30
0.0
  0
SPLINE
  5
4B8
100
AcDbEntity
  8
0
100
AcDbSpline
 62
7
  6
CONTINUOUS
 70
0
 71
3
 72
11
 73
7
 74
0
 42
0.0000001
 43
0.0000001
 44
0.0000000001
 40
0.0
 40
0.0
 40
0.0
 40
0.0
 40
0.2643564628
 40
0.5171070652
 40
0.7609092898
 40
1.0
 40
1.0
 40
1.0
 40
1.0
 10
16.2276796501
 20
12.8873459217
 30
0.0
 10
16.2305969291
 20
12.8967862398
 30
0.0
 10
16.2348677975
 20
12.9157448146
 30
0.0
 10
16.2361592927
 20
12.9443144637
 30
0.0
 10
16.2320944841
 20
12.9716853405
 30
0.0
 10
16.2258184548
 20
12.9887696481
 30
0.0
 10
16.2218830036
 20
12.9967928792
 30
0.0
  0
SPLINE
  5
4B9
100
AcDbEntity
  8
0
100
AcDbSpline
 62
7
  6
CONTINUOUS
 70
0
 71
3
 72
13
 73
9
 74
0
 42
0.0000001
 43
0.0000001
 44
0.0000000001
 40
0.0
 40
0.0
 40
0.0
 40
0.0
 40
0.133248456
 40
0.2661299601
 40
0.5257910049
 40
0.6510888943
 40
0.7722391349
 40
1.0
 40
1.0
 40
1.0
 40
1.0
 10
16.061185264
 20
12.7188106412
 30
0.0
 10
16.0711460445
 20
12.7230571779
 30
0.0
 10
16.090652607
 20
12.7324907152
 30
0.0
 10
16.1272384109
 20
12.7546395246
 30
0.0
 10
16.1600440432
 20
12.7815174845
 30
0.0
 10
16.1874690963
 20
12.812267661
 30
0.0
 10
16.2098364564
 20
12.8436989197
 30
0.0
 10
16.2222150323
 20
12.8696624119
 30
0.0
 10
16.2276796501
 20
12.8873459217
 30
0.0
  0
SPLINE
  5
4BA
100
AcDbEntity
  8
0
100
AcDbSpline
 62
7
  6
CONTINUOUS
 70
0
 71
3
 72
31
 73
27
 74
0
 42
0.0000001
 43
0.0000001
 44
0.0000000001
 40
0.0
 40
0.0
 40
0.0
 40
0.0
 40
0.0350788262
 40
0.0694491781
 40
0.1030316416
 40
0.1357973594
 40
0.1677607314
 40
0.19898469
 40
0.2295779584
 40
0.2596757769
 40
0.2894349929
 40
0.3190079433
 40
0.3485396548
 40
0.3781432492
 40
0.4079131659
 40
0.4379071714
 40
0.4681529167
 40
0.4986676465
 40
0.5603737275
 40
0.6229083242
 40
0.6859907197
 40
0.7493143525
 40
0.812621266
 40
0.8756562088
 40
0.9381964551
 40
1.0
 40
1.0
 40
1.0
 40
1.0
 10
15.576219426
 20
12.9576588158
 30
0.0
 10
15.5721122799
 20
12.9660281361
 30
0.0
 10
15.5645314454
 20
12.9828774605
 30
0.0
 10
15.5552549963
 20
13.0086718651
 30
0.0
 10
15.5483895309
 20
13.0345831352
 30
0.0
 10
15.5441715452
 20
13.0604137957
 30
0.0
 10
15.5427440662
 20
13.0859274451
 30
0.0
 10
15.5442428924
 20
13.1108657829
 30
0.0
 10
15.5486991441
 20
13.1349497716
 30
0.0
 10
15.5560967747
 20
13.1578940911
 30
0.0
 10
15.5663380774
 20
13.1794197591
 30
0.0
 10
15.5792711726
 20
13.199264489
 30
0.0
 10
15.5946832649
 20
13.2171941165
 30
0.0
 10
15.6123169109
 20
13.2330175263
 30
0.0
 10
15.6318861758
 20
13.2465803633
 30
0.0
 10
15.6530659137
 20
13.257814398
 30
0.0
 10
15.6755578076
 20
13.2666596841
 30
0.0
 10
15.7069817067
 20
13.2753319476
 30
0.0
 10
15.7480829981
 20
13.2802392518
 30
0.0
 10
15.7979971798
 20
13.2776201764
 30
0.0
 10
15.8473691894
 20
13.2676272368
 30
0.0
 10
15.8952271572
 20
13.2513955102
 30
0.0
 10
15.9409791382
 20
13.2300294479
 30
0.0
 10
15.984272027
 20
13.2044869433
 30
0.0
 10
16.0249296314
 20
13.1756449115
 30
0.0
 10
16.0504018554
 20
13.1545409449
 30
0.0
 10
16.0626857291
 20
13.1436369399
 30
0.0
  0
SPLINE
  5
4BB
100
AcDbEntity
  8
0
100
AcDbSpline
 62
7
  6
CONTINUOUS
 70
0
 71
3
 72
9
 73
5
 74
0
 42
0.0000001
 43
0.0000001
 44
0.0000000001
 40
0.0
 40
0.0
 40
0.0
 40
0.0
 40
0.4972890612
 40
1.0
 40
1.0
 40
1.0
 40
1.0
 10
15.4507611167
 20
11.77255414
 30
0.0
 10
15.4528787486
 20
11.779409051
 30
0.0
 10
15.456250272
 20
11.7934831055
 30
0.0
 10
15.4577992409
 20
11.807869968
 30
0.0
 10
15.4581322308
 20
11.8151150932
 30
0.0
  0
SPLINE
  5
4BC
100
AcDbEntity
  8
0
100
AcDbSpline
 62
7
  6
CONTINUOUS
 70
0
 71
3
 72
11
 73
7
 74
0
 42
0.0000001
 43
0.0000001
 44
0.0000000001
 40
0.0
 40
0.0
 40
0.0
 40
0.0
 40
0.235541517
 40
0.4793660661
 40
0.7337235031
 40
1.0
 40
1.0
 40
1.0
 40
1.0
 10
15.4581322308
 20
11.8151150932
 30
0.0
 10
15.4585177735
 20
11.8235036519
 30
0.0
 10
15.4580898428
 20
11.8406510892
 30
0.0
 10
15.4539900436
 20
11.8665541804
 30
0.0
 10
15.4464622009
 20
11.8928110907
 30
0.0
 10
15.4393868467
 20
11.910014603
 30
0.0
 10
15.4353465542
 20
11.918605073
 30
0.0
  0
SPLINE
  5
4BD
100
AcDbEntity
  8
0
100
AcDbSpline
 62
7
  6
CONTINUOUS
 70
0
 71
3
 72
31
 73
27
 74
0
 42
0.0000001
 43
0.0000001
 44
0.0000000001
 40
0.0
 40
0.0
 40
0.0
 40
0.0
 40
0.026017941
 40
0.0532712865
 40
0.08174911
 40
0.1114292236
 40
0.1742036234
 40
0.2410594971
 40
0.3111446637
 40
0.3834319971
 40
0.4567746165
 40
0.5299749669
 40
0.601842698
 40
0.6369323542
 40
0.6712761898
 40
0.7372381272
 40
0.7686822069
 40
0.7989879223
 40
0.8281011917
 40
0.855993712
 40
0.882661576
 40
0.9081368699
 40
0.9324832512
 40
0.9558060557
 40
0.9782500126
 40
1.0
 40
1.0
 40
1.0
 40
1.0
 10
15.4332610438
 20
11.9229451627
 30
0.0
 10
15.4291220288
 20
11.9313795885
 30
0.0
 10
15.4198165789
 20
11.9482505625
 30
0.0
 10
15.4034074262
 20
11.9728259583
 30
0.0
 10
15.3843216833
 20
11.9970919237
 30
0.0
 10
15.3549248924
 20
12.0294265398
 30
0.0
 10
15.3120487111
 20
12.0680223663
 30
0.0
 10
15.2532283415
 20
12.1099756214
 30
0.0
 10
15.1874740435
 20
12.1474346085
 30
0.0
 10
15.1163668411
 20
12.1795049969
 30
0.0
 10
15.0416037476
 20
12.2054194094
 30
0.0
 10
14.964985341
 20
12.2245552731
 30
0.0
 10
14.9005976647
 20
12.2345519615
 30
0.0
 10
14.8497230941
 20
12.2387141708
 30
0.0
 10
14.8008414372
 20
12.240254859
 30
0.0
 10
14.7531978154
 20
12.2380822168
 30
0.0
 10
14.7074759148
 20
12.2318721026
 30
0.0
 10
14.6752828319
 20
12.225407602
 30
0.0
 10
14.6448418444
 20
12.2170969227
 30
0.0
 10
14.616332964
 20
12.2069959287
 30
0.0
 10
14.5899321076
 20
12.1951516967
 30
0.0
 10
14.5657952263
 20
12.1816416359
 30
0.0
 10
14.544074266
 20
12.1665336727
 30
0.0
 10
14.5249033661
 20
12.1499152622
 30
0.0
 10
14.5084073987
 20
12.1318871977
 30
0.0
 10
14.4991515787
 20
12.1188231979
 30
0.0
 10
14.4950451503
 20
12.1121281441
 30
0.0
  0
SPLINE
  5
4BE
100
AcDbEntity
  8
0
100
AcDbSpline
 62
7
  6
CONTINUOUS
 70
0
 71
3
 72
9
 73
5
 74
0
 42
0.0000001
 43
0.0000001
 44
0.0000000001
 40
0.0
 40
0.0
 40
0.0
 40
0.0
 40
0.5023063686
 40
1.0
 40
1.0
 40
1.0
 40
1.0
 10
14.4934979607
 20
12.1095571458
 30
0.0
 10
14.4901195061
 20
12.1038338969
 30
0.0
 10
14.4840324833
 20
12.0920487777
 30
0.0
 10
14.4793737
 20
12.0796277977
 30
0.0
 10
14.4774300833
 20
12.0733361855
 30
0.0
  0
SPLINE
  5
4BF
100
AcDbEntity
  8
0
100
AcDbSpline
 62
7
  6
CONTINUOUS
 70
0
 71
3
 72
12
 73
8
 74
0
 42
0.0000001
 43
0.0000001
 44
0.0000000001
 40
0.0
 40
0.0
 40
0.0
 40
0.0
 40
0.271402637
 40
0.5253782639
 40
0.7660568762
 40
0.8834757142
 40
1.0
 40
1.0
 40
1.0
 40
1.0
 10
14.6330893053
 20
11.9229451627
 30
0.0
 10
14.6287318662
 20
11.9318246899
 30
0.0
 10
14.6215050243
 20
11.9496568274
 30
0.0
 10
14.6155052325
 20
11.9770700745
 30
0.0
 10
14.6150251958
 20
11.9995429765
 30
0.0
 10
14.6174117234
 20
12.0167020351
 30
0.0
 10
14.6194896618
 20
12.0249916633
 30
0.0
 10
14.6207433888
 20
12.0290490195
 30
0.0
  0
SPLINE
  5
4C0
100
AcDbEntity
  8
0
100
AcDbSpline
 62
7
  6
CONTINUOUS
 70
0
 71
3
 72
9
 73
5
 74
0
 42
0.0000001
 43
0.0000001
 44
0.0000000001
 40
0.0
 40
0.0
 40
0.0
 40
0.0
 40
0.24478912
 40
1.0
 40
1.0
 40
1.0
 40
1.0
 10
14.3039840445
 20
13.1184101987
 30
0.0
 10
14.2996633077
 20
13.1195633632
 30
0.0
 10
14.2819051427
 20
13.1238669301
 30
0.0
 10
14.26376978
 20
13.1265762603
 30
0.0
 10
14.2500275234
 20
13.1278008008
 30
0.0
  0
SPLINE
  5
4C1
100
AcDbEntity
  8
0
100
AcDbSpline
 62
7
  6
CONTINUOUS
 70
0
 71
3
 72
15
 73
11
 74
0
 42
0.0000001
 43
0.0000001
 44
0.0000000001
 40
0.0
 40
0.0
 40
0.0
 40
0.0
 40
0.1506425392
 40
0.2881265806
 40
0.4136267109
 40
0.5299111104
 40
0.6413394736
 40
0.7535261622
 40
0.8718942508
 40
1.0
 40
1.0
 40
1.0
 40
1.0
 10
15.7848727213
 20
11.2872092919
 30
0.0
 10
15.7868678609
 20
11.2876776858
 30
0.0
 10
15.7906322417
 20
11.2888292787
 30
0.0
 10
15.795702115
 20
11.2913374725
 30
0.0
 10
15.7998175931
 20
11.294515423
 30
0.0
 10
15.80286653
 20
11.2982965553
 30
0.0
 10
15.8047193007
 20
11.3025994059
 30
0.0
 10
15.8053037561
 20
11.3072754942
 30
0.0
 10
15.8046101206
 20
11.3121535678
 30
0.0
 10
15.8034025261
 20
11.3153108885
 30
0.0
 10
15.8026347539
 20
11.3168754437
 30
0.0
  0
SPLINE
  5
4C2
100
AcDbEntity
  8
0
100
AcDbSpline
 62
7
  6
CONTINUOUS
 70
0
 71
3
 72
21
 73
17
 74
0
 42
0.0000001
 43
0.0000001
 44
0.0000000001
 40
0.0
 40
0.0
 40
0.0
 40
0.0
 40
0.181358949
 40
0.3455383764
 40
0.4205429098
 40
0.4904070117
 40
0.5549450707
 40
0.6141223848
 40
0.668026653
 40
0.717017943
 40
0.7619903946
 40
0.8045528273
 40
0.8469520158
 40
0.8919043203
 40
0.9421728466
 40
1.0
 40
1.0
 40
1.0
 40
1.0
 10
14.2500950375
 20
13.2111105105
 30
0.0
 10
14.2521504008
 20
13.2177599549
 30
0.0
 10
14.256615783
 20
13.2302694572
 30
0.0
 10
14.2636383371
 20
13.2448478206
 30
0.0
 10
14.2698581357
 20
13.2549573203
 30
0.0
 10
14.2745863128
 20
13.2614667406
 30
0.0
 10
14.2794810617
 20
13.2670708041
 30
0.0
 10
14.2845051009
 20
13.2717011304
 30
0.0
 10
14.2896100149
 20
13.2752924719
 30
0.0
 10
14.2947481327
 20
13.2777737172
 30
0.0
 10
14.2998759367
 20
13.2790532643
 30
0.0
 10
14.3049233863
 20
13.2790122652
 30
0.0
 10
14.3097633626
 20
13.2775534464
 30
0.0
 10
14.3142403587
 20
13.274629775
 30
0.0
 10
14.3182281973
 20
13.2702494565
 30
0.0
 10
14.3203472471
 20
13.266651821
 30
0.0
 10
14.3213249402
 20
13.2646596132
 30
0.0
  0
SPLINE
  5
4C3
100
AcDbEntity
  8
0
100
AcDbSpline
 62
7
  6
CONTINUOUS
 70
0
 71
3
 72
11
 73
7
 74
0
 42
0.0000001
 43
0.0000001
 44
0.0000000001
 40
0.0
 40
0.0
 40
0.0
 40
0.0
 40
0.2656799919
 40
0.520898001
 40
0.7654836104
 40
1.0
 40
1.0
 40
1.0
 40
1.0
 10
15.7382412304
 20
12.9452967692
 30
0.0
 10
15.7304615273
 20
12.9344136839
 30
0.0
 10
15.7163700489
 20
12.9122100804
 30
0.0
 10
15.6997456604
 20
12.877324296
 30
0.0
 10
15.688320893
 20
12.8420425486
 30
0.0
 10
15.6842313498
 20
12.8181584781
 30
0.0
 10
15.6831672327
 20
12.8063979111
 30
0.0
  0
SPLINE
  5
4C4
100
AcDbEntity
  8
0
100
AcDbSpline
 62
7
  6
CONTINUOUS
 70
0
 71
3
 72
14
 73
10
 74
0
 42
0.0000001
 43
0.0000001
 44
0.0000000001
 40
0.0
 40
0.0
 40
0.0
 40
0.0
 40
0.1372502869
 40
0.271227395
 40
0.5278763648
 40
0.6507650006
 40
0.7701895112
 40
0.8864635507
 40
1.0
 40
1.0
 40
1.0
 40
1.0
 10
15.9539673005
 20
12.6616576441
 30
0.0
 10
15.9473287066
 20
12.6616576441
 30
0.0
 10
15.9342020313
 20
12.6621474793
 30
0.0
 10
15.9088237979
 20
12.6650898591
 30
0.0
 10
15.884536151
 20
12.6709846691
 30
0.0
 10
15.8620906549
 20
12.6799377181
 30
0.0
 10
15.8466665477
 20
12.6879386002
 30
0.0
 10
15.8325370482
 20
12.6972507222
 30
0.0
 10
15.8239617894
 20
12.7043673652
 30
0.0
 10
15.8199474181
 20
12.708114683
 30
0.0
  0
SPLINE
  5
4C5
100
AcDbEntity
  8
0
100
AcDbSpline
 62
7
  6
CONTINUOUS
 70
0
 71
3
 72
9
 73
5
 74
0
 42
0.0000001
 43
0.0000001
 44
0.0000000001
 40
0.0
 40
0.0
 40
0.0
 40
0.0
 40
0.5039959606
 40
1.0
 40
1.0
 40
1.0
 40
1.0
 10
15.8199474181
 20
12.708114683
 30
0.0
 10
15.8139927827
 20
12.7136731901
 30
0.0
 10
15.8031047313
 20
12.7257488857
 30
0.0
 10
15.7946077036
 20
12.7396215528
 30
0.0
 10
15.7910767171
 20
12.746818713
 30
0.0
  0
SPLINE
  5
4C6
100
AcDbEntity
  8
0
100
AcDbSpline
 62
7
  6
CONTINUOUS
 70
0
 71
3
 72
20
 73
16
 74
0
 42
0.0000001
 43
0.0000001
 44
0.0000000001
 40
0.0
 40
0.0
 40
0.0
 40
0.0
 40
0.0644834712
 40
0.121414234
 40
0.1723607567
 40
0.2192656147
 40
0.2644214466
 40
0.3100461752
 40
0.3579634363
 40
0.4094827359
 40
0.4654943578
 40
0.526518578
 40
0.6641353691
 40
0.8223383047
 40
1.0
 40
1.0
 40
1.0
 40
1.0
 10
14.060078969
 20
11.9755690189
 30
0.0
 10
14.0606012827
 20
11.9745054207
 30
0.0
 10
14.0617137849
 20
11.9725605373
 30
0.0
 10
14.0637229633
 20
11.9700910486
 30
0.0
 10
14.0659308675
 20
11.9682636855
 30
0.0
 10
14.068307509
 20
11.9670835101
 30
0.0
 10
14.070806464
 20
11.9665456169
 30
0.0
 10
14.0733766952
 20
11.9666256496
 30
0.0
 10
14.075977716
 20
11.9672861477
 30
0.0
 10
14.0785817484
 20
11.9684924552
 30
0.0
 10
14.0811696827
 20
11.9702120543
 30
0.0
 10
14.0847200499
 20
11.9732750458
 30
0.0
 10
14.0889681106
 20
11.978321998
 30
0.0
 10
14.0935373328
 20
11.9857499259
 30
0.0
 10
14.0961539917
 20
11.9913543394
 30
0.0
 10
14.0974019287
 20
11.9943710622
 30
0.0
  0
SPLINE
  5
4C7
100
AcDbEntity
  8
0
100
AcDbSpline
 62
7
  6
CONTINUOUS
 70
0
 71
3
 72
34
 73
30
 74
0
 42
0.0000001
 43
0.0000001
 44
0.0000000001
 40
0.0
 40
0.0
 40
0.0
 40
0.0
 40
0.0214238117
 40
0.0431468952
 40
0.0654402491
 40
0.0885420018
 40
0.1126426585
 40
0.1378879745
 40
0.1643737862
 40
0.1921538342
 40
0.2212419002
 40
0.251616014
 40
0.2832268241
 40
0.3159958724
 40
0.3498268404
 40
0.3846014902
 40
0.4201892394
 40
0.4564455227
 40
0.5303207283
 40
0.6049468894
 40
0.6789805005
 40
0.7511082514
 40
0.8201260425
 40
0.8531564528
 40
0.8850470649
 40
0.9157162645
 40
0.9451157384
 40
0.9732163336
 40
1.0
 40
1.0
 40
1.0
 40
1.0
 10
15.4648670793
 20
11.7674006341
 30
0.0
 10
15.4624054197
 20
11.75955481
 30
0.0
 10
15.4562986308
 20
11.7440889215
 30
0.0
 10
15.4438168632
 20
11.7222033057
 30
0.0
 10
15.4280943194
 20
11.7017000501
 30
0.0
 10
15.4092453922
 20
11.6827318408
 30
0.0
 10
15.3874201663
 20
11.6654065078
 30
0.0
 10
15.3627641608
 20
11.6498431798
 30
0.0
 10
15.3354525291
 20
11.6361275272
 30
0.0
 10
15.3056650992
 20
11.6243496958
 30
0.0
 10
15.2736015289
 20
11.6145809798
 30
0.0
 10
15.2394744838
 20
11.6068803442
 30
0.0
 10
15.2035098063
 20
11.6013030833
 30
0.0
 10
15.1659471005
 20
11.597875767
 30
0.0
 10
15.1270359391
 20
11.5966311277
 30
0.0
 10
15.0870358701
 20
11.5975661808
 30
0.0
 10
15.0462132144
 20
11.6006838999
 30
0.0
 10
14.9907124131
 20
11.6077577815
 30
0.0
 10
14.921102181
 20
11.6219048118
 30
0.0
 10
14.8392439848
 20
11.6467085661
 30
0.0
 10
14.7606726843
 20
11.6788013797
 30
0.0
 10
14.6874720973
 20
11.7173303124
 30
0.0
 10
14.6317283888
 20
11.75450441
 30
0.0
 10
14.5916074866
 20
11.7866907279
 30
0.0
 10
14.564444278
 20
11.8113928933
 30
0.0
 10
14.5399554266
 20
11.8368502652
 30
0.0
 10
14.5182966677
 20
11.862895871
 30
0.0
 10
14.4996282856
 20
11.88935792
 30
0.0
 10
14.4889998135
 20
11.907586272
 30
0.0
 10
14.4842627974
 20
11.9167100101
 30
0.0
  0
SPLINE
  5
4C8
100
AcDbEntity
  8
0
100
AcDbSpline
 62
7
  6
CONTINUOUS
 70
0
 71
3
 72
9
 73
5
 74
0
 42
0.0000001
 43
0.0000001
 44
0.0000000001
 40
0.0
 40
0.0
 40
0.0
 40
0.0
 40
0.491223611
 40
1.0
 40
1.0
 40
1.0
 40
1.0
 10
16.0304628118
 20
12.2069011675
 30
0.0
 10
16.034950871
 20
12.19775617
 30
0.0
 10
16.0447760334
 20
12.1794719272
 30
0.0
 10
16.0557887
 20
12.1618811545
 30
0.0
 10
16.0616627783
 20
12.1531165896
 30
0.0
  0
SPLINE
  5
4C9
100
AcDbEntity
  8
0
100
AcDbSpline
 62
7
  6
CONTINUOUS
 70
0
 71
3
 72
11
 73
7
 74
0
 42
0.0000001
 43
0.0000001
 44
0.0000000001
 40
0.0
 40
0.0
 40
0.0
 40
0.0
 40
0.2712945005
 40
0.5254922905
 40
0.766352027
 40
1.0
 40
1.0
 40
1.0
 40
1.0
 10
15.9243335297
 20
11.5616651029
 30
0.0
 10
15.925545128
 20
11.5591961252
 30
0.0
 10
15.9275534481
 20
11.554234478
 30
0.0
 10
15.929225832
 20
11.5466047483
 30
0.0
 10
15.9293870656
 20
11.539170087
 30
0.0
 10
15.9284685804
 20
11.5344034531
 30
0.0
 10
15.9277692517
 20
11.5321404455
 30
0.0
  0
SPLINE
  5
4CA
100
AcDbEntity
  8
0
100
AcDbSpline
 62
7
  6
CONTINUOUS
 70
0
 71
3
 72
35
 73
31
 74
0
 42
0.0000001
 43
0.0000001
 44
0.0000000001
 40
0.0
 40
0.0
 40
0.0
 40
0.0
 40
0.0083861838
 40
0.0164314231
 40
0.0242521877
 40
0.0320095831
 40
0.0397514268
 40
0.0475023957
 40
0.0630590491
 40
0.0945375921
 40
0.1265816145
 40
0.159201264
 40
0.1923419105
 40
0.2598601156
 40
0.3284058674
 40
0.3971255264
 40
0.4650984894
 40
0.5313516435
 40
0.5948497075
 40
0.6544085725
 40
0.6823639973
 40
0.709012115
 40
0.734547834
 40
0.7594744824
 40
0.8123627898
 40
0.8414879735
 40
0.8719032795
 40
0.9032690189
 40
0.9351170371
 40
1.0
 40
1.0
 40
1.0
 40
1.0
 10
16.8749780741
 20
11.7602714559
 30
0.0
 10
16.874774301
 20
11.760134979
 30
0.0
 10
16.8743881177
 20
11.7598448665
 30
0.0
 10
16.8739122312
 20
11.7593126961
 30
0.0
 10
16.8735423978
 20
11.7587279443
 30
0.0
 10
16.8731914019
 20
11.7581433681
 30
0.0
 10
16.8728642348
 20
11.7575470394
 30
0.0
 10
16.8724521636
 20
11.7567378006
 30
0.0
 10
16.8717745771
 20
11.7552854229
 30
0.0
 10
16.8709031811
 20
11.7531416401
 30
0.0
 10
16.8699763964
 20
11.7504862965
 30
0.0
 10
16.8691302898
 20
11.7477534847
 30
0.0
 10
16.8680941224
 20
11.7439954581
 30
0.0
 10
16.8669785049
 20
11.7391721907
 30
0.0
 10
16.865877214
 20
11.7332840909
 30
0.0
 10
16.8649775343
 20
11.7273486922
 30
0.0
 10
16.8642477627
 20
11.721458138
 30
0.0
 10
16.8636331245
 20
11.7157082346
 30
0.0
 10
16.8630807686
 20
11.7101998812
 30
0.0
 10
16.8624786963
 20
11.7058213081
 30
0.0
 10
16.8617895208
 20
11.7025520051
 30
0.0
 10
16.8610833047
 20
11.7003111753
 30
0.0
 10
16.8600842413
 20
11.6982761741
 30
0.0
 10
16.8581415501
 20
11.6959063078
 30
0.0
 10
16.8551714546
 20
11.6945491906
 30
0.0
 10
16.8519606859
 20
11.6938781821
 30
0.0
 10
16.8493083698
 20
11.6936140658
 30
0.0
 10
16.8465716693
 20
11.6935263023
 30
0.0
 10
16.8428249446
 20
11.6935231446
 30
0.0
 10
16.8399963869
 20
11.6936594097
 30
0.0
 10
16.838105725
 20
11.6938203743
 30
0.0
  0
SPLINE
  5
4CB
100
AcDbEntity
  8
0
100
AcDbSpline
 62
7
  6
CONTINUOUS
 70
0
 71
3
 72
23
 73
19
 74
0
 42
0.0000001
 43
0.0000001
 44
0.0000000001
 40
0.0
 40
0.0
 40
0.0
 40
0.0
 40
0.0157165422
 40
0.0315495975
 40
0.0474148872
 40
0.0632795905
 40
0.095014533
 40
0.1267372802
 40
0.1901227898
 40
0.2534076387
 40
0.3165708497
 40
0.3795991524
 40
0.4424810481
 40
0.5052044725
 40
0.6301279284
 40
0.7542880173
 40
0.8776067327
 40
1.0
 40
1.0
 40
1.0
 40
1.0
 10
16.6471380298
 20
11.7209526573
 30
0.0
 10
16.6481392298
 20
11.7208103629
 30
0.0
 10
16.6501454141
 20
11.7204968688
 30
0.0
 10
16.6531408013
 20
11.7199163275
 30
0.0
 10
16.6561425182
 20
11.7193203065
 30
0.0
 10
16.6601488386
 20
11.7185296477
 30
0.0
 10
16.6651541425
 20
11.7175313201
 30
0.0
 10
16.6731623824
 20
11.7159566915
 30
0.0
 10
16.6831706039
 20
11.714031663
 30
0.0
 10
16.6951817049
 20
11.7118106241
 30
0.0
 10
16.707187966
 20
11.7096919537
 30
0.0
 10
16.7191861159
 20
11.7076790007
 30
0.0
 10
16.7311733037
 20
11.7057743576
 30
0.0
 10
16.7471155911
 20
11.7033864429
 30
0.0
 10
16.7669970342
 20
11.7006853761
 30
0.0
 10
16.7907981484
 20
11.6979039737
 30
0.0
 10
16.814485165
 20
11.6955825412
 30
0.0
 10
16.8302492667
 20
11.6943639627
 30
0.0
 10
16.838105725
 20
11.6938203743
 30
0.0
  0
SPLINE
  5
4CC
100
AcDbEntity
  8
0
100
AcDbSpline
 62
7
  6
CONTINUOUS
 70
0
 71
3
 72
11
 73
7
 74
0
 42
0.0000001
 43
0.0000001
 44
0.0000000001
 40
0.0
 40
0.0
 40
0.0
 40
0.0
 40
0.237122496
 40
0.4833249763
 40
0.7381600403
 40
1.0
 40
1.0
 40
1.0
 40
1.0
 10
16.5648462019
 20
12.2911224507
 30
0.0
 10
16.561758022
 20
12.2811290971
 30
0.0
 10
16.5579751363
 20
12.2599160959
 30
0.0
 10
16.5593489594
 20
12.2271757864
 30
0.0
 10
16.5669621098
 20
12.1942312386
 30
0.0
 10
16.5755875139
 20
12.1730297132
 30
0.0
 10
16.5806751638
 20
12.1626606765
 30
0.0
  0
SPLINE
  5
4CD
100
AcDbEntity
  8
0
100
AcDbSpline
 62
7
  6
CONTINUOUS
 70
0
 71
3
 72
23
 73
19
 74
0
 42
0.0000001
 43
0.0000001
 44
0.0000000001
 40
0.0
 40
0.0
 40
0.0
 40
0.0
 40
0.0685363341
 40
0.1375401318
 40
0.2748151756
 40
0.4088566244
 40
0.4740269645
 40
0.5376966146
 40
0.5997691705
 40
0.6602013362
 40
0.7190500312
 40
0.7479397222
 40
0.7764968849
 40
0.832773179
 40
0.8883752758
 40
0.9161303498
 40
0.9439596077
 40
1.0
 40
1.0
 40
1.0
 40
1.0
 10
16.8909319906
 20
12.3985876312
 30
0.0
 10
16.8825982846
 20
12.4002173392
 30
0.0
 10
16.8657759745
 20
12.4030058089
 30
0.0
 10
16.8319219179
 20
12.406761625
 30
0.0
 10
16.7897023902
 20
12.4081598367
 30
0.0
 10
16.748025113
 20
12.4052320599
 30
0.0
 10
16.7158428972
 20
12.400098881
 30
0.0
 10
16.6927554859
 20
12.3948688023
 30
0.0
 10
16.6706639964
 20
12.3881530605
 30
0.0
 10
16.6497525415
 20
12.3798547182
 30
0.0
 10
16.6333863308
 20
12.3714574233
 30
0.0
 10
16.621157409
 20
12.3638225881
 30
0.0
 10
16.6096690422
 20
12.3556524024
 30
0.0
 10
16.5964856797
 20
12.3442095329
 30
0.0
 10
16.5851676885
 20
12.3310275412
 30
0.0
 10
16.5775061428
 20
12.319561133
 30
0.0
 10
16.5707936404
 20
12.3074563129
 30
0.0
 10
16.5668962018
 20
12.2977562531
 30
0.0
 10
16.5648462019
 20
12.2911224507
 30
0.0
  0
SPLINE
  5
4CE
100
AcDbEntity
  8
0
100
AcDbSpline
 62
7
  6
CONTINUOUS
 70
0
 71
3
 72
25
 73
21
 74
0
 42
0.0000001
 43
0.0000001
 44
0.0000000001
 40
0.0
 40
0.0
 40
0.0
 40
0.0
 40
0.1225319515
 40
0.1851401525
 40
0.2483942973
 40
0.3121240981
 40
0.3761869699
 40
0.4403622749
 40
0.5044808733
 40
0.5683036897
 40
0.6316562875
 40
0.6943263565
 40
0.756190436
 40
0.7868683317
 40
0.8173731702
 40
0.8477392166
 40
0.878030055
 40
0.9083220853
 40
0.9387100738
 40
1.0
 40
1.0
 40
1.0
 40
1.0
 10
16.1137918151
 20
12.0876877775
 30
0.0
 10
16.1265766113
 20
12.0740891659
 30
0.0
 10
16.1470572783
 20
12.0545798532
 30
0.0
 10
16.1767555934
 20
12.0311038973
 30
0.0
 10
16.2005860691
 20
12.0147448046
 30
0.0
 10
16.2257649991
 20
12.0000950354
 30
0.0
 10
16.2521973925
 20
11.9875024615
 30
0.0
 10
16.2797437271
 20
11.9773798813
 30
0.0
 10
16.308167311
 20
11.9701689761
 30
0.0
 10
16.3371357244
 20
11.9663761121
 30
0.0
 10
16.366152771
 20
11.966487082
 30
0.0
 10
16.3945462131
 20
11.9709185346
 30
0.0
 10
16.4170913561
 20
11.9784967653
 30
0.0
 10
16.4338470999
 20
11.9869535998
 30
0.0
 10
16.4456400604
 20
11.9944415432
 30
0.0
 10
16.456554607
 20
12.0030680638
 30
0.0
 10
16.4664626139
 20
12.0127886496
 30
0.0
 10
16.4752631915
 20
12.0235316041
 30
0.0
 10
16.4853836897
 20
12.039144457
 30
0.0
 10
16.4909827816
 20
12.0521003352
 30
0.0
 10
16.4937392194
 20
12.061020171
 30
0.0
  0
SPLINE
  5
4CF
100
AcDbEntity
  8
0
100
AcDbSpline
 62
7
  6
CONTINUOUS
 70
0
 71
3
 72
11
 73
7
 74
0
 42
0.0000001
 43
0.0000001
 44
0.0000000001
 40
0.0
 40
0.0
 40
0.0
 40
0.0
 40
0.2604353319
 40
0.5135151246
 40
0.7596704205
 40
1.0
 40
1.0
 40
1.0
 40
1.0
 10
16.6164067945
 20
12.1860530099
 30
0.0
 10
16.6145750366
 20
12.1801254391
 30
0.0
 10
16.6115470837
 20
12.1682463424
 30
0.0
 10
16.6089721321
 20
12.1502970827
 30
0.0
 10
16.608473833
 20
12.1326471684
 30
0.0
 10
16.6095469521
 20
12.12107302
 30
0.0
 10
16.6104342126
 20
12.1154170067
 30
0.0
  0
SPLINE
  5
4D0
100
AcDbEntity
  8
0
100
AcDbSpline
 62
7
  6
CONTINUOUS
 70
0
 71
3
 72
16
 73
12
 74
0
 42
0.0000001
 43
0.0000001
 44
0.0000000001
 40
0.0
 40
0.0
 40
0.0
 40
0.0
 40
0.0614389925
 40
0.1243432416
 40
0.2532222249
 40
0.3845524448
 40
0.515994042
 40
0.6451479438
 40
0.7698506863
 40
0.8884617274
 40
1.0
 40
1.0
 40
1.0
 40
1.0
 10
16.9011306691
 20
12.3778049096
 30
0.0
 10
16.8936683488
 20
12.3778049096
 30
0.0
 10
16.878558892
 20
12.3771628988
 30
0.0
 10
16.8480046268
 20
12.3734344912
 30
0.0
 10
16.8096984342
 20
12.3641982433
 30
0.0
 10
16.7653818013
 20
12.3464930769
 30
0.0
 10
16.7239443725
 20
12.3227388647
 30
0.0
 10
16.6869469432
 20
12.2938122357
 30
0.0
 10
16.6557612658
 20
12.2607778261
 30
0.0
 10
16.6315854293
 20
12.2248547942
 30
0.0
 10
16.6204066081
 20
12.1989964115
 30
0.0
 10
16.6164067945
 20
12.1860530099
 30
0.0
  0
SPLINE
  5
4D1
100
AcDbEntity
  8
0
100
AcDbSpline
 62
7
  6
CONTINUOUS
 70
0
 71
3
 72
15
 73
11
 74
0
 42
0.0000001
 43
0.0000001
 44
0.0000000001
 40
0.0
 40
0.0
 40
0.0
 40
0.0
 40
0.1412329818
 40
0.2776837483
 40
0.408787668
 40
0.5346409846
 40
0.6557486507
 40
0.7729160399
 40
0.8872117162
 40
1.0
 40
1.0
 40
1.0
 40
1.0
 10
17.0448320771
 20
12.2839688736
 30
0.0
 10
17.049417653
 20
12.2839688736
 30
0.0
 10
17.0584416219
 20
12.2835061395
 30
0.0
 10
17.0715704048
 20
12.2813758913
 30
0.0
 10
17.0838755448
 20
12.2778274999
 30
0.0
 10
17.0951668287
 20
12.2729182884
 30
0.0
 10
17.1052760515
 20
12.2667081056
 30
0.0
 10
17.1140549491
 20
12.2592884625
 30
0.0
 10
17.1213583537
 20
12.2507638118
 30
0.0
 10
17.1251752903
 20
12.2444075451
 30
0.0
 10
17.1267890699
 20
12.2411202712
 30
0.0
  0
SPLINE
  5
4D2
100
AcDbEntity
  8
0
100
AcDbSpline
 62
7
  6
CONTINUOUS
 70
0
 71
3
 72
12
 73
8
 74
0
 42
0.0000001
 43
0.0000001
 44
0.0000000001
 40
0.0
 40
0.0
 40
0.0
 40
0.0
 40
0.2447667205
 40
0.36868018
 40
0.493450546
 40
0.7453730916
 40
1.0
 40
1.0
 40
1.0
 40
1.0
 10
17.0664587334
 20
12.3778639589
 30
0.0
 10
17.0520348191
 20
12.3784042512
 30
0.0
 10
17.0303241709
 20
12.3797035489
 30
0.0
 10
17.0013387726
 20
12.3822839796
 30
0.0
 10
16.9719863133
 20
12.3854500024
 30
0.0
 10
16.9350928225
 20
12.3905100096
 30
0.0
 10
16.9056683494
 20
12.3957058447
 30
0.0
 10
16.8909319906
 20
12.3985876312
 30
0.0
  0
SPLINE
  5
4D3
100
AcDbEntity
  8
0
100
AcDbSpline
 62
7
  6
CONTINUOUS
 70
0
 71
3
 72
11
 73
7
 74
0
 42
0.0000001
 43
0.0000001
 44
0.0000000001
 40
0.0
 40
0.0
 40
0.0
 40
0.0
 40
0.2433459373
 40
0.4895177605
 40
0.7411653334
 40
1.0
 40
1.0
 40
1.0
 40
1.0
 10
15.7758241152
 20
12.7778989641
 30
0.0
 10
15.7787860075
 20
12.7718605342
 30
0.0
 10
15.7857111347
 20
12.7601624396
 30
0.0
 10
15.7987877948
 20
12.7442951265
 30
0.0
 10
15.8144036367
 20
12.7302764981
 30
0.0
 10
15.8261677986
 20
12.7223944885
 30
0.0
 10
15.8323591733
 20
12.7188106412
 30
0.0
  0
SPLINE
  5
4D4
100
AcDbEntity
  8
0
100
AcDbSpline
 62
7
  6
CONTINUOUS
 70
0
 71
3
 72
22
 73
18
 74
0
 42
0.0000001
 43
0.0000001
 44
0.0000000001
 40
0.0
 40
0.0
 40
0.0
 40
0.0
 40
0.0504538379
 40
0.1017378247
 40
0.1545831892
 40
0.209554803
 40
0.2670053051
 40
0.3270769155
 40
0.389716279
 40
0.4546950451
 40
0.5216519391
 40
0.5901121954
 40
0.7291450568
 40
0.7986689484
 40
0.8673454194
 40
0.9346538192
 40
1.0
 40
1.0
 40
1.0
 40
1.0
 10
16.2371345885
 20
12.9657121335
 30
0.0
 10
16.2407054042
 20
12.9584337897
 30
0.0
 10
16.2465342919
 20
12.9430390709
 30
0.0
 10
16.2508938499
 20
12.9184528869
 30
0.0
 10
16.2508677709
 20
12.8927619737
 30
0.0
 10
16.2464705786
 20
12.8664615103
 30
0.0
 10
16.2378176942
 20
12.8400292415
 30
0.0
 10
16.2250895738
 20
12.8139355785
 30
0.0
 10
16.2085212955
 20
12.7886474829
 30
0.0
 10
16.1884296192
 20
12.7646083025
 30
0.0
 10
16.165170298
 20
12.7422485428
 30
0.0
 10
16.1303534616
 20
12.7150882123
 30
0.0
 10
16.0912733969
 20
12.6930695434
 30
0.0
 10
16.0496556625
 20
12.6770383998
 30
0.0
 10
16.0177590593
 20
12.6682596442
 30
0.0
 10
15.9857985614
 20
12.6629097404
 30
0.0
 10
15.96446735
 20
12.6616576441
 30
0.0
 10
15.9539673005
 20
12.6616576441
 30
0.0
  0
SPLINE
  5
4D5
100
AcDbEntity
  8
0
100
AcDbSpline
 62
7
  6
CONTINUOUS
 70
0
 71
3
 72
23
 73
19
 74
0
 42
0.0000001
 43
0.0000001
 44
0.0000000001
 40
0.0
 40
0.0
 40
0.0
 40
0.0
 40
0.0504420703
 40
0.101716593
 40
0.1545517033
 40
0.2095117447
 40
0.2669499481
 40
0.3270091683
 40
0.389635263
 40
0.4546016954
 40
0.5215443486
 40
0.5899934632
 40
0.6594049619
 40
0.7291751634
 40
0.7986830292
 40
0.8673687138
 40
0.9346882005
 40
1.0
 40
1.0
 40
1.0
 40
1.0
 10
16.7296595672
 20
12.1309857486
 30
0.0
 10
16.7278621482
 20
12.1346470965
 30
0.0
 10
16.7249323672
 20
12.1423936301
 30
0.0
 10
16.7227360829
 20
12.1547628038
 30
0.0
 10
16.7227511472
 20
12.1676887329
 30
0.0
 10
16.7249616596
 20
12.1809212461
 30
0.0
 10
16.7293157021
 20
12.194219734
 30
0.0
 10
16.7357187249
 20
12.207348322
 30
0.0
 10
16.7440547385
 20
12.2200711395
 30
0.0
 10
16.7541623749
 20
12.2321671861
 30
0.0
 10
16.7658643766
 20
12.2434150844
 30
0.0
 10
16.7789421242
 20
12.2536209002
 30
0.0
 10
16.7931657654
 20
12.2625915103
 30
0.0
 10
16.8082695335
 20
12.2701764857
 30
0.0
 10
16.8239872735
 20
12.2762290519
 30
0.0
 10
16.8400365694
 20
12.2806479158
 30
0.0
 10
16.8561198109
 20
12.2833367
 30
0.0
 10
16.8668520261
 20
12.2839688736
 30
0.0
 10
16.8721331408
 20
12.2839688736
 30
0.0
  0
SPLINE
  5
4D6
100
AcDbEntity
  8
0
100
AcDbSpline
 62
7
  6
CONTINUOUS
 70
0
 71
3
 72
9
 73
5
 74
0
 42
0.0000001
 43
0.0000001
 44
0.0000000001
 40
0.0
 40
0.0
 40
0.0
 40
0.0
 40
0.2465905405
 40
1.0
 40
1.0
 40
1.0
 40
1.0
 10
14.4677109826
 20
12.0729722175
 30
0.0
 10
14.4675952805
 20
12.0702829951
 30
0.0
 10
14.4673656682
 20
12.05936793
 30
0.0
 10
14.4680888542
 20
12.04843652
 30
0.0
 10
14.4691220574
 20
12.0402776828
 30
0.0
  0
SPLINE
  5
4D7
100
AcDbEntity
  8
0
100
AcDbSpline
 62
7
  6
CONTINUOUS
 70
0
 71
3
 72
30
 73
26
 74
0
 42
0.0000001
 43
0.0000001
 44
0.0000000001
 40
0.0
 40
0.0
 40
0.0
 40
0.0
 40
0.0214553187
 40
0.0432062624
 40
0.0655292751
 40
0.0886663214
 40
0.112813976
 40
0.138117244
 40
0.1646766238
 40
0.1925425108
 40
0.2217297564
 40
0.2522145259
 40
0.3168059726
 40
0.3856400429
 40
0.4577005392
 40
0.5317715986
 40
0.6065221621
 40
0.6805831833
 40
0.7526223277
 40
0.821428503
 40
0.8859808955
 40
0.9164451522
 40
0.9456208906
 40
0.9734777582
 40
1.0
 40
1.0
 40
1.0
 40
1.0
 10
15.3074478111
 20
11.8168413059
 30
0.0
 10
15.3057706125
 20
11.8114134958
 30
0.0
 10
15.3015942808
 20
11.8007121
 30
0.0
 10
15.2930093562
 20
11.7855708383
 30
0.0
 10
15.2821652197
 20
11.7713927002
 30
0.0
 10
15.2691447746
 20
11.758281274
 30
0.0
 10
15.2540472133
 20
11.7463203083
 30
0.0
 10
15.2369834985
 20
11.7355805997
 30
0.0
 10
15.2180679735
 20
11.7261371835
 30
0.0
 10
15.1974344401
 20
11.7180391227
 30
0.0
 10
15.175218336
 20
11.7113459964
 30
0.0
 10
15.1430730382
 20
11.704209102
 30
0.0
 10
15.0998275177
 20
11.6992311702
 30
0.0
 10
15.0453133235
 20
11.699372478
 30
0.0
 10
14.9886261962
 20
11.7055070918
 30
0.0
 10
14.9312857136
 20
11.7174697123
 30
0.0
 10
14.8748236849
 20
11.7349404202
 30
0.0
 10
14.8207557989
 20
11.7574510291
 30
0.0
 10
14.7705254415
 20
11.7843991335
 30
0.0
 10
14.725482505
 20
11.8150653348
 30
0.0
 10
14.6926297777
 20
11.8435898954
 30
0.0
 10
14.6701537625
 20
11.8676282636
 30
0.0
 10
14.6556180329
 20
11.885700073
 30
0.0
 10
14.6431857012
 20
11.9040304069
 30
0.0
 10
14.6361830926
 20
11.9166406869
 30
0.0
 10
14.6330893053
 20
11.9229451627
 30
0.0
  0
SPLINE
  5
4D8
100
AcDbEntity
  8
0
100
AcDbSpline
 62
7
  6
CONTINUOUS
 70
0
 71
3
 72
14
 73
10
 74
0
 42
0.0000001
 43
0.0000001
 44
0.0000000001
 40
0.0
 40
0.0
 40
0.0
 40
0.0
 40
0.1164205789
 40
0.2400340457
 40
0.4997450967
 40
0.6311012993
 40
0.7597952282
 40
0.8834941874
 40
1.0
 40
1.0
 40
1.0
 40
1.0
 10
14.551882087
 20
13.2887903634
 30
0.0
 10
14.5547401919
 20
13.2895274967
 30
0.0
 10
14.5605253789
 20
13.2914890408
 30
0.0
 10
14.5719381699
 20
13.2970430152
 30
0.0
 10
14.5826298423
 20
13.3047378295
 30
0.0
 10
14.592026824
 20
13.3139989629
 30
0.0
 10
14.5981978299
 20
13.3215488254
 30
0.0
 10
14.6032680542
 20
13.3294318607
 30
0.0
 10
14.6059023325
 20
13.3349472575
 30
0.0
 10
14.6069743199
 20
13.3376996624
 30
0.0
  0
SPLINE
  5
4D9
100
AcDbEntity
  8
0
100
AcDbSpline
 62
7
  6
CONTINUOUS
 70
0
 71
3
 72
23
 73
19
 74
0
 42
0.0000001
 43
0.0000001
 44
0.0000000001
 40
0.0
 40
0.0
 40
0.0
 40
0.0
 40
0.0504420703
 40
0.101716593
 40
0.1545517033
 40
0.2095117447
 40
0.2669499481
 40
0.3270091683
 40
0.389635263
 40
0.4546016954
 40
0.5215443486
 40
0.5899934632
 40
0.6594049619
 40
0.7291751634
 40
0.7986830292
 40
0.8673687138
 40
0.9346882005
 40
1.0
 40
1.0
 40
1.0
 40
1.0
 10
13.6786450245
 20
12.1309857486
 30
0.0
 10
13.6768476055
 20
12.1346470965
 30
0.0
 10
13.6739178245
 20
12.1423936301
 30
0.0
 10
13.6717215402
 20
12.1547628038
 30
0.0
 10
13.6717366045
 20
12.1676887329
 30
0.0
 10
13.673947117
 20
12.1809212461
 30
0.0
 10
13.6783011595
 20
12.194219734
 30
0.0
 10
13.6847041822
 20
12.207348322
 30
0.0
 10
13.6930401958
 20
12.2200711395
 30
0.0
 10
13.7031478323
 20
12.2321671861
 30
0.0
 10
13.7148498339
 20
12.2434150844
 30
0.0
 10
13.7279275816
 20
12.2536209002
 30
0.0
 10
13.7421512228
 20
12.2625915103
 30
0.0
 10
13.7572549909
 20
12.2701764857
 30
0.0
 10
13.7729727308
 20
12.2762290519
 30
0.0
 10
13.7890220267
 20
12.2806479158
 30
0.0
 10
13.8051052683
 20
12.2833367
 30
0.0
 10
13.8158374835
 20
12.2839688736
 30
0.0
 10
13.8211185981
 20
12.2839688736
 30
0.0
  0
SPLINE
  5
4DA
100
AcDbEntity
  8
0
100
AcDbSpline
 62
7
  6
CONTINUOUS
 70
0
 71
3
 72
9
 73
5
 74
0
 42
0.0000001
 43
0.0000001
 44
0.0000000001
 40
0.0
 40
0.0
 40
0.0
 40
0.0
 40
0.4852598583
 40
1.0
 40
1.0
 40
1.0
 40
1.0
 10
14.7101010513
 20
12.4898946037
 30
0.0
 10
14.7084348339
 20
12.4845296061
 30
0.0
 10
14.705838635
 20
12.4732104933
 30
0.0
 10
14.7043972242
 20
12.4617123893
 30
0.0
 10
14.7038435774
 20
12.4557790928
 30
0.0
  0
SPLINE
  5
4DB
100
AcDbEntity
  8
0
100
AcDbSpline
 62
7
  6
CONTINUOUS
 70
0
 71
3
 72
11
 73
7
 74
0
 42
0.0000001
 43
0.0000001
 44
0.0000000001
 40
0.0
 40
0.0
 40
0.0
 40
0.0
 40
0.2862596737
 40
0.4213560744
 40
0.5502340402
 40
1.0
 40
1.0
 40
1.0
 40
1.0
 10
14.8276026745
 20
11.4946534358
 30
0.0
 10
14.8225205875
 20
11.4946534358
 30
0.0
 10
14.8150265769
 20
11.4942033815
 30
0.0
 10
14.8053825834
 20
11.4925566344
 30
0.0
 10
14.7931226225
 20
11.4894537484
 30
0.0
 10
14.7834409187
 20
11.4848533859
 30
0.0
 10
14.7774669933
 20
11.4795552203
 30
0.0
  0
SPLINE
  5
4DC
100
AcDbEntity
  8
0
100
AcDbSpline
 62
7
  6
CONTINUOUS
 70
0
 71
3
 72
9
 73
5
 74
0
 42
0.0000001
 43
0.0000001
 44
0.0000000001
 40
0.0
 40
0.0
 40
0.0
 40
0.0
 40
0.5101178277
 40
1.0
 40
1.0
 40
1.0
 40
1.0
 10
14.7756239892
 20
11.4778129093
 30
0.0
 10
14.7737362609
 20
11.4759081493
 30
0.0
 10
14.7704171918
 20
11.4717639345
 30
0.0
 10
14.7682032314
 20
11.4669253545
 30
0.0
 10
14.7674428626
 20
11.4644648218
 30
0.0
  0
SPLINE
  5
4DD
100
AcDbEntity
  8
0
100
AcDbSpline
 62
7
  6
CONTINUOUS
 70
0
 71
3
 72
15
 73
11
 74
0
 42
0.0000001
 43
0.0000001
 44
0.0000000001
 40
0.0
 40
0.0
 40
0.0
 40
0.0
 40
0.1002313829
 40
0.2118978032
 40
0.3337742674
 40
0.4637217067
 40
0.5987484672
 40
0.7354307179
 40
0.8703684713
 40
1.0
 40
1.0
 40
1.0
 40
1.0
 10
14.9410171891
 20
11.4371545138
 30
0.0
 10
14.9390649227
 20
11.4411328143
 30
0.0
 10
14.9338949189
 20
11.4490440601
 30
0.0
 10
14.9236566275
 20
11.4597550097
 30
0.0
 10
14.9108860025
 20
11.4695998854
 30
0.0
 10
14.8960655932
 20
11.4782223621
 30
0.0
 10
14.879738027
 20
11.4853031777
 30
0.0
 10
14.8625127621
 20
11.4905849231
 30
0.0
 10
14.8450407191
 20
11.4938602369
 30
0.0
 10
14.8333340382
 20
11.4946534358
 30
0.0
 10
14.8276026745
 20
11.4946534358
 30
0.0
  0
SPLINE
  5
4DE
100
AcDbEntity
  8
0
100
AcDbSpline
 62
7
  6
CONTINUOUS
 70
0
 71
3
 72
10
 73
6
 74
0
 42
0.0000001
 43
0.0000001
 44
0.0000000001
 40
0.0
 40
0.0
 40
0.0
 40
0.0
 40
0.2354495823
 40
0.479653882
 40
1.0
 40
1.0
 40
1.0
 40
1.0
 10
14.722780794
 20
12.5167544001
 30
0.0
 10
14.7215043032
 20
12.5147961544
 30
0.0
 10
14.7190150652
 20
12.5107320394
 30
0.0
 10
14.7144017299
 20
12.5019348615
 30
0.0
 10
14.7116332767
 20
12.4948281649
 30
0.0
 10
14.7101010513
 20
12.4898946037
 30
0.0
  0
SPLINE
  5
4DF
100
AcDbEntity
  8
0
100
AcDbSpline
 62
7
  6
CONTINUOUS
 70
0
 71
3
 72
9
 73
5
 74
0
 42
0.0000001
 43
0.0000001
 44
0.0000000001
 40
0.0
 40
0.0
 40
0.0
 40
0.0
 40
0.5061207043
 40
1.0
 40
1.0
 40
1.0
 40
1.0
 10
14.6685361447
 20
12.4387332636
 30
0.0
 10
14.6631726319
 20
12.4352785481
 30
0.0
 10
14.6530510047
 20
12.4276906689
 30
0.0
 10
14.6439416656
 20
12.4189425125
 30
0.0
 10
14.6396509807
 20
12.41443172
 30
0.0
  0
SPLINE
  5
4E0
100
AcDbEntity
  8
0
100
AcDbSpline
 62
7
  6
CONTINUOUS
 70
0
 71
3
 72
9
 73
5
 74
0
 42
0.0000001
 43
0.0000001
 44
0.0000000001
 40
0.0
 40
0.0
 40
0.0
 40
0.0
 40
0.5024625855
 40
1.0
 40
1.0
 40
1.0
 40
1.0
 10
14.7038435774
 20
12.4557790928
 30
0.0
 10
14.6976653929
 20
12.4535237695
 30
0.0
 10
14.6855279692
 20
12.4485710259
 30
0.0
 10
14.6740111825
 20
12.4422598141
 30
0.0
 10
14.6685361447
 20
12.4387332636
 30
0.0
  0
SPLINE
  5
4E1
100
AcDbEntity
  8
0
100
AcDbSpline
 62
7
  6
CONTINUOUS
 70
0
 71
3
 72
9
 73
5
 74
0
 42
0.0000001
 43
0.0000001
 44
0.0000000001
 40
0.0
 40
0.0
 40
0.0
 40
0.0
 40
0.2914780283
 40
1.0
 40
1.0
 40
1.0
 40
1.0
 10
14.6138121562
 20
12.4278735445
 30
0.0
 10
14.6119935181
 20
12.4286623151
 30
0.0
 10
14.6056974992
 20
12.4312288157
 30
0.0
 10
14.5991354994
 20
12.4331922608
 30
0.0
 10
14.5943956006
 20
12.4340596546
 30
0.0
  0
SPLINE
  5
4E2
100
AcDbEntity
  8
0
100
AcDbSpline
 62
7
  6
CONTINUOUS
 70
0
 71
3
 72
20
 73
16
 74
0
 42
0.0000001
 43
0.0000001
 44
0.0000000001
 40
0.0
 40
0.0
 40
0.0
 40
0.0
 40
0.2965247365
 40
0.5221224892
 40
0.6116429118
 40
0.6873977813
 40
0.7507431831
 40
0.8030649832
 40
0.8457903839
 40
0.8804010126
 40
0.9084400536
 40
0.9314914661
 40
0.9510921683
 40
0.968559893
 40
1.0
 40
1.0
 40
1.0
 40
1.0
 10
17.1451195417
 20
12.644770398
 30
0.0
 10
17.1454667169
 20
12.6411126179
 30
0.0
 10
17.1459074125
 20
12.6346532596
 30
0.0
 10
17.1458289275
 20
12.6270616629
 30
0.0
 10
17.1453518857
 20
12.6222389619
 30
0.0
 10
17.1448846729
 20
12.6194423805
 30
0.0
 10
17.1443061546
 20
12.6171389177
 30
0.0
 10
17.1436408752
 20
12.6152882941
 30
0.0
 10
17.1429130708
 20
12.6138503522
 30
0.0
 10
17.1421461226
 20
12.6127855
 30
0.0
 10
17.1413624734
 20
12.612056284
 30
0.0
 10
17.1405865115
 20
12.6116277962
 30
0.0
 10
17.1398460516
 20
12.6114689308
 30
0.0
 10
17.1389908861
 20
12.6115551319
 30
0.0
 10
17.1384376178
 20
12.6119059901
 30
0.0
 10
17.1381893332
 20
12.6122061923
 30
0.0
  0
SPLINE
  5
4E3
100
AcDbEntity
  8
0
100
AcDbSpline
 62
7
  6
CONTINUOUS
 70
0
 71
3
 72
9
 73
5
 74
0
 42
0.0000001
 43
0.0000001
 44
0.0000000001
 40
0.0
 40
0.0
 40
0.0
 40
0.0
 40
0.5311394299
 40
1.0
 40
1.0
 40
1.0
 40
1.0
 10
14.6396509807
 20
12.41443172
 30
0.0
 10
14.6351874658
 20
12.4170180924
 30
0.0
 10
14.6267131551
 20
12.4217669372
 30
0.0
 10
14.6179899615
 20
12.426061568
 30
0.0
 10
14.6138121562
 20
12.4278735445
 30
0.0
  0
SPLINE
  5
4E4
100
AcDbEntity
  8
0
100
AcDbSpline
 62
7
  6
CONTINUOUS
 70
0
 71
3
 72
12
 73
8
 74
0
 42
0.0000001
 43
0.0000001
 44
0.0000000001
 40
0.0
 40
0.0
 40
0.0
 40
0.0
 40
0.2613470708
 40
0.522280082
 40
0.7715535997
 40
0.8889700104
 40
1.0
 40
1.0
 40
1.0
 40
1.0
 10
14.6422179812
 20
12.5193365056
 30
0.0
 10
14.6373034908
 20
12.5161710118
 30
0.0
 10
14.6279828497
 20
12.5090331554
 30
0.0
 10
14.6159990105
 20
12.4965295398
 30
0.0
 10
14.6079768009
 20
12.4849122793
 30
0.0
 10
14.6031987369
 20
12.4753389892
 30
0.0
 10
14.6013896686
 20
12.4705469001
 30
0.0
 10
14.6006530745
 20
12.4681751656
 30
0.0
  0
SPLINE
  5
4E5
100
AcDbEntity
  8
0
100
AcDbSpline
 62
7
  6
CONTINUOUS
 70
0
 71
3
 72
13
 73
9
 74
0
 42
0.0000001
 43
0.0000001
 44
0.0000000001
 40
0.0
 40
0.0
 40
0.0
 40
0.0
 40
0.2052621962
 40
0.3195520161
 40
0.4418458796
 40
0.5719339029
 40
0.7091636146
 40
1.0
 40
1.0
 40
1.0
 40
1.0
 10
14.6969419696
 20
12.5301962247
 30
0.0
 10
14.693314684
 20
12.5317694327
 30
0.0
 10
14.6871328172
 20
12.5330479881
 30
0.0
 10
14.6786152597
 20
12.5329402714
 30
0.0
 10
14.6716011321
 20
12.5319470695
 30
0.0
 10
14.6643248819
 20
12.5300543789
 30
0.0
 10
14.6542325129
 20
12.5263103884
 30
0.0
 10
14.6469276383
 20
12.5223700634
 30
0.0
 10
14.6422179812
 20
12.5193365056
 30
0.0
  0
SPLINE
  5
4E6
100
AcDbEntity
  8
0
100
AcDbSpline
 62
7
  6
CONTINUOUS
 70
0
 71
3
 72
15
 73
11
 74
0
 42
0.0000001
 43
0.0000001
 44
0.0000000001
 40
0.0
 40
0.0
 40
0.0
 40
0.0
 40
0.149630167
 40
0.2895733067
 40
0.419869772
 40
0.5418360226
 40
0.6576892542
 40
0.7704410042
 40
0.8835149407
 40
1.0
 40
1.0
 40
1.0
 40
1.0
 10
14.7101010513
 20
12.4898946037
 30
0.0
 10
14.71079266
 20
12.4921214911
 30
0.0
 10
14.7118894867
 20
12.4965123944
 30
0.0
 10
14.7126366966
 20
12.5030339683
 30
0.0
 10
14.7123985859
 20
12.5091687586
 30
0.0
 10
14.7111753809
 20
12.5148077091
 30
0.0
 10
14.7089690049
 20
12.5198486626
 30
0.0
 10
14.7058119039
 20
12.5241911825
 30
0.0
 10
14.7017635222
 20
12.5277286266
 30
0.0
 10
14.6986073622
 20
12.529473919
 30
0.0
 10
14.6969419696
 20
12.5301962247
 30
0.0
  0
SPLINE
  5
4E7
100
AcDbEntity
  8
0
100
AcDbSpline
 62
7
  6
CONTINUOUS
 70
0
 71
3
 72
37
 73
33
 74
0
 42
0.0000001
 43
0.0000001
 44
0.0000000001
 40
0.0
 40
0.0
 40
0.0
 40
0.0
 40
0.0057940667
 40
0.0117770783
 40
0.018057444
 40
0.0244570277
 40
0.0309755507
 40
0.03760892
 40
0.0511477425
 40
0.065005175
 40
0.0791461102
 40
0.1081811652
 40
0.138076098
 40
0.1687086454
 40
0.1999708908
 40
0.2317571516
 40
0.2964919081
 40
0.362151332
 40
0.42802603
 40
0.4934928376
 40
0.5580914091
 40
0.6217605255
 40
0.6534036391
 40
0.685227886
 40
0.7500214578
 40
0.7830312744
 40
0.8160842796
 40
0.8484299757
 40
0.8798610584
 40
0.9106650254
 40
0.9409739489
 40
1.0
 40
1.0
 40
1.0
 40
1.0
 10
13.6670962375
 20
11.760202487
 30
0.0
 10
13.6672111989
 20
11.7600684463
 30
0.0
 10
13.6674021375
 20
11.7597537163
 30
0.0
 10
13.667506591
 20
11.7592064425
 30
0.0
 10
13.6675200626
 20
11.7586379487
 30
0.0
 10
13.6675303769
 20
11.7580528307
 30
0.0
 10
13.6675209033
 20
11.7574569495
 30
0.0
 10
13.6674925641
 20
11.7566439671
 30
0.0
 10
13.6674406605
 20
11.7556081002
 30
0.0
 10
13.6673699112
 20
11.7543441458
 30
0.0
 10
13.66727202
 20
11.7526086863
 30
0.0
 10
13.667155421
 20
11.7503846789
 30
0.0
 10
13.6670636302
 20
11.7476564068
 30
0.0
 10
13.6670272875
 20
11.7448589383
 30
0.0
 10
13.6670543637
 20
11.7420036454
 30
0.0
 10
13.6671863398
 20
11.7381110761
 30
0.0
 10
13.6675505973
 20
11.733178972
 30
0.0
 10
13.6683352766
 20
11.7272453558
 30
0.0
 10
13.6695014957
 20
11.7213507944
 30
0.0
 10
13.6710889036
 20
11.7155879256
 30
0.0
 10
13.6731365987
 20
11.7100396606
 30
0.0
 10
13.675378452
 20
11.705692783
 30
0.0
 10
13.6775534153
 20
11.7024785443
 30
0.0
 10
13.6800794072
 20
11.6994899403
 30
0.0
 10
13.6832111475
 20
11.6969674118
 30
0.0
 10
13.6868567032
 20
11.6953134815
 30
0.0
 10
13.689737379
 20
11.694452839
 30
0.0
 10
13.6926440845
 20
11.6939165424
 30
0.0
 10
13.6955165818
 20
11.6936448478
 30
0.0
 10
13.6983365618
 20
11.6935539468
 30
0.0
 10
13.7019981737
 20
11.693551563
 30
0.0
 10
13.7047210576
 20
11.6936840987
 30
0.0
 10
13.7065124817
 20
11.6938484936
 30
0.0
  0
SPLINE
  5
4E8
100
AcDbEntity
  8
0
100
AcDbSpline
 62
7
  6
CONTINUOUS
 70
0
 71
3
 72
23
 73
19
 74
0
 42
0.0000001
 43
0.0000001
 44
0.0000000001
 40
0.0
 40
0.0
 40
0.0
 40
0.0
 40
0.1308716326
 40
0.260049896
 40
0.3875023576
 40
0.5131924776
 40
0.5753699103
 40
0.6371043584
 40
0.6984011843
 40
0.7592660692
 40
0.8197133809
 40
0.8797910364
 40
0.9097140261
 40
0.9395888817
 40
0.9545351418
 40
0.9694855916
 40
0.9845518431
 40
1.0
 40
1.0
 40
1.0
 40
1.0
 10
13.7065037916
 20
11.6938203743
 30
0.0
 10
13.7137597802
 20
11.6943589787
 30
0.0
 10
13.7281688663
 20
11.6955610099
 30
0.0
 10
13.7495895987
 20
11.6978781802
 30
0.0
 10
13.7706648756
 20
11.7006551538
 30
0.0
 10
13.7879865097
 20
11.7033661213
 30
0.0
 10
13.8016547071
 20
11.7057654077
 30
0.0
 10
13.811774229
 20
11.7076697514
 30
0.0
 10
13.8217983206
 20
11.7096824351
 30
0.0
 10
13.8317274123
 20
11.7118010068
 30
0.0
 10
13.8415644068
 20
11.7140228291
 30
0.0
 10
13.849703262
 20
11.7159523295
 30
0.0
 10
13.8561784835
 20
11.717529926
 30
0.0
 10
13.8602117643
 20
11.7185302085
 30
0.0
 10
13.8634396004
 20
11.7193202109
 30
0.0
 10
13.8658664955
 20
11.7199188928
 30
0.0
 10
13.868325455
 20
11.7205063878
 30
0.0
 10
13.8699949159
 20
11.720812778
 30
0.0
 10
13.8708423056
 20
11.7209526573
 30
0.0
  0
ENDSEC
  0
SECTION
  2
OBJECTS
  0
DICTIONARY
  5
C
100
AcDbDictionary
280
0
281
1
  3
ACAD_GROUP
350
D
  3
ACAD_MLINESTYLE
350
17
  3
ACAD_LAYOUT
350
1A
  3
ACAD_PLOTSETTINGS
350
19
  3
ACAD_PLOTSTYLENAME
350
E
  0
DICTIONARY
  5
D
102
{ACAD_REACTORS
330
C
102
}
100
AcDbDictionary
280
0
281
1
  0
ACDBDICTIONARYWDFLT
  5
E
102
{ACAD_REACTORS
330
C
102
}
100
AcDbDictionary
281
1
  3
Normal
350
F
100
AcDbDictionaryWithDefault
340
F
  0
DICTIONARY
  5
17
102
{ACAD_REACTORS
330
C
102
}
100
AcDbDictionary
280
0
281
1
  3
Standard
350
18
  0
DICTIONARY
  5
19
102
{ACAD_REACTORS
330
C
102
}
100
AcDbDictionary
281
1
  0
DICTIONARY
  5
1A
102
{ACAD_REACTORS
330
C
102
}
100
AcDbDictionary
281
1
  3
Model
350
4E9
  3
Layout1
350
4EA
  0
ACDBPLACEHOLDER
  5
F
102
{ACAD_REACTORS
330
E
102
}
  0
MLINESTYLE
  5
18
102
{ACAD_REACTORS
330
17
102
}
100
AcDbMlineStyle
  2
STANDARD
 70
0
  3

 62
256
 51
90.0
 52
90.0
 71
2
 49
0.5
 62
256
  6
BYLAYER
 49
-0.5
 62
256
  6
BYLAYER
  0
LAYOUT
  5
4E9
102
{ACAD_REACTORS
330
1A
102
}
100
AcDbPlotSettings
  1

  2
none_device
  4
ANSI_C_(22.00_x_17.00_Inches)
  6

 40
0.0
 41
0.0
 42
0.0
 43
0.0
 44
558.8
 45
431.8
 46
0.0
 47
0.0
 48
0.0
 49
0.0
140
0.0
141
0.0
142
1.0
143
1.0
 70
1024
 72
0
 73
0
 74
0
  7

 75
0
147
1.0
148
0.0
149
0.0
100
AcDbLayout
  1
Model
 70
0
 71
0
 10
0.0
 20
0.0
 11
22.0
 21
17.0
 12
0.0
 22
0.0
 32
0.0
 14
0.0
 24
0.0
 34
0.0
 15
0.0
 25
0.0
 35
0.0
146
0.0
 13
0.0
 23
0.0
 33
0.0
 16
1.0
 26
0.0
 36
0.0
 17
0.0
 27
1.0
 37
0.0
 76
0
330
224
345
0
346
0
  0
LAYOUT
  5
4EA
102
{ACAD_REACTORS
330
1A
102
}
100
AcDbPlotSettings
  1

  2
none_device
  4
ANSI_C_(22.00_x_17.00_Inches)
  6

 40
0.0
 41
0.0
 42
0.0
 43
0.0
 44
558.8
 45
431.8
 46
0.0
 47
0.0
 48
0.0
 49
0.0
140
0.0
141
0.0
142
1.0
143
1.0
 70
0
 72
0
 73
0
 74
0
  7

 75
0
147
1.0
148
0.0
149
0.0
100
AcDbLayout
  1
Layout1
 70
0
 71
1
 10
0.0
 20
0.0
 11
22.0
 21
17.0
 12
0.0
 22
0.0
 32
0.0
 14
0.0
 24
0.0
 34
0.0
 15
0.0
 25
0.0
 35
0.0
146
0.0
 13
0.0
 23
0.0
 33
0.0
 16
1.0
 26
0.0
 36
0.0
 17
0.0
 27
1.0
 37
0.0
 76
0
330
225
345
0
346
0
  0
ENDSEC
  0
EOF