999
DXF file: _cgs_temp_output.dxf
999
Pro/ENGINEER 2016360 by Parametric Technology Corporation
  0
SECTION
  2
HEADER
  9
$ACADVER
  1
AC1021
  9
$DWGCODEPAGE
  3
ANSI_1252
  9
$EXTMAX
 10
22.0
 20
17.0
 30
0.0
  9
$EXTMIN
 10
0.0
 20
0.0
 30
0.0
  9
$LIMMIN
 10
0.0
 20
0.0
  9
$LIMMAX
 10
22.0
 20
17.0
  9
$VIEWCTR
 10
11.0
 20
8.5
  9
$VIEWSIZE
 40
17.0
  9
$CLAYER
  8
0
  9
$LTSCALE
 40
1.21
  9
$CELTYPE
  6
BYLAYER
  9
$DIMSCALE
 40
1.0
  9
$DIMASZ
 40
0.1875
  9
$DIMEXO
 40
0.0625
  9
$DIMDLI
 40
0.836
  9
$DIMEXE
 40
0.125
  9
$DIMCEN
 40
0.198
  9
$DIMLFAC
 40
1.0
  9
$DIMBLK
  1
_CLOSED
  9
$DIMALT
 70
0
  9
$DIMALTF
 40
25.4
  9
$DIMTXT
 40
0.15625
  9
$DIMTOL
 70
0
  9
$DIMLIM
 70
0
  9
$DIMTFAC
 40
1.0
  9
$DIMGAP
 40
0.09
  9
$DIMDSEP
 70
46
  9
$AUNITS
 70
0
  9
$PDMODE
 70
3
  9
$PDSIZE
 40
0.3125
  9
$HANDSEED
  5
5EE
  9
$TILEMODE
 70
1
  9
$MEASUREMENT
 70
0
  9
$INSUNITS
 70
1
  0
ENDSEC
  0
SECTION
  2
CLASSES
  0
CLASS
  1
ACDBDICTIONARYWDFLT
  2
AcDbDictionaryWithDefault
  3
AutoCAD 2000
 90
0
 91
1
280
0
281
0
  0
CLASS
  1
ACDBPLACEHOLDER
  2
AcDbPlaceHolder
  3
AutoCAD 2000
 90
0
 91
1
280
0
281
0
  0
CLASS
  1
LAYOUT
  2
AcDbLayout
  3
AutoCAD 2000
 90
0
 91
0
280
0
281
0
  0
ENDSEC
  0
SECTION
  2
TABLES
  0
TABLE
  2
VPORT
  5
8
100
AcDbSymbolTable
 70
2
  0
VPORT
  5
1F4
100
AcDbSymbolTableRecord
100
AcDbViewportTableRecord
  2
*ACTIVE
 70
0
 10
0.0
 20
0.0
 11
1.0
 21
1.0
 12
11.0
 22
8.5
 13
0.0
 23
0.0
 14
1.0
 24
1.0
 15
0.0
 25
0.0
 16
0.0
 26
0.0
 36
1.0
 17
0.0
 27
0.0
 37
0.0
 40
17.0
 41
1.2941176471
 42
50.0
 43
0.0
 44
0.0
 50
0.0
 51
0.0
 71
0
 72
100
 73
1
 74
1
 75
0
 76
0
 77
0
 78
0
  0
ENDTAB
  0
TABLE
  2
LTYPE
  5
5
100
AcDbSymbolTable
 70
6
  0
LTYPE
  5
14
100
AcDbSymbolTableRecord
100
AcDbLinetypeTableRecord
  2
BYBLOCK
 70
0
  3

 72
65
 73
0
 40
0.0
  0
LTYPE
  5
15
100
AcDbSymbolTableRecord
100
AcDbLinetypeTableRecord
  2
BYLAYER
 70
0
  3

 72
65
 73
0
 40
0.0
  0
LTYPE
  5
16
100
AcDbSymbolTableRecord
100
AcDbLinetypeTableRecord
  2
CONTINUOUS
 70
64
  3
Solid line
 72
65
 73
0
 40
0.0
  0
LTYPE
  5
1F5
100
AcDbSymbolTableRecord
100
AcDbLinetypeTableRecord
  2
CENTER
 70
64
  3
____ _ ____ _ ____ _ ____ _ ____ _ ____ _ ____
 72
65
 73
4
 40
0.6
 49
0.375
 74
0
 49
-0.075
 74
0
 49
0.075
 74
0
 49
-0.075
 74
0
  0
LTYPE
  5
1F6
100
AcDbSymbolTableRecord
100
AcDbLinetypeTableRecord
  2
HIDDEN
 70
64
  3
- - - - - - - - - - - - - - - - - - - -
 72
65
 73
2
 40
0.2
 49
0.1
 74
0
 49
-0.1
 74
0
  0
LTYPE
  5
1F7
100
AcDbSymbolTableRecord
100
AcDbLinetypeTableRecord
  2
PHANTOM
 70
64
  3
_____ _ _ _____ _ _ _____ _ _ _____
 72
65
 73
6
 40
0.8
 49
0.45
 74
0
 49
-0.05
 74
0
 49
0.1
 74
0
 49
-0.05
 74
0
 49
0.1
 74
0
 49
-0.05
 74
0
  0
LTYPE
  5
1F8
100
AcDbSymbolTableRecord
100
AcDbLinetypeTableRecord
  2
DOT
 70
64
  3
. . . . . . . . . . . . . . . . . . . .
 72
65
 73
2
 40
0.2
 49
0.1
 74
0
 49
-0.1
 74
0
  0
LTYPE
  5
1F9
100
AcDbSymbolTableRecord
100
AcDbLinetypeTableRecord
  2
DASHED
 70
64
  3
- - - - - - - - - - - - - - - - - - - -
 72
65
 73
2
 40
0.2
 49
0.1
 74
0
 49
-0.1
 74
0
  0
ENDTAB
  0
TABLE
  2
LAYER
  5
2
100
AcDbSymbolTable
 70
36
  0
LAYER
  5
10
100
AcDbSymbolTableRecord
100
AcDbLayerTableRecord
  2
0
 70
0
 62
7
  6
CONTINUOUS
370
-3
390
F
  0
LAYER
  5
1FA
100
AcDbSymbolTableRecord
100
AcDbLayerTableRecord
  2
DEFAULT_1
 70
0
 62
7
  6
CENTER
370
-3
390
F
  0
LAYER
  5
1FB
100
AcDbSymbolTableRecord
100
AcDbLayerTableRecord
  2
DEFAULT_2
 70
0
 62
8
  6
HIDDEN
370
-3
390
F
  0
LAYER
  5
1FC
100
AcDbSymbolTableRecord
100
AcDbLayerTableRecord
  2
DEFAULT_3
 70
0
 62
7
  6
PHANTOM
370
-3
390
F
  0
LAYER
  5
1FD
100
AcDbSymbolTableRecord
100
AcDbLayerTableRecord
  2
01_ALL_DTM_PLN
 70
0
 62
7
  6
CONTINUOUS
370
-3
390
F
  0
LAYER
  5
1FE
100
AcDbSymbolTableRecord
100
AcDbLayerTableRecord
  2
01__ASM_ALL_DTM_PLN
 70
0
 62
7
  6
CONTINUOUS
370
-3
390
F
  0
LAYER
  5
1FF
100
AcDbSymbolTableRecord
100
AcDbLayerTableRecord
  2
01__ASM_DEF_DTM_PLN
 70
0
 62
7
  6
CONTINUOUS
370
-3
390
F
  0
LAYER
  5
200
100
AcDbSymbolTableRecord
100
AcDbLayerTableRecord
  2
01___PRT_ALL_DTM_PLN
 70
0
 62
7
  6
CONTINUOUS
370
-3
390
F
  0
LAYER
  5
201
100
AcDbSymbolTableRecord
100
AcDbLayerTableRecord
  2
01___PRT_DEF_DTM_PLN
 70
0
 62
7
  6
CONTINUOUS
370
-3
390
F
  0
LAYER
  5
202
100
AcDbSymbolTableRecord
100
AcDbLayerTableRecord
  2
02_ALL_AXES
 70
0
 62
7
  6
CONTINUOUS
370
-3
390
F
  0
LAYER
  5
203
100
AcDbSymbolTableRecord
100
AcDbLayerTableRecord
  2
02__ASM_ALL_AXES
 70
0
 62
7
  6
CONTINUOUS
370
-3
390
F
  0
LAYER
  5
204
100
AcDbSymbolTableRecord
100
AcDbLayerTableRecord
  2
02___PRT_ALL_AXES
 70
0
 62
7
  6
CONTINUOUS
370
-3
390
F
  0
LAYER
  5
205
100
AcDbSymbolTableRecord
100
AcDbLayerTableRecord
  2
03_ALL_CURVES
 70
0
 62
7
  6
CONTINUOUS
370
-3
390
F
  0
LAYER
  5
206
100
AcDbSymbolTableRecord
100
AcDbLayerTableRecord
  2
03__ASM_ALL_CURVES
 70
0
 62
7
  6
CONTINUOUS
370
-3
390
F
  0
LAYER
  5
207
100
AcDbSymbolTableRecord
100
AcDbLayerTableRecord
  2
03___PRT_ALL_CURVES
 70
0
 62
7
  6
CONTINUOUS
370
-3
390
F
  0
LAYER
  5
208
100
AcDbSymbolTableRecord
100
AcDbLayerTableRecord
  2
04_ALL_DTM_PNT
 70
0
 62
7
  6
CONTINUOUS
370
-3
390
F
  0
LAYER
  5
209
100
AcDbSymbolTableRecord
100
AcDbLayerTableRecord
  2
04__ASM_ALL_DTM_PNT
 70
0
 62
7
  6
CONTINUOUS
370
-3
390
F
  0
LAYER
  5
20A
100
AcDbSymbolTableRecord
100
AcDbLayerTableRecord
  2
04___PRT_ALL_DTM_PNT
 70
0
 62
7
  6
CONTINUOUS
370
-3
390
F
  0
LAYER
  5
20B
100
AcDbSymbolTableRecord
100
AcDbLayerTableRecord
  2
05_ALL_DTM_CSYS
 70
0
 62
7
  6
CONTINUOUS
370
-3
390
F
  0
LAYER
  5
20C
100
AcDbSymbolTableRecord
100
AcDbLayerTableRecord
  2
05__ASM_ALL_DTM_CSYS
 70
0
 62
7
  6
CONTINUOUS
370
-3
390
F
  0
LAYER
  5
20D
100
AcDbSymbolTableRecord
100
AcDbLayerTableRecord
  2
05__ASM_DEF_DTM_CSYS
 70
0
 62
7
  6
CONTINUOUS
370
-3
390
F
  0
LAYER
  5
20E
100
AcDbSymbolTableRecord
100
AcDbLayerTableRecord
  2
05___PRT_ALL_DTM_CSYS
 70
0
 62
7
  6
CONTINUOUS
370
-3
390
F
  0
LAYER
  5
20F
100
AcDbSymbolTableRecord
100
AcDbLayerTableRecord
  2
05___PRT_DEF_DTM_CSYS
 70
0
 62
7
  6
CONTINUOUS
370
-3
390
F
  0
LAYER
  5
210
100
AcDbSymbolTableRecord
100
AcDbLayerTableRecord
  2
06_ALL_SURFS
 70
0
 62
7
  6
CONTINUOUS
370
-3
390
F
  0
LAYER
  5
211
100
AcDbSymbolTableRecord
100
AcDbLayerTableRecord
  2
06__ASM_ALL_SURFS
 70
0
 62
7
  6
CONTINUOUS
370
-3
390
F
  0
LAYER
  5
212
100
AcDbSymbolTableRecord
100
AcDbLayerTableRecord
  2
06___PRT_ALL_SURFS
 70
0
 62
7
  6
CONTINUOUS
370
-3
390
F
  0
LAYER
  5
213
100
AcDbSymbolTableRecord
100
AcDbLayerTableRecord
  2
07__ASM_ALL_SKELETONS
 70
0
 62
7
  6
CONTINUOUS
370
-3
390
F
  0
LAYER
  5
214
100
AcDbSymbolTableRecord
100
AcDbLayerTableRecord
  2
LAYER_567
 70
0
 62
7
  6
CONTINUOUS
370
-3
390
F
  0
LAYER
  5
215
100
AcDbSymbolTableRecord
100
AcDbLayerTableRecord
  2
NONE
 70
0
 62
7
  6
CONTINUOUS
370
-3
390
F
  0
LAYER
  5
216
100
AcDbSymbolTableRecord
100
AcDbLayerTableRecord
  2
_19769
 70
0
 62
7
  6
CONTINUOUS
370
-3
390
F
  0
LAYER
  5
217
100
AcDbSymbolTableRecord
100
AcDbLayerTableRecord
  2
_19774
 70
0
 62
7
  6
CONTINUOUS
370
-3
390
F
  0
LAYER
  5
218
100
AcDbSymbolTableRecord
100
AcDbLayerTableRecord
  2
_19784
 70
0
 62
7
  6
CONTINUOUS
370
-3
390
F
  0
LAYER
  5
219
100
AcDbSymbolTableRecord
100
AcDbLayerTableRecord
  2
_19795
 70
0
 62
7
  6
CONTINUOUS
370
-3
390
F
  0
LAYER
  5
21A
100
AcDbSymbolTableRecord
100
AcDbLayerTableRecord
  2
_21372
 70
0
 62
7
  6
CONTINUOUS
370
-3
390
F
  0
LAYER
  5
21B
100
AcDbSymbolTableRecord
100
AcDbLayerTableRecord
  2
_21376
 70
0
 62
7
  6
CONTINUOUS
370
-3
390
F
  0
LAYER
  5
21C
100
AcDbSymbolTableRecord
100
AcDbLayerTableRecord
  2
_21398
 70
0
 62
7
  6
CONTINUOUS
370
-3
390
F
  0
LAYER
  5
21D
100
AcDbSymbolTableRecord
100
AcDbLayerTableRecord
  2
_4864
 70
0
 62
7
  6
CONTINUOUS
370
-3
390
F
  0
LAYER
  5
21E
100
AcDbSymbolTableRecord
100
AcDbLayerTableRecord
  2
_572
 70
0
 62
7
  6
CONTINUOUS
370
-3
390
F
  0
LAYER
  5
21F
100
AcDbSymbolTableRecord
100
AcDbLayerTableRecord
  2
_7064
 70
0
 62
7
  6
CONTINUOUS
370
-3
390
F
  0
LAYER
  5
220
100
AcDbSymbolTableRecord
100
AcDbLayerTableRecord
  2
_9042
 70
0
 62
7
  6
CONTINUOUS
370
-3
390
F
  0
LAYER
  5
221
100
AcDbSymbolTableRecord
100
AcDbLayerTableRecord
  2
_9049
 70
0
 62
7
  6
CONTINUOUS
370
-3
390
F
  0
LAYER
  5
222
100
AcDbSymbolTableRecord
100
AcDbLayerTableRecord
  2
_9050
 70
0
 62
7
  6
CONTINUOUS
370
-3
390
F
  0
LAYER
  5
223
100
AcDbSymbolTableRecord
100
AcDbLayerTableRecord
  2
_9052
 70
0
 62
7
  6
CONTINUOUS
370
-3
390
F
  0
LAYER
  5
224
100
AcDbSymbolTableRecord
100
AcDbLayerTableRecord
  2
_9054
 70
0
 62
7
  6
CONTINUOUS
370
-3
390
F
  0
LAYER
  5
225
100
AcDbSymbolTableRecord
100
AcDbLayerTableRecord
  2
_9061
 70
0
 62
7
  6
CONTINUOUS
370
-3
390
F
  0
ENDTAB
  0
TABLE
  2
STYLE
  5
3
100
AcDbSymbolTable
 70
1
  0
STYLE
  5
11
100
AcDbSymbolTableRecord
100
AcDbTextStyleTableRecord
  2
STANDARD
 70
0
 40
0.0
 41
0.8
 50
0.0
 71
0
 42
0.2
  3
txt
  4

  0
STYLE
  5
226
100
AcDbSymbolTableRecord
100
AcDbTextStyleTableRecord
  2
TEXTSTYLE_1
 70
0
 40
0.0
 41
0.8
 50
0.0
 71
0
 42
0.2
  3
gdt
  4

  0
ENDTAB
  0
TABLE
  2
VIEW
  5
6
100
AcDbSymbolTable
 70
0
  0
ENDTAB
  0
TABLE
  2
UCS
  5
7
100
AcDbSymbolTable
 70
0
  0
ENDTAB
  0
TABLE
  2
APPID
  5
9
100
AcDbSymbolTable
 70
1
  0
APPID
  5
227
100
AcDbSymbolTableRecord
100
AcDbRegAppTableRecord
  2
ACAD
 70
0
  0
ENDTAB
  0
TABLE
  2
BLOCK_RECORD
  5
1
100
AcDbSymbolTable
 70
0
  0
BLOCK_RECORD
  5
228
100
AcDbSymbolTableRecord
100
AcDbBlockTableRecord
  2
*Model_Space
  0
BLOCK_RECORD
  5
229
100
AcDbSymbolTableRecord
100
AcDbBlockTableRecord
  2
*Paper_Space
  0
BLOCK_RECORD
  5
22A
100
AcDbSymbolTableRecord
100
AcDbBlockTableRecord
  2
_NONE
  0
ENDTAB
  0
TABLE
  2
DIMSTYLE
  5
A
100
AcDbSymbolTable
 70
1
100
AcDbDimStyleTable
 71
0
  0
DIMSTYLE
105
22B
100
AcDbSymbolTableRecord
100
AcDbDimStyleTableRecord
  2
STANDARD
 70
0
  3

  4

 40
1.0
 41
0.1875
 42
0.0625
 43
0.38
 44
0.125
 45
0.0
 46
0.0
 47
0.0001
 48
0.0001
140
0.15625
141
0.09
142
0.0
143
25.4
144
1.0
145
0.0
146
1.0
147
0.09
 71
0.0
 72
0.0
 73
1
 74
1
 75
0
 76
0
 77
0
 78
4
 79
1
170
0
171
3
172
0
173
0
174
0
175
0
176
0
177
0
178
0
270
2
179
4
271
4
272
4
273
2
274
2
275
0
280
0
281
0
282
0
283
1
284
4
285
0
286
0
287
3
288
0
340
11
278
46
  0
ENDTAB
  0
ENDSEC
  0
SECTION
  2
BLOCKS
  0
BLOCK
  5
20
100
AcDbEntity
  8
0
100
AcDbBlockBegin
  2
*Model_Space
 70
0
 10
0.0
 20
0.0
 30
0.0
  3
*Model_Space
  1

  0
ENDBLK
  5
21
100
AcDbEntity
  8
0
100
AcDbBlockEnd
  0
BLOCK
  5
1C
100
AcDbEntity
  8
0
100
AcDbBlockBegin
  2
*Paper_Space
 70
0
 10
0.0
 20
0.0
 30
0.0
  3
*Paper_Space
  1

  0
ENDBLK
  5
1D
100
AcDbEntity
  8
0
100
AcDbBlockEnd
  0
BLOCK
  5
22C
100
AcDbEntity
  8
0
100
AcDbBlockBegin
  2
_NONE
 70
64
 10
0.0
 20
0.0
  3
_NONE
  1

  0
ENDBLK
  5
22D
100
AcDbEntity
  8
0
  6
BYBLOCK
 62
0
100
AcDbBlockEnd
  0
ENDSEC
  0
SECTION
  2
ENTITIES
  0
MTEXT
  5
22E
100
AcDbEntity
  8
0
100
AcDbMText
 62
7
  6
CONTINUOUS
  7
STANDARD
 71
1
 72
1
 10
15.9560215477
 20
0.9479130325
 30
0.0
 11
1.0
 21
0.0
 31
0.0
 44
0.9
  1
SCALE: 1:0.143
 40
0.3
 41
3.36
  0
LEADER
  5
22F
100
AcDbEntity
  8
0
100
AcDbLeader
 62
2
  6
CONTINUOUS
  3
STANDARD
 71
1
 72
0
 73
0
 75
0
 40
0.15625
 41
1.5
 76
3
 10
4.3923596489
 20
4.7424135178
 30
0.0
 10
6.7908041733
 20
4.2504239601
 30
0.0
 10
7.0408041733
 20
4.2504239601
 30
0.0
340
230
1001
ACAD
1000
DSTYLE
1002
{
1070
77
1070
0
1070
341
1005
22A
1002
}
  0
MTEXT
  5
230
102
{ACAD_REACTORS
330
22F
102
}
100
AcDbEntity
  8
0
100
AcDbMText
 62
2
  6
CONTINUOUS
  7
STANDARD
 71
1
 72
1
 10
7.0408041733
 20
4.3285489601
 30
0.0
 11
1.0
 21
0.0
 31
0.0
 44
0.9
  1
 0.375 BOLTS
 40
0.15625
 41
1.5
  0
LEADER
  5
231
100
AcDbEntity
  8
0
100
AcDbLeader
 62
2
  6
CONTINUOUS
  3
STANDARD
 71
1
 72
0
 73
0
 75
0
 40
0.15625
 41
1.5
 76
3
 10
5.6437913101
 20
4.5192304089
 30
0.0
 10
5.8261669136
 20
4.3770800457
 30
0.0
 10
6.0761669136
 20
4.3770800457
 30
0.0
340
232
1001
ACAD
1000
DSTYLE
1002
{
1070
77
1070
0
1070
341
1005
22A
1002
}
  0
MTEXT
  5
232
102
{ACAD_REACTORS
330
231
102
}
100
AcDbEntity
  8
0
100
AcDbMText
 62
2
  6
CONTINUOUS
  7
STANDARD
 71
2
 72
1
 10
6.8261669136
 20
4.4552050457
 30
0.0
 11
1.0
 21
0.0
 31
0.0
 44
0.9
  1
 Drain Plug 
 40
0.15625
 41
1.5
  0
LINE
  5
233
100
AcDbEntity
  8
0
100
AcDbLine
 62
7
  6
CONTINUOUS
 10
0.0
 20
0.0
 11
0.0
 21
17.0
  0
LINE
  5
234
100
AcDbEntity
  8
0
100
AcDbLine
 62
7
  6
CONTINUOUS
 10
0.0
 20
0.0
 11
22.0
 21
0.0
  0
LINE
  5
235
100
AcDbEntity
  8
0
100
AcDbLine
 62
7
  6
CONTINUOUS
 10
0.0
 20
17.0
 11
22.0
 21
17.0
  0
LINE
  5
236
100
AcDbEntity
  8
0
100
AcDbLine
 62
7
  6
CONTINUOUS
 10
22.0
 20
0.0
 11
22.0
 21
17.0
  0
LINE
  5
237
100
AcDbEntity
  8
0
100
AcDbLine
 62
7
  6
CONTINUOUS
 10
4.2196529905
 20
4.7281278036
 11
4.2196529905
 21
4.4388420893
  0
LINE
  5
238
100
AcDbEntity
  8
0
100
AcDbLine
 62
7
  6
CONTINUOUS
 10
4.775690147
 20
4.7424135178
 11
4.7760064324
 21
4.8810837519
  0
LINE
  5
239
100
AcDbEntity
  8
0
100
AcDbLine
 62
7
  6
CONTINUOUS
 10
4.8639982285
 20
4.9823795253
 11
4.8639982285
 21
5.9629492321
  0
LINE
  5
23A
100
AcDbEntity
  8
0
100
AcDbLine
 62
7
  6
CONTINUOUS
 10
4.9626589428
 20
5.9700920893
 11
4.9626589428
 21
6.0907362258
  0
LINE
  5
23B
100
AcDbEntity
  8
0
100
AcDbLine
 62
7
  6
CONTINUOUS
 10
4.9835326634
 20
6.1116099464
 11
4.9626589428
 21
6.0907362258
  0
LINE
  5
23C
100
AcDbEntity
  8
0
100
AcDbLine
 62
7
  6
CONTINUOUS
 10
5.0405607285
 20
5.9843778036
 11
5.0405607285
 21
6.0907362258
  0
LINE
  5
23D
100
AcDbEntity
  8
0
100
AcDbLine
 62
7
  6
CONTINUOUS
 10
8.0410815619
 20
4.4388420893
 11
4.2196529905
 21
4.4388420893
  0
LINE
  5
23E
100
AcDbEntity
  8
0
100
AcDbLine
 62
7
  6
CONTINUOUS
 10
5.2178672762
 20
4.4531278036
 11
7.0428672762
 21
4.4531278036
  0
LINE
  5
23F
100
AcDbEntity
  8
0
100
AcDbLine
 62
7
  6
CONTINUOUS
 10
7.0428672762
 20
4.4674135178
 11
5.2178672762
 21
4.4674135178
  0
LINE
  5
240
100
AcDbEntity
  8
0
100
AcDbLine
 62
7
  6
CONTINUOUS
 10
5.6705458476
 20
4.4902706607
 11
5.6148315619
 21
4.5459849464
  0
LINE
  5
241
100
AcDbEntity
  8
0
100
AcDbLine
 62
7
  6
CONTINUOUS
 10
5.6170367725
 20
4.5459849464
 11
5.6705458476
 21
4.4924758713
  0
LINE
  5
242
100
AcDbEntity
  8
0
100
AcDbLine
 62
7
  6
CONTINUOUS
 10
5.1892958476
 20
5.5102706607
 11
5.1892958476
 21
4.4816992321
  0
LINE
  5
243
100
AcDbEntity
  8
0
100
AcDbLine
 62
7
  6
CONTINUOUS
 10
5.1963643
 20
6.011973467
 11
5.1963643
 21
6.0907362258
  0
LINE
  5
244
100
AcDbEntity
  8
0
100
AcDbLine
 62
7
  6
CONTINUOUS
 10
5.2035815619
 20
4.4816992321
 11
5.2035815619
 21
5.5102706607
  0
LINE
  5
245
100
AcDbEntity
  8
0
100
AcDbLine
 62
7
  6
CONTINUOUS
 10
5.7262601333
 20
4.5459849464
 11
5.7240549227
 21
4.5459849464
  0
LINE
  5
246
100
AcDbEntity
  8
0
100
AcDbLine
 62
7
  6
CONTINUOUS
 10
5.6148315619
 20
4.5459849464
 11
5.6170367725
 21
4.5459849464
  0
LINE
  5
247
100
AcDbEntity
  8
0
100
AcDbLine
 62
7
  6
CONTINUOUS
 10
5.7240549227
 20
4.5459849464
 11
5.6705458476
 21
4.5994940215
  0
LINE
  5
248
100
AcDbEntity
  8
0
100
AcDbLine
 62
7
  6
CONTINUOUS
 10
5.6705458476
 20
4.6016992321
 11
5.7262601333
 21
4.5459849464
  0
LINE
  5
249
100
AcDbEntity
  8
0
100
AcDbLine
 62
7
  6
CONTINUOUS
 10
4.2339387047
 20
4.7424135178
 11
5.1892958476
 21
4.7424135178
  0
LINE
  5
24A
100
AcDbEntity
  8
0
100
AcDbLine
 62
7
  6
CONTINUOUS
 10
7.0714387047
 20
4.7424135178
 11
8.0267958476
 21
4.7424135178
  0
LINE
  5
24B
100
AcDbEntity
  8
0
100
AcDbLine
 62
7
  6
CONTINUOUS
 10
5.6705458476
 20
4.6016992321
 11
5.6705458476
 21
4.5994940215
  0
LINE
  5
24C
100
AcDbEntity
  8
0
100
AcDbLine
 62
7
  6
CONTINUOUS
 10
5.6705458476
 20
4.4902706607
 11
5.6705458476
 21
4.4924758713
  0
LINE
  5
24D
100
AcDbEntity
  8
0
100
AcDbLine
 62
7
  6
CONTINUOUS
 10
7.1927964448
 20
5.5102706589
 11
7.1785829716
 21
5.5102704797
  0
LINE
  5
24E
100
AcDbEntity
  8
0
100
AcDbLine
 62
7
  6
CONTINUOUS
 10
5.0821508225
 20
5.5102704828
 11
5.0679393083
 21
5.5102706587
  0
LINE
  5
24F
100
AcDbEntity
  8
0
100
AcDbLine
 62
7
  6
CONTINUOUS
 10
5.1750114975
 20
5.5102706607
 11
5.1892958476
 21
5.5102706607
  0
LINE
  5
250
100
AcDbEntity
  8
0
100
AcDbLine
 62
7
  6
CONTINUOUS
 10
7.0714387047
 20
5.5102706607
 11
7.0857217437
 21
5.5102706607
  0
LINE
  5
251
100
AcDbEntity
  8
0
100
AcDbLine
 62
7
  6
CONTINUOUS
 10
5.813604589
 20
6.5372070239
 11
5.8165625209
 21
6.5261678716
  0
LINE
  5
252
100
AcDbEntity
  8
0
100
AcDbLine
 62
7
  6
CONTINUOUS
 10
5.8565198932
 20
6.41061673
 11
5.8539969065
 21
6.4200326305
  0
LINE
  5
253
100
AcDbEntity
  8
0
100
AcDbLine
 62
7
  6
CONTINUOUS
 10
5.8861874449
 20
6.4213265913
 11
5.885065265
 21
6.4255146175
  0
LINE
  5
254
100
AcDbEntity
  8
0
100
AcDbLine
 62
7
  6
CONTINUOUS
 10
5.8553720407
 20
6.5365668511
 11
5.8524141088
 21
6.5476060034
  0
LINE
  5
255
100
AcDbEntity
  8
0
100
AcDbLine
 62
7
  6
CONTINUOUS
 10
5.9147122379
 20
6.4363012793
 11
5.9172341762
 21
6.4268892921
  0
LINE
  5
256
100
AcDbEntity
  8
0
100
AcDbLine
 62
7
  6
CONTINUOUS
 10
5.8941815606
 20
6.5469658306
 11
5.8912236286
 21
6.5580049829
  0
LINE
  5
257
100
AcDbEntity
  8
0
100
AcDbLine
 62
7
  6
CONTINUOUS
 10
5.6148315619
 20
4.5459849464
 11
5.6705458476
 21
4.6016992321
  0
LINE
  5
258
100
AcDbEntity
  8
0
100
AcDbLine
 62
7
  6
CONTINUOUS
 10
5.6705458476
 20
4.5994940215
 11
5.6170367725
 21
4.5459849464
  0
LINE
  5
259
100
AcDbEntity
  8
0
100
AcDbLine
 62
7
  6
CONTINUOUS
 10
5.6705458476
 20
4.4924758713
 11
5.7240549227
 21
4.5459849464
  0
LINE
  5
25A
100
AcDbEntity
  8
0
100
AcDbLine
 62
7
  6
CONTINUOUS
 10
5.7262601333
 20
4.5459849464
 11
5.6705458476
 21
4.4902706607
  0
LINE
  5
25B
100
AcDbEntity
  8
0
100
AcDbLine
 62
7
  6
CONTINUOUS
 10
4.8711410857
 20
5.9700920893
 11
5.1725204701
 21
5.9700920893
  0
LINE
  5
25C
100
AcDbEntity
  8
0
100
AcDbLine
 62
7
  6
CONTINUOUS
 10
7.0882140822
 20
5.9700920893
 11
7.3895934666
 21
5.9700920893
  0
LINE
  5
25D
100
AcDbEntity
  8
0
100
AcDbLine
 62
7
  6
CONTINUOUS
 10
4.9626589428
 20
5.9843778036
 11
5.1807705565
 21
5.9843778036
  0
LINE
  5
25E
100
AcDbEntity
  8
0
100
AcDbLine
 62
7
  6
CONTINUOUS
 10
7.079975725
 20
5.9843778036
 11
7.2980756095
 21
5.9843778036
  0
LINE
  5
25F
100
AcDbEntity
  8
0
100
AcDbLine
 62
7
  6
CONTINUOUS
 10
4.9835390187
 20
6.1116099464
 11
5.2533860098
 21
6.1116099464
  0
LINE
  5
260
100
AcDbEntity
  8
0
100
AcDbLine
 62
7
  6
CONTINUOUS
 10
7.0073485425
 20
6.1116099464
 11
7.2771955336
 21
6.1116099464
  0
LINE
  5
261
100
AcDbEntity
  8
0
100
AcDbLine
 62
7
  6
CONTINUOUS
 10
7.0571529905
 20
5.5102706607
 11
7.0571529905
 21
4.4816992321
  0
LINE
  5
262
100
AcDbEntity
  8
0
100
AcDbLine
 62
7
  6
CONTINUOUS
 10
7.0643702524
 20
6.0120293458
 11
7.0643702524
 21
6.0907362258
  0
LINE
  5
263
100
AcDbEntity
  8
0
100
AcDbLine
 62
7
  6
CONTINUOUS
 10
7.0714387047
 20
4.4816992321
 11
7.0714387047
 21
5.5102706607
  0
LINE
  5
264
100
AcDbEntity
  8
0
100
AcDbLine
 62
7
  6
CONTINUOUS
 10
5.916553028
 20
6.4294313676
 11
5.8558376966
 21
6.4131627188
  0
LINE
  5
265
100
AcDbEntity
  8
0
100
AcDbLine
 62
7
  6
CONTINUOUS
 10
7.2201738238
 20
5.9843778036
 11
7.2201738238
 21
6.0907362258
  0
LINE
  5
266
100
AcDbEntity
  8
0
100
AcDbLine
 62
7
  6
CONTINUOUS
 10
7.2980756095
 20
5.9700920893
 11
7.2980756095
 21
6.0907362258
  0
LINE
  5
267
100
AcDbEntity
  8
0
100
AcDbLine
 62
7
  6
CONTINUOUS
 10
5.8165625209
 20
6.5261678716
 11
5.8941815606
 21
6.5469658306
  0
LINE
  5
268
100
AcDbEntity
  8
0
100
AcDbLine
 62
7
  6
CONTINUOUS
 10
5.813604589
 20
6.5372070239
 11
5.8912236286
 21
6.5580049829
  0
LINE
  5
269
100
AcDbEntity
  8
0
100
AcDbLine
 62
7
  6
CONTINUOUS
 10
5.8257642903
 20
6.5656076276
 11
5.8664927166
 21
6.5765207765
  0
LINE
  5
26A
100
AcDbEntity
  8
0
100
AcDbLine
 62
7
  6
CONTINUOUS
 10
5.8317186592
 20
6.5972445922
 11
5.8455175995
 21
6.6009420072
  0
LINE
  5
26B
100
AcDbEntity
  8
0
100
AcDbLine
 62
7
  6
CONTINUOUS
 10
7.3967363238
 20
4.9823795253
 11
7.3967363238
 21
5.9629492321
  0
LINE
  5
26C
100
AcDbEntity
  8
0
100
AcDbLine
 62
7
  6
CONTINUOUS
 10
7.2772018889
 20
6.1116099464
 11
7.2980756095
 21
6.0907362258
  0
LINE
  5
26D
100
AcDbEntity
  8
0
100
AcDbLine
 62
7
  6
CONTINUOUS
 10
7.48472812
 20
4.8810837519
 11
7.4850444054
 21
4.7424135178
  0
LINE
  5
26E
100
AcDbEntity
  8
0
100
AcDbLine
 62
7
  6
CONTINUOUS
 10
8.0410815619
 20
4.4388420893
 11
8.0410815619
 21
4.7281278036
  0
LINE
  5
26F
100
AcDbEntity
  8
0
100
AcDbLine
 62
7
  6
CONTINUOUS
 10
4.1601577981
 20
13.0804049242
 11
4.1601577981
 21
12.1196906385
  0
LINE
  5
270
100
AcDbEntity
  8
0
100
AcDbLine
 62
7
  6
CONTINUOUS
 10
4.8045030362
 20
13.0232620671
 11
4.8045030362
 21
12.1768334957
  0
LINE
  5
271
100
AcDbEntity
  8
0
100
AcDbLine
 62
7
  6
CONTINUOUS
 10
4.9031637505
 20
12.8361588925
 11
4.9810655362
 21
12.9710887433
  0
LINE
  5
272
100
AcDbEntity
  8
0
100
AcDbLine
 62
7
  6
CONTINUOUS
 10
5.1298006553
 20
13.2732620671
 11
5.1440863696
 21
13.2875477814
  0
LINE
  5
273
100
AcDbEntity
  8
0
100
AcDbLine
 62
7
  6
CONTINUOUS
 10
5.1298006553
 20
11.9268334957
 11
5.1440863696
 21
11.9125477814
  0
LINE
  5
274
100
AcDbEntity
  8
0
100
AcDbLine
 62
7
  6
CONTINUOUS
 10
4.9031637505
 20
12.3639366703
 11
4.9810655362
 21
12.2290068194
  0
LINE
  5
275
100
AcDbEntity
  8
0
100
AcDbLine
 62
7
  6
CONTINUOUS
 10
5.1130252778
 20
13.0875477814
 11
5.1130252778
 21
13.0124310628
  0
LINE
  5
276
100
AcDbEntity
  8
0
100
AcDbLine
 62
7
  6
CONTINUOUS
 10
5.1130252778
 20
12.6598867222
 11
5.1130252778
 21
12.5402088406
  0
LINE
  5
277
100
AcDbEntity
  8
0
100
AcDbLine
 62
7
  6
CONTINUOUS
 10
5.1130252778
 20
12.1876644999
 11
5.1130252778
 21
12.1125477814
  0
LINE
  5
278
100
AcDbEntity
  8
0
100
AcDbLine
 62
7
  6
CONTINUOUS
 10
5.1298006553
 20
11.9268334957
 11
5.1298006553
 21
12.0783078094
  0
LINE
  5
279
100
AcDbEntity
  8
0
100
AcDbLine
 62
7
  6
CONTINUOUS
 10
5.1298006553
 20
13.1217456791
 11
5.1298006553
 21
13.2732620671
  0
LINE
  5
27A
100
AcDbEntity
  8
0
100
AcDbLine
 62
7
  6
CONTINUOUS
 10
4.9810655362
 20
12.4988665211
 11
4.9031637505
 21
12.3639366703
  0
LINE
  5
27B
100
AcDbEntity
  8
0
100
AcDbLine
 62
7
  6
CONTINUOUS
 10
5.2147708934
 20
12.8361588925
 11
5.1368691077
 21
12.7012290416
  0
LINE
  5
27C
100
AcDbEntity
  8
0
100
AcDbLine
 62
7
  6
CONTINUOUS
 10
4.9810655362
 20
12.7012290416
 11
4.9031637505
 21
12.8361588925
  0
LINE
  5
27D
100
AcDbEntity
  8
0
100
AcDbLine
 62
7
  6
CONTINUOUS
 10
5.2147708934
 20
12.3639366703
 11
5.1368691077
 21
12.4988665211
  0
LINE
  5
27E
100
AcDbEntity
  8
0
100
AcDbLine
 62
7
  6
CONTINUOUS
 10
5.6645597304
 20
11.8696906385
 11
5.5575415802
 21
11.8696906385
  0
LINE
  5
27F
100
AcDbEntity
  8
0
100
AcDbLine
 62
7
  6
CONTINUOUS
 10
5.666764941
 20
11.9054049242
 11
5.5553363696
 21
11.9054049242
  0
LINE
  5
280
100
AcDbEntity
  8
0
100
AcDbLine
 62
7
  6
CONTINUOUS
 10
6.9976577981
 20
11.9125477814
 11
5.1440863696
 21
11.9125477814
  0
LINE
  5
281
100
AcDbEntity
  8
0
100
AcDbLine
 62
7
  6
CONTINUOUS
 10
7.0119435124
 20
11.9268334957
 11
5.1298006553
 21
11.9268334957
  0
LINE
  5
282
100
AcDbEntity
  8
0
100
AcDbLine
 62
7
  6
CONTINUOUS
 10
5.5553363696
 20
11.9054049242
 11
5.5575415802
 21
11.8696906385
  0
LINE
  5
283
100
AcDbEntity
  8
0
100
AcDbLine
 62
7
  6
CONTINUOUS
 10
5.5553363696
 20
13.2946906385
 11
5.5575415802
 21
13.3304049242
  0
LINE
  5
284
100
AcDbEntity
  8
0
100
AcDbLine
 62
7
  6
CONTINUOUS
 10
5.1368691077
 20
12.2290068194
 11
5.2147708934
 21
12.3639366703
  0
LINE
  5
285
100
AcDbEntity
  8
0
100
AcDbLine
 62
7
  6
CONTINUOUS
 10
5.8570578357
 20
12.0301897422
 11
5.8559356558
 21
12.0301970516
  0
LINE
  5
286
100
AcDbEntity
  8
0
100
AcDbLine
 62
7
  6
CONTINUOUS
 10
5.8559514905
 20
12.0664875884
 11
5.8570736705
 21
12.0664802789
  0
LINE
  5
287
100
AcDbEntity
  8
0
100
AcDbLine
 62
7
  6
CONTINUOUS
 10
5.8267239221
 20
12.0846255473
 11
5.8570736705
 21
12.0664802789
  0
LINE
  5
288
100
AcDbEntity
  8
0
100
AcDbLine
 62
7
  6
CONTINUOUS
 10
5.1368691077
 20
12.9710887433
 11
5.2147708934
 21
12.8361588925
  0
LINE
  5
289
100
AcDbEntity
  8
0
100
AcDbLine
 62
7
  6
CONTINUOUS
 10
5.5553363696
 20
11.9125477814
 11
5.5553363696
 21
11.9054049242
  0
LINE
  5
28A
100
AcDbEntity
  8
0
100
AcDbLine
 62
7
  6
CONTINUOUS
 10
5.5553363696
 20
13.2875477814
 11
5.5553363696
 21
13.2946906385
  0
LINE
  5
28B
100
AcDbEntity
  8
0
100
AcDbLine
 62
7
  6
CONTINUOUS
 10
5.6110506553
 20
11.9054049242
 11
5.6110506553
 21
11.8696906385
  0
LINE
  5
28C
100
AcDbEntity
  8
0
100
AcDbLine
 62
7
  6
CONTINUOUS
 10
5.6110506553
 20
13.2946906385
 11
5.6110506553
 21
13.3304049242
  0
LINE
  5
28D
100
AcDbEntity
  8
0
100
AcDbLine
 62
7
  6
CONTINUOUS
 10
5.666764941
 20
11.9125477814
 11
5.666764941
 21
11.9054049242
  0
LINE
  5
28E
100
AcDbEntity
  8
0
100
AcDbLine
 62
7
  6
CONTINUOUS
 10
5.666764941
 20
13.2875477814
 11
5.666764941
 21
13.2946906385
  0
LINE
  5
28F
100
AcDbEntity
  8
0
100
AcDbLine
 62
7
  6
CONTINUOUS
 10
4.7161949547
 20
12.0911192099
 11
4.7165112401
 21
12.0913612354
  0
LINE
  5
290
100
AcDbEntity
  8
0
100
AcDbLine
 62
7
  6
CONTINUOUS
 10
4.8671512076
 20
12.1059466464
 11
4.7334010988
 21
12.1056843467
  0
LINE
  5
291
100
AcDbEntity
  8
0
100
AcDbLine
 62
7
  6
CONTINUOUS
 10
4.1887292267
 20
12.0911192099
 11
5.1214068768
 21
12.0911192099
  0
LINE
  5
292
100
AcDbEntity
  8
0
100
AcDbLine
 62
7
  6
CONTINUOUS
 10
7.0203426502
 20
12.0911192099
 11
7.6955282978
 21
12.0911192099
  0
LINE
  5
293
100
AcDbEntity
  8
0
100
AcDbLine
 62
7
  6
CONTINUOUS
 10
7.7369514892
 20
12.0911192099
 11
7.953014941
 21
12.0911192099
  0
LINE
  5
294
100
AcDbEntity
  8
0
100
AcDbLine
 62
7
  6
CONTINUOUS
 10
4.8759316077
 20
12.1054049242
 11
5.1098037547
 21
12.1054049242
  0
LINE
  5
295
100
AcDbEntity
  8
0
100
AcDbLine
 62
7
  6
CONTINUOUS
 10
7.0319404131
 20
12.1054049242
 11
7.26581256
 21
12.1054049242
  0
LINE
  5
296
100
AcDbEntity
  8
0
100
AcDbLine
 62
7
  6
CONTINUOUS
 10
7.7583720839
 20
12.1982620671
 11
7.5619435124
 21
12.1982620671
  0
LINE
  5
297
100
AcDbEntity
  8
0
100
AcDbLine
 62
7
  6
CONTINUOUS
 10
4.5798006553
 20
12.1982620671
 11
4.3833720839
 21
12.1982620671
  0
LINE
  5
298
100
AcDbEntity
  8
0
100
AcDbLine
 62
7
  6
CONTINUOUS
 10
4.7165112401
 20
13.1087343273
 11
4.7161949547
 21
13.1089763528
  0
LINE
  5
299
100
AcDbEntity
  8
0
100
AcDbLine
 62
7
  6
CONTINUOUS
 10
5.666764941
 20
13.2946906385
 11
5.6645597304
 21
13.3304049242
  0
LINE
  5
29A
100
AcDbEntity
  8
0
100
AcDbLine
 62
7
  6
CONTINUOUS
 10
5.7541093967
 20
12.6232448904
 11
5.7541093967
 21
12.5768506723
  0
LINE
  5
29B
100
AcDbEntity
  8
0
100
AcDbLine
 62
7
  6
CONTINUOUS
 10
5.666764941
 20
11.9054049242
 11
5.6645597304
 21
11.8696906385
  0
LINE
  5
29C
100
AcDbEntity
  8
0
100
AcDbLine
 62
7
  6
CONTINUOUS
 10
4.9810655362
 20
12.2290068194
 11
5.1368691077
 21
12.2290068194
  0
LINE
  5
29D
100
AcDbEntity
  8
0
100
AcDbLine
 62
7
  6
CONTINUOUS
 10
7.00487506
 20
12.2290068194
 11
7.1606786315
 21
12.2290068194
  0
LINE
  5
29E
100
AcDbEntity
  8
0
100
AcDbLine
 62
7
  6
CONTINUOUS
 10
4.3833720839
 20
12.3411192099
 11
4.5798006553
 21
12.3411192099
  0
LINE
  5
29F
100
AcDbEntity
  8
0
100
AcDbLine
 62
7
  6
CONTINUOUS
 10
7.5619435124
 20
12.3411192099
 11
7.7583720839
 21
12.3411192099
  0
LINE
  5
2A0
100
AcDbEntity
  8
0
100
AcDbLine
 62
7
  6
CONTINUOUS
 10
5.8317284363
 20
12.5768506723
 11
5.8317284363
 21
12.6232448904
  0
LINE
  5
2A1
100
AcDbEntity
  8
0
100
AcDbLine
 62
7
  6
CONTINUOUS
 10
5.8346863682
 20
12.5768506723
 11
5.8346863682
 21
12.6232448904
  0
LINE
  5
2A2
100
AcDbEntity
  8
0
100
AcDbLine
 62
7
  6
CONTINUOUS
 10
5.8570736705
 20
12.0664802789
 11
5.8570578357
 21
12.0301897421
  0
LINE
  5
2A3
100
AcDbEntity
  8
0
100
AcDbLine
 62
7
  6
CONTINUOUS
 10
5.7929189165
 20
12.6464419994
 11
5.7541093967
 21
12.6232448904
  0
LINE
  5
2A4
100
AcDbEntity
  8
0
100
AcDbLine
 62
7
  6
CONTINUOUS
 10
5.7541093967
 20
12.5768506723
 11
5.7929189165
 21
12.5536535633
  0
LINE
  5
2A5
100
AcDbEntity
  8
0
100
AcDbLine
 62
7
  6
CONTINUOUS
 10
5.7929189165
 20
12.5536535633
 11
5.8317284363
 21
12.5768506723
  0
LINE
  5
2A6
100
AcDbEntity
  8
0
100
AcDbLine
 62
7
  6
CONTINUOUS
 10
5.7958768484
 20
12.5536535633
 11
5.8346863682
 21
12.5768506723
  0
LINE
  5
2A7
100
AcDbEntity
  8
0
100
AcDbLine
 62
7
  6
CONTINUOUS
 10
7.7583720839
 20
12.4943930195
 11
7.5619435124
 21
12.4943930195
  0
LINE
  5
2A8
100
AcDbEntity
  8
0
100
AcDbLine
 62
7
  6
CONTINUOUS
 10
4.5798006553
 20
12.4943930195
 11
4.3833720839
 21
12.4943930195
  0
LINE
  5
2A9
100
AcDbEntity
  8
0
100
AcDbLine
 62
7
  6
CONTINUOUS
 10
7.1606786315
 20
12.4988665211
 11
7.00487506
 21
12.4988665211
  0
LINE
  5
2AA
100
AcDbEntity
  8
0
100
AcDbLine
 62
7
  6
CONTINUOUS
 10
5.1368691077
 20
12.4988665211
 11
4.9810655362
 21
12.4988665211
  0
LINE
  5
2AB
100
AcDbEntity
  8
0
100
AcDbLine
 62
7
  6
CONTINUOUS
 10
5.7958768484
 20
12.5536535633
 11
5.7929189165
 21
12.5536535633
  0
LINE
  5
2AC
100
AcDbEntity
  8
0
100
AcDbLine
 62
7
  6
CONTINUOUS
 10
5.8346863682
 20
12.5768506723
 11
5.8317284363
 21
12.5768506723
  0
LINE
  5
2AD
100
AcDbEntity
  8
0
100
AcDbLine
 62
7
  6
CONTINUOUS
 10
5.8317284363
 20
12.6232448904
 11
5.7929189165
 21
12.6464419994
  0
LINE
  5
2AE
100
AcDbEntity
  8
0
100
AcDbLine
 62
7
  6
CONTINUOUS
 10
5.8346863682
 20
12.6232448904
 11
5.7958768484
 21
12.6464419994
  0
LINE
  5
2AF
100
AcDbEntity
  8
0
100
AcDbLine
 62
7
  6
CONTINUOUS
 10
5.8317284363
 20
12.6232448904
 11
5.8346863682
 21
12.6232448904
  0
LINE
  5
2B0
100
AcDbEntity
  8
0
100
AcDbLine
 62
7
  6
CONTINUOUS
 10
5.7958768484
 20
12.6464419994
 11
5.7929189165
 21
12.6464419994
  0
LINE
  5
2B1
100
AcDbEntity
  8
0
100
AcDbLine
 62
7
  6
CONTINUOUS
 10
7.1606786315
 20
12.7012290416
 11
7.00487506
 21
12.7012290416
  0
LINE
  5
2B2
100
AcDbEntity
  8
0
100
AcDbLine
 62
7
  6
CONTINUOUS
 10
5.1368691077
 20
12.7012290416
 11
4.9810655362
 21
12.7012290416
  0
LINE
  5
2B3
100
AcDbEntity
  8
0
100
AcDbLine
 62
7
  6
CONTINUOUS
 10
4.3833720839
 20
12.7057025433
 11
4.5798006553
 21
12.7057025433
  0
LINE
  5
2B4
100
AcDbEntity
  8
0
100
AcDbLine
 62
7
  6
CONTINUOUS
 10
7.5619435124
 20
12.7057025433
 11
7.7583720839
 21
12.7057025433
  0
LINE
  5
2B5
100
AcDbEntity
  8
0
100
AcDbLine
 62
7
  6
CONTINUOUS
 10
7.7583720839
 20
12.8589763528
 11
7.5619435124
 21
12.8589763528
  0
LINE
  5
2B6
100
AcDbEntity
  8
0
100
AcDbLine
 62
7
  6
CONTINUOUS
 10
4.5798006553
 20
12.8589763528
 11
4.3833720839
 21
12.8589763528
  0
LINE
  5
2B7
100
AcDbEntity
  8
0
100
AcDbLine
 62
7
  6
CONTINUOUS
 10
7.425549213
 20
13.1089763528
 11
7.4252329276
 21
13.1087343273
  0
LINE
  5
2B8
100
AcDbEntity
  8
0
100
AcDbLine
 62
7
  6
CONTINUOUS
 10
5.8570578357
 20
12.0301897421
 11
5.8266922526
 21
12.0120444738
  0
LINE
  5
2B9
100
AcDbEntity
  8
0
100
AcDbLine
 62
7
  6
CONTINUOUS
 10
4.9810655362
 20
12.9710887433
 11
5.1368691077
 21
12.9710887433
  0
LINE
  5
2BA
100
AcDbEntity
  8
0
100
AcDbLine
 62
7
  6
CONTINUOUS
 10
7.00487506
 20
12.9710887433
 11
7.1606786315
 21
12.9710887433
  0
LINE
  5
2BB
100
AcDbEntity
  8
0
100
AcDbLine
 62
7
  6
CONTINUOUS
 10
4.3833720839
 20
13.0018334957
 11
4.5798006553
 21
13.0018334957
  0
LINE
  5
2BC
100
AcDbEntity
  8
0
100
AcDbLine
 62
7
  6
CONTINUOUS
 10
7.5619435124
 20
13.0018334957
 11
7.7583720839
 21
13.0018334957
  0
LINE
  5
2BD
100
AcDbEntity
  8
0
100
AcDbLine
 62
7
  6
CONTINUOUS
 10
7.4252329276
 20
12.0913612354
 11
7.425549213
 21
12.0911192099
  0
LINE
  5
2BE
100
AcDbEntity
  8
0
100
AcDbLine
 62
7
  6
CONTINUOUS
 10
7.2745929601
 20
13.0941489163
 11
7.4083430689
 21
13.0944112161
  0
LINE
  5
2BF
100
AcDbEntity
  8
0
100
AcDbLine
 62
7
  6
CONTINUOUS
 10
7.26581256
 20
13.0946906385
 11
7.0319404131
 21
13.0946906385
  0
LINE
  5
2C0
100
AcDbEntity
  8
0
100
AcDbLine
 62
7
  6
CONTINUOUS
 10
5.1098037547
 20
13.0946906385
 11
4.8759316077
 21
13.0946906385
  0
LINE
  5
2C1
100
AcDbEntity
  8
0
100
AcDbLine
 62
7
  6
CONTINUOUS
 10
5.1214005606
 20
13.1089763528
 11
4.4462158699
 21
13.1089763528
  0
LINE
  5
2C2
100
AcDbEntity
  8
0
100
AcDbLine
 62
7
  6
CONTINUOUS
 10
4.1887292267
 20
13.1089763528
 11
4.4047926785
 21
13.1089763528
  0
LINE
  5
2C3
100
AcDbEntity
  8
0
100
AcDbLine
 62
7
  6
CONTINUOUS
 10
7.0203436039
 20
13.1089763528
 11
7.953014941
 21
13.1089763528
  0
LINE
  5
2C4
100
AcDbEntity
  8
0
100
AcDbLine
 62
7
  6
CONTINUOUS
 10
6.9269732743
 20
12.8361588925
 11
7.00487506
 21
12.9710887433
  0
LINE
  5
2C5
100
AcDbEntity
  8
0
100
AcDbLine
 62
7
  6
CONTINUOUS
 10
5.1298006553
 20
13.2732620671
 11
7.0119435124
 21
13.2732620671
  0
LINE
  5
2C6
100
AcDbEntity
  8
0
100
AcDbLine
 62
7
  6
CONTINUOUS
 10
5.1440863696
 20
13.2875477814
 11
6.9976577981
 21
13.2875477814
  0
LINE
  5
2C7
100
AcDbEntity
  8
0
100
AcDbLine
 62
7
  6
CONTINUOUS
 10
5.5553363696
 20
13.2946906385
 11
5.666764941
 21
13.2946906385
  0
LINE
  5
2C8
100
AcDbEntity
  8
0
100
AcDbLine
 62
7
  6
CONTINUOUS
 10
6.9269732743
 20
12.3639366703
 11
7.00487506
 21
12.2290068194
  0
LINE
  5
2C9
100
AcDbEntity
  8
0
100
AcDbLine
 62
7
  6
CONTINUOUS
 10
5.5575415802
 20
13.3304049242
 11
5.6645597304
 21
13.3304049242
  0
LINE
  5
2CA
100
AcDbEntity
  8
0
100
AcDbLine
 62
7
  6
CONTINUOUS
 10
7.0119435124
 20
11.9268334957
 11
7.0119435124
 21
12.0783418421
  0
LINE
  5
2CB
100
AcDbEntity
  8
0
100
AcDbLine
 62
7
  6
CONTINUOUS
 10
7.0119435124
 20
13.1217456791
 11
7.0119435124
 21
13.2732620671
  0
LINE
  5
2CC
100
AcDbEntity
  8
0
100
AcDbLine
 62
7
  6
CONTINUOUS
 10
7.0287188899
 20
12.1125477814
 11
7.0287188899
 21
12.1876644999
  0
LINE
  5
2CD
100
AcDbEntity
  8
0
100
AcDbLine
 62
7
  6
CONTINUOUS
 10
7.0287188899
 20
12.5402088406
 11
7.0287188899
 21
12.6598867222
  0
LINE
  5
2CE
100
AcDbEntity
  8
0
100
AcDbLine
 62
7
  6
CONTINUOUS
 10
7.0287188899
 20
13.0124310628
 11
7.0287188899
 21
13.0875477814
  0
LINE
  5
2CF
100
AcDbEntity
  8
0
100
AcDbLine
 62
7
  6
CONTINUOUS
 10
7.00487506
 20
12.4988665211
 11
6.9269732743
 21
12.3639366703
  0
LINE
  5
2D0
100
AcDbEntity
  8
0
100
AcDbLine
 62
7
  6
CONTINUOUS
 10
7.2385804172
 20
12.8361588925
 11
7.1606786315
 21
12.7012290416
  0
LINE
  5
2D1
100
AcDbEntity
  8
0
100
AcDbLine
 62
7
  6
CONTINUOUS
 10
7.00487506
 20
12.7012290416
 11
6.9269732743
 21
12.8361588925
  0
LINE
  5
2D2
100
AcDbEntity
  8
0
100
AcDbLine
 62
7
  6
CONTINUOUS
 10
7.2385804172
 20
12.3639366703
 11
7.1606786315
 21
12.4988665211
  0
LINE
  5
2D3
100
AcDbEntity
  8
0
100
AcDbLine
 62
7
  6
CONTINUOUS
 10
7.1606786315
 20
12.2290068194
 11
7.2385804172
 21
12.3639366703
  0
LINE
  5
2D4
100
AcDbEntity
  8
0
100
AcDbLine
 62
7
  6
CONTINUOUS
 10
6.9976577981
 20
11.9125477814
 11
7.0119435124
 21
11.9268334957
  0
LINE
  5
2D5
100
AcDbEntity
  8
0
100
AcDbLine
 62
7
  6
CONTINUOUS
 10
6.9976577981
 20
13.2875477814
 11
7.0119435124
 21
13.2732620671
  0
LINE
  5
2D6
100
AcDbEntity
  8
0
100
AcDbLine
 62
7
  6
CONTINUOUS
 10
7.1606786315
 20
12.9710887433
 11
7.2385804172
 21
12.8361588925
  0
LINE
  5
2D7
100
AcDbEntity
  8
0
100
AcDbLine
 62
7
  6
CONTINUOUS
 10
7.3372411315
 20
12.1768334957
 11
7.3372411315
 21
13.0232620671
  0
LINE
  5
2D8
100
AcDbEntity
  8
0
100
AcDbLine
 62
7
  6
CONTINUOUS
 10
7.9815863696
 20
12.1196906385
 11
7.9815863696
 21
13.0804049242
  0
LINE
  5
2D9
100
AcDbEntity
  8
0
100
AcDbLine
 62
7
  6
CONTINUOUS
 10
14.8728552569
 20
4.4079183255
 11
14.8871409712
 21
4.3936326113
  0
LINE
  5
2DA
100
AcDbEntity
  8
0
100
AcDbLine
 62
7
  6
CONTINUOUS
 10
14.8728552569
 20
6.3775611827
 11
14.8871409712
 21
6.391846897
  0
LINE
  5
2DB
100
AcDbEntity
  8
0
100
AcDbLine
 62
7
  6
CONTINUOUS
 10
16.2549981141
 20
4.4307754684
 11
16.2907123998
 21
4.432980679
  0
LINE
  5
2DC
100
AcDbEntity
  8
0
100
AcDbLine
 62
7
  6
CONTINUOUS
 10
16.0692838284
 20
4.379346897
 11
15.0514266855
 21
4.379346897
  0
LINE
  5
2DD
100
AcDbEntity
  8
0
100
AcDbLine
 62
7
  6
CONTINUOUS
 10
14.8871409712
 20
4.3936326113
 11
15.0514266855
 21
4.3936326113
  0
LINE
  5
2DE
100
AcDbEntity
  8
0
100
AcDbLine
 62
7
  6
CONTINUOUS
 10
16.0692838284
 20
4.3936326113
 11
16.2335695426
 21
4.3936326113
  0
LINE
  5
2DF
100
AcDbEntity
  8
0
100
AcDbLine
 62
7
  6
CONTINUOUS
 10
14.8657123998
 20
4.4307754684
 11
14.8299981141
 21
4.432980679
  0
LINE
  5
2E0
100
AcDbEntity
  8
0
100
AcDbLine
 62
7
  6
CONTINUOUS
 10
16.2549981141
 20
4.4307754684
 11
16.2478552569
 21
4.4307754684
  0
LINE
  5
2E1
100
AcDbEntity
  8
0
100
AcDbLine
 62
7
  6
CONTINUOUS
 10
14.8657123998
 20
4.4307754684
 11
14.8728552569
 21
4.4307754684
  0
LINE
  5
2E2
100
AcDbEntity
  8
0
100
AcDbLine
 62
7
  6
CONTINUOUS
 10
14.8657123998
 20
4.4864897541
 11
14.8299981141
 21
4.4864897541
  0
LINE
  5
2E3
100
AcDbEntity
  8
0
100
AcDbLine
 62
7
  6
CONTINUOUS
 10
16.2549981141
 20
4.4864897541
 11
16.2907123998
 21
4.4864897541
  0
LINE
  5
2E4
100
AcDbEntity
  8
0
100
AcDbLine
 62
7
  6
CONTINUOUS
 10
14.8657123998
 20
4.5422040398
 11
14.8299981141
 21
4.5399988292
  0
LINE
  5
2E5
100
AcDbEntity
  8
0
100
AcDbLine
 62
7
  6
CONTINUOUS
 10
16.2549981141
 20
4.5422040398
 11
16.2478552569
 21
4.5422040398
  0
LINE
  5
2E6
100
AcDbEntity
  8
0
100
AcDbLine
 62
7
  6
CONTINUOUS
 10
14.8657123998
 20
4.5422040398
 11
14.8728552569
 21
4.5422040398
  0
LINE
  5
2E7
100
AcDbEntity
  8
0
100
AcDbLine
 62
7
  6
CONTINUOUS
 10
16.2549981141
 20
4.5422040398
 11
16.2907123998
 21
4.5399988292
  0
LINE
  5
2E8
100
AcDbEntity
  8
0
100
AcDbLine
 62
7
  6
CONTINUOUS
 10
15.0514266855
 20
4.6829183255
 11
16.0692838284
 21
4.6829183255
  0
LINE
  5
2E9
100
AcDbEntity
  8
0
100
AcDbLine
 62
7
  6
CONTINUOUS
 10
14.8299981141
 20
4.432980679
 11
14.8299981141
 21
4.5399988292
  0
LINE
  5
2EA
100
AcDbEntity
  8
0
100
AcDbLine
 62
7
  6
CONTINUOUS
 10
14.8657123998
 20
4.4307754684
 11
14.8657123998
 21
4.5422040398
  0
LINE
  5
2EB
100
AcDbEntity
  8
0
100
AcDbLine
 62
7
  6
CONTINUOUS
 10
14.8728552569
 20
4.4079183255
 11
14.8728552569
 21
6.3775609154
  0
LINE
  5
2EC
100
AcDbEntity
  8
0
100
AcDbLine
 62
7
  6
CONTINUOUS
 10
14.8871409712
 20
4.3936326113
 11
14.8871409712
 21
6.391846897
  0
LINE
  5
2ED
100
AcDbEntity
  8
0
100
AcDbLine
 62
7
  6
CONTINUOUS
 10
15.9835695426
 20
4.922884333
 11
15.1371409712
 21
4.922884333
  0
LINE
  5
2EE
100
AcDbEntity
  8
0
100
AcDbLine
 62
7
  6
CONTINUOUS
 10
15.0514266855
 20
4.379346897
 11
15.0514266855
 21
4.6829183255
  0
LINE
  5
2EF
100
AcDbEntity
  8
0
100
AcDbLine
 62
7
  6
CONTINUOUS
 10
15.0657123998
 20
5.9034540398
 11
15.0657123998
 21
5.0143001061
  0
LINE
  5
2F0
100
AcDbEntity
  8
0
100
AcDbLine
 62
7
  6
CONTINUOUS
 10
15.0514266855
 20
4.6829183255
 11
15.0545130629
 21
6.4990102854
  0
LINE
  5
2F1
100
AcDbEntity
  8
0
100
AcDbLine
 62
7
  6
CONTINUOUS
 10
15.1684405744
 20
5.910596897
 11
15.1684405744
 21
5.9248826113
  0
LINE
  5
2F2
100
AcDbEntity
  8
0
100
AcDbLine
 62
7
  6
CONTINUOUS
 10
15.189314295
 20
5.9248826113
 11
15.189314295
 21
6.0521147541
  0
LINE
  5
2F3
100
AcDbEntity
  8
0
100
AcDbLine
 62
7
  6
CONTINUOUS
 10
15.3242441458
 20
5.9248826113
 11
15.3242441458
 21
6.0312410335
  0
LINE
  5
2F4
100
AcDbEntity
  8
0
100
AcDbLine
 62
7
  6
CONTINUOUS
 10
15.454700495
 20
4.6839300318
 11
15.454700495
 21
4.7511225469
  0
LINE
  5
2F5
100
AcDbEntity
  8
0
100
AcDbLine
 62
7
  6
CONTINUOUS
 10
15.4591739967
 20
5.9248826113
 11
15.4591739967
 21
6.0521147541
  0
LINE
  5
2F6
100
AcDbEntity
  8
0
100
AcDbLine
 62
7
  6
CONTINUOUS
 10
15.4800477173
 20
5.910596897
 11
15.4800477173
 21
5.9248826113
  0
LINE
  5
2F7
100
AcDbEntity
  8
0
100
AcDbLine
 62
7
  6
CONTINUOUS
 10
16.0818769098
 20
5.4507754684
 11
16.0549977631
 21
5.4507754672
  0
LINE
  5
2F8
100
AcDbEntity
  8
0
100
AcDbLine
 62
7
  6
CONTINUOUS
 10
15.0657129938
 20
5.4507754666
 11
15.038817521
 21
5.4507754684
  0
LINE
  5
2F9
100
AcDbEntity
  8
0
100
AcDbLine
 62
7
  6
CONTINUOUS
 10
15.6406627966
 20
5.910596897
 11
15.6406627966
 21
5.9248826113
  0
LINE
  5
2FA
100
AcDbEntity
  8
0
100
AcDbLine
 62
7
  6
CONTINUOUS
 10
15.6615365172
 20
5.9248826113
 11
15.6615365172
 21
6.0521147541
  0
LINE
  5
2FB
100
AcDbEntity
  8
0
100
AcDbLine
 62
7
  6
CONTINUOUS
 10
15.6660100188
 20
4.7511225469
 11
15.6660100188
 21
4.6839300318
  0
LINE
  5
2FC
100
AcDbEntity
  8
0
100
AcDbLine
 62
7
  6
CONTINUOUS
 10
15.796466368
 20
5.9248826113
 11
15.796466368
 21
6.0312410335
  0
LINE
  5
2FD
100
AcDbEntity
  8
0
100
AcDbLine
 62
7
  6
CONTINUOUS
 10
15.9313962189
 20
5.9248826113
 11
15.9313962189
 21
6.0521147541
  0
LINE
  5
2FE
100
AcDbEntity
  8
0
100
AcDbLine
 62
7
  6
CONTINUOUS
 10
15.9522699395
 20
5.910596897
 11
15.9522699395
 21
5.9248826113
  0
LINE
  5
2FF
100
AcDbEntity
  8
0
100
AcDbLine
 62
7
  6
CONTINUOUS
 10
16.0544563919
 20
5.0014622626
 11
16.0547186916
 21
4.8538605027
  0
LINE
  5
300
100
AcDbEntity
  8
0
100
AcDbLine
 62
7
  6
CONTINUOUS
 10
16.0528697175
 20
5.9085408456
 11
16.0518284673
 21
6.5132754684
  0
LINE
  5
301
100
AcDbEntity
  8
0
100
AcDbLine
 62
7
  6
CONTINUOUS
 10
16.0549981141
 20
5.0143001061
 11
16.0549981141
 21
5.9034540398
  0
LINE
  5
302
100
AcDbEntity
  8
0
100
AcDbLine
 62
7
  6
CONTINUOUS
 10
16.0692838284
 20
4.379346897
 11
16.0692838284
 21
4.6792076448
  0
LINE
  5
303
100
AcDbEntity
  8
0
100
AcDbLine
 62
7
  6
CONTINUOUS
 10
16.0692838284
 20
4.6792076448
 11
16.0661141695
 21
6.498997231
  0
LINE
  5
304
100
AcDbEntity
  8
0
100
AcDbLine
 62
7
  6
CONTINUOUS
 10
15.0728552569
 20
5.910596897
 11
16.0478552569
 21
5.910596897
  0
LINE
  5
305
100
AcDbEntity
  8
0
100
AcDbLine
 62
7
  6
CONTINUOUS
 10
15.1684405744
 20
5.9248826113
 11
15.4800477173
 21
5.9248826113
  0
LINE
  5
306
100
AcDbEntity
  8
0
100
AcDbLine
 62
7
  6
CONTINUOUS
 10
15.6406627966
 20
5.9248826113
 11
15.9522699395
 21
5.9248826113
  0
LINE
  5
307
100
AcDbEntity
  8
0
100
AcDbLine
 62
7
  6
CONTINUOUS
 10
15.189314295
 20
6.0521147541
 11
15.4591739967
 21
6.0521147541
  0
LINE
  5
308
100
AcDbEntity
  8
0
100
AcDbLine
 62
7
  6
CONTINUOUS
 10
15.6615365172
 20
6.0521147541
 11
15.9313962189
 21
6.0521147541
  0
LINE
  5
309
100
AcDbEntity
  8
0
100
AcDbLine
 62
7
  6
CONTINUOUS
 10
16.2335695426
 20
6.391846897
 11
16.2335695426
 21
4.3936326113
  0
LINE
  5
30A
100
AcDbEntity
  8
0
100
AcDbLine
 62
7
  6
CONTINUOUS
 10
16.2478552569
 20
4.4079183255
 11
16.2478552569
 21
6.3775609154
  0
LINE
  5
30B
100
AcDbEntity
  8
0
100
AcDbLine
 62
7
  6
CONTINUOUS
 10
16.2549981141
 20
4.5422040398
 11
16.2549981141
 21
4.4307754684
  0
LINE
  5
30C
100
AcDbEntity
  8
0
100
AcDbLine
 62
7
  6
CONTINUOUS
 10
16.2907123998
 20
4.5399988292
 11
16.2907123998
 21
4.432980679
  0
LINE
  5
30D
100
AcDbEntity
  8
0
100
AcDbLine
 62
7
  6
CONTINUOUS
 10
14.8871409712
 20
6.391846897
 11
15.0401144135
 21
6.391846897
  0
LINE
  5
30E
100
AcDbEntity
  8
0
100
AcDbLine
 62
7
  6
CONTINUOUS
 10
16.0805983811
 20
6.391846897
 11
16.2335695426
 21
6.391846897
  0
LINE
  5
30F
100
AcDbEntity
  8
0
100
AcDbLine
 62
7
  6
CONTINUOUS
 10
15.0687984903
 20
6.5132754684
 11
16.0518639739
 21
6.5132754684
  0
LINE
  5
310
100
AcDbEntity
  8
0
100
AcDbLine
 62
7
  6
CONTINUOUS
 10
16.2478552569
 20
6.3775611827
 11
16.2335695426
 21
6.391846897
  0
LINE
  5
311
100
AcDbEntity
  8
0
100
AcDbLine
 62
7
  6
CONTINUOUS
 10
16.2335695426
 20
4.3936326113
 11
16.2478552569
 21
4.4079183255
  0
LINE
  5
312
100
AcDbEntity
  8
0
100
AcDbLine
 62
7
  6
CONTINUOUS
 10
13.6401018987
 20
11.5010032241
 11
13.5518576445
 21
11.6808261078
  0
LINE
  5
313
100
AcDbEntity
  8
0
100
AcDbLine
 62
7
  6
CONTINUOUS
 10
14.0520613064
 20
11.6799124159
 11
14.0101109837
 21
11.7663008007
  0
LINE
  5
314
100
AcDbEntity
  8
0
100
AcDbLine
 62
7
  6
CONTINUOUS
 10
13.7815870577
 20
12.5078607988
 11
13.98647891
 21
13.1708910759
  0
LINE
  5
315
100
AcDbEntity
  8
0
100
AcDbLine
 62
7
  6
CONTINUOUS
 10
13.5507002369
 20
11.6976308619
 11
13.7832568119
 21
12.4501842144
  0
LINE
  5
316
100
AcDbEntity
  8
0
100
AcDbLine
 62
7
  6
CONTINUOUS
 10
14.4821914856
 20
11.3777081572
 11
14.4761822306
 21
11.3842842806
  0
LINE
  5
317
100
AcDbEntity
  8
0
100
AcDbLine
 62
7
  6
CONTINUOUS
 10
13.7834988666
 20
12.4742845527
 11
14.0783576616
 21
11.8734255028
  0
LINE
  5
318
100
AcDbEntity
  8
0
100
AcDbLine
 62
7
  6
CONTINUOUS
 10
14.0457426167
 20
12.4497999669
 11
14.0410521466
 21
12.4213068506
  0
LINE
  5
319
100
AcDbEntity
  8
0
100
AcDbLine
 62
7
  6
CONTINUOUS
 10
14.2660914481
 20
13.1647380202
 11
14.271352674
 21
13.1857994287
  0
LINE
  5
31A
100
AcDbEntity
  8
0
100
AcDbLine
 62
7
  6
CONTINUOUS
 10
14.1570447778
 20
12.8158858088
 11
14.151782351
 21
12.7948336462
  0
LINE
  5
31B
100
AcDbEntity
  8
0
100
AcDbLine
 62
7
  6
CONTINUOUS
 10
14.0544216925
 20
12.4838105107
 11
14.0759150417
 21
12.5533630187
  0
LINE
  5
31C
100
AcDbEntity
  8
0
100
AcDbLine
 62
7
  6
CONTINUOUS
 10
14.1570414901
 20
12.815888302
 11
14.1902241389
 21
12.9232673927
  0
LINE
  5
31D
100
AcDbEntity
  8
0
100
AcDbLine
 62
7
  6
CONTINUOUS
 10
14.2713505873
 20
13.185792676
 11
14.2928138213
 21
13.2552477032
  0
LINE
  5
31E
100
AcDbEntity
  8
0
100
AcDbLine
 62
7
  6
CONTINUOUS
 10
14.4824780415
 20
11.3779700117
 11
14.4841869699
 21
11.37553338
  0
LINE
  5
31F
100
AcDbEntity
  8
0
100
AcDbLine
 62
7
  6
CONTINUOUS
 10
14.4727781176
 20
11.3891603961
 11
14.4761822306
 21
11.3842842806
  0
LINE
  5
320
100
AcDbEntity
  8
0
100
AcDbLine
 62
7
  6
CONTINUOUS
 10
14.091107305
 20
12.1631818778
 11
14.091078355
 21
12.1632404096
  0
LINE
  5
321
100
AcDbEntity
  8
0
100
AcDbLine
 62
7
  6
CONTINUOUS
 10
14.1590207691
 20
12.0285306492
 11
14.4727781176
 21
11.3891603961
  0
LINE
  5
322
100
AcDbEntity
  8
0
100
AcDbLine
 62
7
  6
CONTINUOUS
 10
14.4824780415
 20
11.3779700117
 11
14.1687206929
 21
12.0173402648
  0
LINE
  5
323
100
AcDbEntity
  8
0
100
AcDbLine
 62
7
  6
CONTINUOUS
 10
13.9505501102
 20
12.5599408711
 11
13.9181063385
 21
12.6260543266
  0
LINE
  5
324
100
AcDbEntity
  8
0
100
AcDbLine
 62
7
  6
CONTINUOUS
 10
14.1266856957
 20
12.3063795149
 11
14.1635123185
 21
12.42555051
  0
LINE
  5
325
100
AcDbEntity
  8
0
100
AcDbLine
 62
7
  6
CONTINUOUS
 10
16.1846555912
 20
11.3694938909
 11
16.1961969029
 21
11.3722081545
  0
LINE
  5
326
100
AcDbEntity
  8
0
100
AcDbLine
 62
7
  6
CONTINUOUS
 10
16.1809301107
 20
11.3690898693
 11
16.1846519715
 21
11.3694977244
  0
LINE
  5
327
100
AcDbEntity
  8
0
100
AcDbLine
 62
7
  6
CONTINUOUS
 10
14.8333114035
 20
11.3843594993
 11
14.8989190335
 21
11.3510977248
  0
LINE
  5
328
100
AcDbEntity
  8
0
100
AcDbLine
 62
7
  6
CONTINUOUS
 10
14.9318816472
 20
11.3843594993
 11
14.8662740172
 21
11.4176212737
  0
LINE
  5
329
100
AcDbEntity
  8
0
100
AcDbLine
 62
7
  6
CONTINUOUS
 10
14.8742465615
 20
11.4469680157
 11
14.9425580066
 21
11.4123354603
  0
LINE
  5
32A
100
AcDbEntity
  8
0
100
AcDbLine
 62
7
  6
CONTINUOUS
 10
14.0847237298
 20
12.5789553944
 11
14.0616109309
 21
12.6260543266
  0
LINE
  5
32B
100
AcDbEntity
  8
0
100
AcDbLine
 62
7
  6
CONTINUOUS
 10
14.5857203821
 20
13.2006039269
 11
14.578135882
 21
13.1760604756
  0
LINE
  5
32C
100
AcDbEntity
  8
0
100
AcDbLine
 62
7
  6
CONTINUOUS
 10
14.1216398671
 20
11.9518922145
 11
14.1015612802
 21
11.8970930184
  0
LINE
  5
32D
100
AcDbEntity
  8
0
100
AcDbLine
 62
7
  6
CONTINUOUS
 10
14.6275554094
 20
13.2370373441
 11
14.6197185611
 21
13.2319819424
  0
LINE
  5
32E
100
AcDbEntity
  8
0
100
AcDbLine
 62
7
  6
CONTINUOUS
 10
16.1809301107
 20
11.3690898693
 11
14.9167493543
 21
11.3690898693
  0
LINE
  5
32F
100
AcDbEntity
  8
0
100
AcDbLine
 62
7
  6
CONTINUOUS
 10
14.8634301884
 20
11.3690898693
 11
14.4999937966
 21
11.3690898693
  0
LINE
  5
330
100
AcDbEntity
  8
0
100
AcDbLine
 62
7
  6
CONTINUOUS
 10
14.0648592073
 20
12.9298452451
 11
14.0324154357
 21
12.9959587006
  0
LINE
  5
331
100
AcDbEntity
  8
0
100
AcDbLine
 62
7
  6
CONTINUOUS
 10
14.1593786484
 20
12.7713292373
 11
14.1269348767
 21
12.8374426928
  0
LINE
  5
332
100
AcDbEntity
  8
0
100
AcDbLine
 62
7
  6
CONTINUOUS
 10
14.1604606076
 20
12.768403787
 11
14.1593786484
 21
12.7713292373
  0
LINE
  5
333
100
AcDbEntity
  8
0
100
AcDbLine
 62
7
  6
CONTINUOUS
 10
14.6204719717
 20
13.2186692158
 11
14.6210177372
 21
13.2209456071
  0
LINE
  5
334
100
AcDbEntity
  8
0
100
AcDbLine
 62
7
  6
CONTINUOUS
 10
14.6432835035
 20
13.1889886942
 11
14.6545139813
 21
13.2253305337
  0
LINE
  5
335
100
AcDbEntity
  8
0
100
AcDbLine
 62
7
  6
CONTINUOUS
 10
14.6493753429
 20
13.1821266471
 11
14.6606058207
 21
13.2184684866
  0
LINE
  5
336
100
AcDbEntity
  8
0
100
AcDbLine
 62
7
  6
CONTINUOUS
 10
14.5823228878
 20
12.7092424556
 11
14.5735055594
 21
12.6808518363
  0
LINE
  5
337
100
AcDbEntity
  8
0
100
AcDbLine
 62
7
  6
CONTINUOUS
 10
14.6050944538
 20
13.1643536652
 11
14.6432835035
 21
13.1889886942
  0
LINE
  5
338
100
AcDbEntity
  8
0
100
AcDbLine
 62
7
  6
CONTINUOUS
 10
14.6111862932
 20
13.1574916181
 11
14.6493753429
 21
13.1821266471
  0
LINE
  5
339
100
AcDbEntity
  8
0
100
AcDbLine
 62
7
  6
CONTINUOUS
 10
17.1259719356
 20
11.4912093898
 11
16.2414705323
 21
11.4912093898
  0
LINE
  5
33A
100
AcDbEntity
  8
0
100
AcDbLine
 62
7
  6
CONTINUOUS
 10
14.4226997452
 20
11.4912093898
 11
13.6588351939
 21
11.4912093898
  0
LINE
  5
33B
100
AcDbEntity
  8
0
100
AcDbLine
 62
7
  6
CONTINUOUS
 10
14.1990237321
 20
12.9488783018
 11
14.175920028
 21
12.9959587006
  0
LINE
  5
33C
100
AcDbEntity
  8
0
100
AcDbLine
 62
7
  6
CONTINUOUS
 10
14.2736877455
 20
13.1412336113
 11
14.2748326928
 21
13.1381378511
  0
LINE
  5
33D
100
AcDbEntity
  8
0
100
AcDbLine
 62
7
  6
CONTINUOUS
 10
14.5379106558
 20
12.1665585663
 11
14.5379989599
 21
12.1670150915
  0
LINE
  5
33E
100
AcDbEntity
  8
0
100
AcDbLine
 62
7
  6
CONTINUOUS
 10
14.5378484256
 20
12.1665777326
 11
14.5379842632
 21
12.1670196326
  0
LINE
  5
33F
100
AcDbEntity
  8
0
100
AcDbLine
 62
7
  6
CONTINUOUS
 10
14.3300977499
 20
11.6799124159
 11
13.8033941022
 21
11.6799124159
  0
LINE
  5
340
100
AcDbEntity
  8
0
100
AcDbLine
 62
7
  6
CONTINUOUS
 10
16.1665857549
 20
11.6799124159
 11
16.7962090369
 21
11.6799124159
  0
LINE
  5
341
100
AcDbEntity
  8
0
100
AcDbLine
 62
7
  6
CONTINUOUS
 10
16.8800276744
 20
11.7638402991
 11
16.6991049792
 21
11.7638402991
  0
LINE
  5
342
100
AcDbEntity
  8
0
100
AcDbLine
 62
7
  6
CONTINUOUS
 10
13.9523695149
 20
11.7638402991
 11
13.7714468196
 21
11.7638402991
  0
LINE
  5
343
100
AcDbEntity
  8
0
100
AcDbLine
 62
7
  6
CONTINUOUS
 10
14.2736877455
 20
13.1412336113
 11
14.2412439739
 21
13.2073470668
  0
LINE
  5
344
100
AcDbEntity
  8
0
100
AcDbLine
 62
7
  6
CONTINUOUS
 10
14.5735055594
 20
12.6808518363
 11
14.5436169429
 21
12.6616001495
  0
LINE
  5
345
100
AcDbEntity
  8
0
100
AcDbLine
 62
7
  6
CONTINUOUS
 10
13.806027723
 20
11.8757441433
 11
13.9869504182
 21
11.8757441433
  0
LINE
  5
346
100
AcDbEntity
  8
0
100
AcDbLine
 62
7
  6
CONTINUOUS
 10
16.7336858825
 20
11.8757441433
 11
16.9146085778
 21
11.8757441433
  0
LINE
  5
347
100
AcDbEntity
  8
0
100
AcDbLine
 62
7
  6
CONTINUOUS
 10
14.5202363047
 20
12.6733481265
 11
14.5225456548
 21
12.670739082
  0
LINE
  5
348
100
AcDbEntity
  8
0
100
AcDbLine
 62
7
  6
CONTINUOUS
 10
14.5436169429
 20
12.6616001495
 11
14.5413075928
 21
12.664209194
  0
LINE
  5
349
100
AcDbEntity
  8
0
100
AcDbLine
 62
7
  6
CONTINUOUS
 10
13.8431301505
 20
11.9958076428
 11
14.0183012301
 21
11.9958076428
  0
LINE
  5
34A
100
AcDbEntity
  8
0
100
AcDbLine
 62
7
  6
CONTINUOUS
 10
16.77078831
 20
11.9958076428
 11
16.9517110053
 21
11.9958076428
  0
LINE
  5
34B
100
AcDbEntity
  8
0
100
AcDbLine
 62
7
  6
CONTINUOUS
 10
14.5735055594
 20
12.6808518363
 11
14.5711962093
 21
12.6834608808
  0
LINE
  5
34C
100
AcDbEntity
  8
0
100
AcDbLine
 62
7
  6
CONTINUOUS
 10
14.5800135376
 20
12.7118515001
 11
14.5823228878
 21
12.7092424556
  0
LINE
  5
34D
100
AcDbEntity
  8
0
100
AcDbLine
 62
7
  6
CONTINUOUS
 10
14.8399254958
 20
11.4123354603
 11
14.8333114035
 21
11.3843594993
  0
LINE
  5
34E
100
AcDbEntity
  8
0
100
AcDbLine
 62
7
  6
CONTINUOUS
 10
14.8742465615
 20
11.4469680157
 11
14.8662740172
 21
11.4176212737
  0
LINE
  5
34F
100
AcDbEntity
  8
0
100
AcDbLine
 62
7
  6
CONTINUOUS
 10
17.0399643524
 20
12.2813955786
 11
16.8590416571
 21
12.2813955786
  0
LINE
  5
350
100
AcDbEntity
  8
0
100
AcDbLine
 62
7
  6
CONTINUOUS
 10
14.5436169429
 20
12.6616001495
 11
14.5225456548
 21
12.670739082
  0
LINE
  5
351
100
AcDbEntity
  8
0
100
AcDbLine
 62
7
  6
CONTINUOUS
 10
14.578135882
 20
13.1760604756
 11
14.5842277213
 21
13.1691984285
  0
LINE
  5
352
100
AcDbEntity
  8
0
100
AcDbLine
 62
7
  6
CONTINUOUS
 10
14.6111862932
 20
13.1574916181
 11
14.6050944538
 21
13.1643536652
  0
LINE
  5
353
100
AcDbEntity
  8
0
100
AcDbLine
 62
7
  6
CONTINUOUS
 10
14.6493753429
 20
13.1821266471
 11
14.6432835035
 21
13.1889886942
  0
LINE
  5
354
100
AcDbEntity
  8
0
100
AcDbLine
 62
7
  6
CONTINUOUS
 10
14.6545139813
 20
13.2253305337
 11
14.6606058207
 21
13.2184684866
  0
LINE
  5
355
100
AcDbEntity
  8
0
100
AcDbLine
 62
7
  6
CONTINUOUS
 10
14.9425580066
 20
11.4123354603
 11
14.9318816472
 21
11.3843594993
  0
LINE
  5
356
100
AcDbEntity
  8
0
100
AcDbLine
 62
7
  6
CONTINUOUS
 10
16.8936225605
 20
12.3932994229
 11
17.0745452557
 21
12.3932994229
  0
LINE
  5
357
100
AcDbEntity
  8
0
100
AcDbLine
 62
7
  6
CONTINUOUS
 10
17.2806585273
 20
12.4714424935
 11
17.1013805838
 21
12.4714424935
  0
LINE
  5
358
100
AcDbEntity
  8
0
100
AcDbLine
 62
7
  6
CONTINUOUS
 10
17.0425979732
 20
12.477227306
 11
16.793930769
 21
12.477227306
  0
LINE
  5
359
100
AcDbEntity
  8
0
100
AcDbLine
 62
7
  6
CONTINUOUS
 10
15.5135662811
 20
11.9028188518
 11
15.5135283172
 21
11.9023902686
  0
LINE
  5
35A
100
AcDbEntity
  8
0
100
AcDbLine
 62
7
  6
CONTINUOUS
 10
15.5129285242
 20
11.9156438042
 11
15.5128189747
 21
11.9143862486
  0
LINE
  5
35B
100
AcDbEntity
  8
0
100
AcDbLine
 62
7
  6
CONTINUOUS
 10
15.5093615778
 20
11.9032034968
 11
15.5094282801
 21
11.9039568203
  0
LINE
  5
35C
100
AcDbEntity
  8
0
100
AcDbLine
 62
7
  6
CONTINUOUS
 10
15.5114259263
 20
11.9031795947
 11
15.5113584439
 21
11.9027568211
  0
LINE
  5
35D
100
AcDbEntity
  8
0
100
AcDbLine
 62
7
  6
CONTINUOUS
 10
15.5129285242
 20
11.9156438042
 11
15.5126910954
 21
11.9144162242
  0
LINE
  5
35E
100
AcDbEntity
  8
0
100
AcDbLine
 62
7
  6
CONTINUOUS
 10
15.5105609849
 20
11.9034028941
 11
15.5104800414
 21
11.9029843915
  0
LINE
  5
35F
100
AcDbEntity
  8
0
100
AcDbLine
 62
7
  6
CONTINUOUS
 10
15.5134974758
 20
11.9028348947
 11
15.513416534
 21
11.9024164321
  0
LINE
  5
360
100
AcDbEntity
  8
0
100
AcDbLine
 62
7
  6
CONTINUOUS
 10
15.5090751363
 20
11.8799717507
 11
15.5089280967
 21
11.879211568
  0
LINE
  5
361
100
AcDbEntity
  8
0
100
AcDbLine
 62
7
  6
CONTINUOUS
 10
15.5067830725
 20
11.8681219633
 11
15.5066947684
 21
11.8676654381
  0
LINE
  5
362
100
AcDbEntity
  8
0
100
AcDbLine
 62
7
  6
CONTINUOUS
 10
15.504826744
 20
11.8803613429
 11
15.5049074974
 21
11.8807754254
  0
LINE
  5
363
100
AcDbEntity
  8
0
100
AcDbLine
 62
7
  6
CONTINUOUS
 10
15.5092848747
 20
11.903221475
 11
15.5094282801
 21
11.9039568203
  0
LINE
  5
364
100
AcDbEntity
  8
0
100
AcDbLine
 62
7
  6
CONTINUOUS
 10
16.1768300805
 20
13.0355394282
 11
16.0724158114
 21
12.9298452451
  0
LINE
  5
365
100
AcDbEntity
  8
0
100
AcDbLine
 62
7
  6
CONTINUOUS
 10
13.9505501102
 20
12.5599408711
 11
14.0779937836
 21
12.5599408711
  0
LINE
  5
366
100
AcDbEntity
  8
0
100
AcDbLine
 62
7
  6
CONTINUOUS
 10
15.8146021218
 20
12.5599408711
 11
15.9581067142
 21
12.5599408711
  0
LINE
  5
367
100
AcDbEntity
  8
0
100
AcDbLine
 62
7
  6
CONTINUOUS
 10
15.8759730354
 20
12.0173402648
 11
16.1897303839
 21
11.3779700117
  0
LINE
  5
368
100
AcDbEntity
  8
0
100
AcDbLine
 62
7
  6
CONTINUOUS
 10
16.2063464885
 20
11.3891603961
 11
15.8925891399
 21
12.0285306492
  0
LINE
  5
369
100
AcDbEntity
  8
0
100
AcDbLine
 62
7
  6
CONTINUOUS
 10
15.5056482543
 20
11.8801281046
 11
15.5057436096
 21
11.8805387972
  0
LINE
  5
36A
100
AcDbEntity
  8
0
100
AcDbLine
 62
7
  6
CONTINUOUS
 10
15.5099463522
 20
11.8797258618
 11
15.5097722064
 21
11.8789719412
  0
LINE
  5
36B
100
AcDbEntity
  8
0
100
AcDbLine
 62
7
  6
CONTINUOUS
 10
15.5068453028
 20
11.8681027969
 11
15.5067094651
 21
11.867660897
  0
LINE
  5
36C
100
AcDbEntity
  8
0
100
AcDbLine
 62
7
  6
CONTINUOUS
 10
15.9581067142
 20
12.5599408711
 11
16.0625209833
 21
12.6656350542
  0
LINE
  5
36D
100
AcDbEntity
  8
0
100
AcDbLine
 62
7
  6
CONTINUOUS
 10
17.089863749
 20
12.4724010159
 11
17.0890740347
 21
12.4725159789
  0
LINE
  5
36E
100
AcDbEntity
  8
0
100
AcDbLine
 62
7
  6
CONTINUOUS
 10
14.5842277213
 20
13.1691984285
 11
14.6111862932
 21
13.1574916181
  0
LINE
  5
36F
100
AcDbEntity
  8
0
100
AcDbLine
 62
7
  6
CONTINUOUS
 10
14.578135882
 20
13.1760604756
 11
14.6050944538
 21
13.1643536652
  0
LINE
  5
370
100
AcDbEntity
  8
0
100
AcDbLine
 62
7
  6
CONTINUOUS
 10
16.2461145273
 20
11.517849817
 11
16.1665857549
 21
11.6799124159
  0
LINE
  5
371
100
AcDbEntity
  8
0
100
AcDbLine
 62
7
  6
CONTINUOUS
 10
16.1665857549
 20
11.6799124159
 11
15.934662785
 21
12.1542181103
  0
LINE
  5
372
100
AcDbEntity
  8
0
100
AcDbLine
 62
7
  6
CONTINUOUS
 10
15.8127306732
 20
12.4598352303
 11
15.8309139011
 21
12.5186761774
  0
LINE
  5
373
100
AcDbEntity
  8
0
100
AcDbLine
 62
7
  6
CONTINUOUS
 10
15.9330484206
 20
12.8491836034
 11
15.9452229983
 21
12.8885805513
  0
LINE
  5
374
100
AcDbEntity
  8
0
100
AcDbLine
 62
7
  6
CONTINUOUS
 10
16.0473694595
 20
13.219126621
 11
16.0487453386
 21
13.2235789672
  0
LINE
  5
375
100
AcDbEntity
  8
0
100
AcDbLine
 62
7
  6
CONTINUOUS
 10
14.8399254958
 20
11.4123354603
 11
14.8742465615
 21
11.4469680157
  0
LINE
  5
376
100
AcDbEntity
  8
0
100
AcDbLine
 62
7
  6
CONTINUOUS
 10
14.8662740172
 20
11.4176212737
 11
14.8333114035
 21
11.3843594993
  0
LINE
  5
377
100
AcDbEntity
  8
0
100
AcDbLine
 62
7
  6
CONTINUOUS
 10
14.8989190335
 20
11.3510977248
 11
14.9318816472
 21
11.3843594993
  0
LINE
  5
378
100
AcDbEntity
  8
0
100
AcDbLine
 62
7
  6
CONTINUOUS
 10
16.0724158114
 20
12.9298452451
 11
15.928911219
 21
12.9298452451
  0
LINE
  5
379
100
AcDbEntity
  8
0
100
AcDbLine
 62
7
  6
CONTINUOUS
 10
14.1923314064
 20
12.9298452451
 11
14.0648592073
 21
12.9298452451
  0
LINE
  5
37A
100
AcDbEntity
  8
0
100
AcDbLine
 62
7
  6
CONTINUOUS
 10
14.6545139813
 20
13.2253305337
 11
14.6275554094
 21
13.2370373441
  0
LINE
  5
37B
100
AcDbEntity
  8
0
100
AcDbLine
 62
7
  6
CONTINUOUS
 10
15.8146021218
 20
12.5599408711
 11
15.7821583502
 21
12.6260543266
  0
LINE
  5
37C
100
AcDbEntity
  8
0
100
AcDbLine
 62
7
  6
CONTINUOUS
 10
15.9581067142
 20
12.5599408711
 11
15.9256629425
 21
12.6260543266
  0
LINE
  5
37D
100
AcDbEntity
  8
0
100
AcDbLine
 62
7
  6
CONTINUOUS
 10
16.5050088737
 20
11.7663008007
 11
16.5475418327
 21
11.6799124159
  0
LINE
  5
37E
100
AcDbEntity
  8
0
100
AcDbLine
 62
7
  6
CONTINUOUS
 10
15.928911219
 20
12.9298452451
 11
15.8964674473
 21
12.9959587006
  0
LINE
  5
37F
100
AcDbEntity
  8
0
100
AcDbLine
 62
7
  6
CONTINUOUS
 10
16.0625209833
 20
12.6656350542
 11
16.0300772116
 21
12.7317485097
  0
LINE
  5
380
100
AcDbEntity
  8
0
100
AcDbLine
 62
7
  6
CONTINUOUS
 10
16.02343066
 20
12.7713292373
 11
15.9909868884
 21
12.8374426928
  0
LINE
  5
381
100
AcDbEntity
  8
0
100
AcDbLine
 62
7
  6
CONTINUOUS
 10
16.0625209833
 20
12.6656350542
 11
16.02343066
 21
12.7713292373
  0
LINE
  5
382
100
AcDbEntity
  8
0
100
AcDbLine
 62
7
  6
CONTINUOUS
 10
16.0521007876
 20
13.2262817531
 11
16.0514929621
 21
13.2262288671
  0
LINE
  5
383
100
AcDbEntity
  8
0
100
AcDbLine
 62
7
  6
CONTINUOUS
 10
14.068075815
 20
13.2262817532
 11
14.2838626585
 21
13.2262817532
  0
LINE
  5
384
100
AcDbEntity
  8
0
100
AcDbLine
 62
7
  6
CONTINUOUS
 10
16.0521023143
 20
13.2262817532
 11
16.2693019405
 21
13.2262817532
  0
LINE
  5
385
100
AcDbEntity
  8
0
100
AcDbLine
 62
7
  6
CONTINUOUS
 10
16.0724158114
 20
12.9298452451
 11
16.0399720397
 21
12.9959587006
  0
LINE
  5
386
100
AcDbEntity
  8
0
100
AcDbLine
 62
7
  6
CONTINUOUS
 10
16.1768300805
 20
13.0355394282
 11
16.1443863088
 21
13.1016528837
  0
LINE
  5
387
100
AcDbEntity
  8
0
100
AcDbLine
 62
7
  6
CONTINUOUS
 10
16.1377397572
 20
13.1412336113
 11
16.1052959855
 21
13.2073470668
  0
LINE
  5
388
100
AcDbEntity
  8
0
100
AcDbLine
 62
7
  6
CONTINUOUS
 10
16.1377397572
 20
13.1412336113
 11
16.1768300805
 21
13.0355394282
  0
LINE
  5
389
100
AcDbEntity
  8
0
100
AcDbLine
 62
7
  6
CONTINUOUS
 10
16.2073281985
 20
11.380724757
 11
16.2470962373
 21
11.5094141778
  0
LINE
  5
38A
100
AcDbEntity
  8
0
100
AcDbLine
 62
7
  6
CONTINUOUS
 10
16.0552561325
 20
13.2295109642
 11
16.0547840846
 21
13.2299076148
  0
LINE
  5
38B
100
AcDbEntity
  8
0
100
AcDbLine
 62
7
  6
CONTINUOUS
 10
16.0550597299
 20
13.2294347089
 11
16.0546225522
 21
13.2298447738
  0
LINE
  5
38C
100
AcDbEntity
  8
0
100
AcDbLine
 62
7
  6
CONTINUOUS
 10
16.3178642236
 20
13.2002495025
 11
16.6127230185
 21
12.5993904526
  0
LINE
  5
38D
100
AcDbEntity
  8
0
100
AcDbLine
 62
7
  6
CONTINUOUS
 10
16.6186454188
 20
12.5592502618
 11
16.4137535665
 21
11.8962199847
  0
LINE
  5
38E
100
AcDbEntity
  8
0
100
AcDbLine
 62
7
  6
CONTINUOUS
 10
16.793930769
 20
12.477227306
 11
16.7512806376
 21
12.5632365208
  0
LINE
  5
38F
100
AcDbEntity
  8
0
100
AcDbLine
 62
7
  6
CONTINUOUS
 10
17.3910941671
 20
12.2787304456
 11
17.3028499128
 21
12.4585533293
  0
LINE
  5
390
100
AcDbEntity
  8
0
100
AcDbLine
 62
7
  6
CONTINUOUS
 10
17.3917607197
 20
12.2661435111
 11
17.1592041447
 21
11.5135901586
  0
ARC
  5
391
100
AcDbEntity
  8
0
100
AcDbCircle
 62
7
  6
CONTINUOUS
 10
4.2823182615
 20
5.5104149806
 40
0.7856133927
100
AcDbArc
 50
326.2362644846
 51
359.9894745479
  0
ARC
  5
392
100
AcDbEntity
  8
0
100
AcDbCircle
 62
7
  6
CONTINUOUS
 10
4.2824816495
 20
5.5102706607
 40
0.7853856266
100
AcDbArc
 50
282.4741601529
 51
325.1037304313
  0
ARC
  5
393
100
AcDbEntity
  8
0
100
AcDbCircle
 62
7
  6
CONTINUOUS
 10
4.2831618406
 20
5.5104881481
 40
0.7849523693
100
AcDbArc
 50
325.0623061301
 51
326.1976030007
  0
CIRCLE
  5
394
100
AcDbEntity
  8
0
100
AcDbCircle
 62
7
  6
CONTINUOUS
 10
5.6705458476
 20
4.5459849464
 40
0.0557142857
  0
ARC
  5
395
100
AcDbEntity
  8
0
100
AcDbCircle
 62
7
  6
CONTINUOUS
 10
4.4428672762
 20
4.7852706607
 40
0.0428571429
100
AcDbArc
 50
278.3161280522
 51
282.4741601529
  0
ARC
  5
396
100
AcDbEntity
  8
0
100
AcDbCircle
 62
7
  6
CONTINUOUS
 10
5.2178672762
 20
4.4816992321
 40
0.0285714286
100
AcDbArc
 50
180.0
 51
270.0
  0
ARC
  5
397
100
AcDbEntity
  8
0
100
AcDbCircle
 62
7
  6
CONTINUOUS
 10
4.2339387047
 20
4.7281278036
 40
0.0142857143
100
AcDbArc
 50
90.0
 51
180.0
  0
ARC
  5
398
100
AcDbEntity
  8
0
100
AcDbCircle
 62
7
  6
CONTINUOUS
 10
5.2178672762
 20
4.4816992321
 40
0.0142857143
100
AcDbArc
 50
180.0
 51
270.0
  0
ARC
  5
399
100
AcDbEntity
  8
0
100
AcDbCircle
 62
7
  6
CONTINUOUS
 10
5.2307790335
 20
6.0633522853
 40
0.0490237542
100
AcDbArc
 50
63.7012863818
 51
66.4716007921
  0
ARC
  5
39A
100
AcDbEntity
  8
0
100
AcDbCircle
 62
7
  6
CONTINUOUS
 10
5.891973225
 20
6.5847802065
 40
0.0267857143
100
AcDbArc
 50
197.9599454082
 51
268.3963722286
  0
ARC
  5
39B
100
AcDbEntity
  8
0
100
AcDbCircle
 62
7
  6
CONTINUOUS
 10
5.7995678077
 20
6.5600202495
 40
0.0267857143
100
AcDbArc
 50
301.6036277714
 51
12.0400545918
  0
ARC
  5
39C
100
AcDbEntity
  8
0
100
AcDbCircle
 62
7
  6
CONTINUOUS
 10
5.8501393682
 20
6.5836933317
 40
0.0178571429
100
AcDbArc
 50
336.3178125465
 51
105.0
  0
ARC
  5
39D
100
AcDbEntity
  8
0
100
AcDbCircle
 62
7
  6
CONTINUOUS
 10
5.8363404278
 20
6.5799959168
 40
0.0178571429
100
AcDbArc
 50
105.0
 51
233.6821874535
  0
ARC
  5
39E
100
AcDbEntity
  8
0
100
AcDbCircle
 62
7
  6
CONTINUOUS
 10
4.8711410857
 20
5.9629492321
 40
0.0071428571
100
AcDbArc
 50
90.0
 51
180.0
  0
ARC
  5
39F
100
AcDbEntity
  8
0
100
AcDbCircle
 62
7
  6
CONTINUOUS
 10
6.3584202936
 20
4.5769282597
 40
1.9108926803
100
AcDbArc
 50
105.0854872393
 51
105.2491617945
  0
ARC
  5
3A0
100
AcDbEntity
  8
0
100
AcDbCircle
 62
7
  6
CONTINUOUS
 10
6.1303672762
 20
5.5102706607
 40
1.0625
100
AcDbArc
 50
25.5207536194
 51
154.4792463806
  0
ARC
  5
3A1
100
AcDbEntity
  8
0
100
AcDbCircle
 62
7
  6
CONTINUOUS
 10
6.1303818936
 20
5.5100498988
 40
1.0624491689
100
AcDbArc
 50
154.7683791619
 51
179.9880947775
  0
ARC
  5
3A2
100
AcDbEntity
  8
0
100
AcDbCircle
 62
7
  6
CONTINUOUS
 10
6.1303936967
 20
5.5100584714
 40
1.0624075963
100
AcDbArc
 50
0.0114433569
 51
25.2321460581
  0
ARC
  5
3A3
100
AcDbEntity
  8
0
100
AcDbCircle
 62
7
  6
CONTINUOUS
 10
6.1303672762
 20
5.5102706607
 40
0.9410714286
100
AcDbArc
 50
0.0
 51
180.0
  0
ARC
  5
3A4
100
AcDbEntity
  8
0
100
AcDbCircle
 62
7
  6
CONTINUOUS
 10
6.1303672762
 20
5.5102706607
 40
0.9267857143
100
AcDbArc
 50
0.0
 51
180.0
  0
ARC
  5
3A5
100
AcDbEntity
  8
0
100
AcDbCircle
 62
7
  6
CONTINUOUS
 10
7.9784098434
 20
5.5104121624
 40
0.7856064228
100
AcDbArc
 50
180.0103200115
 51
213.7638259824
  0
ARC
  5
3A6
100
AcDbEntity
  8
0
100
AcDbCircle
 62
7
  6
CONTINUOUS
 10
7.9782529028
 20
5.5102706607
 40
0.7853856266
100
AcDbArc
 50
214.8962695687
 51
257.5258398471
  0
ARC
  5
3A7
100
AcDbEntity
  8
0
100
AcDbCircle
 62
7
  6
CONTINUOUS
 10
7.9775726946
 20
5.5104881364
 40
0.7849523487
100
AcDbArc
 50
213.8023969844
 51
214.9376938848
  0
CIRCLE
  5
3A8
100
AcDbEntity
  8
0
100
AcDbCircle
 62
7
  6
CONTINUOUS
 10
6.1303672762
 20
5.5102706607
 40
0.5069642857
  0
CIRCLE
  5
3A9
100
AcDbEntity
  8
0
100
AcDbCircle
 62
7
  6
CONTINUOUS
 10
6.1303672762
 20
5.5102706607
 40
0.5026785714
  0
CIRCLE
  5
3AA
100
AcDbEntity
  8
0
100
AcDbCircle
 62
7
  6
CONTINUOUS
 10
6.1303672762
 20
5.5102706607
 40
0.4598214286
  0
CIRCLE
  5
3AB
100
AcDbEntity
  8
03__ASM_ALL_CURVES
100
AcDbCircle
 62
8
  6
HIDDEN
 10
6.1303672762
 20
5.5102706607
 40
0.449943757
  0
ARC
  5
3AC
100
AcDbEntity
  8
0
100
AcDbCircle
 62
7
  6
CONTINUOUS
 10
7.0428672762
 20
4.4816992321
 40
0.0285714286
100
AcDbArc
 50
270.0
 51
360.0
  0
ARC
  5
3AD
100
AcDbEntity
  8
0
100
AcDbCircle
 62
7
  6
CONTINUOUS
 10
8.0267958476
 20
4.7281278036
 40
0.0142857143
100
AcDbArc
 50
0.0
 51
90.0
  0
ARC
  5
3AE
100
AcDbEntity
  8
0
100
AcDbCircle
 62
7
  6
CONTINUOUS
 10
7.0428672762
 20
4.4816992321
 40
0.0142857143
100
AcDbArc
 50
270.0
 51
360.0
  0
ARC
  5
3AF
100
AcDbEntity
  8
0
100
AcDbCircle
 62
7
  6
CONTINUOUS
 10
7.3895934666
 20
5.9629492321
 40
0.0071428571
100
AcDbArc
 50
0.0
 51
90.0
  0
ARC
  5
3B0
100
AcDbEntity
  8
0
100
AcDbCircle
 62
7
  6
CONTINUOUS
 10
6.0301913046
 20
11.7062019727
 40
0.4301729529
100
AcDbArc
 50
119.2518302192
 51
120.8359642102
  0
ARC
  5
3B1
100
AcDbEntity
  8
0
100
AcDbCircle
 62
7
  6
CONTINUOUS
 10
6.0178528191
 20
11.7280068051
 40
0.4051264222
100
AcDbArc
 50
120.9183406876
 51
123.3326653405
  0
ARC
  5
3B2
100
AcDbEntity
  8
0
100
AcDbCircle
 62
7
  6
CONTINUOUS
 10
6.0375046121
 20
11.6907691308
 40
0.3848836336
100
AcDbArc
 50
120.8695838553
 51
122.9054157346
  0
ARC
  5
3B3
100
AcDbEntity
  8
0
100
AcDbCircle
 62
7
  6
CONTINUOUS
 10
4.5798006553
 20
12.2696906385
 40
0.224702381
100
AcDbArc
 50
307.4744343735
 51
90.0
  0
ARC
  5
3B4
100
AcDbEntity
  8
0
100
AcDbCircle
 62
7
  6
CONTINUOUS
 10
4.8759316077
 20
12.1768334957
 40
0.0714285714
100
AcDbArc
 50
180.0
 51
270.0
  0
ARC
  5
3B5
100
AcDbEntity
  8
0
100
AcDbCircle
 62
7
  6
CONTINUOUS
 10
4.5798006553
 20
12.2696906385
 40
0.0714285714
100
AcDbArc
 50
270.0
 51
90.0
  0
ARC
  5
3B6
100
AcDbEntity
  8
0
100
AcDbCircle
 62
7
  6
CONTINUOUS
 10
4.3833720839
 20
12.2696906385
 40
0.0714285714
100
AcDbArc
 50
90.0
 51
270.0
  0
ARC
  5
3B7
100
AcDbEntity
  8
0
100
AcDbCircle
 62
7
  6
CONTINUOUS
 10
5.8225282652
 20
12.0483226502
 40
0.0326887896
100
AcDbArc
 50
340.7132240442
 51
19.2408674291
  0
ARC
  5
3B8
100
AcDbEntity
  8
0
100
AcDbCircle
 62
7
  6
CONTINUOUS
 10
5.8255977152
 20
12.0483415565
 40
0.0321412705
100
AcDbArc
 50
352.7839633167
 51
8.0438396706
  0
ARC
  5
3B9
100
AcDbEntity
  8
0
100
AcDbCircle
 62
7
  6
CONTINUOUS
 10
5.8241292124
 20
12.0475856683
 40
0.0308673889
100
AcDbArc
 50
303.5436838725
 51
320.9622131922
  0
ARC
  5
3BA
100
AcDbEntity
  8
0
100
AcDbCircle
 62
7
  6
CONTINUOUS
 10
5.826971184
 20
12.0495089822
 40
0.0302977447
100
AcDbArc
 50
55.2956740099
 51
69.926449139
  0
ARC
  5
3BB
100
AcDbEntity
  8
0
100
AcDbCircle
 62
7
  6
CONTINUOUS
 10
5.8270060006
 20
12.0470804269
 40
0.0302169649
100
AcDbArc
 50
297.6586527417
 51
304.1413433246
  0
ARC
  5
3BC
100
AcDbEntity
  8
0
100
AcDbCircle
 62
7
  6
CONTINUOUS
 10
5.8247654146
 20
12.0466637049
 40
0.0297474242
100
AcDbArc
 50
300.8649728443
 51
303.5036206413
  0
ARC
  5
3BD
100
AcDbEntity
  8
0
100
AcDbCircle
 62
7
  6
CONTINUOUS
 10
5.8247996963
 20
12.0500614088
 40
0.0297154058
100
AcDbArc
 50
56.4507705364
 51
59.1217811098
  0
ARC
  5
3BE
100
AcDbEntity
  8
0
100
AcDbCircle
 62
7
  6
CONTINUOUS
 10
4.1887292267
 20
12.1196906385
 40
0.0285714286
100
AcDbArc
 50
180.0
 51
270.0
  0
ARC
  5
3BF
100
AcDbEntity
  8
0
100
AcDbCircle
 62
7
  6
CONTINUOUS
 10
5.0226585631
 20
12.1068281328
 40
0.0142854531
100
AcDbArc
 50
185.7150262632
 51
269.9882365572
  0
ARC
  5
3C0
100
AcDbEntity
  8
0
100
AcDbCircle
 62
7
  6
CONTINUOUS
 10
5.058967322
 20
12.3639366703
 40
0.184375
100
AcDbArc
 50
287.0493747088
 51
72.9506252912
  0
CIRCLE
  5
3C1
100
AcDbEntity
  8
0
100
AcDbCircle
 62
7
  6
CONTINUOUS
 10
5.058967322
 20
12.3639366703
 40
0.1558035714
  0
CIRCLE
  5
3C2
100
AcDbEntity
  8
0
100
AcDbCircle
 62
7
  6
CONTINUOUS
 10
5.058967322
 20
12.3639366703
 40
0.1349298509
  0
ARC
  5
3C3
100
AcDbEntity
  8
0
100
AcDbCircle
 62
7
  6
CONTINUOUS
 10
4.5798006553
 20
12.9304049242
 40
0.224702381
100
AcDbArc
 50
270.0
 51
52.5255656268
  0
ARC
  5
3C4
100
AcDbEntity
  8
0
100
AcDbCircle
 62
7
  6
CONTINUOUS
 10
5.058967322
 20
12.8361588925
 40
0.184375
100
AcDbArc
 50
287.0493747088
 51
72.9506252912
  0
CIRCLE
  5
3C5
100
AcDbEntity
  8
0
100
AcDbCircle
 62
7
  6
CONTINUOUS
 10
5.058967322
 20
12.8361588925
 40
0.1558035714
  0
CIRCLE
  5
3C6
100
AcDbEntity
  8
0
100
AcDbCircle
 62
7
  6
CONTINUOUS
 10
5.058967322
 20
12.8361588925
 40
0.1349298509
  0
ARC
  5
3C7
100
AcDbEntity
  8
0
100
AcDbCircle
 62
7
  6
CONTINUOUS
 10
4.8759316077
 20
13.0232620671
 40
0.0714285714
100
AcDbArc
 50
90.0
 51
180.0
  0
ARC
  5
3C8
100
AcDbEntity
  8
0
100
AcDbCircle
 62
7
  6
CONTINUOUS
 10
4.5798006553
 20
12.9304049242
 40
0.0714285714
100
AcDbArc
 50
270.0
 51
90.0
  0
ARC
  5
3C9
100
AcDbEntity
  8
0
100
AcDbCircle
 62
7
  6
CONTINUOUS
 10
4.3833720839
 20
12.9304049242
 40
0.0714285714
100
AcDbArc
 50
90.0
 51
270.0
  0
ARC
  5
3CA
100
AcDbEntity
  8
0
100
AcDbCircle
 62
7
  6
CONTINUOUS
 10
4.1887292267
 20
13.0804049242
 40
0.0285714286
100
AcDbArc
 50
90.0
 51
180.0
  0
ARC
  5
3CB
100
AcDbEntity
  8
0
100
AcDbCircle
 62
7
  6
CONTINUOUS
 10
5.0226592829
 20
13.0933109748
 40
0.0142877496
100
AcDbArc
 50
90.0059273717
 51
174.4601442968
  0
ARC
  5
3CC
100
AcDbEntity
  8
0
100
AcDbCircle
 62
7
  6
CONTINUOUS
 10
6.014804105
 20
12.3640264041
 40
0.3995736144
100
AcDbArc
 50
236.6641793902
 51
239.110377087
  0
ARC
  5
3CD
100
AcDbEntity
  8
0
100
AcDbCircle
 62
7
  6
CONTINUOUS
 10
6.0407321428
 20
12.4111303773
 40
0.3909954468
100
AcDbArc
 50
237.4583755916
 51
239.1188242185
  0
ARC
  5
3CE
100
AcDbEntity
  8
0
100
AcDbCircle
 62
7
  6
CONTINUOUS
 10
5.789926573
 20
12.6000971679
 40
0.0418018925
100
AcDbArc
 50
340.736099026
 51
19.263900974
  0
ARC
  5
3CF
100
AcDbEntity
  8
0
100
AcDbCircle
 62
7
  6
CONTINUOUS
 10
5.7949384257
 20
12.6000473333
 40
0.040829029
100
AcDbArc
 50
178.8622453386
 51
181.1377546614
  0
ARC
  5
3D0
100
AcDbEntity
  8
0
100
AcDbCircle
 62
7
  6
CONTINUOUS
 10
5.7909245023
 20
12.6002920839
 40
0.0407629775
100
AcDbArc
 50
19.3369792304
 51
27.3626517503
  0
ARC
  5
3D1
100
AcDbEntity
  8
0
100
AcDbCircle
 62
7
  6
CONTINUOUS
 10
5.7909245023
 20
12.5998034788
 40
0.0407629775
100
AcDbArc
 50
332.6373482497
 51
340.6630207696
  0
ARC
  5
3D2
100
AcDbEntity
  8
0
100
AcDbCircle
 62
7
  6
CONTINUOUS
 10
6.1135663061
 20
11.5586992254
 40
0.5996076989
100
AcDbArc
 50
118.8180217639
 51
119.3154671091
  0
ARC
  5
3D3
100
AcDbEntity
  8
0
100
AcDbCircle
 62
7
  6
CONTINUOUS
 10
6.0713560196
 20
11.6378977061
 40
0.4476628253
100
AcDbArc
 50
122.8667597117
 51
123.301353864
  0
ARC
  5
3D4
100
AcDbEntity
  8
0
100
AcDbCircle
 62
7
  6
CONTINUOUS
 10
7.5619435124
 20
12.2696906385
 40
0.224702381
100
AcDbArc
 50
90.0
 51
232.5255656268
  0
ARC
  5
3D5
100
AcDbEntity
  8
0
100
AcDbCircle
 62
7
  6
CONTINUOUS
 10
7.26581256
 20
12.1768334957
 40
0.0714285714
100
AcDbArc
 50
270.0
 51
360.0
  0
ARC
  5
3D6
100
AcDbEntity
  8
0
100
AcDbCircle
 62
7
  6
CONTINUOUS
 10
7.7583720839
 20
12.2696906385
 40
0.0714285714
100
AcDbArc
 50
270.0
 51
90.0
  0
ARC
  5
3D7
100
AcDbEntity
  8
0
100
AcDbCircle
 62
7
  6
CONTINUOUS
 10
7.5619435124
 20
12.2696906385
 40
0.0714285714
100
AcDbArc
 50
90.0
 51
270.0
  0
ARC
  5
3D8
100
AcDbEntity
  8
0
100
AcDbCircle
 62
7
  6
CONTINUOUS
 10
7.953014941
 20
12.1196906385
 40
0.0285714286
100
AcDbArc
 50
270.0
 51
360.0
  0
ARC
  5
3D9
100
AcDbEntity
  8
0
100
AcDbCircle
 62
7
  6
CONTINUOUS
 10
7.1190869923
 20
12.1068299405
 40
0.0142854532
100
AcDbArc
 50
270.0031562646
 51
354.2774495557
  0
ARC
  5
3DA
100
AcDbEntity
  8
0
100
AcDbCircle
 62
7
  6
CONTINUOUS
 10
6.1670455865
 20
12.6336445758
 40
0.7092130331
100
AcDbArc
 50
241.093067498
 51
241.2175582425
  0
ARC
  5
3DB
100
AcDbEntity
  8
0
100
AcDbCircle
 62
7
  6
CONTINUOUS
 10
6.0761887288
 20
12.4666119011
 40
0.4568389521
100
AcDbArc
 50
236.7342093989
 51
237.4526382092
  0
ARC
  5
3DC
100
AcDbEntity
  8
0
100
AcDbCircle
 62
7
  6
CONTINUOUS
 10
7.0827768458
 20
12.3639366703
 40
0.184375
100
AcDbArc
 50
107.0493747088
 51
252.9506252912
  0
CIRCLE
  5
3DD
100
AcDbEntity
  8
0
100
AcDbCircle
 62
7
  6
CONTINUOUS
 10
7.0827768458
 20
12.3639366703
 40
0.1558035714
  0
CIRCLE
  5
3DE
100
AcDbEntity
  8
0
100
AcDbCircle
 62
7
  6
CONTINUOUS
 10
7.0827768458
 20
12.3639366703
 40
0.1349298509
  0
ARC
  5
3DF
100
AcDbEntity
  8
0
100
AcDbCircle
 62
7
  6
CONTINUOUS
 10
7.5619435124
 20
12.9304049242
 40
0.224702381
100
AcDbArc
 50
127.4744343733
 51
270.0
  0
ARC
  5
3E0
100
AcDbEntity
  8
0
100
AcDbCircle
 62
7
  6
CONTINUOUS
 10
7.0827768458
 20
12.8361588925
 40
0.184375
100
AcDbArc
 50
107.0493747088
 51
252.9506252912
  0
CIRCLE
  5
3E1
100
AcDbEntity
  8
0
100
AcDbCircle
 62
7
  6
CONTINUOUS
 10
7.0827768458
 20
12.8361588925
 40
0.1558035714
  0
CIRCLE
  5
3E2
100
AcDbEntity
  8
0
100
AcDbCircle
 62
7
  6
CONTINUOUS
 10
7.0827768458
 20
12.8361588925
 40
0.1349298509
  0
ARC
  5
3E3
100
AcDbEntity
  8
0
100
AcDbCircle
 62
7
  6
CONTINUOUS
 10
7.26581256
 20
13.0232620671
 40
0.0714285714
100
AcDbArc
 50
0.0
 51
90.0
  0
ARC
  5
3E4
100
AcDbEntity
  8
0
100
AcDbCircle
 62
7
  6
CONTINUOUS
 10
7.7583720839
 20
12.9304049242
 40
0.0714285714
100
AcDbArc
 50
270.0
 51
90.0
  0
ARC
  5
3E5
100
AcDbEntity
  8
0
100
AcDbCircle
 62
7
  6
CONTINUOUS
 10
7.5619435124
 20
12.9304049242
 40
0.0714285714
100
AcDbArc
 50
90.0
 51
270.0
  0
ARC
  5
3E6
100
AcDbEntity
  8
0
100
AcDbCircle
 62
7
  6
CONTINUOUS
 10
7.953014941
 20
13.0804049242
 40
0.0285714286
100
AcDbArc
 50
0.0
 51
90.0
  0
ARC
  5
3E7
100
AcDbEntity
  8
0
100
AcDbCircle
 62
7
  6
CONTINUOUS
 10
7.1190848849
 20
13.0933109748
 40
0.0142877496
100
AcDbArc
 50
5.5398555086
 51
89.9940726264
  0
ARC
  5
3E8
100
AcDbEntity
  8
0
100
AcDbCircle
 62
7
  6
CONTINUOUS
 10
15.7458545837
 20
5.9225534251
 40
0.2179118051
100
AcDbArc
 50
30.338041013
 51
31.3305838535
  0
ARC
  5
3E9
100
AcDbEntity
  8
0
100
AcDbCircle
 62
7
  6
CONTINUOUS
 10
15.8470760357
 20
5.9225823087
 40
0.2178942479
100
AcDbArc
 50
148.8082658634
 51
149.6585009344
  0
ARC
  5
3EA
100
AcDbEntity
  8
0
100
AcDbCircle
 62
7
  6
CONTINUOUS
 10
15.3748267445
 20
5.9225839737
 40
0.2178706473
100
AcDbArc
 50
148.6907622685
 51
149.6638314034
  0
ARC
  5
3EB
100
AcDbEntity
  8
0
100
AcDbCircle
 62
7
  6
CONTINUOUS
 10
15.2736848478
 20
5.9226123981
 40
0.2178360311
100
AcDbArc
 50
30.3400200884
 51
31.2091764766
  0
ARC
  5
3EC
100
AcDbEntity
  8
0
100
AcDbCircle
 62
7
  6
CONTINUOUS
 10
15.9043590734
 20
5.0142263142
 40
0.1506390588
100
AcDbArc
 50
355.1393467215
 51
0.028066866
  0
ARC
  5
3ED
100
AcDbEntity
  8
0
100
AcDbCircle
 62
7
  6
CONTINUOUS
 10
15.5539023789
 20
6.5224314504
 40
0.0185625049
100
AcDbArc
 50
197.5560471384
 51
210.1912205774
  0
ARC
  5
3EE
100
AcDbEntity
  8
0
100
AcDbCircle
 62
7
  6
CONTINUOUS
 10
15.5668250078
 20
6.5224238333
 40
0.0185444081
100
AcDbArc
 50
329.8457635509
 51
341.5344484249
  0
ARC
  5
3EF
100
AcDbEntity
  8
0
100
AcDbCircle
 62
7
  6
CONTINUOUS
 10
16.0805983811
 20
6.4061353109
 40
0.0142880233
100
AcDbArc
 50
180.1
 51
270.0
  0
ARC
  5
3F0
100
AcDbEntity
  8
0
100
AcDbCircle
 62
7
  6
CONTINUOUS
 10
16.0518639739
 20
6.4989853704
 40
0.0142877412
100
AcDbArc
 50
0.1
 51
90.0
  0
ARC
  5
3F1
100
AcDbEntity
  8
0
100
AcDbCircle
 62
7
  6
CONTINUOUS
 10
15.0401144135
 20
6.4061335978
 40
0.0142862609
100
AcDbArc
 50
270.0
 51
359.9
  0
ARC
  5
3F2
100
AcDbEntity
  8
0
100
AcDbCircle
 62
7
  6
CONTINUOUS
 10
15.0657123998
 20
4.6686326113
 40
0.0142857143
100
AcDbArc
 50
90.0
 51
180.0
  0
ARC
  5
3F3
100
AcDbEntity
  8
0
100
AcDbCircle
 62
7
  6
CONTINUOUS
 10
16.0549981141
 20
4.6686326113
 40
0.0142857143
100
AcDbArc
 50
0.0
 51
90.0
  0
ARC
  5
3F4
100
AcDbEntity
  8
0
100
AcDbCircle
 62
7
  6
CONTINUOUS
 10
15.0687984903
 20
6.4989876354
 40
0.0142854454
100
AcDbArc
 50
90.0
 51
179.9
  0
ARC
  5
3F5
100
AcDbEntity
  8
0
100
AcDbCircle
 62
7
  6
CONTINUOUS
 10
15.0728552569
 20
5.9034540398
 40
0.0071428571
100
AcDbArc
 50
90.0
 51
180.0
  0
ARC
  5
3F6
100
AcDbEntity
  8
0
100
AcDbCircle
 62
7
  6
CONTINUOUS
 10
16.0478552569
 20
5.9034540398
 40
0.0071428571
100
AcDbArc
 50
0.0
 51
90.0
  0
ARC
  5
3F7
100
AcDbEntity
  8
0
100
AcDbCircle
 62
7
  6
CONTINUOUS
 10
13.4360868129
 20
12.1891798474
 40
0.7030492851
100
AcDbArc
 50
333.800276839
 51
334.6430483802
  0
ARC
  5
3F8
100
AcDbEntity
  8
0
100
AcDbCircle
 62
7
  6
CONTINUOUS
 10
13.6940791475
 20
11.9689856366
 40
0.4419114239
100
AcDbArc
 50
24.9994961352
 51
26.0643518433
  0
ARC
  5
3F9
100
AcDbEntity
  8
0
100
AcDbCircle
 62
7
  6
CONTINUOUS
 10
13.9635684095
 20
11.9660196713
 40
0.1542495246
100
AcDbArc
 50
330.2751199207
 51
333.4581328999
  0
ARC
  5
3FA
100
AcDbEntity
  8
0
100
AcDbCircle
 62
7
  6
CONTINUOUS
 10
15.1971762547
 20
11.8727210283
 40
0.3259775802
100
AcDbArc
 50
29.2681682711
 51
30.4768066885
  0
ARC
  5
3FB
100
AcDbEntity
  8
0
100
AcDbCircle
 62
7
  6
CONTINUOUS
 10
15.2071653844
 20
11.8783348941
 40
0.3145190457
100
AcDbArc
 50
28.1778004821
 51
29.2657014958
  0
ARC
  5
3FC
100
AcDbEntity
  8
0
100
AcDbCircle
 62
7
  6
CONTINUOUS
 10
15.2124705116
 20
11.881193097
 40
0.3084929783
100
AcDbArc
 50
27.9109355046
 51
28.1751376998
  0
ARC
  5
3FD
100
AcDbEntity
  8
0
100
AcDbCircle
 62
7
  6
CONTINUOUS
 10
15.2136316429
 20
11.8838080198
 40
0.3027534477
100
AcDbArc
 50
27.5460492145
 51
27.8140688567
  0
ARC
  5
3FE
100
AcDbEntity
  8
0
100
AcDbCircle
 62
7
  6
CONTINUOUS
 10
15.2178925574
 20
11.8840528066
 40
0.3023630194
100
AcDbArc
 50
26.5324775025
 51
27.9130187553
  0
ARC
  5
3FF
100
AcDbEntity
  8
0
100
AcDbCircle
 62
7
  6
CONTINUOUS
 10
15.2207928627
 20
11.8875036807
 40
0.2946949295
100
AcDbArc
 50
26.1408698894
 51
27.5528674224
  0
ARC
  5
400
100
AcDbEntity
  8
0
100
AcDbCircle
 62
7
  6
CONTINUOUS
 10
15.2254705063
 20
11.8878735137
 40
0.2938764431
100
AcDbArc
 50
26.1388665244
 51
26.5260032255
  0
ARC
  5
401
100
AcDbEntity
  8
0
100
AcDbCircle
 62
7
  6
CONTINUOUS
 10
15.2260038629
 20
11.8900735611
 40
0.2888847073
100
AcDbArc
 50
25.8652903113
 51
26.138657302
  0
ARC
  5
402
100
AcDbEntity
  8
0
100
AcDbCircle
 62
7
  6
CONTINUOUS
 10
15.3338131221
 20
11.918254116
 40
0.1804208215
100
AcDbArc
 50
358.3918397367
 51
0.0000622821
  0
ARC
  5
403
100
AcDbEntity
  8
0
100
AcDbCircle
 62
7
  6
CONTINUOUS
 10
15.337498063
 20
11.9181461038
 40
0.1767343007
100
AcDbArc
 50
355.3052061554
 51
358.393316591
  0
ARC
  5
404
100
AcDbEntity
  8
0
100
AcDbCircle
 62
7
  6
CONTINUOUS
 10
15.3405030112
 20
11.9179323971
 40
0.1737219464
100
AcDbArc
 50
355.0090448533
 51
355.2943357848
  0
ARC
  5
405
100
AcDbEntity
  8
0
100
AcDbCircle
 62
7
  6
CONTINUOUS
 10
15.3404848396
 20
11.9300271931
 40
0.1730424983
100
AcDbArc
 50
355.2320417642
 51
356.1816141034
  0
ARC
  5
406
100
AcDbEntity
  8
0
100
AcDbCircle
 62
7
  6
CONTINUOUS
 10
15.3424933263
 20
11.9177431368
 40
0.1717226796
100
AcDbArc
 50
350.9589770811
 51
354.8706212257
  0
ARC
  5
407
100
AcDbEntity
  8
0
100
AcDbCircle
 62
7
  6
CONTINUOUS
 10
15.3432559212
 20
11.9297739558
 40
0.1702598328
100
AcDbArc
 50
351.0136776192
 51
354.8146586308
  0
ARC
  5
408
100
AcDbEntity
  8
0
100
AcDbCircle
 62
7
  6
CONTINUOUS
 10
15.3456711062
 20
11.9172569789
 40
0.1685079856
100
AcDbArc
 50
347.1308026352
 51
350.9524339249
  0
ARC
  5
409
100
AcDbEntity
  8
0
100
AcDbCircle
 62
7
  6
CONTINUOUS
 10
15.3421521123
 20
11.9182740416
 40
0.1678872439
100
AcDbArc
 50
347.0109164655
 51
354.849861997
  0
ARC
  5
40A
100
AcDbEntity
  8
0
100
AcDbCircle
 62
7
  6
CONTINUOUS
 10
15.3504720132
 20
11.9283620926
 40
0.1671960901
100
AcDbArc
 50
336.7075246755
 51
338.7671800305
  0
ARC
  5
40B
100
AcDbEntity
  8
0
100
AcDbCircle
 62
7
  6
CONTINUOUS
 10
15.3464746573
 20
11.9292789962
 40
0.1670032599
100
AcDbArc
 50
346.9268498517
 51
350.8620342485
  0
ARC
  5
40C
100
AcDbEntity
  8
0
100
AcDbCircle
 62
7
  6
CONTINUOUS
 10
15.3473478043
 20
11.9168818289
 40
0.1667898258
100
AcDbArc
 50
342.9948249717
 51
346.8623444796
  0
ARC
  5
40D
100
AcDbEntity
  8
0
100
AcDbCircle
 62
7
  6
CONTINUOUS
 10
15.3480490405
 20
11.9289244737
 40
0.1653894907
100
AcDbArc
 50
342.9827913437
 51
346.9231142054
  0
ARC
  5
40E
100
AcDbEntity
  8
0
100
AcDbCircle
 62
7
  6
CONTINUOUS
 10
15.3446054792
 20
11.9177312709
 40
0.165374646
100
AcDbArc
 50
342.835423022
 51
346.8570303146
  0
ARC
  5
40F
100
AcDbEntity
  8
0
100
AcDbCircle
 62
7
  6
CONTINUOUS
 10
14.8759621727
 20
11.3789368769
 40
0.0736258997
100
AcDbArc
 50
90.1470522059
 51
91.9074353086
  0
ARC
  5
410
100
AcDbEntity
  8
0
100
AcDbCircle
 62
7
  6
CONTINUOUS
 10
14.8575394043
 20
11.4288550644
 40
0.0186366568
100
AcDbArc
 50
149.270756832
 51
162.755026803
  0
ARC
  5
411
100
AcDbEntity
  8
0
100
AcDbCircle
 62
7
  6
CONTINUOUS
 10
14.9266994912
 20
11.4014009535
 40
0.0186085641
100
AcDbArc
 50
329.5342174766
 51
342.7606542685
  0
ARC
  5
412
100
AcDbEntity
  8
0
100
AcDbCircle
 62
7
  6
CONTINUOUS
 10
14.9287048
 20
11.4068883992
 40
0.0183127302
100
AcDbArc
 50
343.8033157513
 51
344.9136928945
  0
ARC
  5
413
100
AcDbEntity
  8
0
100
AcDbCircle
 62
7
  6
CONTINUOUS
 10
15.2609077344
 20
12.2846457608
 40
1.2344065911
100
AcDbArc
 50
49.9748446257
 51
50.1045688387
  0
ARC
  5
414
100
AcDbEntity
  8
0
100
AcDbCircle
 62
7
  6
CONTINUOUS
 10
15.2653611421
 20
12.2899426342
 40
1.2274863513
100
AcDbArc
 50
49.7251290457
 51
49.9462376553
  0
ARC
  5
415
100
AcDbEntity
  8
0
100
AcDbCircle
 62
7
  6
CONTINUOUS
 10
14.6389261645
 20
12.2481571504
 40
0.5238030356
100
AcDbArc
 50
204.5696858478
 51
206.1457361059
  0
ARC
  5
416
100
AcDbEntity
  8
0
100
AcDbCircle
 62
7
  6
CONTINUOUS
 10
14.4001322949
 20
12.3771696274
 40
0.3617871168
100
AcDbArc
 50
166.7773554362
 51
167.8985744372
  0
ARC
  5
417
100
AcDbEntity
  8
0
100
AcDbCircle
 62
7
  6
CONTINUOUS
 10
14.3981633512
 20
12.377642156
 40
0.3597622885
100
AcDbArc
 50
162.8390601484
 51
166.7788896899
  0
ARC
  5
418
100
AcDbEntity
  8
0
100
AcDbCircle
 62
7
  6
CONTINUOUS
 10
14.8192232221
 20
12.1468070159
 40
0.2938764431
100
AcDbArc
 50
206.1388665244
 51
206.5260032255
  0
ARC
  5
419
100
AcDbEntity
  8
0
100
AcDbCircle
 62
7
  6
CONTINUOUS
 10
14.8186898651
 20
12.1446069683
 40
0.2888847069
100
AcDbArc
 50
205.865290311
 51
206.1386573021
  0
ARC
  5
41A
100
AcDbEntity
  8
0
100
AcDbCircle
 62
7
  6
CONTINUOUS
 10
14.8109423275
 20
12.1409133837
 40
0.2803019548
100
AcDbArc
 50
203.8533398008
 51
205.8768078668
  0
ARC
  5
41B
100
AcDbEntity
  8
0
100
AcDbCircle
 62
7
  6
CONTINUOUS
 10
14.4697764716
 20
12.5216294021
 40
0.2198559922
100
AcDbArc
 50
59.9069504406
 51
60.2446455576
  0
ARC
  5
41C
100
AcDbEntity
  8
0
100
AcDbCircle
 62
7
  6
CONTINUOUS
 10
14.7769740256
 20
12.1120079234
 40
0.2011780665
100
AcDbArc
 50
193.4391420412
 51
193.704495524
  0
ARC
  5
41D
100
AcDbEntity
  8
0
100
AcDbCircle
 62
7
  6
CONTINUOUS
 10
14.7738511958
 20
12.1112719164
 40
0.1979696912
100
AcDbArc
 50
192.0923939088
 51
193.4420163229
  0
ARC
  5
41E
100
AcDbEntity
  8
0
100
AcDbCircle
 62
7
  6
CONTINUOUS
 10
14.4828773754
 20
12.544569723
 40
0.1934383495
100
AcDbArc
 50
60.2411962027
 51
60.7630325453
  0
ARC
  5
41F
100
AcDbEntity
  8
0
100
AcDbCircle
 62
7
  6
CONTINUOUS
 10
14.7092706568
 20
12.1112637161
 40
0.1804032048
100
AcDbArc
 50
146.0129199457
 51
147.1902204094
  0
ARC
  5
420
100
AcDbEntity
  8
0
100
AcDbCircle
 62
7
  6
CONTINUOUS
 10
14.7057290705
 20
12.11350481
 40
0.1762122563
100
AcDbArc
 50
147.1786992713
 51
150.5872310914
  0
ARC
  5
421
100
AcDbEntity
  8
0
100
AcDbCircle
 62
7
  6
CONTINUOUS
 10
14.7037744973
 20
12.1146206963
 40
0.17396161
100
AcDbArc
 50
150.5912383075
 51
150.869483852
  0
ARC
  5
422
100
AcDbEntity
  8
0
100
AcDbCircle
 62
7
  6
CONTINUOUS
 10
14.7101716909
 20
12.1248514804
 40
0.1727723769
100
AcDbArc
 50
149.9208461151
 51
151.1353752271
  0
ARC
  5
423
100
AcDbEntity
  8
0
100
AcDbCircle
 62
7
  6
CONTINUOUS
 10
14.7061485036
 20
12.1139754786
 40
0.1721257168
100
AcDbArc
 50
150.8559327561
 51
151.139360895
  0
ARC
  5
424
100
AcDbEntity
  8
0
100
AcDbCircle
 62
7
  6
CONTINUOUS
 10
14.7012857402
 20
12.1159670208
 40
0.1711322601
100
AcDbArc
 50
150.8575994441
 51
154.6067112683
  0
ARC
  5
425
100
AcDbEntity
  8
0
100
AcDbCircle
 62
7
  6
CONTINUOUS
 10
14.7079179533
 20
12.1260851671
 40
0.1702030856
100
AcDbArc
 50
151.132831507
 51
154.618679633
  0
ARC
  5
426
100
AcDbEntity
  8
0
100
AcDbCircle
 62
7
  6
CONTINUOUS
 10
14.7036270538
 20
12.1153365167
 40
0.1692604952
100
AcDbArc
 50
151.1308767818
 51
156.685050498
  0
ARC
  5
427
100
AcDbEntity
  8
0
100
AcDbCircle
 62
7
  6
CONTINUOUS
 10
14.6988637929
 20
12.1171219057
 40
0.1684490595
100
AcDbArc
 50
154.608311374
 51
156.8934799312
  0
ARC
  5
428
100
AcDbEntity
  8
0
100
AcDbCircle
 62
7
  6
CONTINUOUS
 10
14.7058306594
 20
12.1271076811
 40
0.167878979
100
AcDbArc
 50
154.6286170445
 51
154.9133595929
  0
ARC
  5
429
100
AcDbEntity
  8
0
100
AcDbCircle
 62
7
  6
CONTINUOUS
 10
14.6976562576
 20
12.1176428541
 40
0.1671339546
100
AcDbArc
 50
156.8952862014
 51
158.7321433757
  0
ARC
  5
42A
100
AcDbEntity
  8
0
100
AcDbCircle
 62
7
  6
CONTINUOUS
 10
14.7049299139
 20
12.1275243754
 40
0.1668865296
100
AcDbArc
 50
154.9118081212
 51
156.8955027995
  0
ARC
  5
42B
100
AcDbEntity
  8
0
100
AcDbCircle
 62
7
  6
CONTINUOUS
 10
14.6970896892
 20
12.1178646579
 40
0.166525518
100
AcDbArc
 50
158.7325518845
 51
162.8316786905
  0
ARC
  5
42C
100
AcDbEntity
  8
0
100
AcDbCircle
 62
7
  6
CONTINUOUS
 10
14.7004583907
 20
12.1167727462
 40
0.1657821495
100
AcDbArc
 50
156.7074604042
 51
158.7729680436
  0
ARC
  5
42D
100
AcDbEntity
  8
0
100
AcDbCircle
 62
7
  6
CONTINUOUS
 10
14.7038533255
 20
12.1279873542
 40
0.1657146163
100
AcDbArc
 50
156.8966715365
 51
158.7722999958
  0
ARC
  5
42E
100
AcDbEntity
  8
0
100
AcDbCircle
 62
7
  6
CONTINUOUS
 10
14.6998533383
 20
12.1170096191
 40
0.1651323848
100
AcDbArc
 50
158.7735696337
 51
162.8313793607
  0
ARC
  5
42F
100
AcDbEntity
  8
0
100
AcDbCircle
 62
7
  6
CONTINUOUS
 10
14.703293425
 20
12.1282062217
 40
0.1651134592
100
AcDbArc
 50
158.7727479852
 51
162.8315966119
  0
ARC
  5
430
100
AcDbEntity
  8
0
100
AcDbCircle
 62
7
  6
CONTINUOUS
 10
15.0207269734
 20
12.7847676184
 40
0.8801910837
100
AcDbArc
 50
102.4878136994
 51
103.2325471933
  0
ARC
  5
431
100
AcDbEntity
  8
0
100
AcDbCircle
 62
7
  6
CONTINUOUS
 10
13.7751013656
 20
12.9533109249
 40
0.8015390631
100
AcDbArc
 50
279.1454360844
 51
281.4424551981
  0
ARC
  5
432
100
AcDbEntity
  8
0
100
AcDbCircle
 62
7
  6
CONTINUOUS
 10
14.7502530579
 20
13.0384539552
 40
0.5189029241
100
AcDbArc
 50
126.1227681732
 51
126.9764350864
  0
ARC
  5
433
100
AcDbEntity
  8
0
100
AcDbCircle
 62
7
  6
CONTINUOUS
 10
14.6775961424
 20
13.1182995062
 40
0.4107392489
100
AcDbArc
 50
137.5233801138
 51
141.9649802783
  0
ARC
  5
434
100
AcDbEntity
  8
0
100
AcDbCircle
 62
7
  6
CONTINUOUS
 10
14.6287560617
 20
13.1512746053
 40
0.3516617036
100
AcDbArc
 50
150.7585901341
 51
162.7912559646
  0
ARC
  5
435
100
AcDbEntity
  8
0
100
AcDbCircle
 62
7
  6
CONTINUOUS
 10
14.01191757
 20
12.7515021934
 40
0.2084098111
100
AcDbArc
 50
285.7915524344
 51
287.8883904958
  0
ARC
  5
436
100
AcDbEntity
  8
0
100
AcDbCircle
 62
7
  6
CONTINUOUS
 10
14.1262274052
 20
13.1214040725
 40
0.2084072096
100
AcDbArc
 50
285.7915438395
 51
287.8857078254
  0
ARC
  5
437
100
AcDbEntity
  8
0
100
AcDbCircle
 62
7
  6
CONTINUOUS
 10
14.1129546773
 20
12.6572369751
 40
0.1429700394
100
AcDbArc
 50
67.5086522095
 51
74.2417462542
  0
ARC
  5
438
100
AcDbEntity
  8
0
100
AcDbCircle
 62
7
  6
CONTINUOUS
 10
14.2272784819
 20
13.027184912
 40
0.1429241194
100
AcDbArc
 50
67.4707854586
 51
74.242677887
  0
ARC
  5
439
100
AcDbEntity
  8
0
100
AcDbCircle
 62
7
  6
CONTINUOUS
 10
14.5940854931
 20
12.6243101171
 40
0.1028694851
100
AcDbArc
 50
109.9761788588
 51
113.547949633
  0
ARC
  5
43A
100
AcDbEntity
  8
0
100
AcDbCircle
 62
7
  6
CONTINUOUS
 10
14.1084057555
 20
12.6832649893
 40
0.1017523837
100
AcDbArc
 50
58.7231992807
 51
59.9371050136
  0
ARC
  5
43B
100
AcDbEntity
  8
0
100
AcDbCircle
 62
7
  6
CONTINUOUS
 10
14.2227240259
 20
13.0531849551
 40
0.101734294
100
AcDbArc
 50
58.6898294325
 51
59.9371773482
  0
ARC
  5
43C
100
AcDbEntity
  8
0
100
AcDbCircle
 62
7
  6
CONTINUOUS
 10
13.9933734361
 20
12.6341425271
 40
0.086766197
100
AcDbArc
 50
185.9725012683
 51
191.9491787469
  0
ARC
  5
43D
100
AcDbEntity
  8
0
100
AcDbCircle
 62
7
  6
CONTINUOUS
 10
14.1076825332
 20
13.0040469011
 40
0.086766197
100
AcDbArc
 50
185.9725012683
 51
191.9491787469
  0
ARC
  5
43E
100
AcDbEntity
  8
0
100
AcDbCircle
 62
7
  6
CONTINUOUS
 10
13.9893071911
 20
12.6332913435
 40
0.082611829
100
AcDbArc
 50
191.9555259712
 51
206.0614060809
  0
ARC
  5
43F
100
AcDbEntity
  8
0
100
AcDbCircle
 62
7
  6
CONTINUOUS
 10
14.1036162883
 20
13.0031957175
 40
0.082611829
100
AcDbArc
 50
191.9555259712
 51
206.0614060809
  0
ARC
  5
440
100
AcDbEntity
  8
0
100
AcDbCircle
 62
7
  6
CONTINUOUS
 10
14.0680823796
 20
13.1490202246
 40
0.0772615289
100
AcDbArc
 50
90.0048682165
 51
91.7802662221
  0
ARC
  5
441
100
AcDbEntity
  8
0
100
AcDbCircle
 62
7
  6
CONTINUOUS
 10
14.5880796325
 20
13.2325138679
 40
0.0665003061
100
AcDbArc
 50
302.8877679576
 51
320.5865484699
  0
ARC
  5
442
100
AcDbEntity
  8
0
100
AcDbCircle
 62
7
  6
CONTINUOUS
 10
14.0415548253
 20
13.1538473205
 40
0.0576528061
100
AcDbArc
 50
158.8692457291
 51
162.8048306083
  0
ARC
  5
443
100
AcDbEntity
  8
0
100
AcDbCircle
 62
7
  6
CONTINUOUS
 10
14.5264479765
 20
12.7193469322
 40
0.0521710625
100
AcDbArc
 50
302.8618209409
 51
314.8459432904
  0
ARC
  5
444
100
AcDbEntity
  8
0
100
AcDbCircle
 62
7
  6
CONTINUOUS
 10
14.5328975733
 20
12.7131662981
 40
0.0509159464
100
AcDbArc
 50
314.2501912756
 51
317.0508543821
  0
ARC
  5
445
100
AcDbEntity
  8
0
100
AcDbCircle
 62
7
  6
CONTINUOUS
 10
14.5383289614
 20
12.7005672475
 40
0.0372418706
100
AcDbArc
 50
286.6204899135
 51
289.1843650326
  0
ARC
  5
446
100
AcDbEntity
  8
0
100
AcDbCircle
 62
7
  6
CONTINUOUS
 10
14.5447245785
 20
12.7085099259
 40
0.0307811186
100
AcDbArc
 50
338.7437151763
 51
342.6784692236
  0
ARC
  5
447
100
AcDbEntity
  8
0
100
AcDbCircle
 62
7
  6
CONTINUOUS
 10
14.5536665924
 20
12.7014111585
 40
0.0268314754
100
AcDbArc
 50
342.8112289516
 51
345.8489871967
  0
ARC
  5
448
100
AcDbEntity
  8
0
100
AcDbCircle
 62
7
  6
CONTINUOUS
 10
14.6002368592
 20
13.224782008
 40
0.0210867396
100
AcDbArc
 50
7.6308213683
 51
13.5780994361
  0
ARC
  5
449
100
AcDbEntity
  8
0
100
AcDbCircle
 62
7
  6
CONTINUOUS
 10
14.5942871273
 20
13.2193912554
 40
0.0209516846
100
AcDbArc
 50
247.9389627852
 51
251.9030677436
  0
ARC
  5
44A
100
AcDbEntity
  8
0
100
AcDbCircle
 62
7
  6
CONTINUOUS
 10
14.5633999834
 20
12.7002637785
 40
0.0169879151
100
AcDbArc
 50
1.5486975491
 51
6.2431902677
  0
ARC
  5
44B
100
AcDbEntity
  8
0
100
AcDbCircle
 62
7
  6
CONTINUOUS
 10
14.5970620096
 20
13.1836154057
 40
0.0144308532
100
AcDbArc
 50
214.1557498894
 51
227.2173183004
  0
ARC
  5
44C
100
AcDbEntity
  8
0
100
AcDbCircle
 62
7
  6
CONTINUOUS
 10
14.5334608845
 20
12.6808806635
 40
0.0111808962
100
AcDbArc
 50
214.1082493538
 51
220.007758601
  0
ARC
  5
44D
100
AcDbEntity
  8
0
100
AcDbCircle
 62
7
  6
CONTINUOUS
 10
16.786144314
 20
11.930047396
 40
0.6196210384
100
AcDbArc
 50
59.8858985771
 51
60.1783359869
  0
ARC
  5
44E
100
AcDbEntity
  8
0
100
AcDbCircle
 62
7
  6
CONTINUOUS
 10
16.9915285924
 20
12.2883332285
 40
0.206642299
100
AcDbArc
 50
60.1812477125
 51
61.051891879
  0
ARC
  5
44F
100
AcDbEntity
  8
0
100
AcDbCircle
 62
7
  6
CONTINUOUS
 10
16.4101772926
 20
12.0560379998
 40
0.1918230823
100
AcDbArc
 50
235.9553918761
 51
240.2260484701
  0
ARC
  5
450
100
AcDbEntity
  8
0
100
AcDbCircle
 62
7
  6
CONTINUOUS
 10
17.0307273412
 20
12.3591964523
 40
0.1256599652
100
AcDbArc
 50
61.0528812927
 51
62.4747053724
  0
ARC
  5
451
100
AcDbEntity
  8
0
100
AcDbCircle
 62
7
  6
CONTINUOUS
 10
17.1021778493
 20
12.5485477892
 40
0.0771360156
100
AcDbArc
 50
260.8154560588
 51
265.2139654173
  0
ARC
  5
452
100
AcDbEntity
  8
0
100
AcDbCircle
 62
7
  6
CONTINUOUS
 10
17.267558652
 20
13.7919948897
 40
1.3302196297
100
AcDbArc
 50
245.9216737102
 51
246.7954080089
  0
ARC
  5
453
100
AcDbEntity
  8
0
100
AcDbCircle
 62
7
  6
CONTINUOUS
 10
17.1266650704
 20
13.3115173147
 40
1.3278613949
100
AcDbArc
 50
253.5202997682
 51
262.0441607657
  0
ARC
  5
454
100
AcDbEntity
  8
0
100
AcDbCircle
 62
7
  6
CONTINUOUS
 10
15.4536485816
 20
12.6473167829
 40
0.8842526617
100
AcDbArc
 50
42.4229048973
 51
43.1874424869
  0
ARC
  5
455
100
AcDbEntity
  8
0
100
AcDbCircle
 62
7
  6
CONTINUOUS
 10
15.474843051
 20
12.6666687068
 40
0.8555524469
100
AcDbArc
 50
40.8687032245
 51
42.4237368652
  0
ARC
  5
456
100
AcDbEntity
  8
0
100
AcDbCircle
 62
7
  6
CONTINUOUS
 10
15.8574254477
 20
12.6341425271
 40
0.086766197
100
AcDbArc
 50
185.9725012683
 51
191.9491787469
  0
ARC
  5
457
100
AcDbEntity
  8
0
100
AcDbCircle
 62
7
  6
CONTINUOUS
 10
15.9717345449
 20
13.0040469011
 40
0.086766197
100
AcDbArc
 50
185.9725012683
 51
191.9491787469
  0
ARC
  5
458
100
AcDbEntity
  8
0
100
AcDbCircle
 62
7
  6
CONTINUOUS
 10
15.8533592028
 20
12.6332913435
 40
0.082611829
100
AcDbArc
 50
191.9555259712
 51
206.0614060809
  0
ARC
  5
459
100
AcDbEntity
  8
0
100
AcDbCircle
 62
7
  6
CONTINUOUS
 10
15.9676682999
 20
13.0031957175
 40
0.082611829
100
AcDbArc
 50
191.9555259712
 51
206.0614060809
  0
LINE
  5
45A
100
AcDbEntity
  8
0
100
AcDbLine
 62
7
  6
CONTINUOUS
 10
5.899521529
 20
6.4322784391
 11
5.9076000549
 21
6.434430833
  0
LINE
  5
45B
100
AcDbEntity
  8
0
100
AcDbLine
 62
7
  6
CONTINUOUS
 10
5.9076000549
 20
6.434430833
 11
5.9147122379
 21
6.4363012793
  0
LINE
  5
45C
100
AcDbEntity
  8
0
100
AcDbLine
 62
7
  6
CONTINUOUS
 10
5.8691638633
 20
6.4241441147
 11
5.8790683249
 21
6.426804526
  0
LINE
  5
45D
100
AcDbEntity
  8
0
100
AcDbLine
 62
7
  6
CONTINUOUS
 10
5.8790683249
 20
6.426804526
 11
5.88961381
 21
6.4296301845
  0
LINE
  5
45E
100
AcDbEntity
  8
0
100
AcDbLine
 62
7
  6
CONTINUOUS
 10
5.88961381
 20
6.4296301845
 11
5.899521529
 21
6.4322784391
  0
LINE
  5
45F
100
AcDbEntity
  8
0
100
AcDbLine
 62
7
  6
CONTINUOUS
 10
5.8539969065
 20
6.4200326305
 11
5.8558228422
 21
6.4205406478
  0
LINE
  5
460
100
AcDbEntity
  8
0
100
AcDbLine
 62
7
  6
CONTINUOUS
 10
5.8610914593
 20
6.4219688734
 11
5.8691638633
 21
6.4241441147
  0
SPLINE
  5
461
100
AcDbEntity
  8
0
100
AcDbSpline
 62
7
  6
CONTINUOUS
 70
0
 71
3
 72
12
 73
8
 74
0
 42
0.0000001
 43
0.0000001
 44
0.0000000001
 40
0.0
 40
0.0
 40
0.0
 40
0.0
 40
0.1349632405
 40
0.2677582448
 40
0.5241453436
 40
0.7694306403
 40
1.0
 40
1.0
 40
1.0
 40
1.0
 10
7.48472812
 20
4.8810837519
 30
0.0
 10
7.4847242288
 20
4.8827580964
 30
0.0
 10
7.4842655553
 20
4.8860789503
 30
0.0
 10
7.4823939151
 20
4.8923166694
 30
0.0
 10
7.4789904166
 20
4.8994644557
 30
0.0
 10
7.4739828601
 20
4.9070617319
 30
0.0
 10
7.4700097389
 20
4.9114937677
 30
0.0
 10
7.4678382612
 20
4.9133556951
 30
0.0
  0
SPLINE
  5
462
100
AcDbEntity
  8
0
100
AcDbSpline
 62
7
  6
CONTINUOUS
 70
0
 71
3
 72
12
 73
8
 74
0
 42
0.0000001
 43
0.0000001
 44
0.0000000001
 40
0.0
 40
0.0
 40
0.0
 40
0.0
 40
0.2305672856
 40
0.4758509467
 40
0.7322383218
 40
0.8650364093
 40
1.0
 40
1.0
 40
1.0
 40
1.0
 10
4.7928962911
 20
4.9133556951
 30
0.0
 10
4.7907248314
 20
4.9114937832
 30
0.0
 10
4.7867517217
 20
4.9070617989
 30
0.0
 10
4.7817441828
 20
4.8994645339
 30
0.0
 10
4.778340771
 20
4.8923167187
 30
0.0
 10
4.7764687508
 20
4.8860790379
 30
0.0
 10
4.7760103236
 20
4.8827581019
 30
0.0
 10
4.7760064324
 20
4.8810837519
 30
0.0
  0
SPLINE
  5
463
100
AcDbEntity
  8
0
100
AcDbSpline
 62
7
  6
CONTINUOUS
 70
0
 71
3
 72
9
 73
5
 74
0
 42
0.0000001
 43
0.0000001
 44
0.0000000001
 40
0.0
 40
0.0
 40
0.0
 40
0.0
 40
0.4982029053
 40
1.0
 40
1.0
 40
1.0
 40
1.0
 10
5.899521529
 20
6.4322784391
 30
0.0
 10
5.8969522804
 20
6.4315926896
 30
0.0
 10
5.8919292014
 20
6.4296821316
 30
0.0
 10
5.8873016924
 20
6.4269884153
 30
0.0
 10
5.885065265
 20
6.4255146175
 30
0.0
  0
SPLINE
  5
464
100
AcDbEntity
  8
0
100
AcDbSpline
 62
7
  6
CONTINUOUS
 70
0
 71
3
 72
9
 73
5
 74
0
 42
0.0000001
 43
0.0000001
 44
0.0000000001
 40
0.0
 40
0.0
 40
0.0
 40
0.0
 40
0.5018888343
 40
1.0
 40
1.0
 40
1.0
 40
1.0
 10
5.9154308481
 20
6.4336193938
 30
0.0
 10
5.9127559152
 20
6.4337823005
 30
0.0
 10
5.9073991192
 20
6.4338209695
 30
0.0
 10
5.9020912875
 20
6.4329643248
 30
0.0
 10
5.899521529
 20
6.4322784391
 30
0.0
  0
SPLINE
  5
465
100
AcDbEntity
  8
0
100
AcDbSpline
 62
7
  6
CONTINUOUS
 70
0
 71
3
 72
9
 73
5
 74
0
 42
0.0000001
 43
0.0000001
 44
0.0000000001
 40
0.0
 40
0.0
 40
0.0
 40
0.0
 40
0.4981293896
 40
1.0
 40
1.0
 40
1.0
 40
1.0
 10
5.8691638633
 20
6.4241441147
 30
0.0
 10
5.8665954794
 20
6.4234532372
 30
0.0
 10
5.8615745077
 20
6.4215322132
 30
0.0
 10
5.856950429
 20
6.4188291669
 30
0.0
 10
5.8547155166
 20
6.417350745
 30
0.0
  0
SPLINE
  5
466
100
AcDbEntity
  8
0
100
AcDbSpline
 62
7
  6
CONTINUOUS
 70
0
 71
3
 72
9
 73
5
 74
0
 42
0.0000001
 43
0.0000001
 44
0.0000000001
 40
0.0
 40
0.0
 40
0.0
 40
0.0
 40
0.501814761
 40
1.0
 40
1.0
 40
1.0
 40
1.0
 10
5.885065265
 20
6.4255146175
 30
0.0
 10
5.882391335
 20
6.4256727615
 30
0.0
 10
5.877036215
 20
6.4257016348
 30
0.0
 10
5.8717318096
 20
6.4248348745
 30
0.0
 10
5.8691638633
 20
6.4241441147
 30
0.0
  0
LINE
  5
467
100
AcDbEntity
  8
0
100
AcDbLine
 62
7
  6
CONTINUOUS
 10
5.8629401668
 20
6.4150694138
 11
5.8710125707
 21
6.4172446551
  0
LINE
  5
468
100
AcDbEntity
  8
0
100
AcDbLine
 62
7
  6
CONTINUOUS
 10
5.9013702365
 20
6.4253789795
 11
5.9094487624
 21
6.4275313734
  0
SPLINE
  5
469
100
AcDbEntity
  8
0
100
AcDbSpline
 62
7
  6
CONTINUOUS
 70
0
 71
3
 72
11
 73
7
 74
0
 42
0.0000001
 43
0.0000001
 44
0.0000000001
 40
0.0
 40
0.0
 40
0.0
 40
0.0
 40
0.2499679841
 40
0.4999898539
 40
0.7500108662
 40
1.0
 40
1.0
 40
1.0
 40
1.0
 10
5.0405607285
 20
6.0907362258
 30
0.0
 10
5.0466233543
 20
6.0937675387
 30
0.0
 10
5.0589673545
 20
6.0994139656
 30
0.0
 10
5.0781972083
 20
6.1061474281
 30
0.0
 10
5.0981053075
 20
6.1105690314
 30
0.0
 10
5.1116837192
 20
6.1116099464
 30
0.0
 10
5.1184625143
 20
6.1116099464
 30
0.0
  0
SPLINE
  5
46A
100
AcDbEntity
  8
0
100
AcDbSpline
 62
7
  6
CONTINUOUS
 70
0
 71
3
 72
11
 73
7
 74
0
 42
0.0000001
 43
0.0000001
 44
0.0000000001
 40
0.0
 40
0.0
 40
0.0
 40
0.0
 40
0.2264875614
 40
0.4659161968
 40
0.7239626899
 40
1.0
 40
1.0
 40
1.0
 40
1.0
 10
5.0016098357
 20
6.1116099464
 30
0.0
 10
5.0050274703
 20
6.1116099464
 30
0.0
 10
5.012090194
 20
6.1104893461
 30
0.0
 10
5.0221155923
 20
6.1059285103
 30
0.0
 10
5.0316753314
 20
6.0991516686
 30
0.0
 10
5.0376153978
 20
6.0936815565
 30
0.0
 10
5.0405607285
 20
6.0907362258
 30
0.0
  0
SPLINE
  5
46B
100
AcDbEntity
  8
0
100
AcDbSpline
 62
7
  6
CONTINUOUS
 70
0
 71
3
 72
9
 73
5
 74
0
 42
0.0000001
 43
0.0000001
 44
0.0000000001
 40
0.0
 40
0.0
 40
0.0
 40
0.0
 40
0.2582742694
 40
1.0
 40
1.0
 40
1.0
 40
1.0
 10
4.9626589428
 20
6.0907362258
 30
0.0
 10
4.9637207209
 20
6.091798004
 30
0.0
 10
4.9678930166
 20
6.0958452812
 30
0.0
 10
4.9723505637
 20
6.0996145793
 30
0.0
 10
4.9758625044
 20
6.102117053
 30
0.0
  0
SPLINE
  5
46C
100
AcDbEntity
  8
0
100
AcDbSpline
 62
7
  6
CONTINUOUS
 70
0
 71
3
 72
10
 73
6
 74
0
 42
0.0000001
 43
0.0000001
 44
0.0000000001
 40
0.0
 40
0.0
 40
0.0
 40
0.0
 40
0.5195723981
 40
0.7630018312
 40
1.0
 40
1.0
 40
1.0
 40
1.0
 10
4.9758625044
 20
6.102117053
 30
0.0
 10
4.9797887661
 20
6.104914756
 30
0.0
 10
4.9859998885
 20
6.1085351908
 30
0.0
 10
4.994942309
 20
6.111156417
 30
0.0
 10
4.999410751
 20
6.1116099464
 30
0.0
 10
5.0016098357
 20
6.1116099464
 30
0.0
  0
SPLINE
  5
46D
100
AcDbEntity
  8
0
100
AcDbSpline
 62
7
  6
CONTINUOUS
 70
0
 71
3
 72
9
 73
5
 74
0
 42
0.0000001
 43
0.0000001
 44
0.0000000001
 40
0.0
 40
0.0
 40
0.0
 40
0.0
 40
0.4915030433
 40
1.0
 40
1.0
 40
1.0
 40
1.0
 10
5.2353151928
 20
6.1116099464
 30
0.0
 10
5.2378507704
 20
6.1116099464
 30
0.0
 10
5.2430230738
 20
6.1110059608
 30
0.0
 10
5.2479439387
 20
6.1093466152
 30
0.0
 10
5.2503494912
 20
6.1083003182
 30
0.0
  0
SPLINE
  5
46E
100
AcDbEntity
  8
0
100
AcDbSpline
 62
7
  6
CONTINUOUS
 70
0
 71
3
 72
11
 73
7
 74
0
 42
0.0000001
 43
0.0000001
 44
0.0000000001
 40
0.0
 40
0.0
 40
0.0
 40
0.0
 40
0.2499951183
 40
0.5000224536
 40
0.750041439
 40
1.0
 40
1.0
 40
1.0
 40
1.0
 10
5.1184625143
 20
6.1116099464
 30
0.0
 10
5.1252414442
 20
6.1116099464
 30
0.0
 10
5.1388201076
 20
6.1105684536
 30
0.0
 10
5.1587282668
 20
6.1061462082
 30
0.0
 10
5.1779574431
 20
6.0994118216
 30
0.0
 10
5.1903019274
 20
6.0937674121
 30
0.0
 10
5.1963643
 20
6.0907362258
 30
0.0
  0
SPLINE
  5
46F
100
AcDbEntity
  8
0
100
AcDbSpline
 62
7
  6
CONTINUOUS
 70
0
 71
3
 72
11
 73
7
 74
0
 42
0.0000001
 43
0.0000001
 44
0.0000000001
 40
0.0
 40
0.0
 40
0.0
 40
0.0
 40
0.2760292859
 40
0.534060561
 40
0.773499441
 40
1.0
 40
1.0
 40
1.0
 40
1.0
 10
5.1963643
 20
6.0907362258
 30
0.0
 10
5.1993094596
 20
6.0936813854
 30
0.0
 10
5.2052491782
 20
6.0991510325
 30
0.0
 10
5.2148099483
 20
6.1059258445
 30
0.0
 10
5.2248351925
 20
6.1104850069
 30
0.0
 10
5.2318974613
 20
6.1116099464
 30
0.0
 10
5.2353151928
 20
6.1116099464
 30
0.0
  0
SPLINE
  5
470
100
AcDbEntity
  8
0
100
AcDbSpline
 62
7
  6
CONTINUOUS
 70
0
 71
3
 72
14
 73
10
 74
0
 42
0.0000001
 43
0.0000001
 44
0.0000000001
 40
0.0
 40
0.0
 40
0.0
 40
0.0
 40
0.1697366803
 40
0.2841556766
 40
0.413797784
 40
0.5545351462
 40
0.702122771
 40
0.8508122812
 40
1.0
 40
1.0
 40
1.0
 40
1.0
 10
4.4533368866
 20
4.7424135178
 30
0.0
 10
4.4537523829
 20
4.7415410152
 30
0.0
 10
4.4543248206
 20
4.7400249777
 30
0.0
 10
4.4552050036
 20
4.7378407619
 30
0.0
 10
4.4560920574
 20
4.735834407
 30
0.0
 10
4.457212582
 20
4.7337395664
 30
0.0
 10
4.4591424428
 20
4.7319423797
 30
0.0
 10
4.4618054631
 20
4.7317943841
 30
0.0
 10
4.4634592978
 20
4.7321076924
 30
0.0
 10
4.4642878708
 20
4.7322945883
 30
0.0
  0
SPLINE
  5
471
100
AcDbEntity
  8
0
100
AcDbSpline
 62
7
  6
CONTINUOUS
 70
0
 71
3
 72
18
 73
14
 74
0
 42
0.0000001
 43
0.0000001
 44
0.0000000001
 40
0.0
 40
0.0
 40
0.0
 40
0.0
 40
0.2499815745
 40
0.3749732307
 40
0.4999633496
 40
0.6249578362
 40
0.6874411191
 40
0.7499514068
 40
0.8124788232
 40
0.8748375983
 40
0.906092002
 40
0.9376106732
 40
1.0
 40
1.0
 40
1.0
 40
1.0
 10
4.4642878708
 20
4.7322945883
 30
0.0
 10
4.4677543896
 20
4.7330765085
 30
0.0
 10
4.4729471689
 20
4.7342807936
 30
0.0
 10
4.4798565147
 20
4.7359462599
 30
0.0
 10
4.4850323317
 20
4.7372211403
 30
0.0
 10
4.4893382794
 20
4.7383116001
 30
0.0
 10
4.4927831488
 20
4.7391845026
 30
0.0
 10
4.4953648402
 20
4.7398480151
 30
0.0
 10
4.4979381888
 20
4.7405390103
 30
0.0
 10
4.500097779
 20
4.7410476169
 30
0.0
 10
4.5018265041
 20
4.7414764797
 30
0.0
 10
4.5035188674
 20
4.7420030984
 30
0.0
 10
4.5048241672
 20
4.742413518
 30
0.0
 10
4.5057110622
 20
4.7424135178
 30
0.0
  0
SPLINE
  5
472
100
AcDbEntity
  8
0
100
AcDbSpline
 62
7
  6
CONTINUOUS
 70
0
 71
3
 72
18
 73
14
 74
0
 42
0.0000001
 43
0.0000001
 44
0.0000000001
 40
0.0
 40
0.0
 40
0.0
 40
0.0
 40
0.0623891385
 40
0.0939080431
 40
0.125162618
 40
0.1875213101
 40
0.2500486459
 40
0.3125589836
 40
0.375042255
 40
0.5000367166
 40
0.6250268201
 40
0.7500184592
 40
1.0
 40
1.0
 40
1.0
 40
1.0
 10
7.7550234901
 20
4.7424135178
 30
0.0
 10
7.7559103826
 20
4.742413518
 30
0.0
 10
7.7572157089
 20
4.7420032076
 30
0.0
 10
7.7589080471
 20
4.7414764924
 30
0.0
 10
7.7606367619
 20
4.7410475665
 30
0.0
 10
7.7627963655
 20
4.7405390138
 30
0.0
 10
7.765369717
 20
4.7398480336
 30
0.0
 10
7.767951401
 20
4.7391844936
 30
0.0
 10
7.7713962736
 20
4.7383116011
 30
0.0
 10
7.7757022207
 20
4.7372211395
 30
0.0
 10
7.7808780382
 20
4.7359462618
 30
0.0
 10
7.7877873841
 20
4.7342807963
 30
0.0
 10
7.7929801627
 20
4.7330765085
 30
0.0
 10
7.7964466815
 20
4.7322945883
 30
0.0
  0
LINE
  5
473
100
AcDbEntity
  8
0
100
AcDbLine
 62
7
  6
CONTINUOUS
 10
5.169298947
 20
5.9629492321
 11
5.17153616
 21
5.9680360379
  0
LINE
  5
474
100
AcDbEntity
  8
0
100
AcDbLine
 62
7
  6
CONTINUOUS
 10
7.0891983924
 20
5.9680360379
 11
7.0898529696
 21
5.9665555722
  0
LINE
  5
475
100
AcDbEntity
  8
0
100
AcDbLine
 62
7
  6
CONTINUOUS
 10
7.0898529696
 20
5.9665555722
 11
7.0914356054
 21
5.9629492321
  0
SPLINE
  5
476
100
AcDbEntity
  8
0
100
AcDbSpline
 62
7
  6
CONTINUOUS
 70
0
 71
3
 72
9
 73
5
 74
0
 42
0.0000001
 43
0.0000001
 44
0.0000000001
 40
0.0
 40
0.0
 40
0.0
 40
0.0
 40
0.5107764635
 40
1.0
 40
1.0
 40
1.0
 40
1.0
 10
7.0081600021
 20
6.10726115
 30
0.0
 10
7.0108935559
 20
6.1086159768
 30
0.0
 10
7.016504541
 20
6.1107982612
 30
0.0
 10
7.0224972152
 20
6.1116099464
 30
0.0
 10
7.0254193595
 20
6.1116099464
 30
0.0
  0
SPLINE
  5
477
100
AcDbEntity
  8
0
100
AcDbSpline
 62
7
  6
CONTINUOUS
 70
0
 71
3
 72
11
 73
7
 74
0
 42
0.0000001
 43
0.0000001
 44
0.0000000001
 40
0.0
 40
0.0
 40
0.0
 40
0.0
 40
0.2264875614
 40
0.4659161968
 40
0.7239626899
 40
1.0
 40
1.0
 40
1.0
 40
1.0
 10
7.0254193595
 20
6.1116099464
 30
0.0
 10
7.0288369941
 20
6.1116099464
 30
0.0
 10
7.0358997178
 20
6.1104893461
 30
0.0
 10
7.0459251161
 20
6.1059285103
 30
0.0
 10
7.0554848552
 20
6.0991516686
 30
0.0
 10
7.0614249217
 20
6.0936815565
 30
0.0
 10
7.0643702524
 20
6.0907362258
 30
0.0
  0
SPLINE
  5
478
100
AcDbEntity
  8
0
100
AcDbSpline
 62
7
  6
CONTINUOUS
 70
0
 71
3
 72
11
 73
7
 74
0
 42
0.0000001
 43
0.0000001
 44
0.0000000001
 40
0.0
 40
0.0
 40
0.0
 40
0.0
 40
0.2499679841
 40
0.4999898539
 40
0.7500108662
 40
1.0
 40
1.0
 40
1.0
 40
1.0
 10
7.0643702524
 20
6.0907362258
 30
0.0
 10
7.0704328781
 20
6.0937675387
 30
0.0
 10
7.0827768783
 20
6.0994139656
 30
0.0
 10
7.1020067321
 20
6.1061474281
 30
0.0
 10
7.1219148313
 20
6.1105690314
 30
0.0
 10
7.135493243
 20
6.1116099464
 30
0.0
 10
7.1422720381
 20
6.1116099464
 30
0.0
  0
SPLINE
  5
479
100
AcDbEntity
  8
0
100
AcDbSpline
 62
7
  6
CONTINUOUS
 70
0
 71
3
 72
11
 73
7
 74
0
 42
0.0000001
 43
0.0000001
 44
0.0000000001
 40
0.0
 40
0.0
 40
0.0
 40
0.0
 40
0.2264875614
 40
0.4659161968
 40
0.7239626899
 40
1.0
 40
1.0
 40
1.0
 40
1.0
 10
7.2591247166
 20
6.1116099464
 30
0.0
 10
7.2625423513
 20
6.1116099464
 30
0.0
 10
7.2696050749
 20
6.1104893461
 30
0.0
 10
7.2796304732
 20
6.1059285103
 30
0.0
 10
7.2891902123
 20
6.0991516686
 30
0.0
 10
7.2951302788
 20
6.0936815565
 30
0.0
 10
7.2980756095
 20
6.0907362258
 30
0.0
  0
SPLINE
  5
47A
100
AcDbEntity
  8
0
100
AcDbSpline
 62
7
  6
CONTINUOUS
 70
0
 71
3
 72
11
 73
7
 74
0
 42
0.0000001
 43
0.0000001
 44
0.0000000001
 40
0.0
 40
0.0
 40
0.0
 40
0.0
 40
0.2760292859
 40
0.534060561
 40
0.773499441
 40
1.0
 40
1.0
 40
1.0
 40
1.0
 10
7.2201738238
 20
6.0907362258
 30
0.0
 10
7.2231189834
 20
6.0936813854
 30
0.0
 10
7.2290587021
 20
6.0991510325
 30
0.0
 10
7.2386194721
 20
6.1059258445
 30
0.0
 10
7.2486447163
 20
6.1104850069
 30
0.0
 10
7.2557069851
 20
6.1116099464
 30
0.0
 10
7.2591247166
 20
6.1116099464
 30
0.0
  0
SPLINE
  5
47B
100
AcDbEntity
  8
0
100
AcDbSpline
 62
7
  6
CONTINUOUS
 70
0
 71
3
 72
11
 73
7
 74
0
 42
0.0000001
 43
0.0000001
 44
0.0000000001
 40
0.0
 40
0.0
 40
0.0
 40
0.0
 40
0.2499951183
 40
0.5000224536
 40
0.750041439
 40
1.0
 40
1.0
 40
1.0
 40
1.0
 10
7.1422720381
 20
6.1116099464
 30
0.0
 10
7.149050968
 20
6.1116099464
 30
0.0
 10
7.1626296314
 20
6.1105684536
 30
0.0
 10
7.1825377906
 20
6.1061462082
 30
0.0
 10
7.2017669669
 20
6.0994118216
 30
0.0
 10
7.2141114512
 20
6.0937674121
 30
0.0
 10
7.2201738238
 20
6.0907362258
 30
0.0
  0
SPLINE
  5
47C
100
AcDbEntity
  8
0
100
AcDbSpline
 62
7
  6
CONTINUOUS
 70
0
 71
3
 72
15
 73
11
 74
0
 42
0.0000001
 43
0.0000001
 44
0.0000000001
 40
0.0
 40
0.0
 40
0.0
 40
0.0
 40
0.1251819671
 40
0.2502216954
 40
0.375144352
 40
0.4999765898
 40
0.6248156468
 40
0.7497547646
 40
0.8748115652
 40
1.0
 40
1.0
 40
1.0
 40
1.0
 10
5.7589880927
 20
12.6000477814
 30
0.0
 10
5.7589880927
 20
12.603288173
 30
0.0
 10
5.7602645804
 20
12.6098350948
 30
0.0
 10
5.7657434391
 20
12.6181417472
 30
0.0
 10
5.7739838848
 20
12.6237340663
 30
0.0
 10
5.783742989
 20
12.6257023814
 30
0.0
 10
5.7935028338
 20
12.6237353746
 30
0.0
 10
5.801744811
 20
12.6181432529
 30
0.0
 10
5.8072246145
 20
12.6098358704
 30
0.0
 10
5.8085013187
 20
12.6032883405
 30
0.0
 10
5.8085013187
 20
12.6000477814
 30
0.0
  0
SPLINE
  5
47D
100
AcDbEntity
  8
0
100
AcDbSpline
 62
7
  6
CONTINUOUS
 70
0
 71
3
 72
15
 73
11
 74
0
 42
0.0000001
 43
0.0000001
 44
0.0000000001
 40
0.0
 40
0.0
 40
0.0
 40
0.0
 40
0.1251819671
 40
0.2502216954
 40
0.375144352
 40
0.4999765898
 40
0.6248156468
 40
0.7497547646
 40
0.8748115652
 40
1.0
 40
1.0
 40
1.0
 40
1.0
 10
5.8085013187
 20
12.6000477814
 30
0.0
 10
5.8085013187
 20
12.5968073897
 30
0.0
 10
5.8072248309
 20
12.590260468
 30
0.0
 10
5.8017459723
 20
12.5819538156
 30
0.0
 10
5.7935055266
 20
12.5763614964
 30
0.0
 10
5.7837464224
 20
12.5743931813
 30
0.0
 10
5.7739865776
 20
12.5763601882
 30
0.0
 10
5.7657446004
 20
12.5819523098
 30
0.0
 10
5.7602647969
 20
12.5902596923
 30
0.0
 10
5.7589880927
 20
12.5968072223
 30
0.0
 10
5.7589880927
 20
12.6000477814
 30
0.0
  0
SPLINE
  5
47E
100
AcDbEntity
  8
0
100
AcDbSpline
 62
7
  6
CONTINUOUS
 70
0
 71
3
 72
11
 73
7
 74
0
 42
0.0000001
 43
0.0000001
 44
0.0000000001
 40
0.0
 40
0.0
 40
0.0
 40
0.0
 40
0.250011031
 40
0.5000090091
 40
0.7500015924
 40
1.0
 40
1.0
 40
1.0
 40
1.0
 10
5.1155163052
 20
12.0924769991
 30
0.0
 10
5.1173550779
 20
12.0924773406
 30
0.0
 10
5.121075544
 20
12.0917732972
 30
0.0
 10
5.1257944443
 20
12.0886472143
 30
0.0
 10
5.1289664468
 20
12.0839852134
 30
0.0
 10
5.1298049091
 20
12.080280655
 30
0.0
 10
5.1298006553
 20
12.0784419801
 30
0.0
  0
SPLINE
  5
47F
100
AcDbEntity
  8
0
100
AcDbSpline
 62
7
  6
CONTINUOUS
 70
0
 71
3
 72
11
 73
7
 74
0
 42
0.0000001
 43
0.0000001
 44
0.0000000001
 40
0.0
 40
0.0
 40
0.0
 40
0.0
 40
0.2499972754
 40
0.4999895974
 40
0.7499886803
 40
1.0
 40
1.0
 40
1.0
 40
1.0
 10
7.0119435124
 20
12.0785100454
 30
0.0
 10
7.0119392747
 20
12.0803430217
 30
0.0
 10
7.0128039377
 20
12.0840317346
 30
0.0
 10
7.01597444
 20
12.0886691728
 30
0.0
 10
7.0206853019
 20
12.0917757853
 30
0.0
 10
7.0243934674
 20
12.0924767583
 30
0.0
 10
7.0262265514
 20
12.0924761582
 30
0.0
  0
SPLINE
  5
480
100
AcDbEntity
  8
0
100
AcDbSpline
 62
7
  6
CONTINUOUS
 70
0
 71
3
 72
11
 73
7
 74
0
 42
0.0000001
 43
0.0000001
 44
0.0000000001
 40
0.0
 40
0.0
 40
0.0
 40
0.0
 40
0.2500115673
 40
0.500010872
 40
0.7500030189
 40
1.0
 40
1.0
 40
1.0
 40
1.0
 10
7.0262279371
 20
13.107619115
 30
0.0
 10
7.0243960389
 20
13.1076189496
 30
0.0
 10
7.0206903312
 20
13.1083178423
 30
0.0
 10
7.0159809927
 20
13.1114206101
 30
0.0
 10
7.0128104112
 20
13.1160523939
 30
0.0
 10
7.01193943
 20
13.1197376475
 30
0.0
 10
7.0119435124
 20
13.1215694343
 30
0.0
  0
SPLINE
  5
481
100
AcDbEntity
  8
0
100
AcDbSpline
 62
7
  6
CONTINUOUS
 70
0
 71
3
 72
11
 73
7
 74
0
 42
0.0000001
 43
0.0000001
 44
0.0000000001
 40
0.0
 40
0.0
 40
0.0
 40
0.0
 40
0.2499969707
 40
0.4999891201
 40
0.7499884368
 40
1.0
 40
1.0
 40
1.0
 40
1.0
 10
5.1298006553
 20
13.1215694343
 30
0.0
 10
5.129804738
 20
13.1197376476
 30
0.0
 10
5.1289337561
 20
13.1160523941
 30
0.0
 10
5.1257631752
 20
13.1114206101
 30
0.0
 10
5.1210538365
 20
13.1083178423
 30
0.0
 10
5.1173481288
 20
13.1076189496
 30
0.0
 10
5.1155162306
 20
13.107619115
 30
0.0
  0
LINE
  5
482
100
AcDbEntity
  8
0
100
AcDbLine
 62
7
  6
CONTINUOUS
 10
5.8242202995
 20
12.0127951988
 11
5.809668671
 21
12.0211291498
  0
SPLINE
  5
483
100
AcDbEntity
  8
0
100
AcDbSpline
 62
7
  6
CONTINUOUS
 70
0
 71
3
 72
9
 73
5
 74
0
 42
0.0000001
 43
0.0000001
 44
0.0000000001
 40
0.0
 40
0.0
 40
0.0
 40
0.0
 40
0.2533482105
 40
1.0
 40
1.0
 40
1.0
 40
1.0
 10
5.7945017142
 20
12.0483470524
 30
0.0
 10
5.7945023831
 20
12.0498801735
 30
0.0
 10
5.7945735666
 20
12.055931608
 30
0.0
 10
5.7948971576
 20
12.0619783334
 30
0.0
 10
5.7952359231
 20
12.0664839337
 30
0.0
  0
SPLINE
  5
484
100
AcDbEntity
  8
0
100
AcDbSpline
 62
7
  6
CONTINUOUS
 70
0
 71
3
 72
9
 73
5
 74
0
 42
0.0000001
 43
0.0000001
 44
0.0000000001
 40
0.0
 40
0.0
 40
0.0
 40
0.0
 40
0.2459437201
 40
1.0
 40
1.0
 40
1.0
 40
1.0
 10
5.7952205575
 20
12.0301933969
 30
0.0
 10
5.7951102693
 20
12.0316789146
 30
0.0
 10
5.7947024353
 20
12.0377217386
 30
0.0
 10
5.7944997214
 20
12.0437799639
 30
0.0
 10
5.7945017142
 20
12.0483470524
 30
0.0
  0
LINE
  5
485
100
AcDbEntity
  8
0
100
AcDbLine
 62
7
  6
CONTINUOUS
 10
5.8245378369
 20
12.0840485726
 11
5.8256017422
 21
12.0846328568
  0
SPLINE
  5
486
100
AcDbEntity
  8
0
100
AcDbSpline
 62
7
  6
CONTINUOUS
 70
0
 71
3
 72
9
 73
5
 74
0
 42
0.0000001
 43
0.0000001
 44
0.0000000001
 40
0.0
 40
0.0
 40
0.0
 40
0.0
 40
0.4974651404
 40
1.0
 40
1.0
 40
1.0
 40
1.0
 10
5.8123236764
 20
12.6348434449
 30
0.0
 10
5.815436738
 20
12.6329827151
 30
0.0
 10
5.8211864524
 20
12.6283270072
 30
0.0
 10
5.82544247
 20
12.6222812514
 30
0.0
 10
5.8271267214
 20
12.619027603
 30
0.0
  0
SPLINE
  5
487
100
AcDbEntity
  8
0
100
AcDbSpline
 62
7
  6
CONTINUOUS
 70
0
 71
3
 72
16
 73
12
 74
0
 42
0.0000001
 43
0.0000001
 44
0.0000000001
 40
0.0
 40
0.0
 40
0.0
 40
0.0
 40
0.2669462768
 40
0.3778227635
 40
0.4739536063
 40
0.5188620264
 40
0.5664012375
 40
0.6223983807
 40
0.6889552474
 40
0.8445648075
 40
1.0
 40
1.0
 40
1.0
 40
1.0
 10
7.7479024734
 20
13.1005574795
 30
0.0
 10
7.7476228892
 20
13.1019710167
 30
0.0
 10
7.7471517704
 20
13.1039681565
 30
0.0
 10
7.746144962
 20
13.1063275964
 30
0.0
 10
7.7453703353
 20
13.1074647817
 30
0.0
 10
7.7446082825
 20
13.1081494795
 30
0.0
 10
7.7438949906
 20
13.1085325408
 30
0.0
 10
7.7430021966
 20
13.1087692707
 30
0.0
 10
7.7415101089
 20
13.1089550435
 30
0.0
 10
7.7394684968
 20
13.1089668333
 30
0.0
 10
7.7377904967
 20
13.1089763528
 30
0.0
 10
7.7369514892
 20
13.1089763528
 30
0.0
  0
SPLINE
  5
488
100
AcDbEntity
  8
0
100
AcDbSpline
 62
7
  6
CONTINUOUS
 70
0
 71
3
 72
13
 73
9
 74
0
 42
0.0000001
 43
0.0000001
 44
0.0000000001
 40
0.0
 40
0.0
 40
0.0
 40
0.0
 40
0.0859360618
 40
0.2044306444
 40
0.5000014751
 40
0.7955701012
 40
0.9140639022
 40
1.0
 40
1.0
 40
1.0
 40
1.0
 10
7.0297032001
 20
13.092562242
 30
0.0
 10
6.9747713656
 20
13.0923722486
 30
0.0
 10
6.8440952489
 20
13.092061563
 30
0.0
 10
6.5244839224
 20
13.0916296873
 30
0.0
 10
6.0708706643
 20
13.0914433707
 30
0.0
 10
5.6172579059
 20
13.0916296908
 30
0.0
 10
5.2976484652
 20
13.0920615641
 30
0.0
 10
5.1669728251
 20
13.0923722485
 30
0.0
 10
5.1120409676
 20
13.092562242
 30
0.0
  0
SPLINE
  5
489
100
AcDbEntity
  8
0
100
AcDbSpline
 62
7
  6
CONTINUOUS
 70
0
 71
3
 72
12
 73
8
 74
0
 42
0.0000001
 43
0.0000001
 44
0.0000000001
 40
0.0
 40
0.0
 40
0.0
 40
0.0
 40
0.2499909384
 40
0.4997233907
 40
0.6246953817
 40
0.7501363538
 40
1.0
 40
1.0
 40
1.0
 40
1.0
 10
7.6955282978
 20
13.1089763528
 30
0.0
 10
7.6999736532
 20
13.1089763528
 30
0.0
 10
7.7088625752
 20
13.108666183
 30
0.0
 10
7.7199205212
 20
13.1075231175
 30
0.0
 10
7.7287057654
 20
13.1061079365
 30
0.0
 10
7.7374215392
 20
13.1043792142
 30
0.0
 10
7.7439032512
 20
13.1024932706
 30
0.0
 10
7.7479024734
 20
13.1005574795
 30
0.0
  0
LINE
  5
48A
100
AcDbEntity
  8
0
100
AcDbLine
 62
7
  6
CONTINUOUS
 10
5.1120409676
 20
12.1075333208
 11
5.1125815197
 21
12.1090310253
  0
SPLINE
  5
48B
100
AcDbEntity
  8
0
100
AcDbSpline
 62
7
  6
CONTINUOUS
 70
0
 71
3
 72
9
 73
5
 74
0
 42
0.0000001
 43
0.0000001
 44
0.0000000001
 40
0.0
 40
0.0
 40
0.0
 40
0.0
 40
0.2362009712
 40
1.0
 40
1.0
 40
1.0
 40
1.0
 10
5.1125815197
 20
12.1090310253
 30
0.0
 10
5.1126546198
 20
12.109300834
 30
0.0
 10
5.1129200388
 20
12.1104548103
 30
0.0
 10
5.1130252778
 20
12.1116438507
 30
0.0
 10
5.1130252778
 20
12.1125477814
 30
0.0
  0
LINE
  5
48C
100
AcDbEntity
  8
0
100
AcDbLine
 62
7
  6
CONTINUOUS
 10
7.7479024734
 20
13.1005574795
 11
7.7583720839
 21
13.0946906385
  0
SPLINE
  5
48D
100
AcDbEntity
  8
0
100
AcDbSpline
 62
7
  6
CONTINUOUS
 70
0
 71
3
 72
11
 73
7
 74
0
 42
0.0000001
 43
0.0000001
 44
0.0000000001
 40
0.0
 40
0.0
 40
0.0
 40
0.0
 40
0.1976889284
 40
0.4156453338
 40
0.6794449343
 40
1.0
 40
1.0
 40
1.0
 40
1.0
 10
5.1098037547
 20
12.1054049242
 30
0.0
 10
5.1100179438
 20
12.1054049242
 30
0.0
 10
5.1104742188
 20
12.10550427
 30
0.0
 10
5.1110767642
 20
12.1059540331
 30
0.0
 10
5.1116009911
 20
12.1066555933
 30
0.0
 10
5.111893291
 20
12.1072189705
 30
0.0
 10
5.1120409676
 20
12.1075333208
 30
0.0
  0
SPLINE
  5
48E
100
AcDbEntity
  8
0
100
AcDbSpline
 62
7
  6
CONTINUOUS
 70
0
 71
3
 72
11
 73
7
 74
0
 42
0.0000001
 43
0.0000001
 44
0.0000000001
 40
0.0
 40
0.0
 40
0.0
 40
0.0
 40
0.3205598524
 40
0.584350503
 40
0.802305326
 40
1.0
 40
1.0
 40
1.0
 40
1.0
 10
5.1120409676
 20
13.092562242
 30
0.0
 10
5.1118932131
 20
13.0928765613
 30
0.0
 10
5.1116009389
 20
13.0934399343
 30
0.0
 10
5.1110767835
 20
13.0941415479
 30
0.0
 10
5.110474229
 20
13.0945912986
 30
0.0
 10
5.11001795
 20
13.0946906385
 30
0.0
 10
5.1098037547
 20
13.0946906385
 30
0.0
  0
SPLINE
  5
48F
100
AcDbEntity
  8
0
100
AcDbSpline
 62
7
  6
CONTINUOUS
 70
0
 71
3
 72
9
 73
5
 74
0
 42
0.0000001
 43
0.0000001
 44
0.0000000001
 40
0.0
 40
0.0
 40
0.0
 40
0.0
 40
0.536943773
 40
1.0
 40
1.0
 40
1.0
 40
1.0
 10
5.1130252778
 20
13.0875477814
 30
0.0
 10
5.1130252778
 20
13.0884675419
 30
0.0
 10
5.1128702044
 20
13.0901834831
 30
0.0
 10
5.1123787322
 20
13.0918445564
 30
0.0
 10
5.1120409676
 20
13.092562242
 30
0.0
  0
SPLINE
  5
490
100
AcDbEntity
  8
0
100
AcDbSpline
 62
7
  6
CONTINUOUS
 70
0
 71
3
 72
16
 73
12
 74
0
 42
0.0000001
 43
0.0000001
 44
0.0000000001
 40
0.0
 40
0.0
 40
0.0
 40
0.0
 40
0.2669462768
 40
0.3778227635
 40
0.4739536063
 40
0.5188620264
 40
0.5664012375
 40
0.6223983807
 40
0.6889552474
 40
0.8445648075
 40
1.0
 40
1.0
 40
1.0
 40
1.0
 10
4.3938416943
 20
12.0995380832
 30
0.0
 10
4.3941212785
 20
12.098124546
 30
0.0
 10
4.3945923974
 20
12.0961274063
 30
0.0
 10
4.3955992057
 20
12.0937679663
 30
0.0
 10
4.3963738324
 20
12.0926307811
 30
0.0
 10
4.3971358852
 20
12.0919460833
 30
0.0
 10
4.3978491771
 20
12.091563022
 30
0.0
 10
4.3987419711
 20
12.091326292
 30
0.0
 10
4.4002340589
 20
12.0911405192
 30
0.0
 10
4.4022756709
 20
12.0911287294
 30
0.0
 10
4.4039536711
 20
12.0911192099
 30
0.0
 10
4.4047926785
 20
12.0911192099
 30
0.0
  0
SPLINE
  5
491
100
AcDbEntity
  8
0
100
AcDbSpline
 62
7
  6
CONTINUOUS
 70
0
 71
3
 72
12
 73
8
 74
0
 42
0.0000001
 43
0.0000001
 44
0.0000000001
 40
0.0
 40
0.0
 40
0.0
 40
0.0
 40
0.2499909384
 40
0.4997233907
 40
0.6246953817
 40
0.7501363538
 40
1.0
 40
1.0
 40
1.0
 40
1.0
 10
4.4462158699
 20
12.0911192099
 30
0.0
 10
4.4417705145
 20
12.0911192099
 30
0.0
 10
4.4328815925
 20
12.0914293797
 30
0.0
 10
4.4218236466
 20
12.0925724452
 30
0.0
 10
4.4130384024
 20
12.0939876262
 30
0.0
 10
4.4043226285
 20
12.0957163485
 30
0.0
 10
4.3978409165
 20
12.0976022921
 30
0.0
 10
4.3938416943
 20
12.0995380832
 30
0.0
  0
LINE
  5
492
100
AcDbEntity
  8
0
100
AcDbLine
 62
7
  6
CONTINUOUS
 10
4.3938416943
 20
12.0995380832
 11
4.3833720839
 21
12.1054049242
  0
SPLINE
  5
493
100
AcDbEntity
  8
0
100
AcDbSpline
 62
7
  6
CONTINUOUS
 70
0
 71
3
 72
11
 73
7
 74
0
 42
0.0000001
 43
0.0000001
 44
0.0000000001
 40
0.0
 40
0.0
 40
0.0
 40
0.0
 40
0.3205574157
 40
0.5843534228
 40
0.8023049697
 40
1.0
 40
1.0
 40
1.0
 40
1.0
 10
7.0297032001
 20
12.1075333208
 30
0.0
 10
7.0298508783
 20
12.1072189683
 30
0.0
 10
7.0301432088
 20
12.1066556095
 30
0.0
 10
7.0306673998
 20
12.1059540352
 30
0.0
 10
7.0312699368
 20
12.1055042564
 30
0.0
 10
7.0317262172
 20
12.1054049242
 30
0.0
 10
7.0319404131
 20
12.1054049242
 30
0.0
  0
SPLINE
  5
494
100
AcDbEntity
  8
0
100
AcDbSpline
 62
7
  6
CONTINUOUS
 70
0
 71
3
 72
9
 73
5
 74
0
 42
0.0000001
 43
0.0000001
 44
0.0000000001
 40
0.0
 40
0.0
 40
0.0
 40
0.0
 40
0.536943773
 40
1.0
 40
1.0
 40
1.0
 40
1.0
 10
7.0287188899
 20
12.1125477814
 30
0.0
 10
7.0287188899
 20
12.1116280208
 30
0.0
 10
7.0288739633
 20
12.1099120797
 30
0.0
 10
7.0293654355
 20
12.1082510064
 30
0.0
 10
7.0297032001
 20
12.1075333208
 30
0.0
  0
LINE
  5
495
100
AcDbEntity
  8
0
100
AcDbLine
 62
7
  6
CONTINUOUS
 10
7.0297032001
 20
13.092562242
 11
7.029162648
 21
13.0910645374
  0
SPLINE
  5
496
100
AcDbEntity
  8
0
100
AcDbSpline
 62
7
  6
CONTINUOUS
 70
0
 71
3
 72
9
 73
5
 74
0
 42
0.0000001
 43
0.0000001
 44
0.0000000001
 40
0.0
 40
0.0
 40
0.0
 40
0.0
 40
0.2362009712
 40
1.0
 40
1.0
 40
1.0
 40
1.0
 10
7.029162648
 20
13.0910645374
 30
0.0
 10
7.029089548
 20
13.0907947287
 30
0.0
 10
7.028824129
 20
13.0896407524
 30
0.0
 10
7.0287188899
 20
13.088451712
 30
0.0
 10
7.0287188899
 20
13.0875477814
 30
0.0
  0
SPLINE
  5
497
100
AcDbEntity
  8
0
100
AcDbSpline
 62
7
  6
CONTINUOUS
 70
0
 71
3
 72
11
 73
7
 74
0
 42
0.0000001
 43
0.0000001
 44
0.0000000001
 40
0.0
 40
0.0
 40
0.0
 40
0.0
 40
0.1976885606
 40
0.4156482734
 40
0.6794424858
 40
1.0
 40
1.0
 40
1.0
 40
1.0
 10
7.0319404131
 20
13.0946906385
 30
0.0
 10
7.0317262244
 20
13.0946906385
 30
0.0
 10
7.0312699509
 20
13.0945912849
 30
0.0
 10
7.0306673879
 20
13.0941415502
 30
0.0
 10
7.0301431967
 20
13.0934399504
 30
0.0
 10
7.0298509535
 20
13.0928765589
 30
0.0
 10
7.0297032001
 20
13.092562242
 30
0.0
  0
SPLINE
  5
498
100
AcDbEntity
  8
0
100
AcDbSpline
 62
7
  6
CONTINUOUS
 70
0
 71
3
 72
9
 73
5
 74
0
 42
0.0000001
 43
0.0000001
 44
0.0000000001
 40
0.0
 40
0.0
 40
0.0
 40
0.0
 40
0.5025348596
 40
1.0
 40
1.0
 40
1.0
 40
1.0
 10
5.8271267214
 20
12.5810679598
 30
0.0
 10
5.82544247
 20
12.5778143114
 30
0.0
 10
5.8211864524
 20
12.5717685556
 30
0.0
 10
5.815436738
 20
12.5671128476
 30
0.0
 10
5.8123236764
 20
12.5652521178
 30
0.0
  0
LINE
  5
499
100
AcDbEntity
  8
0
100
AcDbLine
 62
7
  6
CONTINUOUS
 10
4.3833720839
 20
13.0946906385
 11
4.3938416943
 21
13.1005574795
  0
SPLINE
  5
49A
100
AcDbEntity
  8
0
100
AcDbSpline
 62
7
  6
CONTINUOUS
 70
0
 71
3
 72
9
 73
5
 74
0
 42
0.0000001
 43
0.0000001
 44
0.0000000001
 40
0.0
 40
0.0
 40
0.0
 40
0.0
 40
0.2532605436
 40
1.0
 40
1.0
 40
1.0
 40
1.0
 10
5.8552170456
 20
12.0483470524
 30
0.0
 10
5.8552163763
 20
12.0468130988
 30
0.0
 10
5.8552823708
 20
12.0407562216
 30
0.0
 10
5.8556010221
 20
12.0347038503
 30
0.0
 10
5.8559358884
 20
12.0301933969
 30
0.0
  0
SPLINE
  5
49B
100
AcDbEntity
  8
0
100
AcDbSpline
 62
7
  6
CONTINUOUS
 70
0
 71
3
 72
9
 73
5
 74
0
 42
0.0000001
 43
0.0000001
 44
0.0000000001
 40
0.0
 40
0.0
 40
0.0
 40
0.0
 40
0.245862546
 40
1.0
 40
1.0
 40
1.0
 40
1.0
 10
5.855951254
 20
12.0664839337
 30
0.0
 10
5.8558397053
 20
12.0650003298
 30
0.0
 10
5.8554266847
 20
12.0589632495
 30
0.0
 10
5.8552190368
 20
12.0529105745
 30
0.0
 10
5.8552170456
 20
12.0483470524
 30
0.0
  0
SPLINE
  5
49C
100
AcDbEntity
  8
0
100
AcDbSpline
 62
7
  6
CONTINUOUS
 70
0
 71
3
 72
12
 73
8
 74
0
 42
0.0000001
 43
0.0000001
 44
0.0000000001
 40
0.0
 40
0.0
 40
0.0
 40
0.0
 40
0.2498649018
 40
0.3753032641
 40
0.5002751925
 40
0.7500090868
 40
1.0
 40
1.0
 40
1.0
 40
1.0
 10
4.3938416943
 20
13.1005574795
 30
0.0
 10
4.3978409331
 20
13.1024932786
 30
0.0
 10
4.4043228275
 20
13.1043784714
 30
0.0
 10
4.413038383
 20
13.1061080294
 30
0.0
 10
4.4218236119
 20
13.1075232068
 30
0.0
 10
4.4328815849
 20
13.1086660695
 30
0.0
 10
4.4417705188
 20
13.1089763528
 30
0.0
 10
4.4462158699
 20
13.1089763528
 30
0.0
  0
LINE
  5
49D
100
AcDbEntity
  8
0
100
AcDbLine
 62
7
  6
CONTINUOUS
 10
5.8559356558
 20
12.0301970516
 11
5.8400263367
 21
12.0211291498
  0
LINE
  5
49E
100
AcDbEntity
  8
0
100
AcDbLine
 62
7
  6
CONTINUOUS
 10
5.8400500888
 20
12.075564955
 11
5.8559514905
 21
12.0664875884
  0
SPLINE
  5
49F
100
AcDbEntity
  8
0
100
AcDbSpline
 62
7
  6
CONTINUOUS
 70
0
 71
3
 72
11
 73
7
 74
0
 42
0.0000001
 43
0.0000001
 44
0.0000000001
 40
0.0
 40
0.0
 40
0.0
 40
0.0
 40
0.2504544197
 40
0.5
 40
0.7495455803
 40
1.0
 40
1.0
 40
1.0
 40
1.0
 10
5.8123236764
 20
12.5652521178
 30
0.0
 10
5.8094112315
 20
12.5635113001
 30
0.0
 10
5.8030992079
 20
12.5608017456
 30
0.0
 10
5.7929189165
 20
12.5594018226
 30
0.0
 10
5.7827386251
 20
12.5608017456
 30
0.0
 10
5.7764266015
 20
12.5635113001
 30
0.0
 10
5.7735141566
 20
12.5652521178
 30
0.0
  0
SPLINE
  5
4A0
100
AcDbEntity
  8
0
100
AcDbSpline
 62
7
  6
CONTINUOUS
 70
0
 71
3
 72
12
 73
8
 74
0
 42
0.0000001
 43
0.0000001
 44
0.0000000001
 40
0.0
 40
0.0
 40
0.0
 40
0.0
 40
0.2498649018
 40
0.3753032641
 40
0.5002751925
 40
0.7500090868
 40
1.0
 40
1.0
 40
1.0
 40
1.0
 10
7.7479024734
 20
12.0995380832
 30
0.0
 10
7.7439032346
 20
12.0976022841
 30
0.0
 10
7.7374213402
 20
12.0957170913
 30
0.0
 10
7.7287057847
 20
12.0939875333
 30
0.0
 10
7.7199205558
 20
12.092572356
 30
0.0
 10
7.7088625828
 20
12.0914294932
 30
0.0
 10
7.6999736489
 20
12.0911192099
 30
0.0
 10
7.6955282978
 20
12.0911192099
 30
0.0
  0
SPLINE
  5
4A1
100
AcDbEntity
  8
0
100
AcDbSpline
 62
7
  6
CONTINUOUS
 70
0
 71
3
 72
11
 73
7
 74
0
 42
0.0000001
 43
0.0000001
 44
0.0000000001
 40
0.0
 40
0.0
 40
0.0
 40
0.0
 40
0.2469948997
 40
0.4964521174
 40
0.7478140278
 40
1.0
 40
1.0
 40
1.0
 40
1.0
 10
5.8096924231
 20
12.0755649549
 30
0.0
 10
5.8073955177
 20
12.0741924154
 30
0.0
 10
5.8031321562
 20
12.0707948015
 30
0.0
 10
5.7982563658
 20
12.064215242
 30
0.0
 10
5.7952034996
 20
12.0565576374
 30
0.0
 10
5.7945029062
 20
12.0510790383
 30
0.0
 10
5.7945017142
 20
12.0483470524
 30
0.0
  0
SPLINE
  5
4A2
100
AcDbEntity
  8
0
100
AcDbSpline
 62
7
  6
CONTINUOUS
 70
0
 71
3
 72
8
 73
4
 74
0
 42
0.0000001
 43
0.0000001
 44
0.0000000001
 40
0.0
 40
0.0
 40
0.0
 40
0.0
 40
1.0
 40
1.0
 40
1.0
 40
1.0
 10
5.8400500888
 20
12.075564955
 30
0.0
 10
5.8370218808
 20
12.0773754361
 30
0.0
 10
5.8336159712
 20
12.0786615161
 30
0.0
 10
5.8301456272
 20
12.0792975967
 30
0.0
  0
SPLINE
  5
4A3
100
AcDbEntity
  8
0
100
AcDbSpline
 62
7
  6
CONTINUOUS
 70
0
 71
3
 72
9
 73
5
 74
0
 42
0.0000001
 43
0.0000001
 44
0.0000000001
 40
0.0
 40
0.0
 40
0.0
 40
0.0
 40
0.4989196176
 40
1.0
 40
1.0
 40
1.0
 40
1.0
 10
5.8301456272
 20
12.0792975967
 30
0.0
 10
5.82668866
 20
12.0799312254
 30
0.0
 10
5.8194681871
 20
12.0799369437
 30
0.0
 10
5.8127224389
 20
12.0773755722
 30
0.0
 10
5.8096924231
 20
12.0755649549
 30
0.0
  0
SPLINE
  5
4A4
100
AcDbEntity
  8
0
100
AcDbSpline
 62
7
  6
CONTINUOUS
 70
0
 71
3
 72
9
 73
5
 74
0
 42
0.0000001
 43
0.0000001
 44
0.0000000001
 40
0.0
 40
0.0
 40
0.0
 40
0.0
 40
0.2514781953
 40
1.0
 40
1.0
 40
1.0
 40
1.0
 10
5.8533911099
 20
12.0590949191
 30
0.0
 10
5.8530902544
 20
12.0599535599
 30
0.0
 10
5.8517488319
 20
12.0633152851
 30
0.0
 10
5.8498285354
 20
12.0664466127
 30
0.0
 10
5.8481224928
 20
12.06854973
 30
0.0
  0
SPLINE
  5
4A5
100
AcDbEntity
  8
0
100
AcDbSpline
 62
7
  6
CONTINUOUS
 70
0
 71
3
 72
9
 73
5
 74
0
 42
0.0000001
 43
0.0000001
 44
0.0000000001
 40
0.0
 40
0.0
 40
0.0
 40
0.0
 40
0.2515440214
 40
1.0
 40
1.0
 40
1.0
 40
1.0
 10
5.8481224928
 20
12.06854973
 30
0.0
 10
5.8476286902
 20
12.0691584631
 30
0.0
 10
5.8455744516
 20
12.0715029608
 30
0.0
 10
5.8431658298
 20
12.0735377624
 30
0.0
 10
5.8412220124
 20
12.0748265632
 30
0.0
  0
SPLINE
  5
4A6
100
AcDbEntity
  8
0
100
AcDbSpline
 62
7
  6
CONTINUOUS
 70
0
 71
3
 72
9
 73
5
 74
0
 42
0.0000001
 43
0.0000001
 44
0.0000000001
 40
0.0
 40
0.0
 40
0.0
 40
0.0
 40
0.7485385182
 40
1.0
 40
1.0
 40
1.0
 40
1.0
 10
5.8481048626
 20
12.0281443748
 30
0.0
 10
5.8498126765
 20
12.0302474133
 30
0.0
 10
5.8517356608
 20
12.0333785756
 30
0.0
 10
5.8530801173
 20
12.0367405207
 30
0.0
 10
5.8533817306
 20
12.0375991856
 30
0.0
  0
SPLINE
  5
4A7
100
AcDbEntity
  8
0
100
AcDbSpline
 62
7
  6
CONTINUOUS
 70
0
 71
3
 72
9
 73
5
 74
0
 42
0.0000001
 43
0.0000001
 44
0.0000000001
 40
0.0
 40
0.0
 40
0.0
 40
0.0
 40
0.5010083957
 40
1.0
 40
1.0
 40
1.0
 40
1.0
 10
5.809668671
 20
12.0211291498
 30
0.0
 10
5.8126973986
 20
12.019318358
 30
0.0
 10
5.8194422164
 20
12.0167568316
 30
0.0
 10
5.8266616325
 20
12.0167629773
 30
0.0
 10
5.8301186177
 20
12.0173965081
 30
0.0
  0
SPLINE
  5
4A8
100
AcDbEntity
  8
0
100
AcDbSpline
 62
7
  6
CONTINUOUS
 70
0
 71
3
 72
8
 73
4
 74
0
 42
0.0000001
 43
0.0000001
 44
0.0000000001
 40
0.0
 40
0.0
 40
0.0
 40
0.0
 40
1.0
 40
1.0
 40
1.0
 40
1.0
 10
5.8301186177
 20
12.0173965081
 30
0.0
 10
5.8335899792
 20
12.0180326734
 30
0.0
 10
5.8369968407
 20
12.0193188431
 30
0.0
 10
5.8400263367
 20
12.0211291498
 30
0.0
  0
SPLINE
  5
4A9
100
AcDbEntity
  8
0
100
AcDbSpline
 62
7
  6
CONTINUOUS
 70
0
 71
3
 72
11
 73
7
 74
0
 42
0.0000001
 43
0.0000001
 44
0.0000000001
 40
0.0
 40
0.0
 40
0.0
 40
0.0
 40
0.2522371522
 40
0.5036019841
 40
0.7530329466
 40
1.0
 40
1.0
 40
1.0
 40
1.0
 10
5.7945017142
 20
12.0483470524
 30
0.0
 10
5.7945005223
 20
12.0456153653
 30
0.0
 10
5.7951961225
 20
12.0401372442
 30
0.0
 10
5.7982422606
 20
12.0324792801
 30
0.0
 10
5.8031125191
 20
12.0258993099
 30
0.0
 10
5.807373057
 20
12.0225016334
 30
0.0
 10
5.809668671
 20
12.0211291498
 30
0.0
  0
SPLINE
  5
4AA
100
AcDbEntity
  8
0
100
AcDbSpline
 62
7
  6
CONTINUOUS
 70
0
 71
3
 72
11
 73
7
 74
0
 42
0.0000001
 43
0.0000001
 44
0.0000000001
 40
0.0
 40
0.0
 40
0.0
 40
0.0
 40
0.2504544197
 40
0.5
 40
0.7495455803
 40
1.0
 40
1.0
 40
1.0
 40
1.0
 10
5.7735141566
 20
12.6348434449
 30
0.0
 10
5.7764266015
 20
12.6365842627
 30
0.0
 10
5.7827386251
 20
12.6392938171
 30
0.0
 10
5.7929189165
 20
12.6406937402
 30
0.0
 10
5.8030992079
 20
12.6392938171
 30
0.0
 10
5.8094112315
 20
12.6365842627
 30
0.0
 10
5.8123236764
 20
12.6348434449
 30
0.0
  0
SPLINE
  5
4AB
100
AcDbEntity
  8
0
100
AcDbSpline
 62
7
  6
CONTINUOUS
 70
0
 71
3
 72
11
 73
7
 74
0
 42
0.0000001
 43
0.0000001
 44
0.0000000001
 40
0.0
 40
0.0
 40
0.0
 40
0.0
 40
0.2469761306
 40
0.4963987842
 40
0.7476863819
 40
1.0
 40
1.0
 40
1.0
 40
1.0
 10
5.7735141566
 20
12.5652521178
 30
0.0
 10
5.7706354333
 20
12.5669727796
 30
0.0
 10
5.7652843505
 20
12.5712161191
 30
0.0
 10
5.7591158802
 20
12.579413706
 30
0.0
 10
5.7551745694
 20
12.5889623652
 30
0.0
 10
5.7541854428
 20
12.5958119503
 30
0.0
 10
5.7541174463
 20
12.5992375177
 30
0.0
  0
LINE
  5
4AC
100
AcDbEntity
  8
0
100
AcDbLine
 62
7
  6
CONTINUOUS
 10
7.7583720839
 20
12.1054049242
 11
7.7479024734
 21
12.0995380832
  0
SPLINE
  5
4AD
100
AcDbEntity
  8
0
100
AcDbSpline
 62
7
  6
CONTINUOUS
 70
0
 71
3
 72
11
 73
7
 74
0
 42
0.0000001
 43
0.0000001
 44
0.0000000001
 40
0.0
 40
0.0
 40
0.0
 40
0.0
 40
0.2523136181
 40
0.5036012158
 40
0.7530238694
 40
1.0
 40
1.0
 40
1.0
 40
1.0
 10
5.7541174463
 20
12.6008580451
 30
0.0
 10
5.7541854428
 20
12.6042836124
 30
0.0
 10
5.7551745694
 20
12.6111331976
 30
0.0
 10
5.7591158802
 20
12.6206818568
 30
0.0
 10
5.7652843505
 20
12.6288794436
 30
0.0
 10
5.7706354333
 20
12.6331227831
 30
0.0
 10
5.7735141566
 20
12.6348434449
 30
0.0
  0
SPLINE
  5
4AE
100
AcDbEntity
  8
0
100
AcDbSpline
 62
7
  6
CONTINUOUS
 70
0
 71
3
 72
15
 73
11
 74
0
 42
0.0000001
 43
0.0000001
 44
0.0000000001
 40
0.0
 40
0.0
 40
0.0
 40
0.0
 40
0.1269241886
 40
0.2539378618
 40
0.3808095982
 40
0.5069567032
 40
0.6311561156
 40
0.752056379
 40
0.8737702478
 40
1.0
 40
1.0
 40
1.0
 40
1.0
 10
15.5844146433
 20
6.5165501808
 30
0.0
 10
15.5849697992
 20
6.5182173837
 30
0.0
 10
15.5856019537
 20
6.5217346694
 30
0.0
 10
15.5850048543
 20
6.5270436743
 30
0.0
 10
15.5829357135
 20
6.5319601884
 30
0.0
 10
15.5795951511
 20
6.5360654188
 30
0.0
 10
15.5753426735
 20
6.5390548374
 30
0.0
 10
15.5705791621
 20
6.540926087
 30
0.0
 10
15.5655383327
 20
6.5418582795
 30
0.0
 10
15.5621028462
 20
6.5420552823
 30
0.0
 10
15.5603552569
 20
6.5420552823
 30
0.0
  0
SPLINE
  5
4AF
100
AcDbEntity
  8
0
100
AcDbSpline
 62
7
  6
CONTINUOUS
 70
0
 71
3
 72
15
 73
11
 74
0
 42
0.0000001
 43
0.0000001
 44
0.0000000001
 40
0.0
 40
0.0
 40
0.0
 40
0.0
 40
0.1264264713
 40
0.2479432739
 40
0.3690280537
 40
0.4932021641
 40
0.6192566031
 40
0.7459770075
 40
0.8729504285
 40
1.0
 40
1.0
 40
1.0
 40
1.0
 10
15.5603552569
 20
6.5420552823
 30
0.0
 10
15.5586173113
 20
6.5420552823
 30
0.0
 10
15.5552054733
 20
6.5418633792
 30
0.0
 10
15.5501996473
 20
6.5409347483
 30
0.0
 10
15.5454585538
 20
6.5391087926
 30
0.0
 10
15.5412232297
 20
6.5361572811
 30
0.0
 10
15.5378751767
 20
6.5321148086
 30
0.0
 10
15.5357653064
 20
6.5272617358
 30
0.0
 10
15.5351059893
 20
6.5220000444
 30
0.0
 10
15.5356793275
 20
6.5184979731
 30
0.0
 10
15.536204472
 20
6.5168322826
 30
0.0
  0
SPLINE
  5
4B0
100
AcDbEntity
  8
0
100
AcDbSpline
 62
7
  6
CONTINUOUS
 70
0
 71
3
 72
14
 73
10
 74
0
 42
0.0000001
 43
0.0000001
 44
0.0000000001
 40
0.0
 40
0.0
 40
0.0
 40
0.0
 40
0.142937036
 40
0.2796269118
 40
0.4082296776
 40
0.5305222137
 40
0.6490424259
 40
0.76594553
 40
1.0
 40
1.0
 40
1.0
 40
1.0
 10
15.9835695426
 20
4.922884333
 30
0.0
 10
15.9891300277
 20
4.922884333
 30
0.0
 10
16.0000613742
 20
4.9242990906
 30
0.0
 10
16.0149393094
 20
4.9302838529
 30
0.0
 10
16.0273083303
 20
4.9391359733
 30
0.0
 10
16.0370009552
 20
4.9498765881
 30
0.0
 10
16.0442625462
 20
4.961831373
 30
0.0
 10
16.0511573765
 20
4.9788040426
 30
0.0
 10
16.053672654
 20
4.9923909535
 30
0.0
 10
16.0544563919
 20
5.0014622626
 30
0.0
  0
SPLINE
  5
4B1
100
AcDbEntity
  8
0
100
AcDbSpline
 62
7
  6
CONTINUOUS
 70
0
 71
3
 72
11
 73
7
 74
0
 42
0.0000001
 43
0.0000001
 44
0.0000000001
 40
0.0
 40
0.0
 40
0.0
 40
0.0
 40
0.2468885381
 40
0.4954357676
 40
0.746463269
 40
1.0
 40
1.0
 40
1.0
 40
1.0
 10
15.3917090713
 20
6.0521147541
 30
0.0
 10
15.3975851604
 20
6.0521147541
 30
0.0
 10
15.4093993153
 20
6.0510636765
 30
0.0
 10
15.4266659898
 20
6.046624092
 30
0.0
 10
15.4433172509
 20
6.0398801961
 30
0.0
 10
15.4539481223
 20
6.0342581935
 30
0.0
 10
15.4591739967
 20
6.0312410335
 30
0.0
  0
SPLINE
  5
4B2
100
AcDbEntity
  8
0
100
AcDbSpline
 62
7
  6
CONTINUOUS
 70
0
 71
3
 72
11
 73
7
 74
0
 42
0.0000001
 43
0.0000001
 44
0.0000000001
 40
0.0
 40
0.0
 40
0.0
 40
0.0
 40
0.2535300412
 40
0.5045535902
 40
0.7531084308
 40
1.0
 40
1.0
 40
1.0
 40
1.0
 10
15.3242441458
 20
6.0312410335
 30
0.0
 10
15.3294698162
 20
6.0342580758
 30
0.0
 10
15.340100458
 20
6.0398797146
 30
0.0
 10
15.3567525166
 20
6.046621117
 30
0.0
 10
15.374019055
 20
6.0510593935
 30
0.0
 10
15.3858329843
 20
6.0521147541
 30
0.0
 10
15.3917090713
 20
6.0521147541
 30
0.0
  0
SPLINE
  5
4B3
100
AcDbEntity
  8
0
100
AcDbSpline
 62
7
  6
CONTINUOUS
 70
0
 71
3
 72
11
 73
7
 74
0
 42
0.0000001
 43
0.0000001
 44
0.0000000001
 40
0.0
 40
0.0
 40
0.0
 40
0.0
 40
0.2468885381
 40
0.4954357676
 40
0.746463269
 40
1.0
 40
1.0
 40
1.0
 40
1.0
 10
15.2567792204
 20
6.0521147541
 30
0.0
 10
15.2626553096
 20
6.0521147541
 30
0.0
 10
15.2744694644
 20
6.0510636765
 30
0.0
 10
15.2917361389
 20
6.046624092
 30
0.0
 10
15.3083874
 20
6.0398801961
 30
0.0
 10
15.3190182714
 20
6.0342581935
 30
0.0
 10
15.3242441458
 20
6.0312410335
 30
0.0
  0
SPLINE
  5
4B4
100
AcDbEntity
  8
0
100
AcDbSpline
 62
7
  6
CONTINUOUS
 70
0
 71
3
 72
11
 73
7
 74
0
 42
0.0000001
 43
0.0000001
 44
0.0000000001
 40
0.0
 40
0.0
 40
0.0
 40
0.0
 40
0.2535300412
 40
0.5045535902
 40
0.7531084308
 40
1.0
 40
1.0
 40
1.0
 40
1.0
 10
15.189314295
 20
6.0312410335
 30
0.0
 10
15.1945399654
 20
6.0342580758
 30
0.0
 10
15.2051706072
 20
6.0398797146
 30
0.0
 10
15.2218226657
 20
6.046621117
 30
0.0
 10
15.2390892041
 20
6.0510593935
 30
0.0
 10
15.2509031334
 20
6.0521147541
 30
0.0
 10
15.2567792204
 20
6.0521147541
 30
0.0
  0
SPLINE
  5
4B5
100
AcDbEntity
  8
0
100
AcDbSpline
 62
7
  6
CONTINUOUS
 70
0
 71
3
 72
10
 73
6
 74
0
 42
0.0000001
 43
0.0000001
 44
0.0000000001
 40
0.0
 40
0.0
 40
0.0
 40
0.0
 40
0.2544507118
 40
0.5055277502
 40
1.0
 40
1.0
 40
1.0
 40
1.0
 10
15.5005163162
 20
5.910596897
 30
0.0
 10
15.4989264261
 20
5.9213962582
 30
0.0
 10
15.495147621
 20
5.942777492
 30
0.0
 10
15.4846019295
 20
5.984358674
 30
0.0
 10
15.4724022541
 20
6.014340981
 30
0.0
 10
15.4616866957
 20
6.032648036
 30
0.0
  0
SPLINE
  5
4B6
100
AcDbEntity
  8
0
100
AcDbSpline
 62
7
  6
CONTINUOUS
 70
0
 71
3
 72
15
 73
11
 74
0
 42
0.0000001
 43
0.0000001
 44
0.0000000001
 40
0.0
 40
0.0
 40
0.0
 40
0.0
 40
0.1180075239
 40
0.2400563526
 40
0.3677593297
 40
0.5000125625
 40
0.6322561197
 40
0.7599509182
 40
0.8819945543
 40
1.0
 40
1.0
 40
1.0
 40
1.0
 10
15.4485795583
 20
6.0523956967
 30
0.0
 10
15.4417190274
 20
6.0615173877
 30
0.0
 10
15.4260500202
 20
6.0788784805
 30
0.0
 10
15.3969580711
 20
6.0998566391
 30
0.0
 10
15.3623558295
 20
6.1138801689
 30
0.0
 10
15.3243170926
 20
6.1188500625
 30
0.0
 10
15.2862743491
 20
6.1139171987
 30
0.0
 10
15.2516607097
 20
6.0999278557
 30
0.0
 10
15.2225495788
 20
6.0789788867
 30
0.0
 10
15.2068653297
 20
6.061632063
 30
0.0
 10
15.1999981068
 20
6.0525156606
 30
0.0
  0
SPLINE
  5
4B7
100
AcDbEntity
  8
0
100
AcDbSpline
 62
7
  6
CONTINUOUS
 70
0
 71
3
 72
10
 73
6
 74
0
 42
0.0000001
 43
0.0000001
 44
0.0000000001
 40
0.0
 40
0.0
 40
0.0
 40
0.0
 40
0.4944628817
 40
0.7455416338
 40
1.0
 40
1.0
 40
1.0
 40
1.0
 10
15.1867876238
 20
6.0326244574
 30
0.0
 10
15.1760756565
 20
6.0143209415
 30
0.0
 10
15.1638806263
 20
5.9843444354
 30
0.0
 10
15.1533398565
 20
5.9427713765
 30
0.0
 10
15.1495615786
 20
5.9213943091
 30
0.0
 10
15.1479719755
 20
5.910596897
 30
0.0
  0
SPLINE
  5
4B8
100
AcDbEntity
  8
0
100
AcDbSpline
 62
7
  6
CONTINUOUS
 70
0
 71
3
 72
14
 73
10
 74
0
 42
0.0000001
 43
0.0000001
 44
0.0000000001
 40
0.0
 40
0.0
 40
0.0
 40
0.0
 40
0.2340508326
 40
0.350953727
 40
0.469476859
 40
0.5917682943
 40
0.7203690785
 40
0.8570590735
 40
1.0
 40
1.0
 40
1.0
 40
1.0
 10
15.066254122
 20
5.0014622626
 30
0.0
 10
15.0670378507
 20
4.9923910595
 30
0.0
 10
15.0695534327
 20
4.9788043013
 30
0.0
 10
15.0764481475
 20
4.9618315972
 30
0.0
 10
15.0837091386
 20
4.9498763263
 30
0.0
 10
15.0934017544
 20
4.9391355003
 30
0.0
 10
15.1057709516
 20
4.9302839685
 30
0.0
 10
15.1206484787
 20
4.9242974866
 30
0.0
 10
15.1315803134
 20
4.922884333
 30
0.0
 10
15.1371409712
 20
4.922884333
 30
0.0
  0
SPLINE
  5
4B9
100
AcDbEntity
  8
0
100
AcDbSpline
 62
7
  6
CONTINUOUS
 70
0
 71
3
 72
9
 73
5
 74
0
 42
0.0000001
 43
0.0000001
 44
0.0000000001
 40
0.0
 40
0.0
 40
0.0
 40
0.0
 40
0.4621356688
 40
1.0
 40
1.0
 40
1.0
 40
1.0
 10
15.5454476182
 20
6.5154273906
 30
0.0
 10
15.5476874575
 20
6.5160074716
 30
0.0
 10
15.5526549578
 20
6.5167825525
 30
0.0
 10
15.5576623767
 20
6.5170255842
 30
0.0
 10
15.5603552569
 20
6.5170255842
 30
0.0
  0
SPLINE
  5
4BA
100
AcDbEntity
  8
0
100
AcDbSpline
 62
7
  6
CONTINUOUS
 70
0
 71
3
 72
9
 73
5
 74
0
 42
0.0000001
 43
0.0000001
 44
0.0000000001
 40
0.0
 40
0.0
 40
0.0
 40
0.0
 40
0.253505941
 40
1.0
 40
1.0
 40
1.0
 40
1.0
 10
16.0608649551
 20
4.6829183255
 30
0.0
 10
16.0614108459
 20
4.6826915946
 30
0.0
 10
16.0635067523
 20
4.6816643528
 30
0.0
 10
16.0653417179
 20
4.6801073444
 30
0.0
 10
16.0664313133
 20
4.6787499527
 30
0.0
  0
SPLINE
  5
4BB
100
AcDbEntity
  8
0
100
AcDbSpline
 62
7
  6
CONTINUOUS
 70
0
 71
3
 72
19
 73
15
 74
0
 42
0.0000001
 43
0.0000001
 44
0.0000000001
 40
0.0
 40
0.0
 40
0.0
 40
0.0
 40
0.1775257178
 40
0.3523693821
 40
0.5233692206
 40
0.6853798948
 40
0.760598416
 40
0.8299809971
 40
0.8905419276
 40
0.9390520074
 40
0.9724043411
 40
0.9907644257
 40
0.9972363521
 40
1.0
 40
1.0
 40
1.0
 40
1.0
 10
16.0664313133
 20
4.6787499527
 30
0.0
 10
16.0666930177
 20
4.6784239275
 30
0.0
 10
16.0671830952
 20
4.6777526082
 30
0.0
 10
16.0678178041
 20
4.6766941472
 30
0.0
 10
16.0683361684
 20
4.675614483
 30
0.0
 10
16.0686783312
 20
4.6747150852
 30
0.0
 10
16.0688905812
 20
4.6740240758
 30
0.0
 10
16.0690124666
 20
4.6735580685
 30
0.0
 10
16.0691059693
 20
4.6731433115
 30
0.0
 10
16.0691728975
 20
4.6728278637
 30
0.0
 10
16.0692188535
 20
4.6725676443
 30
0.0
 10
16.0692454891
 20
4.6724801662
 30
0.0
 10
16.0692622082
 20
4.6723636923
 30
0.0
 10
16.069273235
 20
4.6723937374
 30
0.0
 10
16.0692740381
 20
4.672400196
 30
0.0
  0
LINE
  5
4BC
100
AcDbEntity
  8
0
100
AcDbLine
 62
7
  6
CONTINUOUS
 10
16.0692740381
 20
4.672400196
 11
16.0692838284
 21
4.672799396
  0
SPLINE
  5
4BD
100
AcDbEntity
  8
0
100
AcDbSpline
 62
7
  6
CONTINUOUS
 70
0
 71
3
 72
11
 73
7
 74
0
 42
0.0000001
 43
0.0000001
 44
0.0000000001
 40
0.0
 40
0.0
 40
0.0
 40
0.0
 40
0.253547626
 40
0.5045718722
 40
0.7531202673
 40
1.0
 40
1.0
 40
1.0
 40
1.0
 10
15.796466368
 20
6.0312410335
 30
0.0
 10
15.7912403864
 20
6.0342582555
 30
0.0
 10
15.7806111724
 20
6.039883423
 30
0.0
 10
15.7639562913
 20
6.0466191625
 30
0.0
 10
15.7466900649
 20
6.0510534802
 30
0.0
 10
15.7348771903
 20
6.0521147541
 30
0.0
 10
15.7290014426
 20
6.0521147541
 30
0.0
  0
SPLINE
  5
4BE
100
AcDbEntity
  8
0
100
AcDbSpline
 62
7
  6
CONTINUOUS
 70
0
 71
3
 72
11
 73
7
 74
0
 42
0.0000001
 43
0.0000001
 44
0.0000000001
 40
0.0
 40
0.0
 40
0.0
 40
0.0
 40
0.2468812378
 40
0.4954231094
 40
0.7464543853
 40
1.0
 40
1.0
 40
1.0
 40
1.0
 10
15.7290014426
 20
6.0521147541
 30
0.0
 10
15.7231255052
 20
6.0521147541
 30
0.0
 10
15.7113116224
 20
6.0510637516
 30
0.0
 10
15.6940449296
 20
6.0466250755
 30
0.0
 10
15.6773928925
 20
6.0398821609
 30
0.0
 10
15.6667625942
 20
6.0342583105
 30
0.0
 10
15.6615365172
 20
6.0312410335
 30
0.0
  0
SPLINE
  5
4BF
100
AcDbEntity
  8
0
100
AcDbSpline
 62
7
  6
CONTINUOUS
 70
0
 71
3
 72
11
 73
7
 74
0
 42
0.0000001
 43
0.0000001
 44
0.0000000001
 40
0.0
 40
0.0
 40
0.0
 40
0.0
 40
0.253547626
 40
0.5045718722
 40
0.7531202673
 40
1.0
 40
1.0
 40
1.0
 40
1.0
 10
15.9313962189
 20
6.0312410335
 30
0.0
 10
15.9261702372
 20
6.0342582555
 30
0.0
 10
15.9155410233
 20
6.039883423
 30
0.0
 10
15.8988861421
 20
6.0466191625
 30
0.0
 10
15.8816199157
 20
6.0510534802
 30
0.0
 10
15.8698070412
 20
6.0521147541
 30
0.0
 10
15.8639312935
 20
6.0521147541
 30
0.0
  0
SPLINE
  5
4C0
100
AcDbEntity
  8
0
100
AcDbSpline
 62
7
  6
CONTINUOUS
 70
0
 71
3
 72
9
 73
5
 74
0
 42
0.0000001
 43
0.0000001
 44
0.0000000001
 40
0.0
 40
0.0
 40
0.0
 40
0.0
 40
0.5378643312
 40
1.0
 40
1.0
 40
1.0
 40
1.0
 10
15.5603552569
 20
6.5170255842
 30
0.0
 10
15.5630481371
 20
6.5170255842
 30
0.0
 10
15.5680555561
 20
6.5167825525
 30
0.0
 10
15.5730230564
 20
6.5160074716
 30
0.0
 10
15.5752628956
 20
6.5154273906
 30
0.0
  0
SPLINE
  5
4C1
100
AcDbEntity
  8
0
100
AcDbSpline
 62
7
  6
CONTINUOUS
 70
0
 71
3
 72
11
 73
7
 74
0
 42
0.0000001
 43
0.0000001
 44
0.0000000001
 40
0.0
 40
0.0
 40
0.0
 40
0.0
 40
0.2468812378
 40
0.4954231094
 40
0.7464543853
 40
1.0
 40
1.0
 40
1.0
 40
1.0
 10
15.8639312935
 20
6.0521147541
 30
0.0
 10
15.8580553561
 20
6.0521147541
 30
0.0
 10
15.8462414732
 20
6.0510637516
 30
0.0
 10
15.8289747804
 20
6.0466250755
 30
0.0
 10
15.8123227433
 20
6.0398821609
 30
0.0
 10
15.8016924451
 20
6.0342583105
 30
0.0
 10
15.796466368
 20
6.0312410335
 30
0.0
  0
SPLINE
  5
4C2
100
AcDbEntity
  8
0
100
AcDbSpline
 62
7
  6
CONTINUOUS
 70
0
 71
3
 72
10
 73
6
 74
0
 42
0.0000001
 43
0.0000001
 44
0.0000000001
 40
0.0
 40
0.0
 40
0.0
 40
0.0
 40
0.2544520635
 40
0.505530272
 40
1.0
 40
1.0
 40
1.0
 40
1.0
 10
15.6201941977
 20
5.910596897
 30
0.0
 10
15.6217841573
 20
5.9213967303
 30
0.0
 10
15.6255634295
 20
5.9427788442
 30
0.0
 10
15.63610988
 20
5.9843615198
 30
0.0
 10
15.6483104157
 20
6.0143448092
 30
0.0
 10
15.6590267853
 20
6.0326522079
 30
0.0
  0
SPLINE
  5
4C3
100
AcDbEntity
  8
0
100
AcDbSpline
 62
7
  6
CONTINUOUS
 70
0
 71
3
 72
15
 73
11
 74
0
 42
0.0000001
 43
0.0000001
 44
0.0000000001
 40
0.0
 40
0.0
 40
0.0
 40
0.0
 40
0.1180070098
 40
0.2400576364
 40
0.3677631186
 40
0.5000201639
 40
0.6322624422
 40
0.7599544723
 40
0.881995907
 40
1.0
 40
1.0
 40
1.0
 40
1.0
 10
15.6721058173
 20
6.0523614915
 30
0.0
 10
15.6789648321
 20
6.0614856285
 30
0.0
 10
15.6946302458
 20
6.0788532716
 30
0.0
 10
15.7237214663
 20
6.0998389416
 30
0.0
 10
15.758323657
 20
6.1138740512
 30
0.0
 10
15.7963661688
 20
6.1188508382
 30
0.0
 10
15.8344129666
 20
6.1139224043
 30
0.0
 10
15.8690321185
 20
6.0999386712
 30
0.0
 10
15.8981478404
 20
6.0789908527
 30
0.0
 10
15.9138347372
 20
6.0616439167
 30
0.0
 10
15.9207033903
 20
6.0525273865
 30
0.0
  0
SPLINE
  5
4C4
100
AcDbEntity
  8
0
100
AcDbSpline
 62
7
  6
CONTINUOUS
 70
0
 71
3
 72
10
 73
6
 74
0
 42
0.0000001
 43
0.0000001
 44
0.0000000001
 40
0.0
 40
0.0
 40
0.0
 40
0.0
 40
0.494461066
 40
0.7455389608
 40
1.0
 40
1.0
 40
1.0
 40
1.0
 10
15.9339256299
 20
6.0326208427
 30
0.0
 10
15.9446378135
 20
6.0143183698
 30
0.0
 10
15.9568316544
 20
5.984342409
 30
0.0
 10
15.9673702998
 20
5.9427703867
 30
0.0
 10
15.971148972
 20
5.9213940595
 30
0.0
 10
15.9727385384
 20
5.910596897
 30
0.0
  0
SPLINE
  5
4C5
100
AcDbEntity
  8
0
100
AcDbSpline
 62
7
  6
CONTINUOUS
 70
0
 71
3
 72
12
 73
8
 74
0
 42
0.0000001
 43
0.0000001
 44
0.0000000001
 40
0.0
 40
0.0
 40
0.0
 40
0.0
 40
0.1364994296
 40
0.2714798654
 40
0.5316429769
 40
0.7752867753
 40
1.0
 40
1.0
 40
1.0
 40
1.0
 10
15.2299981141
 20
4.922884333
 30
0.0
 10
15.2217245781
 20
4.922884333
 30
0.0
 10
15.2052513498
 20
4.9218737178
 30
0.0
 10
15.1734882378
 20
4.916093899
 30
0.0
 10
15.1367678498
 20
4.9029136953
 30
0.0
 10
15.0983837084
 20
4.8807416041
 30
0.0
 10
15.0760504034
 20
4.8630441548
 30
0.0
 10
15.0659918222
 20
4.8538605027
 30
0.0
  0
SPLINE
  5
4C6
100
AcDbEntity
  8
0
100
AcDbSpline
 62
7
  6
CONTINUOUS
 70
0
 71
3
 72
18
 73
14
 74
0
 42
0.0000001
 43
0.0000001
 44
0.0000000001
 40
0.0
 40
0.0
 40
0.0
 40
0.0
 40
0.0795248185
 40
0.1244972009
 40
0.1731597171
 40
0.2254968031
 40
0.2814009482
 40
0.4032230973
 40
0.5374321973
 40
0.682873539
 40
0.8380910367
 40
0.9185759557
 40
1.0
 40
1.0
 40
1.0
 40
1.0
 10
15.454700495
 20
4.7511225469
 30
0.0
 10
15.454700495
 20
4.75918104
 30
0.0
 10
15.4521009419
 20
4.7718120363
 30
0.0
 10
15.4454741455
 20
4.7880576529
 30
0.0
 10
15.4384650768
 20
4.801119891
 30
0.0
 10
15.4297164797
 20
4.8144152082
 30
0.0
 10
15.4154045765
 20
4.8328435565
 30
0.0
 10
15.393341645
 20
4.8556282699
 30
0.0
 10
15.3613273183
 20
4.8809297782
 30
0.0
 10
15.3229906583
 20
4.9030196271
 30
0.0
 10
15.2863521272
 20
4.9161311449
 30
0.0
 10
15.2546740271
 20
4.9218821071
 30
0.0
 10
15.2382490616
 20
4.922884333
 30
0.0
 10
15.2299981141
 20
4.922884333
 30
0.0
  0
SPLINE
  5
4C7
100
AcDbEntity
  8
0
100
AcDbSpline
 62
7
  6
CONTINUOUS
 70
0
 71
3
 72
12
 73
8
 74
0
 42
0.0000001
 43
0.0000001
 44
0.0000000001
 40
0.0
 40
0.0
 40
0.0
 40
0.0
 40
0.2247153328
 40
0.4683582064
 40
0.7285206042
 40
0.8635002622
 40
1.0
 40
1.0
 40
1.0
 40
1.0
 10
16.0547186916
 20
4.8538605027
 30
0.0
 10
16.0446600082
 20
4.8630442482
 30
0.0
 10
16.0223268603
 20
4.8807420682
 30
0.0
 10
15.983942366
 20
4.9029137182
 30
0.0
 10
15.9472222569
 20
4.9160941319
 30
0.0
 10
15.9154592092
 20
4.9218743118
 30
0.0
 10
15.8989859609
 20
4.922884333
 30
0.0
 10
15.8907123998
 20
4.922884333
 30
0.0
  0
SPLINE
  5
4C8
100
AcDbEntity
  8
0
100
AcDbSpline
 62
7
  6
CONTINUOUS
 70
0
 71
3
 72
9
 73
5
 74
0
 42
0.0000001
 43
0.0000001
 44
0.0000000001
 40
0.0
 40
0.0
 40
0.0
 40
0.0
 40
0.2489269808
 40
1.0
 40
1.0
 40
1.0
 40
1.0
 10
15.066254122
 20
5.0014622626
 30
0.0
 10
15.0661623202
 20
5.0025246695
 30
0.0
 10
15.065842097
 20
5.0067967291
 30
0.0
 10
15.0657123998
 20
5.0110826219
 30
0.0
 10
15.0657123998
 20
5.0143001061
 30
0.0
  0
SPLINE
  5
4C9
100
AcDbEntity
  8
0
100
AcDbSpline
 62
7
  6
CONTINUOUS
 70
0
 71
3
 72
12
 73
8
 74
0
 42
0.0000001
 43
0.0000001
 44
0.0000000001
 40
0.0
 40
0.0
 40
0.0
 40
0.0
 40
0.1389520353
 40
0.2739335394
 40
0.5301915121
 40
0.7722719916
 40
1.0
 40
1.0
 40
1.0
 40
1.0
 10
15.051668711
 20
4.8215885596
 30
0.0
 10
15.0516716855
 20
4.8232581395
 30
0.0
 10
15.0520169681
 20
4.8265498753
 30
0.0
 10
15.0534569685
 20
4.8327624757
 30
0.0
 10
15.0561580771
 20
4.8399178923
 30
0.0
 10
15.0603933514
 20
4.8475679099
 30
0.0
 10
15.0639736309
 20
4.852012776
 30
0.0
 10
15.0659918222
 20
4.8538605027
 30
0.0
  0
SPLINE
  5
4CA
100
AcDbEntity
  8
0
100
AcDbSpline
 62
7
  6
CONTINUOUS
 70
0
 71
3
 72
18
 73
14
 74
0
 42
0.0000001
 43
0.0000001
 44
0.0000000001
 40
0.0
 40
0.0
 40
0.0
 40
0.0
 40
0.0814240414
 40
0.1619089638
 40
0.3171264654
 40
0.4625678023
 40
0.5967769026
 40
0.7185990519
 40
0.774503197
 40
0.8268402836
 40
0.8755028003
 40
0.9204751819
 40
1.0
 40
1.0
 40
1.0
 40
1.0
 10
15.8907123998
 20
4.922884333
 30
0.0
 10
15.8824614526
 20
4.922884333
 30
0.0
 10
15.866036487
 20
4.921882107
 30
0.0
 10
15.8343583865
 20
4.9161311449
 30
0.0
 10
15.7977198551
 20
4.9030196269
 30
0.0
 10
15.7593831953
 20
4.8809297779
 30
0.0
 10
15.7273688689
 20
4.8556282699
 30
0.0
 10
15.7053059373
 20
4.8328435565
 30
0.0
 10
15.6909940341
 20
4.8144152081
 30
0.0
 10
15.6822454369
 20
4.8011198908
 30
0.0
 10
15.6752363683
 20
4.7880576526
 30
0.0
 10
15.6686095719
 20
4.7718120361
 30
0.0
 10
15.6660100188
 20
4.75918104
 30
0.0
 10
15.6660100188
 20
4.7511225469
 30
0.0
  0
SPLINE
  5
4CB
100
AcDbEntity
  8
0
100
AcDbSpline
 62
7
  6
CONTINUOUS
 70
0
 71
3
 72
12
 73
8
 74
0
 42
0.0000001
 43
0.0000001
 44
0.0000000001
 40
0.0
 40
0.0
 40
0.0
 40
0.0
 40
0.2277259887
 40
0.4698050005
 40
0.7260631028
 40
0.8610473814
 40
1.0
 40
1.0
 40
1.0
 40
1.0
 10
16.0547186916
 20
4.8538605027
 30
0.0
 10
16.056736866
 20
4.8520127916
 30
0.0
 10
16.0603171388
 20
4.8475679748
 30
0.0
 10
16.0645523936
 20
4.8399179734
 30
0.0
 10
16.0672534376
 20
4.8327625378
 30
0.0
 10
16.0686937411
 20
4.8265499479
 30
0.0
 10
16.0690388283
 20
4.8232581473
 30
0.0
 10
16.0690418029
 20
4.8215885596
 30
0.0
  0
SPLINE
  5
4CC
100
AcDbEntity
  8
0
100
AcDbSpline
 62
7
  6
CONTINUOUS
 70
0
 71
3
 72
9
 73
5
 74
0
 42
0.0000001
 43
0.0000001
 44
0.0000000001
 40
0.0
 40
0.0
 40
0.0
 40
0.0
 40
0.2558407667
 40
1.0
 40
1.0
 40
1.0
 40
1.0
 10
13.9077682107
 20
12.6497175292
 30
0.0
 10
13.9074473695
 20
12.6476399359
 30
0.0
 10
13.9064355886
 20
12.6394846814
 30
0.0
 10
13.90644066
 20
12.6311957682
 30
0.0
 10
13.9070782105
 20
12.6251144057
 30
0.0
  0
SPLINE
  5
4CD
100
AcDbEntity
  8
0
100
AcDbSpline
 62
7
  6
CONTINUOUS
 70
0
 71
3
 72
9
 73
5
 74
0
 42
0.0000001
 43
0.0000001
 44
0.0000000001
 40
0.0
 40
0.0
 40
0.0
 40
0.0
 40
0.485274256
 40
1.0
 40
1.0
 40
1.0
 40
1.0
 10
14.8380114354
 20
11.4287848753
 30
0.0
 10
14.8374539134
 20
11.426980876
 30
0.0
 10
14.8368917673
 20
11.4230596759
 30
0.0
 10
14.8375029763
 20
11.4191631995
 30
0.0
 10
14.838040589
 20
11.4172339247
 30
0.0
  0
SPLINE
  5
4CE
100
AcDbEntity
  8
0
100
AcDbSpline
 62
7
  6
CONTINUOUS
 70
0
 71
3
 72
9
 73
5
 74
0
 42
0.0000001
 43
0.0000001
 44
0.0000000001
 40
0.0
 40
0.0
 40
0.0
 40
0.0
 40
0.2430713235
 40
1.0
 40
1.0
 40
1.0
 40
1.0
 10
14.838040589
 20
11.4172339247
 30
0.0
 10
14.8381548358
 20
11.416823939
 30
0.0
 10
14.8386669127
 20
11.4151491004
 30
0.0
 10
14.8393416244
 20
11.4135252652
 30
0.0
 10
14.8399254958
 20
11.4123354603
 30
0.0
  0
SPLINE
  5
4CF
100
AcDbEntity
  8
0
100
AcDbSpline
 62
7
  6
CONTINUOUS
 70
0
 71
3
 72
9
 73
5
 74
0
 42
0.0000001
 43
0.0000001
 44
0.0000000001
 40
0.0
 40
0.0
 40
0.0
 40
0.0
 40
0.489397526
 40
1.0
 40
1.0
 40
1.0
 40
1.0
 10
16.173194841
 20
13.1041773379
 30
0.0
 10
16.1694693426
 20
13.1117725043
 30
0.0
 10
16.1593171891
 20
13.1261552419
 30
0.0
 10
16.1453785286
 20
13.1368119454
 30
0.0
 10
16.1377397572
 20
13.1412336113
 30
0.0
  0
SPLINE
  5
4D0
100
AcDbEntity
  8
0
100
AcDbSpline
 62
7
  6
CONTINUOUS
 70
0
 71
3
 72
11
 73
7
 74
0
 42
0.0000001
 43
0.0000001
 44
0.0000000001
 40
0.0
 40
0.0
 40
0.0
 40
0.0
 40
0.2069738724
 40
0.4397900137
 40
0.7044771537
 40
1.0
 40
1.0
 40
1.0
 40
1.0
 10
14.841519491
 20
11.4383780552
 30
0.0
 10
14.8427979784
 20
11.440531909
 30
0.0
 10
14.8464433464
 20
11.4445831403
 30
0.0
 10
14.8539018792
 20
11.4489076892
 30
0.0
 10
14.863159681
 20
11.4516816814
 30
0.0
 10
14.8699372329
 20
11.4524025689
 30
0.0
 10
14.8735115436
 20
11.4525219809
 30
0.0
  0
SPLINE
  5
4D1
100
AcDbEntity
  8
0
100
AcDbSpline
 62
7
  6
CONTINUOUS
 70
0
 71
3
 72
13
 73
9
 74
0
 42
0.0000001
 43
0.0000001
 44
0.0000000001
 40
0.0
 40
0.0
 40
0.0
 40
0.0
 40
0.2641042304
 40
0.5356617241
 40
0.6657705083
 40
0.787832325
 40
0.8997034795
 40
1.0
 40
1.0
 40
1.0
 40
1.0
 10
14.8757732087
 20
11.4525625341
 30
0.0
 10
14.8828175783
 20
11.4525813403
 30
0.0
 10
14.8971353003
 20
11.4506758603
 30
0.0
 10
14.9139599943
 20
11.444540548
 30
0.0
 10
14.9260731228
 20
11.4375194894
 30
0.0
 10
14.9337953937
 20
11.4315776207
 30
0.0
 10
14.9399817421
 20
11.4251087404
 30
0.0
 10
14.9431085175
 20
11.4203322528
 30
0.0
 10
14.9442870517
 20
11.4179306525
 30
0.0
  0
LINE
  5
4D2
100
AcDbEntity
  8
0
100
AcDbLine
 62
7
  6
CONTINUOUS
 10
14.484181509
 20
11.3755322216
 11
14.4851765394
 21
11.3745454678
  0
SPLINE
  5
4D3
100
AcDbEntity
  8
0
100
AcDbSpline
 62
7
  6
CONTINUOUS
 70
0
 71
3
 72
9
 73
5
 74
0
 42
0.0000001
 43
0.0000001
 44
0.0000000001
 40
0.0
 40
0.0
 40
0.0
 40
0.0
 40
0.4907404513
 40
1.0
 40
1.0
 40
1.0
 40
1.0
 10
14.4851765394
 20
11.3745454678
 30
0.0
 10
14.4871237104
 20
11.3727898554
 30
0.0
 10
14.4919270438
 20
11.3701505308
 30
0.0
 10
14.4972730943
 20
11.3690898693
 30
0.0
 10
14.4999937966
 20
11.3690898693
 30
0.0
  0
SPLINE
  5
4D4
100
AcDbEntity
  8
0
100
AcDbSpline
 62
7
  6
CONTINUOUS
 70
0
 71
3
 72
11
 73
7
 74
0
 42
0.0000001
 43
0.0000001
 44
0.0000000001
 40
0.0
 40
0.0
 40
0.0
 40
0.0
 40
0.2899006405
 40
0.549004655
 40
0.782199974
 40
1.0
 40
1.0
 40
1.0
 40
1.0
 10
16.1961968289
 20
11.3722082322
 30
0.0
 10
16.1975729241
 20
11.3725312907
 30
0.0
 10
16.2001391013
 20
11.3733527137
 30
0.0
 10
16.2034849756
 20
11.3752519479
 30
0.0
 10
16.205988818
 20
11.3777103635
 30
0.0
 10
16.2070147153
 20
11.3797101233
 30
0.0
 10
16.2073282437
 20
11.380724743
 30
0.0
  0
SPLINE
  5
4D5
100
AcDbEntity
  8
0
100
AcDbSpline
 62
7
  6
CONTINUOUS
 70
0
 71
3
 72
10
 73
6
 74
0
 42
0.0000001
 43
0.0000001
 44
0.0000000001
 40
0.0
 40
0.0
 40
0.0
 40
0.0
 40
0.2415607322
 40
0.4869067399
 40
1.0
 40
1.0
 40
1.0
 40
1.0
 10
14.0337827604
 20
11.8512591236
 30
0.0
 10
14.0347842635
 20
11.8492176436
 30
0.0
 10
14.0364283269
 20
11.8449052429
 30
0.0
 10
14.0381451567
 20
11.8356112415
 30
0.0
 10
14.0375545745
 20
11.8283291179
 30
0.0
 10
14.0364782478
 20
11.8236206231
 30
0.0
  0
SPLINE
  5
4D6
100
AcDbEntity
  8
0
100
AcDbSpline
 62
7
  6
CONTINUOUS
 70
0
 71
3
 72
10
 73
6
 74
0
 42
0.0000001
 43
0.0000001
 44
0.0000000001
 40
0.0
 40
0.0
 40
0.0
 40
0.0
 40
0.2515065627
 40
0.5071265204
 40
1.0
 40
1.0
 40
1.0
 40
1.0
 10
14.0148145538
 20
11.7887612732
 30
0.0
 10
14.0105796411
 20
11.7848853514
 30
0.0
 10
14.0012594411
 20
11.7778764979
 30
0.0
 10
13.9808496057
 20
11.7675393764
 30
0.0
 10
13.9636197511
 20
11.7638402991
 30
0.0
 10
13.9523695149
 20
11.7638402991
 30
0.0
  0
SPLINE
  5
4D7
100
AcDbEntity
  8
0
100
AcDbSpline
 62
7
  6
CONTINUOUS
 70
0
 71
3
 72
15
 73
11
 74
0
 42
0.0000001
 43
0.0000001
 44
0.0000000001
 40
0.0
 40
0.0
 40
0.0
 40
0.0
 40
0.0505974183
 40
0.102026979
 40
0.2097867412
 40
0.3273637831
 40
0.4551263822
 40
0.5907490386
 40
0.7301715433
 40
1.0
 40
1.0
 40
1.0
 40
1.0
 10
16.9614409199
 20
11.8512591236
 30
0.0
 10
16.9624675072
 20
11.8491665115
 30
0.0
 10
16.9641436257
 20
11.8447399893
 30
0.0
 10
16.9658420476
 20
11.8351783204
 30
0.0
 10
16.9646196772
 20
11.8222279909
 30
0.0
 10
16.9582568112
 20
11.8070456346
 30
0.0
 10
16.9476096222
 20
11.7929024547
 30
0.0
 10
16.9334251467
 20
11.7807177863
 30
0.0
 10
16.9114943275
 20
11.7683417045
 30
0.0
 10
16.8924578
 20
11.7638402991
 30
0.0
 10
16.8800276744
 20
11.7638402991
 30
0.0
  0
SPLINE
  5
4D8
100
AcDbEntity
  8
0
100
AcDbSpline
 62
7
  6
CONTINUOUS
 70
0
 71
3
 72
9
 73
5
 74
0
 42
0.0000001
 43
0.0000001
 44
0.0000000001
 40
0.0
 40
0.0
 40
0.0
 40
0.0
 40
0.2573705801
 40
1.0
 40
1.0
 40
1.0
 40
1.0
 10
14.9442870517
 20
11.4179306525
 30
0.0
 10
14.9444858159
 20
11.4175256138
 30
0.0
 10
14.9452244732
 20
11.4159357448
 30
0.0
 10
14.9458245381
 20
11.4142801773
 30
0.0
 10
14.9461736929
 20
11.4130260153
 30
0.0
  0
SPLINE
  5
4D9
100
AcDbEntity
  8
0
100
AcDbSpline
 62
7
  6
CONTINUOUS
 70
0
 71
3
 72
9
 73
5
 74
0
 42
0.0000001
 43
0.0000001
 44
0.0000000001
 40
0.0
 40
0.0
 40
0.0
 40
0.0
 40
0.2578907914
 40
1.0
 40
1.0
 40
1.0
 40
1.0
 10
14.9461736929
 20
11.4130260153
 30
0.0
 10
14.9463111476
 20
11.4125322789
 30
0.0
 10
14.9467866219
 20
11.410602634
 30
0.0
 10
14.9470201474
 20
11.4086101171
 30
0.0
 10
14.9470277958
 20
11.4071353248
 30
0.0
  0
SPLINE
  5
4DA
100
AcDbEntity
  8
0
100
AcDbSpline
 62
7
  6
CONTINUOUS
 70
0
 71
3
 72
9
 73
5
 74
0
 42
0.0000001
 43
0.0000001
 44
0.0000000001
 40
0.0
 40
0.0
 40
0.0
 40
0.0
 40
0.2536917946
 40
1.0
 40
1.0
 40
1.0
 40
1.0
 10
14.9470277958
 20
11.4071353248
 30
0.0
 10
14.947030016
 20
11.406707212
 30
0.0
 10
14.9469845036
 20
11.4050199072
 30
0.0
 10
14.946714179
 20
11.4033381043
 30
0.0
 10
14.9463863794
 20
11.4021220759
 30
0.0
  0
SPLINE
  5
4DB
100
AcDbEntity
  8
0
100
AcDbSpline
 62
7
  6
CONTINUOUS
 70
0
 71
3
 72
10
 73
6
 74
0
 42
0.0000001
 43
0.0000001
 44
0.0000000001
 40
0.0
 40
0.0
 40
0.0
 40
0.0
 40
0.5200866541
 40
0.7643198233
 40
1.0
 40
1.0
 40
1.0
 40
1.0
 10
15.4892918931
 20
12.0173402648
 30
0.0
 10
15.4971538111
 20
12.0013193603
 30
0.0
 10
15.5066184695
 20
11.9765803221
 30
0.0
 10
15.5131326822
 20
11.9428278179
 30
0.0
 10
15.5142342467
 20
11.9263413195
 30
0.0
 10
15.5142339435
 20
11.9182543121
 30
0.0
  0
SPLINE
  5
4DC
100
AcDbEntity
  8
0
100
AcDbSpline
 62
7
  6
CONTINUOUS
 70
0
 71
3
 72
15
 73
11
 74
0
 42
0.0000001
 43
0.0000001
 44
0.0000000001
 40
0.0
 40
0.0
 40
0.0
 40
0.0
 40
0.0505974183
 40
0.102026979
 40
0.2097867412
 40
0.3273637831
 40
0.4551263822
 40
0.5907490386
 40
0.7301715433
 40
1.0
 40
1.0
 40
1.0
 40
1.0
 10
17.1213775979
 20
12.3688144032
 30
0.0
 10
17.1224041852
 20
12.3667217911
 30
0.0
 10
17.1240803037
 20
12.3622952689
 30
0.0
 10
17.1257787256
 20
12.3527336
 30
0.0
 10
17.1245563552
 20
12.3397832705
 30
0.0
 10
17.1181934891
 20
12.3246009142
 30
0.0
 10
17.1075463002
 20
12.3104577343
 30
0.0
 10
17.0933618247
 20
12.2982730659
 30
0.0
 10
17.0714310055
 20
12.2858969841
 30
0.0
 10
17.052394478
 20
12.2813955786
 30
0.0
 10
17.0399643524
 20
12.2813955786
 30
0.0
  0
SPLINE
  5
4DD
100
AcDbEntity
  8
0
100
AcDbSpline
 62
7
  6
CONTINUOUS
 70
0
 71
3
 72
10
 73
6
 74
0
 42
0.0000001
 43
0.0000001
 44
0.0000000001
 40
0.0
 40
0.0
 40
0.0
 40
0.0
 40
0.2285686653
 40
0.4778620198
 40
1.0
 40
1.0
 40
1.0
 40
1.0
 10
15.9293049247
 20
12.1473429722
 30
0.0
 10
15.9296534175
 20
12.1484807038
 30
0.0
 10
15.930853337
 20
12.1507157347
 30
0.0
 10
15.9343597662
 20
12.154593701
 30
0.0
 10
15.9380000973
 20
12.1566490356
 30
0.0
 10
15.9405946524
 20
12.1574595358
 30
0.0
  0
SPLINE
  5
4DE
100
AcDbEntity
  8
0
100
AcDbSpline
 62
7
  6
CONTINUOUS
 70
0
 71
3
 72
9
 73
5
 74
0
 42
0.0000001
 43
0.0000001
 44
0.0000000001
 40
0.0
 40
0.0
 40
0.0
 40
0.0
 40
0.2571215484
 40
1.0
 40
1.0
 40
1.0
 40
1.0
 10
15.9405946524
 20
12.1574595358
 30
0.0
 10
15.9410300323
 20
12.157595542
 30
0.0
 10
15.9427419238
 20
12.158061663
 30
0.0
 10
15.9445233484
 20
12.1582833711
 30
0.0
 10
15.9458412003
 20
12.1582830042
 30
0.0
  0
LINE
  5
4DF
100
AcDbEntity
  8
0
100
AcDbLine
 62
7
  6
CONTINUOUS
 10
17.0957420094
 20
12.4716807295
 11
17.1013805838
 21
12.4714424935
  0
SPLINE
  5
4E0
100
AcDbEntity
  8
0
100
AcDbSpline
 62
7
  6
CONTINUOUS
 70
0
 71
3
 72
9
 73
5
 74
0
 42
0.0000001
 43
0.0000001
 44
0.0000000001
 40
0.0
 40
0.0
 40
0.0
 40
0.0
 40
0.5029951633
 40
1.0
 40
1.0
 40
1.0
 40
1.0
 10
17.2806585273
 20
12.4714424935
 30
0.0
 10
17.2829666349
 20
12.4714424935
 30
0.0
 10
17.2875759907
 20
12.470907723
 30
0.0
 10
17.2919021267
 20
12.4691868354
 30
0.0
 10
17.293878749
 20
12.4680492105
 30
0.0
  0
SPLINE
  5
4E1
100
AcDbEntity
  8
0
100
AcDbSpline
 62
7
  6
CONTINUOUS
 70
0
 71
3
 72
9
 73
5
 74
0
 42
0.0000001
 43
0.0000001
 44
0.0000000001
 40
0.0
 40
0.0
 40
0.0
 40
0.0
 40
0.500017207
 40
1.0
 40
1.0
 40
1.0
 40
1.0
 10
17.293878749
 20
12.4680492105
 30
0.0
 10
17.2957868829
 20
12.4669510034
 30
0.0
 10
17.2993174351
 20
12.4642056716
 30
0.0
 10
17.3018800816
 20
12.4605296376
 30
0.0
 10
17.3028499128
 20
12.4585533293
 30
0.0
  0
SPLINE
  5
4E2
100
AcDbEntity
  8
0
100
AcDbSpline
 62
7
  6
CONTINUOUS
 70
0
 71
3
 72
9
 73
5
 74
0
 42
0.0000001
 43
0.0000001
 44
0.0000000001
 40
0.0
 40
0.0
 40
0.0
 40
0.0
 40
0.4826373248
 40
1.0
 40
1.0
 40
1.0
 40
1.0
 10
17.3910940541
 20
12.2787303918
 30
0.0
 10
17.3920040804
 20
12.2768763888
 30
0.0
 10
17.3930670718
 20
12.2725892417
 30
0.0
 10
17.3924143676
 20
12.2682587168
 30
0.0
 10
17.3917607197
 20
12.2661435111
 30
0.0
  0
SPLINE
  5
4E3
100
AcDbEntity
  8
0
100
AcDbSpline
 62
7
  6
CONTINUOUS
 70
0
 71
3
 72
9
 73
5
 74
0
 42
0.0000001
 43
0.0000001
 44
0.0000000001
 40
0.0
 40
0.0
 40
0.0
 40
0.0
 40
0.2444066843
 40
1.0
 40
1.0
 40
1.0
 40
1.0
 10
15.9452229983
 20
12.8885805513
 30
0.0
 10
15.9404970613
 20
12.8934749532
 30
0.0
 10
15.9212498684
 20
12.9135844131
 30
0.0
 10
15.9024862057
 20
12.9341737371
 30
0.0
 10
15.8888879964
 20
12.9502207892
 30
0.0
  0
SPLINE
  5
4E4
100
AcDbEntity
  8
0
100
AcDbSpline
 62
7
  6
CONTINUOUS
 70
0
 71
3
 72
10
 73
6
 74
0
 42
0.0000001
 43
0.0000001
 44
0.0000000001
 40
0.0
 40
0.0
 40
0.0
 40
0.0
 40
0.4963005584
 40
0.7481811836
 40
1.0
 40
1.0
 40
1.0
 40
1.0
 10
15.8888879964
 20
12.9502207892
 30
0.0
 10
15.8761886739
 20
12.9652070777
 30
0.0
 10
15.8577736323
 20
12.9884695439
 30
0.0
 10
15.8359572799
 20
13.021520719
 30
0.0
 10
15.8262580917
 20
13.038975656
 30
0.0
 10
15.8218684021
 20
13.0479238019
 30
0.0
  0
SPLINE
  5
4E5
100
AcDbEntity
  8
0
100
AcDbSpline
 62
7
  6
CONTINUOUS
 70
0
 71
3
 72
9
 73
5
 74
0
 42
0.0000001
 43
0.0000001
 44
0.0000000001
 40
0.0
 40
0.0
 40
0.0
 40
0.0
 40
0.4989909083
 40
1.0
 40
1.0
 40
1.0
 40
1.0
 10
13.5518576445
 20
11.6808261078
 30
0.0
 10
13.5506007399
 20
11.68338741
 30
0.0
 10
13.5491000444
 20
11.6890818051
 30
0.0
 10
13.5498544649
 20
11.6948939428
 30
0.0
 10
13.5507002369
 20
11.6976308619
 30
0.0
  0
SPLINE
  5
4E6
100
AcDbEntity
  8
0
100
AcDbSpline
 62
7
  6
CONTINUOUS
 70
0
 71
3
 72
9
 73
5
 74
0
 42
0.0000001
 43
0.0000001
 44
0.0000000001
 40
0.0
 40
0.0
 40
0.0
 40
0.0
 40
0.2476834883
 40
1.0
 40
1.0
 40
1.0
 40
1.0
 10
13.7832568119
 20
12.4501842144
 30
0.0
 10
13.7835691201
 20
12.4511948442
 30
0.0
 10
13.7850877804
 20
12.4551938587
 30
0.0
 10
13.7875723812
 20
12.458802795
 30
0.0
 10
13.7897826171
 20
12.4611346959
 30
0.0
  0
SPLINE
  5
4E7
100
AcDbEntity
  8
0
100
AcDbSpline
 62
7
  6
CONTINUOUS
 70
0
 71
3
 72
11
 73
7
 74
0
 42
0.0000001
 43
0.0000001
 44
0.0000000001
 40
0.0
 40
0.0
 40
0.0
 40
0.0
 40
0.2463011513
 40
0.4960968365
 40
0.7476021599
 40
1.0
 40
1.0
 40
1.0
 40
1.0
 10
16.6135850896
 20
12.3627112633
 30
0.0
 10
16.6227089598
 20
12.3441190679
 30
0.0
 10
16.6453999533
 20
12.3086868683
 30
0.0
 10
16.6891824597
 20
12.2630740846
 30
0.0
 10
16.7414020163
 20
12.2264523758
 30
0.0
 10
16.7807754035
 20
12.2097231173
 30
0.0
 10
16.8011340866
 20
12.2037285029
 30
0.0
  0
SPLINE
  5
4E8
100
AcDbEntity
  8
0
100
AcDbSpline
 62
7
  6
CONTINUOUS
 70
0
 71
3
 72
9
 73
5
 74
0
 42
0.0000001
 43
0.0000001
 44
0.0000000001
 40
0.0
 40
0.0
 40
0.0
 40
0.0
 40
0.5140823925
 40
1.0
 40
1.0
 40
1.0
 40
1.0
 10
16.7434483097
 20
12.569405412
 30
0.0
 10
16.7450411409
 20
12.5687259013
 30
0.0
 10
16.7480241167
 20
12.567158786
 30
0.0
 10
16.7505533394
 20
12.5647029081
 30
0.0
 10
16.7512806376
 20
12.5632365208
 30
0.0
  0
SPLINE
  5
4E9
100
AcDbEntity
  8
0
100
AcDbSpline
 62
7
  6
CONTINUOUS
 70
0
 71
3
 72
9
 73
5
 74
0
 42
0.0000001
 43
0.0000001
 44
0.0000000001
 40
0.0
 40
0.0
 40
0.0
 40
0.0
 40
0.2539628248
 40
1.0
 40
1.0
 40
1.0
 40
1.0
 10
16.7248488281
 20
12.5775195666
 30
0.0
 10
16.7127730998
 20
12.5829159683
 30
0.0
 10
16.6655457898
 20
12.6048745892
 30
0.0
 10
16.6196329945
 20
12.6296856458
 30
0.0
 10
16.5864148006
 20
12.6498404625
 30
0.0
  0
SPLINE
  5
4EA
100
AcDbEntity
  8
0
100
AcDbSpline
 62
7
  6
CONTINUOUS
 70
0
 71
3
 72
9
 73
5
 74
0
 42
0.0000001
 43
0.0000001
 44
0.0000000001
 40
0.0
 40
0.0
 40
0.0
 40
0.0
 40
0.2483672511
 40
1.0
 40
1.0
 40
1.0
 40
1.0
 10
16.4536476427
 20
11.8451558861
 30
0.0
 10
16.4556900755
 20
11.8409948595
 30
0.0
 10
16.4643454225
 20
11.8244553956
 30
0.0
 10
16.4746227604
 20
11.8087762725
 30
0.0
 10
16.4830751328
 20
11.7975810408
 30
0.0
  0
SPLINE
  5
4EB
100
AcDbEntity
  8
0
100
AcDbSpline
 62
7
  6
CONTINUOUS
 70
0
 71
3
 72
11
 73
7
 74
0
 42
0.0000001
 43
0.0000001
 44
0.0000000001
 40
0.0
 40
0.0
 40
0.0
 40
0.0
 40
0.2325059447
 40
0.4734253487
 40
0.7280281911
 40
1.0
 40
1.0
 40
1.0
 40
1.0
 10
14.1216411888
 20
11.9518939556
 30
0.0
 10
14.1254668762
 20
11.9676648046
 30
0.0
 10
14.1301090879
 20
12.0006220197
 30
0.0
 10
14.1276879769
 20
12.0516404983
 30
0.0
 10
14.1160106103
 20
12.1041576022
 30
0.0
 10
14.1026105528
 20
12.1385374304
 30
0.0
 10
14.0945885545
 20
12.1557419523
 30
0.0
  0
SPLINE
  5
4EC
100
AcDbEntity
  8
0
100
AcDbSpline
 62
7
  6
CONTINUOUS
 70
0
 71
3
 72
9
 73
5
 74
0
 42
0.0000001
 43
0.0000001
 44
0.0000000001
 40
0.0
 40
0.0
 40
0.0
 40
0.0
 40
0.5203379177
 40
1.0
 40
1.0
 40
1.0
 40
1.0
 10
14.5231498376
 20
12.6892325972
 30
0.0
 10
14.5238628963
 20
12.6915285513
 30
0.0
 10
14.5255512725
 20
12.6958506027
 30
0.0
 10
14.5278420414
 20
12.6998798483
 30
0.0
 10
14.5290522624
 20
12.7017364304
 30
0.0
  0
SPLINE
  5
4ED
100
AcDbEntity
  8
0
100
AcDbSpline
 62
7
  6
CONTINUOUS
 70
0
 71
3
 72
9
 73
5
 74
0
 42
0.0000001
 43
0.0000001
 44
0.0000000001
 40
0.0
 40
0.0
 40
0.0
 40
0.0
 40
0.2604598567
 40
1.0
 40
1.0
 40
1.0
 40
1.0
 10
14.5202359002
 20
12.6733447228
 30
0.0
 10
14.5203663092
 20
12.6747422833
 30
0.0
 10
14.5209517802
 20
12.680096892
 30
0.0
 10
14.5219677739
 20
12.6854265101
 30
0.0
 10
14.5231498376
 20
12.6892325972
 30
0.0
  0
SPLINE
  5
4EE
100
AcDbEntity
  8
0
100
AcDbSpline
 62
7
  6
CONTINUOUS
 70
0
 71
3
 72
9
 73
5
 74
0
 42
0.0000001
 43
0.0000001
 44
0.0000000001
 40
0.0
 40
0.0
 40
0.0
 40
0.0
 40
0.2482770959
 40
1.0
 40
1.0
 40
1.0
 40
1.0
 10
14.54250281
 20
12.7130537503
 30
0.0
 10
14.5433290122
 20
12.713585919
 30
0.0
 10
14.5467066261
 20
12.7156518513
 30
0.0
 10
14.5502613234
 20
12.7174207059
 30
0.0
 10
14.552987447
 20
12.7186132538
 30
0.0
  0
SPLINE
  5
4EF
100
AcDbEntity
  8
0
100
AcDbSpline
 62
7
  6
CONTINUOUS
 70
0
 71
3
 72
9
 73
5
 74
0
 42
0.0000001
 43
0.0000001
 44
0.0000000001
 40
0.0
 40
0.0
 40
0.0
 40
0.0
 40
0.4938347715
 40
1.0
 40
1.0
 40
1.0
 40
1.0
 10
14.5290536331
 20
12.7017387458
 30
0.0
 10
14.5310512872
 20
12.7038388775
 30
0.0
 10
14.5352874044
 20
12.7079182032
 30
0.0
 10
14.5400052246
 20
12.7114450197
 30
0.0
 10
14.54250281
 20
12.7130537503
 30
0.0
  0
SPLINE
  5
4F0
100
AcDbEntity
  8
0
100
AcDbSpline
 62
7
  6
CONTINUOUS
 70
0
 71
3
 72
9
 73
5
 74
0
 42
0.0000001
 43
0.0000001
 44
0.0000000001
 40
0.0
 40
0.0
 40
0.0
 40
0.0
 40
0.2285287964
 40
1.0
 40
1.0
 40
1.0
 40
1.0
 10
14.5679827623
 20
12.7181101274
 30
0.0
 10
14.5687172223
 20
12.7177915812
 30
0.0
 10
14.5719039177
 20
12.7163349502
 30
0.0
 10
14.5749986497
 20
12.7146851301
 30
0.0
 10
14.5773570699
 20
12.7133654053
 30
0.0
  0
SPLINE
  5
4F1
100
AcDbEntity
  8
0
100
AcDbSpline
 62
7
  6
CONTINUOUS
 70
0
 71
3
 72
9
 73
5
 74
0
 42
0.0000001
 43
0.0000001
 44
0.0000000001
 40
0.0
 40
0.0
 40
0.0
 40
0.0
 40
0.2120230049
 40
1.0
 40
1.0
 40
1.0
 40
1.0
 10
14.5589422496
 20
12.7209904326
 30
0.0
 10
14.5596026974
 20
12.7208695718
 30
0.0
 10
14.5626999245
 20
12.7202005827
 30
0.0
 10
14.5656935093
 20
12.7191030106
 30
0.0
 10
14.5679827623
 20
12.7181101274
 30
0.0
  0
SPLINE
  5
4F2
100
AcDbEntity
  8
0
100
AcDbSpline
 62
7
  6
CONTINUOUS
 70
0
 71
3
 72
9
 73
5
 74
0
 42
0.0000001
 43
0.0000001
 44
0.0000000001
 40
0.0
 40
0.0
 40
0.0
 40
0.0
 40
0.489397526
 40
1.0
 40
1.0
 40
1.0
 40
1.0
 10
16.0588857439
 20
12.734272964
 30
0.0
 10
16.0551602454
 20
12.7418681303
 30
0.0
 10
16.0450080919
 20
12.756250868
 30
0.0
 10
16.0310694315
 20
12.7669075714
 30
0.0
 10
16.02343066
 20
12.7713292373
 30
0.0
  0
SPLINE
  5
4F3
100
AcDbEntity
  8
0
100
AcDbSpline
 62
7
  6
CONTINUOUS
 70
0
 71
3
 72
25
 73
21
 74
0
 42
0.0000001
 43
0.0000001
 44
0.0000000001
 40
0.0
 40
0.0
 40
0.0
 40
0.0
 40
0.0543404532
 40
0.1139495359
 40
0.1785196041
 40
0.2473426342
 40
0.3194019772
 40
0.3934837665
 40
0.4682550363
 40
0.5423470985
 40
0.6144280894
 40
0.6832812421
 40
0.7478895667
 40
0.8075348903
 40
0.8619189218
 40
0.9113100986
 40
0.9344540492
 40
0.9567828002
 40
0.9785392774
 40
1.0
 40
1.0
 40
1.0
 40
1.0
 10
14.5593492395
 20
12.0173402648
 30
0.0
 10
14.5682132732
 20
11.9992772633
 30
0.0
 10
14.5907286473
 20
11.9632733748
 30
0.0
 10
14.6344727962
 20
11.9134305783
 30
0.0
 10
14.688576343
 20
11.8664465083
 30
0.0
 10
14.7515867858
 20
11.8235494079
 30
0.0
 10
14.8218455375
 20
11.7858561374
 30
0.0
 10
14.8974751231
 20
11.7543686244
 30
0.0
 10
14.9764526164
 20
11.7299304716
 30
0.0
 10
15.0566599957
 20
11.7131963948
 30
0.0
 10
15.1359504721
 20
11.7046147266
 30
0.0
 10
15.2122120109
 20
11.7044175741
 30
0.0
 10
15.2834290117
 20
11.7126182741
 30
0.0
 10
15.347751264
 20
11.729043439
 30
0.0
 10
15.4035000058
 20
11.7533255088
 30
0.0
 10
15.4424386871
 20
11.7803725537
 30
0.0
 10
15.467249715
 20
11.8053540441
 30
0.0
 10
15.4824181517
 20
11.8251875608
 30
0.0
 10
15.494425418
 20
11.8463662146
 30
0.0
 10
15.5002690843
 20
11.8613340674
 30
0.0
 10
15.5026145039
 20
11.8689263363
 30
0.0
  0
SPLINE
  5
4F4
100
AcDbEntity
  8
0
100
AcDbSpline
 62
7
  6
CONTINUOUS
 70
0
 71
3
 72
11
 73
7
 74
0
 42
0.0000001
 43
0.0000001
 44
0.0000000001
 40
0.0
 40
0.0
 40
0.0
 40
0.0
 40
0.2715167177
 40
0.525550595
 40
0.7663058159
 40
1.0
 40
1.0
 40
1.0
 40
1.0
 10
15.4458704462
 20
12.0173402648
 30
0.0
 10
15.4514462836
 20
12.0059779029
 30
0.0
 10
15.4606954678
 20
11.9831648013
 30
0.0
 10
15.4683657243
 20
11.9480786049
 30
0.0
 10
15.4691099789
 20
11.9139032099
 30
0.0
 10
15.4648834837
 20
11.891988041
 30
0.0
 10
15.4616681632
 20
11.8815797116
 30
0.0
  0
SPLINE
  5
4F5
100
AcDbEntity
  8
0
100
AcDbSpline
 62
7
  6
CONTINUOUS
 70
0
 71
3
 72
9
 73
5
 74
0
 42
0.0000001
 43
0.0000001
 44
0.0000000001
 40
0.0
 40
0.0
 40
0.0
 40
0.0
 40
0.5094947795
 40
1.0
 40
1.0
 40
1.0
 40
1.0
 10
15.9909868884
 20
12.8374426928
 30
0.0
 10
15.9780369338
 20
12.841191741
 30
0.0
 10
15.9523191248
 20
12.8475847041
 30
0.0
 10
15.9258464685
 20
12.8504180056
 30
0.0
 10
15.9128672335
 20
12.8504180056
 30
0.0
  0
SPLINE
  5
4F6
100
AcDbEntity
  8
0
100
AcDbSpline
 62
7
  6
CONTINUOUS
 70
0
 71
3
 72
11
 73
7
 74
0
 42
0.0000001
 43
0.0000001
 44
0.0000000001
 40
0.0
 40
0.0
 40
0.0
 40
0.0
 40
0.2354498848
 40
0.4771264479
 40
0.730620678
 40
1.0
 40
1.0
 40
1.0
 40
1.0
 10
14.5420792244
 20
12.1657541933
 30
0.0
 10
14.538798126
 20
12.1551330742
 30
0.0
 10
14.5343332935
 20
12.1328695692
 30
0.0
 10
14.5343633073
 20
12.0981719579
 30
0.0
 10
14.5409987173
 20
12.0625092342
 30
0.0
 10
14.549440319
 20
12.039192438
 30
0.0
 10
14.5545827597
 20
12.0275601399
 30
0.0
  0
SPLINE
  5
4F7
100
AcDbEntity
  8
0
100
AcDbSpline
 62
7
  6
CONTINUOUS
 70
0
 71
3
 72
9
 73
5
 74
0
 42
0.0000001
 43
0.0000001
 44
0.0000000001
 40
0.0
 40
0.0
 40
0.0
 40
0.0
 40
0.2475339981
 40
1.0
 40
1.0
 40
1.0
 40
1.0
 10
14.5606659083
 20
12.211444293
 30
0.0
 10
14.5617209763
 20
12.2132659776
 30
0.0
 10
14.5661167406
 20
12.2205474112
 30
0.0
 10
14.5710387688
 20
12.227509477
 30
0.0
 10
14.5749944974
 20
12.2325398023
 30
0.0
  0
SPLINE
  5
4F8
100
AcDbEntity
  8
0
100
AcDbSpline
 62
7
  6
CONTINUOUS
 70
0
 71
3
 72
9
 73
5
 74
0
 42
0.0000001
 43
0.0000001
 44
0.0000000001
 40
0.0
 40
0.0
 40
0.0
 40
0.0
 40
0.4044463011
 40
1.0
 40
1.0
 40
1.0
 40
1.0
 10
15.7430680269
 20
12.7317485097
 30
0.0
 10
15.7445320178
 20
12.7262782832
 30
0.0
 10
15.7486450484
 20
12.7128862064
 30
0.0
 10
15.7533533791
 20
12.6996974699
 30
0.0
 10
15.7562458298
 20
12.6918767309
 30
0.0
  0
SPLINE
  5
4F9
100
AcDbEntity
  8
0
100
AcDbSpline
 62
7
  6
CONTINUOUS
 70
0
 71
3
 72
10
 73
6
 74
0
 42
0.0000001
 43
0.0000001
 44
0.0000000001
 40
0.0
 40
0.0
 40
0.0
 40
0.0
 40
0.2449122383
 40
0.6211133583
 40
1.0
 40
1.0
 40
1.0
 40
1.0
 10
15.7889078028
 20
12.797570914
 30
0.0
 10
15.7842906443
 20
12.7928971582
 30
0.0
 10
15.7732053889
 20
12.7804165554
 30
0.0
 10
15.7577561771
 20
12.7584079135
 30
0.0
 10
15.7477804669
 20
12.7407536741
 30
0.0
 10
15.7430680269
 20
12.7317485097
 30
0.0
  0
SPLINE
  5
4FA
100
AcDbEntity
  8
0
100
AcDbSpline
 62
7
  6
CONTINUOUS
 70
0
 71
3
 72
9
 73
5
 74
0
 42
0.0000001
 43
0.0000001
 44
0.0000000001
 40
0.0
 40
0.0
 40
0.0
 40
0.0
 40
0.4675155292
 40
1.0
 40
1.0
 40
1.0
 40
1.0
 10
15.7562458298
 20
12.6918767309
 30
0.0
 10
15.7600699179
 20
12.6815369887
 30
0.0
 10
15.7685905306
 20
12.6595472773
 30
0.0
 10
15.7774167449
 20
12.6376808643
 30
0.0
 10
15.7821583502
 20
12.6260543266
 30
0.0
  0
SPLINE
  5
4FB
100
AcDbEntity
  8
0
100
AcDbSpline
 62
7
  6
CONTINUOUS
 70
0
 71
3
 72
9
 73
5
 74
0
 42
0.0000001
 43
0.0000001
 44
0.0000000001
 40
0.0
 40
0.0
 40
0.0
 40
0.0
 40
0.2558407667
 40
1.0
 40
1.0
 40
1.0
 40
1.0
 10
15.7718202223
 20
12.6497175292
 30
0.0
 10
15.7714993812
 20
12.6476399359
 30
0.0
 10
15.7704876003
 20
12.6394846814
 30
0.0
 10
15.7704926717
 20
12.6311957682
 30
0.0
 10
15.7711302221
 20
12.6251144057
 30
0.0
  0
SPLINE
  5
4FC
100
AcDbEntity
  8
0
100
AcDbSpline
 62
7
  6
CONTINUOUS
 70
0
 71
3
 72
25
 73
21
 74
0
 42
0.0000001
 43
0.0000001
 44
0.0000000001
 40
0.0
 40
0.0
 40
0.0
 40
0.0
 40
0.0214606713
 40
0.0432171666
 40
0.0655460029
 40
0.0886901008
 40
0.1380818539
 40
0.1924668008
 40
0.2521129767
 40
0.3167218058
 40
0.3855749706
 40
0.4576554274
 40
0.5317464569
 40
0.6065165005
 40
0.6805970398
 40
0.7526555897
 40
0.8214786597
 40
0.8860490443
 40
0.9456589869
 40
1.0
 40
1.0
 40
1.0
 40
1.0
 10
14.5830255651
 20
12.1531008179
 30
0.0
 10
14.585170989
 20
12.1600457799
 30
0.0
 10
14.5905166061
 20
12.1737374332
 30
0.0
 10
14.6015000475
 20
12.1931105203
 30
0.0
 10
14.6153753672
 20
12.2112531154
 30
0.0
 10
14.6380712622
 20
12.2341049343
 30
0.0
 10
14.6736906955
 20
12.2588461949
 30
0.0
 10
14.7246872369
 20
12.2810581874
 30
0.0
 10
14.783526362
 20
12.2960828757
 30
0.0
 10
14.8486720763
 20
12.3035841051
 30
0.0
 10
14.9184317339
 20
12.3034033999
 30
0.0
 10
14.9909615387
 20
12.2955531612
 30
0.0
 10
15.0643296683
 20
12.2802458233
 30
0.0
 10
15.136572566
 20
12.2578914739
 30
0.0
 10
15.2057531478
 20
12.2290889797
 30
0.0
 10
15.2700212545
 20
12.1946097467
 30
0.0
 10
15.3276595239
 20
12.1553701436
 30
0.0
 10
15.3771508614
 20
12.1123917906
 30
0.0
 10
15.4171659121
 20
12.0667980528
 30
0.0
 10
15.4377620549
 20
12.0338634291
 30
0.0
 10
15.4458704462
 20
12.0173402648
 30
0.0
  0
SPLINE
  5
4FD
100
AcDbEntity
  8
0
100
AcDbSpline
 62
7
  6
CONTINUOUS
 70
0
 71
3
 72
12
 73
8
 74
0
 42
0.0000001
 43
0.0000001
 44
0.0000000001
 40
0.0
 40
0.0
 40
0.0
 40
0.0
 40
0.2784251518
 40
0.5390339908
 40
0.7808512594
 40
0.8938332865
 40
1.0
 40
1.0
 40
1.0
 40
1.0
 10
14.0192904228
 20
11.7975810408
 30
0.0
 10
14.0175042117
 20
11.7950280855
 30
0.0
 10
14.0144430271
 20
11.7897974295
 30
0.0
 10
14.011045629
 20
11.7817340752
 30
0.0
 10
14.009308927
 20
11.7750040734
 30
0.0
 10
14.0090861884
 20
11.7698380948
 30
0.0
 10
14.0095920885
 20
11.7673695828
 30
0.0
 10
14.0101109837
 20
11.7663008007
 30
0.0
  0
SPLINE
  5
4FE
100
AcDbEntity
  8
0
100
AcDbSpline
 62
7
  6
CONTINUOUS
 70
0
 71
3
 72
9
 73
5
 74
0
 42
0.0000001
 43
0.0000001
 44
0.0000000001
 40
0.0
 40
0.0
 40
0.0
 40
0.0
 40
0.4941523077
 40
1.0
 40
1.0
 40
1.0
 40
1.0
 10
14.0192904228
 20
11.7975810408
 30
0.0
 10
14.0281974749
 20
11.8102864505
 30
0.0
 10
14.0450710185
 20
11.8368162552
 30
0.0
 10
14.0598922614
 20
11.8645307294
 30
0.0
 10
14.0669051681
 20
11.8787825212
 30
0.0
  0
SPLINE
  5
4FF
100
AcDbEntity
  8
0
100
AcDbSpline
 62
7
  6
CONTINUOUS
 70
0
 71
3
 72
21
 73
17
 74
0
 42
0.0000001
 43
0.0000001
 44
0.0000000001
 40
0.0
 40
0.0
 40
0.0
 40
0.0
 40
0.0069871412
 40
0.0163061384
 40
0.0282633972
 40
0.0431067111
 40
0.0820052376
 40
0.1335463851
 40
0.1967462066
 40
0.2691795842
 40
0.3475217553
 40
0.4284518105
 40
0.5886117243
 40
0.7384969712
 40
0.8753656283
 40
1.0
 40
1.0
 40
1.0
 40
1.0
 10
14.2888562701
 20
13.2103751779
 30
0.0
 10
14.2891690818
 20
13.2097363346
 30
0.0
 10
14.2896648664
 20
13.20813465
 30
0.0
 10
14.2900591682
 20
13.2052794085
 30
0.0
 10
14.2901588453
 20
13.2015972457
 30
0.0
 10
14.2897982429
 20
13.1949138385
 30
0.0
 10
14.2881880074
 20
13.1842953844
 30
0.0
 10
14.2846384479
 20
13.1690535432
 30
0.0
 10
14.2792367931
 20
13.1507705318
 30
0.0
 10
14.2721537711
 20
13.1301656939
 30
0.0
 10
14.2637674254
 20
13.1081151932
 30
0.0
 10
14.2515341077
 20
13.077982686
 30
0.0
 10
14.2358432226
 20
13.0414021679
 30
0.0
 10
14.2180328721
 20
12.9995343617
 30
0.0
 10
14.2026377761
 20
12.9605777857
 30
0.0
 10
14.1939700049
 20
12.9353900619
 30
0.0
 10
14.1902241899
 20
12.9232673406
 30
0.0
  0
SPLINE
  5
500
100
AcDbEntity
  8
0
100
AcDbSpline
 62
7
  6
CONTINUOUS
 70
0
 71
3
 72
10
 73
6
 74
0
 42
0.0000001
 43
0.0000001
 44
0.0000000001
 40
0.0
 40
0.0
 40
0.0
 40
0.0
 40
0.2517985009
 40
0.5036920934
 40
1.0
 40
1.0
 40
1.0
 40
1.0
 10
15.7075602615
 20
12.6780198251
 30
0.0
 10
15.7119515689
 20
12.6690706881
 30
0.0
 10
15.7216490187
 20
12.6516096654
 30
0.0
 10
15.7434753295
 20
12.6185532906
 30
0.0
 10
15.7618956217
 20
12.5952851764
 30
0.0
 10
15.7745976921
 20
12.580294618
 30
0.0
  0
SPLINE
  5
501
100
AcDbEntity
  8
0
100
AcDbSpline
 62
7
  6
CONTINUOUS
 70
0
 71
3
 72
9
 73
5
 74
0
 42
0.0000001
 43
0.0000001
 44
0.0000000001
 40
0.0
 40
0.0
 40
0.0
 40
0.0
 40
0.2554290722
 40
1.0
 40
1.0
 40
1.0
 40
1.0
 10
15.7745976921
 20
12.580294618
 30
0.0
 10
15.7791929619
 20
12.5748714342
 30
0.0
 10
15.7974508144
 20
12.5538659066
 30
0.0
 10
15.8165211002
 20
12.5335820366
 30
0.0
 10
15.8309139011
 20
12.5186761774
 30
0.0
  0
SPLINE
  5
502
100
AcDbEntity
  8
0
100
AcDbSpline
 62
7
  6
CONTINUOUS
 70
0
 71
3
 72
11
 73
7
 74
0
 42
0.0000001
 43
0.0000001
 44
0.0000000001
 40
0.0
 40
0.0
 40
0.0
 40
0.0
 40
0.2779312983
 40
0.5349658967
 40
0.7731389953
 40
1.0
 40
1.0
 40
1.0
 40
1.0
 10
13.7714468196
 20
11.7638402991
 30
0.0
 10
13.7663028048
 20
11.7638402991
 30
0.0
 10
13.7563576176
 20
11.7648255985
 30
0.0
 10
13.7427021949
 20
11.7695976626
 30
0.0
 10
13.7316353821
 20
11.7774378601
 30
0.0
 10
13.7264651702
 20
11.784556401
 30
0.0
 10
13.724614615
 20
11.7883253955
 30
0.0
  0
SPLINE
  5
503
100
AcDbEntity
  8
0
100
AcDbSpline
 62
7
  6
CONTINUOUS
 70
0
 71
3
 72
11
 73
7
 74
0
 42
0.0000001
 43
0.0000001
 44
0.0000000001
 40
0.0
 40
0.0
 40
0.0
 40
0.0
 40
0.2340543158
 40
0.475421792
 40
0.7298715142
 40
1.0
 40
1.0
 40
1.0
 40
1.0
 10
16.3178642236
 20
13.2002495025
 30
0.0
 10
16.3158739293
 20
13.2043052957
 30
0.0
 10
16.310385326
 20
13.2119074761
 30
0.0
 10
16.2987723325
 20
13.2202448173
 30
0.0
 10
16.2846870231
 20
13.2252509806
 30
0.0
 10
16.2745160843
 20
13.2262817532
 30
0.0
 10
16.2693019405
 20
13.2262817532
 30
0.0
  0
SPLINE
  5
504
100
AcDbEntity
  8
0
100
AcDbSpline
 62
7
  6
CONTINUOUS
 70
0
 71
3
 72
9
 73
5
 74
0
 42
0.0000001
 43
0.0000001
 44
0.0000000001
 40
0.0
 40
0.0
 40
0.0
 40
0.0
 40
0.2580975022
 40
1.0
 40
1.0
 40
1.0
 40
1.0
 10
13.8942810701
 20
12.1613320791
 30
0.0
 10
13.8949905438
 20
12.1613320791
 30
0.0
 10
13.8977389464
 20
12.161382131
 30
0.0
 10
13.9004853978
 20
12.1616365985
 30
0.0
 10
13.9024988225
 20
12.1619609658
 30
0.0
  0
SPLINE
  5
505
100
AcDbEntity
  8
0
100
AcDbSpline
 62
7
  6
CONTINUOUS
 70
0
 71
3
 72
11
 73
7
 74
0
 42
0.0000001
 43
0.0000001
 44
0.0000000001
 40
0.0
 40
0.0
 40
0.0
 40
0.0
 40
0.2779312983
 40
0.5349658967
 40
0.7731389953
 40
1.0
 40
1.0
 40
1.0
 40
1.0
 10
16.6991049792
 20
11.7638402991
 30
0.0
 10
16.6939609643
 20
11.7638402991
 30
0.0
 10
16.6840157772
 20
11.7648255985
 30
0.0
 10
16.6703603544
 20
11.7695976626
 30
0.0
 10
16.6592935416
 20
11.7774378601
 30
0.0
 10
16.6541233297
 20
11.784556401
 30
0.0
 10
16.6522727745
 20
11.7883253955
 30
0.0
  0
SPLINE
  5
506
100
AcDbEntity
  8
0
100
AcDbSpline
 62
7
  6
CONTINUOUS
 70
0
 71
3
 72
11
 73
7
 74
0
 42
0.0000001
 43
0.0000001
 44
0.0000000001
 40
0.0
 40
0.0
 40
0.0
 40
0.0
 40
0.2779312983
 40
0.5349658967
 40
0.7731389953
 40
1.0
 40
1.0
 40
1.0
 40
1.0
 10
16.8590416571
 20
12.2813955786
 30
0.0
 10
16.8538976422
 20
12.2813955786
 30
0.0
 10
16.8439524551
 20
12.2823808781
 30
0.0
 10
16.8302970324
 20
12.2871529422
 30
0.0
 10
16.8192302196
 20
12.2949931397
 30
0.0
 10
16.8140600077
 20
12.3021116805
 30
0.0
 10
16.8122094524
 20
12.3058806751
 30
0.0
  0
SPLINE
  5
507
100
AcDbEntity
  8
0
100
AcDbSpline
 62
7
  6
CONTINUOUS
 70
0
 71
3
 72
12
 73
8
 74
0
 42
0.0000001
 43
0.0000001
 44
0.0000000001
 40
0.0
 40
0.0
 40
0.0
 40
0.0
 40
0.1039186515
 40
0.2221380986
 40
0.4749473773
 40
0.7370985537
 40
1.0
 40
1.0
 40
1.0
 40
1.0
 10
16.5050088737
 20
11.7663008007
 30
0.0
 10
16.504423861
 20
11.7674889501
 30
0.0
 10
16.502982912
 20
11.7699320873
 30
0.0
 10
16.4996688261
 20
11.7749959118
 30
0.0
 10
16.4949840102
 20
11.781569768
 30
0.0
 10
16.4891041299
 20
11.7895501665
 30
0.0
 10
16.4850934401
 20
11.7949066934
 30
0.0
 10
16.4830751328
 20
11.7975810408
 30
0.0
  0
SPLINE
  5
508
100
AcDbEntity
  8
0
100
AcDbSpline
 62
7
  6
CONTINUOUS
 70
0
 71
3
 72
9
 73
5
 74
0
 42
0.0000001
 43
0.0000001
 44
0.0000000001
 40
0.0
 40
0.0
 40
0.0
 40
0.0
 40
0.2551331329
 40
1.0
 40
1.0
 40
1.0
 40
1.0
 10
16.9940269468
 20
12.1619609658
 30
0.0
 10
16.994773357
 20
12.1618571347
 30
0.0
 10
16.9977052603
 20
12.1614979789
 30
0.0
 10
17.0006617802
 20
12.1613320791
 30
0.0
 10
17.0028619248
 20
12.1613320791
 30
0.0
  0
SPLINE
  5
509
100
AcDbEntity
  8
0
100
AcDbSpline
 62
7
  6
CONTINUOUS
 70
0
 71
3
 72
9
 73
5
 74
0
 42
0.0000001
 43
0.0000001
 44
0.0000000001
 40
0.0
 40
0.0
 40
0.0
 40
0.0
 40
0.2521471419
 40
1.0
 40
1.0
 40
1.0
 40
1.0
 10
16.8011340866
 20
12.2037285029
 30
0.0
 10
16.8170548735
 20
12.1990406271
 30
0.0
 10
16.8805268769
 20
12.1815978924
 30
0.0
 10
16.9452718762
 20
12.168743152
 30
0.0
 10
16.9940269468
 20
12.1619609658
 30
0.0
  0
SPLINE
  5
50A
100
AcDbEntity
  8
0
100
AcDbSpline
 62
7
  6
CONTINUOUS
 70
0
 71
3
 72
25
 73
21
 74
0
 42
0.0000001
 43
0.0000001
 44
0.0000000001
 40
0.0
 40
0.0
 40
0.0
 40
0.0
 40
0.0662166284
 40
0.1354723256
 40
0.207024957
 40
0.2800311457
 40
0.3535872789
 40
0.4267675216
 40
0.4986611949
 40
0.5684106371
 40
0.6352512519
 40
0.6985556152
 40
0.7578835185
 40
0.8130396651
 40
0.8641376803
 40
0.9116597382
 40
0.9343729467
 40
0.956555011
 40
0.9783719529
 40
1.0
 40
1.0
 40
1.0
 40
1.0
 10
16.0526418704
 20
13.2317026175
 30
0.0
 10
16.0191071518
 20
13.2597374895
 30
0.0
 10
15.9474401345
 20
13.3135065384
 30
0.0
 10
15.8308883225
 20
13.385174491
 30
0.0
 10
15.7046458016
 20
13.448654724
 30
0.0
 10
15.5710626462
 20
13.5027728058
 30
0.0
 10
15.4326124586
 20
13.5465333903
 30
0.0
 10
15.2918673216
 20
13.5791232681
 30
0.0
 10
15.1514365236
 20
13.5999347557
 30
0.0
 10
15.0139126869
 20
13.60857409
 30
0.0
 10
14.8818157779
 20
13.6048640574
 30
0.0
 10
14.757539292
 20
13.5888338058
 30
0.0
 10
14.6433088695
 20
13.5607019869
 30
0.0
 10
14.541147689
 20
13.5208250592
 30
0.0
 10
14.4529324706
 20
13.4697138273
 30
0.0
 10
14.3915434114
 20
13.4173910026
 30
0.0
 10
14.351906934
 20
13.3708773174
 30
0.0
 10
14.3271633066
 20
13.3343309076
 30
0.0
 10
14.3071540858
 20
13.2958014135
 30
0.0
 10
14.2970255585
 20
13.2688844934
 30
0.0
 10
14.2928129946
 20
13.2552434524
 30
0.0
  0
SPLINE
  5
50B
100
AcDbEntity
  8
0
100
AcDbSpline
 62
7
  6
CONTINUOUS
 70
0
 71
3
 72
13
 73
9
 74
0
 42
0.0000001
 43
0.0000001
 44
0.0000000001
 40
0.0
 40
0.0
 40
0.0
 40
0.0
 40
0.2519779212
 40
0.3817739914
 40
0.5116878743
 40
0.6399094566
 40
0.764831255
 40
1.0
 40
1.0
 40
1.0
 40
1.0
 10
14.0656821337
 20
13.2262444608
 30
0.0
 10
14.0574317233
 20
13.2259887119
 30
0.0
 10
14.0449219927
 20
13.2236422245
 30
0.0
 10
14.0293564029
 20
13.2173493554
 30
0.0
 10
14.0182665281
 20
13.2110621431
 30
0.0
 10
14.0082456999
 20
13.2034356936
 30
0.0
 10
13.996965792
 20
13.1920595534
 30
0.0
 10
13.9905530473
 20
13.1818177982
 30
0.0
 10
13.9877785843
 20
13.1746310147
 30
0.0
  0
SPLINE
  5
50C
100
AcDbEntity
  8
0
100
AcDbSpline
 62
7
  6
CONTINUOUS
 70
0
 71
3
 72
10
 73
6
 74
0
 42
0.0000001
 43
0.0000001
 44
0.0000000001
 40
0.0
 40
0.0
 40
0.0
 40
0.0
 40
0.5101765699
 40
0.7565244123
 40
1.0
 40
1.0
 40
1.0
 40
1.0
 10
13.7815870577
 20
12.5078607988
 30
0.0
 10
13.7798630089
 20
12.5022817748
 30
0.0
 10
13.7785991621
 20
12.493468188
 30
0.0
 10
13.7803194147
 20
12.4820938917
 30
0.0
 10
13.7822711831
 20
12.4767863088
 30
0.0
 10
13.7834988666
 20
12.4742845527
 30
0.0
  0
SPLINE
  5
50D
100
AcDbEntity
  8
0
100
AcDbSpline
 62
7
  6
CONTINUOUS
 70
0
 71
3
 72
21
 73
17
 74
0
 42
0.0000001
 43
0.0000001
 44
0.0000000001
 40
0.0
 40
0.0
 40
0.0
 40
0.0
 40
0.1246443485
 40
0.2615166767
 40
0.4114184413
 40
0.571605523
 40
0.6525701348
 40
0.7309147663
 40
0.8033500428
 40
0.8665431702
 40
0.9180387981
 40
0.956915187
 40
0.9717503176
 40
0.9837061533
 40
0.9930170481
 40
1.0
 40
1.0
 40
1.0
 40
1.0
 10
14.0759161733
 20
12.5533626935
 30
0.0
 10
14.0796624137
 20
12.565486321
 30
0.0
 10
14.0883294816
 20
12.5906756918
 30
0.0
 10
14.1037261589
 20
12.6296348949
 30
0.0
 10
14.1215389059
 20
12.6715068135
 30
0.0
 10
14.1372317203
 20
12.7080950863
 30
0.0
 10
14.1494670062
 20
12.7382337859
 30
0.0
 10
14.1578533891
 20
12.7602884657
 30
0.0
 10
14.1649379703
 20
12.7808923833
 30
0.0
 10
14.1703381231
 20
12.7991707235
 30
0.0
 10
14.1738785181
 20
12.8144066505
 30
0.0
 10
14.1754905756
 20
12.8250170897
 30
0.0
 10
14.1758483252
 20
12.8316974046
 30
0.0
 10
14.1757494313
 20
12.8353777068
 30
0.0
 10
14.1753558328
 20
12.8382317058
 30
0.0
 10
14.1748593937
 20
12.8398319323
 30
0.0
 10
14.1745463299
 20
12.8404701755
 30
0.0
  0
SPLINE
  5
50E
100
AcDbEntity
  8
0
100
AcDbSpline
 62
7
  6
CONTINUOUS
 70
0
 71
3
 72
10
 73
6
 74
0
 42
0.0000001
 43
0.0000001
 44
0.0000000001
 40
0.0
 40
0.0
 40
0.0
 40
0.0
 40
0.4721870419
 40
0.7291172421
 40
1.0
 40
1.0
 40
1.0
 40
1.0
 10
14.5811521343
 20
13.5363348515
 30
0.0
 10
14.6140392528
 20
13.5611774218
 30
0.0
 10
14.6701412456
 20
13.5927568423
 30
0.0
 10
14.7517677129
 20
13.6237937029
 30
0.0
 10
14.7962313041
 20
13.6361761902
 30
0.0
 10
14.8192478189
 20
13.6415887749
 30
0.0
  0
SPLINE
  5
50F
100
AcDbEntity
  8
0
100
AcDbSpline
 62
7
  6
CONTINUOUS
 70
0
 71
3
 72
11
 73
7
 74
0
 42
0.0000001
 43
0.0000001
 44
0.0000000001
 40
0.0
 40
0.0
 40
0.0
 40
0.0
 40
0.2299249332
 40
0.4838450246
 40
0.7467746116
 40
1.0
 40
1.0
 40
1.0
 40
1.0
 10
17.1592041447
 20
11.5135901586
 30
0.0
 10
17.1582448911
 20
11.5104860129
 30
0.0
 10
17.1547619053
 20
11.5043851687
 30
0.0
 10
17.1467807591
 20
11.4972694606
 30
0.0
 10
17.1368718699
 20
11.4924635568
 30
0.0
 10
17.1295501682
 20
11.4912093898
 30
0.0
 10
17.1259719356
 20
11.4912093898
 30
0.0
  0
SPLINE
  5
510
100
AcDbEntity
  8
0
100
AcDbSpline
 62
7
  6
CONTINUOUS
 70
0
 71
3
 72
19
 73
15
 74
0
 42
0.0000001
 43
0.0000001
 44
0.0000000001
 40
0.0
 40
0.0
 40
0.0
 40
0.0
 40
0.055587774
 40
0.113772265
 40
0.1743091315
 40
0.236893456
 40
0.3666889864
 40
0.5000015347
 40
0.6333142239
 40
0.7631108341
 40
0.8256941278
 40
0.8862304029
 40
0.9444149962
 40
1.0
 40
1.0
 40
1.0
 40
1.0
 10
14.8307891074
 20
13.6443030629
 30
0.0
 10
14.8556723942
 20
13.650154715
 30
0.0
 10
14.9071537148
 20
13.6598694456
 30
0.0
 10
14.9869143179
 20
13.6685000124
 30
0.0
 10
15.0703058828
 20
13.6714653621
 30
0.0
 10
15.1866226012
 20
13.6677698636
 30
0.0
 10
15.3355799979
 20
13.6486948345
 30
0.0
 10
15.5128785349
 20
13.6046937882
 30
0.0
 10
15.6840902285
 20
13.5409951497
 30
0.0
 10
15.8178407366
 20
13.4727086511
 30
0.0
 10
15.9159616237
 20
13.4101351169
 30
0.0
 10
15.983142866
 20
13.3606424672
 30
0.0
 10
16.0441248533
 20
13.3085157724
 30
0.0
 10
16.0811508719
 20
13.2714530677
 30
0.0
 10
16.0983934031
 20
13.2525837861
 30
0.0
  0
SPLINE
  5
511
100
AcDbEntity
  8
0
100
AcDbSpline
 62
7
  6
CONTINUOUS
 70
0
 71
3
 72
11
 73
7
 74
0
 42
0.0000001
 43
0.0000001
 44
0.0000000001
 40
0.0
 40
0.0
 40
0.0
 40
0.0
 40
0.2778446591
 40
0.5350155313
 40
0.7731433055
 40
1.0
 40
1.0
 40
1.0
 40
1.0
 10
13.6588351939
 20
11.4912093898
 30
0.0
 10
13.6567782734
 20
11.4912093898
 30
0.0
 10
13.6528003112
 20
11.491605023
 30
0.0
 10
13.6473370526
 20
11.4935114132
 30
0.0
 10
13.6429119095
 20
11.4966502277
 30
0.0
 10
13.6408420213
 20
11.4994956515
 30
0.0
 10
13.6401020118
 20
11.501003278
 30
0.0
  0
SPLINE
  5
512
100
AcDbEntity
  8
0
100
AcDbSpline
 62
7
  6
CONTINUOUS
 70
0
 71
3
 72
13
 73
9
 74
0
 42
0.0000001
 43
0.0000001
 44
0.0000000001
 40
0.0
 40
0.0
 40
0.0
 40
0.0
 40
0.1164898231
 40
0.2338859494
 40
0.3530520354
 40
0.4747978498
 40
0.7286153631
 40
1.0
 40
1.0
 40
1.0
 40
1.0
 10
14.1266859212
 20
12.3063794452
 30
0.0
 10
14.1234021616
 20
12.2957547614
 30
0.0
 10
14.1179640968
 20
12.2740463102
 30
0.0
 10
14.1133227298
 20
12.2406030503
 30
0.0
 10
14.1121927971
 20
12.2063533653
 30
0.0
 10
14.1154202684
 20
12.1591646261
 30
0.0
 10
14.1286725692
 20
12.0984652092
 30
0.0
 10
14.1476074444
 20
12.0517885595
 30
0.0
 10
14.1590207691
 20
12.0285306492
 30
0.0
  0
SPLINE
  5
513
100
AcDbEntity
  8
0
100
AcDbSpline
 62
7
  6
CONTINUOUS
 70
0
 71
3
 72
24
 73
20
 74
0
 42
0.0000001
 43
0.0000001
 44
0.0000000001
 40
0.0
 40
0.0
 40
0.0
 40
0.0
 40
0.0217761663
 40
0.0442724727
 40
0.0919676759
 40
0.144014305
 40
0.2007278823
 40
0.2619794544
 40
0.3272989157
 40
0.395963126
 40
0.4670677867
 40
0.539588107
 40
0.6124329868
 40
0.6844972721
 40
0.754709532
 40
0.8220894024
 40
0.8857993354
 40
0.9452088198
 40
1.0
 40
1.0
 40
1.0
 40
1.0
 10
14.5596868776
 20
12.2121101801
 30
0.0
 10
14.5639339968
 20
12.2184101229
 30
0.0
 10
14.573385008
 20
12.2306862202
 30
0.0
 10
14.5958506786
 20
12.2536813356
 30
0.0
 10
14.6305657942
 20
12.2790139019
 30
0.0
 10
14.6800250465
 20
12.3026797419
 30
0.0
 10
14.7370063865
 20
12.3198684241
 30
0.0
 10
14.8002626046
 20
12.3302560073
 30
0.0
 10
14.8684253493
 20
12.3336534814
 30
0.0
 10
14.9399992788
 20
12.3299959605
 30
0.0
 10
15.0134029835
 20
12.3193683792
 30
0.0
 10
15.0870051606
 20
12.3020068827
 30
0.0
 10
15.1591659236
 20
12.2782982831
 30
0.0
 10
15.2282758757
 20
12.2487715469
 30
0.0
 10
15.2927977326
 20
12.2140850572
 30
0.0
 10
15.3512972503
 20
12.1750062978
 30
0.0
 10
15.4024857676
 20
12.1323866703
 30
0.0
 10
15.4452310026
 20
12.087160559
 30
0.0
 10
15.4684195475
 20
12.0545294347
 30
0.0
 10
15.4781149929
 20
12.0380534454
 30
0.0
  0
SPLINE
  5
514
100
AcDbEntity
  8
0
100
AcDbSpline
 62
7
  6
CONTINUOUS
 70
0
 71
3
 72
9
 73
5
 74
0
 42
0.0000001
 43
0.0000001
 44
0.0000000001
 40
0.0
 40
0.0
 40
0.0
 40
0.0
 40
0.2547366218
 40
1.0
 40
1.0
 40
1.0
 40
1.0
 10
17.0425979732
 20
12.477227306
 30
0.0
 10
17.0450511894
 20
12.477227306
 30
0.0
 10
17.0546799164
 20
12.4770551409
 30
0.0
 10
17.0643037551
 20
12.476211623
 30
0.0
 10
17.0713967056
 20
12.4751152388
 30
0.0
  0
SPLINE
  5
515
100
AcDbEntity
  8
0
100
AcDbSpline
 62
7
  6
CONTINUOUS
 70
0
 71
3
 72
11
 73
7
 74
0
 42
0.0000001
 43
0.0000001
 44
0.0000000001
 40
0.0
 40
0.0
 40
0.0
 40
0.0
 40
0.2673300931
 40
0.5214446618
 40
0.764623632
 40
1.0
 40
1.0
 40
1.0
 40
1.0
 10
14.091078355
 20
12.1632404096
 30
0.0
 10
14.080648637
 20
12.1845625036
 30
0.0
 10
14.0626530767
 20
12.2273704921
 30
0.0
 10
14.0447054865
 20
12.2930675428
 30
0.0
 10
14.0368320451
 20
12.3578853276
 30
0.0
 10
14.038465491
 20
12.4005713097
 30
0.0
 10
14.0410365837
 20
12.4213116521
 30
0.0
  0
SPLINE
  5
516
100
AcDbEntity
  8
0
100
AcDbSpline
 62
7
  6
CONTINUOUS
 70
0
 71
3
 72
9
 73
5
 74
0
 42
0.0000001
 43
0.0000001
 44
0.0000000001
 40
0.0
 40
0.0
 40
0.0
 40
0.0
 40
0.2481584927
 40
1.0
 40
1.0
 40
1.0
 40
1.0
 10
14.5745787249
 20
13.2261016721
 30
0.0
 10
14.5748183615
 20
13.2268771364
 30
0.0
 10
14.5759411187
 20
13.229952385
 30
0.0
 10
14.5776524878
 20
13.232803758
 30
0.0
 10
14.5791751026
 20
13.2347346864
 30
0.0
  0
SPLINE
  5
517
100
AcDbEntity
  8
0
100
AcDbSpline
 62
7
  6
CONTINUOUS
 70
0
 71
3
 72
8
 73
4
 74
0
 42
0.0000001
 43
0.0000001
 44
0.0000000001
 40
0.0
 40
0.0
 40
0.0
 40
0.0
 40
1.0
 40
1.0
 40
1.0
 40
1.0
 10
14.5791751026
 20
13.2347346864
 30
0.0
 10
14.5811605735
 20
13.237252593
 30
0.0
 10
14.5835965866
 20
13.2394674441
 30
0.0
 10
14.586286599
 20
13.2412126609
 30
0.0
  0
SPLINE
  5
518
100
AcDbEntity
  8
0
100
AcDbSpline
 62
7
  6
CONTINUOUS
 70
0
 71
3
 72
11
 73
7
 74
0
 42
0.0000001
 43
0.0000001
 44
0.0000000001
 40
0.0
 40
0.0
 40
0.0
 40
0.0
 40
0.2515296984
 40
0.5006003706
 40
0.7501241769
 40
1.0
 40
1.0
 40
1.0
 40
1.0
 10
14.586286599
 20
13.2412126609
 30
0.0
 10
14.5892658709
 20
13.2431455425
 30
0.0
 10
14.595988515
 20
13.2459588997
 30
0.0
 10
14.6069677366
 20
13.2454738502
 30
0.0
 10
14.6163995651
 20
13.2397170824
 30
0.0
 10
14.6199048717
 20
13.2331616833
 30
0.0
 10
14.6207342414
 20
13.229732554
 30
0.0
  0
SPLINE
  5
519
100
AcDbEntity
  8
0
100
AcDbSpline
 62
7
  6
CONTINUOUS
 70
0
 71
3
 72
8
 73
4
 74
0
 42
0.0000001
 43
0.0000001
 44
0.0000000001
 40
0.0
 40
0.0
 40
0.0
 40
0.0
 40
1.0
 40
1.0
 40
1.0
 40
1.0
 10
14.6211368599
 20
13.2275821073
 30
0.0
 10
14.6214312093
 20
13.2253892515
 30
0.0
 10
14.6213836661
 20
13.2231276599
 30
0.0
 10
14.6210177372
 20
13.2209456071
 30
0.0
  0
SPLINE
  5
51A
100
AcDbEntity
  8
0
100
AcDbSpline
 62
7
  6
CONTINUOUS
 70
0
 71
3
 72
8
 73
4
 74
0
 42
0.0000001
 43
0.0000001
 44
0.0000000001
 40
0.0
 40
0.0
 40
0.0
 40
0.0
 40
1.0
 40
1.0
 40
1.0
 40
1.0
 10
14.595661421
 20
13.1984353267
 30
0.0
 10
14.5930141208
 20
13.1983098094
 30
0.0
 10
14.5902982086
 20
13.198652875
 30
0.0
 10
14.587778999
 20
13.1994760012
 30
0.0
  0
SPLINE
  5
51B
100
AcDbEntity
  8
0
100
AcDbSpline
 62
7
  6
CONTINUOUS
 70
0
 71
3
 72
11
 73
7
 74
0
 42
0.0000001
 43
0.0000001
 44
0.0000000001
 40
0.0
 40
0.0
 40
0.0
 40
0.0
 40
0.2500999051
 40
0.5003930014
 40
0.7503204395
 40
1.0
 40
1.0
 40
1.0
 40
1.0
 10
14.586417798
 20
13.199973564
 30
0.0
 10
14.5839918372
 20
13.2009566509
 30
0.0
 10
14.5794588319
 20
13.203872158
 30
0.0
 10
14.5748630552
 20
13.2104787805
 30
0.0
 10
14.5730653582
 20
13.2183063813
 30
0.0
 10
14.573807189
 20
13.2236049811
 30
0.0
 10
14.5745787249
 20
13.2261016721
 30
0.0
  0
LINE
  5
51C
100
AcDbEntity
  8
0
100
AcDbLine
 62
7
  6
CONTINUOUS
 10
14.5886451959
 20
13.1992663207
 11
14.5889452779
 21
13.1980749523
  0
SPLINE
  5
51D
100
AcDbEntity
  8
0
100
AcDbSpline
 62
7
  6
CONTINUOUS
 70
0
 71
3
 72
14
 73
10
 74
0
 42
0.0000001
 43
0.0000001
 44
0.0000000001
 40
0.0
 40
0.0
 40
0.0
 40
0.0
 40
0.2254291912
 40
0.3772425126
 40
0.4547654426
 40
0.5169475617
 40
0.6337044163
 40
0.7969965307
 40
1.0
 40
1.0
 40
1.0
 40
1.0
 10
14.6209246331
 20
13.2275244584
 30
0.0
 10
14.6211389227
 20
13.2275440057
 30
0.0
 10
14.6215397175
 20
13.2275635937
 30
0.0
 10
14.6218575555
 20
13.2275756847
 30
0.0
 10
14.6223345875
 20
13.2275476433
 30
0.0
 10
14.6219552148
 20
13.2276196251
 30
0.0
 10
14.6217110551
 20
13.2277082774
 30
0.0
 10
14.6212518633
 20
13.2278851431
 30
0.0
 10
14.6209496592
 20
13.2280444244
 30
0.0
 10
14.6207805076
 20
13.2281389536
 30
0.0
  0
SPLINE
  5
51E
100
AcDbEntity
  8
0
100
AcDbSpline
 62
7
  6
CONTINUOUS
 70
0
 71
3
 72
9
 73
5
 74
0
 42
0.0000001
 43
0.0000001
 44
0.0000000001
 40
0.0
 40
0.0
 40
0.0
 40
0.0
 40
0.2539676117
 40
1.0
 40
1.0
 40
1.0
 40
1.0
 10
14.947027711
 20
11.4071531421
 30
0.0
 10
14.9470306662
 20
11.4066668529
 30
0.0
 10
14.9469725327
 20
11.4047523875
 30
0.0
 10
14.9466228872
 20
11.402846061
 30
0.0
 10
14.9462010845
 20
11.4014812494
 30
0.0
  0
SPLINE
  5
51F
100
AcDbEntity
  8
0
100
AcDbSpline
 62
7
  6
CONTINUOUS
 70
0
 71
3
 72
9
 73
5
 74
0
 42
0.0000001
 43
0.0000001
 44
0.0000000001
 40
0.0
 40
0.0
 40
0.0
 40
0.0
 40
0.5305545617
 40
1.0
 40
1.0
 40
1.0
 40
1.0
 10
14.9300093804
 20
11.3816151733
 30
0.0
 10
14.9327145727
 20
11.3827634691
 30
0.0
 10
14.9376093772
 20
11.3855151
 30
0.0
 10
14.9414217271
 20
11.3897238767
 30
0.0
 10
14.9427388102
 20
11.3919659704
 30
0.0
  0
SPLINE
  5
520
100
AcDbEntity
  8
0
100
AcDbSpline
 62
7
  6
CONTINUOUS
 70
0
 71
3
 72
9
 73
5
 74
0
 42
0.0000001
 43
0.0000001
 44
0.0000000001
 40
0.0
 40
0.0
 40
0.0
 40
0.0
 40
0.5094947795
 40
1.0
 40
1.0
 40
1.0
 40
1.0
 10
14.1269348767
 20
12.8374426928
 30
0.0
 10
14.1139849221
 20
12.841191741
 30
0.0
 10
14.0882671131
 20
12.8475847041
 30
0.0
 10
14.0617944568
 20
12.8504180056
 30
0.0
 10
14.0488152218
 20
12.8504180056
 30
0.0
  0
SPLINE
  5
521
100
AcDbEntity
  8
0
100
AcDbSpline
 62
7
  6
CONTINUOUS
 70
0
 71
3
 72
9
 73
5
 74
0
 42
0.0000001
 43
0.0000001
 44
0.0000000001
 40
0.0
 40
0.0
 40
0.0
 40
0.0
 40
0.4044463011
 40
1.0
 40
1.0
 40
1.0
 40
1.0
 10
13.8790160152
 20
12.7317485097
 30
0.0
 10
13.8804800061
 20
12.7262782832
 30
0.0
 10
13.8845930367
 20
12.7128862064
 30
0.0
 10
13.8893013675
 20
12.6996974699
 30
0.0
 10
13.8921938182
 20
12.6918767309
 30
0.0
  0
SPLINE
  5
522
100
AcDbEntity
  8
0
100
AcDbSpline
 62
7
  6
CONTINUOUS
 70
0
 71
3
 72
10
 73
6
 74
0
 42
0.0000001
 43
0.0000001
 44
0.0000000001
 40
0.0
 40
0.0
 40
0.0
 40
0.0
 40
0.2449122383
 40
0.6211133583
 40
1.0
 40
1.0
 40
1.0
 40
1.0
 10
13.9248557911
 20
12.797570914
 30
0.0
 10
13.9202386326
 20
12.7928971582
 30
0.0
 10
13.9091533772
 20
12.7804165554
 30
0.0
 10
13.8937041655
 20
12.7584079135
 30
0.0
 10
13.8837284553
 20
12.7407536741
 30
0.0
 10
13.8790160152
 20
12.7317485097
 30
0.0
  0
SPLINE
  5
523
100
AcDbEntity
  8
0
100
AcDbSpline
 62
7
  6
CONTINUOUS
 70
0
 71
3
 72
9
 73
5
 74
0
 42
0.0000001
 43
0.0000001
 44
0.0000000001
 40
0.0
 40
0.0
 40
0.0
 40
0.0
 40
0.4675155292
 40
1.0
 40
1.0
 40
1.0
 40
1.0
 10
13.8921938182
 20
12.6918767309
 30
0.0
 10
13.8960179063
 20
12.6815369887
 30
0.0
 10
13.904538519
 20
12.6595472773
 30
0.0
 10
13.9133647332
 20
12.6376808643
 30
0.0
 10
13.9181063385
 20
12.6260543266
 30
0.0
  0
SPLINE
  5
524
100
AcDbEntity
  8
0
100
AcDbSpline
 62
7
  6
CONTINUOUS
 70
0
 71
3
 72
9
 73
5
 74
0
 42
0.0000001
 43
0.0000001
 44
0.0000000001
 40
0.0
 40
0.0
 40
0.0
 40
0.0
 40
0.2530002895
 40
1.0
 40
1.0
 40
1.0
 40
1.0
 10
13.9933251124
 20
13.1016528837
 30
0.0
 10
13.9964670665
 20
13.1076569523
 30
0.0
 10
14.0093771741
 20
13.1310953054
 30
0.0
 10
14.0251035387
 20
13.1532415739
 30
0.0
 10
14.0391648883
 20
13.167475288
 30
0.0
  0
SPLINE
  5
525
100
AcDbEntity
  8
0
100
AcDbSpline
 62
7
  6
CONTINUOUS
 70
0
 71
3
 72
9
 73
5
 74
0
 42
0.0000001
 43
0.0000001
 44
0.0000000001
 40
0.0
 40
0.0
 40
0.0
 40
0.0
 40
0.4904827271
 40
1.0
 40
1.0
 40
1.0
 40
1.0
 10
14.163124319
 20
13.2203223796
 30
0.0
 10
14.1761029487
 20
13.2203223796
 30
0.0
 10
14.2025754685
 20
13.2174882982
 30
0.0
 10
14.2282934576
 20
13.2110962776
 30
0.0
 10
14.2412439739
 20
13.2073470668
 30
0.0
  0
SPLINE
  5
526
100
AcDbEntity
  8
0
100
AcDbSpline
 62
7
  6
CONTINUOUS
 70
0
 71
3
 72
10
 73
6
 74
0
 42
0.0000001
 43
0.0000001
 44
0.0000000001
 40
0.0
 40
0.0
 40
0.0
 40
0.0
 40
0.471391384
 40
0.727895819
 40
1.0
 40
1.0
 40
1.0
 40
1.0
 10
14.0977393815
 20
13.2073470668
 30
0.0
 10
14.1075040905
 20
13.2112960089
 30
0.0
 10
14.1231179104
 20
13.2162327832
 30
0.0
 10
14.1452204102
 20
13.2197296104
 30
0.0
 10
14.1570443009
 20
13.2203223796
 30
0.0
 10
14.163124319
 20
13.2203223796
 30
0.0
  0
SPLINE
  5
527
100
AcDbEntity
  8
0
100
AcDbSpline
 62
7
  6
CONTINUOUS
 70
0
 71
3
 72
9
 73
5
 74
0
 42
0.0000001
 43
0.0000001
 44
0.0000000001
 40
0.0
 40
0.0
 40
0.0
 40
0.0
 40
0.5956057356
 40
1.0
 40
1.0
 40
1.0
 40
1.0
 10
14.0065029153
 20
13.0617811049
 30
0.0
 10
14.0036102107
 20
13.0696025304
 30
0.0
 10
13.99890117
 20
13.0827910385
 30
0.0
 10
13.9947889155
 20
13.0961833589
 30
0.0
 10
13.9933251124
 20
13.1016528837
 30
0.0
  0
SPLINE
  5
528
100
AcDbEntity
  8
0
100
AcDbSpline
 62
7
  6
CONTINUOUS
 70
0
 71
3
 72
9
 73
5
 74
0
 42
0.0000001
 43
0.0000001
 44
0.0000000001
 40
0.0
 40
0.0
 40
0.0
 40
0.0
 40
0.5324569098
 40
1.0
 40
1.0
 40
1.0
 40
1.0
 10
14.0324154357
 20
12.9959587006
 30
0.0
 10
14.0276740761
 20
13.0075846358
 30
0.0
 10
14.018848371
 20
13.0294512492
 30
0.0
 10
14.0103272286
 20
13.0514407538
 30
0.0
 10
14.0065029153
 20
13.0617811049
 30
0.0
  0
SPLINE
  5
529
100
AcDbEntity
  8
0
100
AcDbSpline
 62
7
  6
CONTINUOUS
 70
0
 71
3
 72
9
 73
5
 74
0
 42
0.0000001
 43
0.0000001
 44
0.0000000001
 40
0.0
 40
0.0
 40
0.0
 40
0.0
 40
0.2558413961
 40
1.0
 40
1.0
 40
1.0
 40
1.0
 10
14.0220776644
 20
13.0196242122
 30
0.0
 10
14.0217567461
 20
13.0175464247
 30
0.0
 10
14.0207447071
 20
13.0093904201
 30
0.0
 10
14.0207496975
 20
13.0011007114
 30
0.0
 10
14.0213873076
 20
12.9950187796
 30
0.0
  0
SPLINE
  5
52A
100
AcDbEntity
  8
0
100
AcDbSpline
 62
7
  6
CONTINUOUS
 70
0
 71
3
 72
9
 73
5
 74
0
 42
0.0000001
 43
0.0000001
 44
0.0000000001
 40
0.0
 40
0.0
 40
0.0
 40
0.0
 40
0.5956057356
 40
1.0
 40
1.0
 40
1.0
 40
1.0
 10
15.870554927
 20
13.0617811049
 30
0.0
 10
15.8676622224
 20
13.0696025304
 30
0.0
 10
15.8629531817
 20
13.0827910385
 30
0.0
 10
15.8588409272
 20
13.0961833589
 30
0.0
 10
15.8573771241
 20
13.1016528837
 30
0.0
  0
SPLINE
  5
52B
100
AcDbEntity
  8
0
100
AcDbSpline
 62
7
  6
CONTINUOUS
 70
0
 71
3
 72
9
 73
5
 74
0
 42
0.0000001
 43
0.0000001
 44
0.0000000001
 40
0.0
 40
0.0
 40
0.0
 40
0.0
 40
0.5324569098
 40
1.0
 40
1.0
 40
1.0
 40
1.0
 10
15.8964674473
 20
12.9959587006
 30
0.0
 10
15.8917260877
 20
13.0075846358
 30
0.0
 10
15.8829003826
 20
13.0294512492
 30
0.0
 10
15.8743792403
 20
13.0514407538
 30
0.0
 10
15.870554927
 20
13.0617811049
 30
0.0
  0
SPLINE
  5
52C
100
AcDbEntity
  8
0
100
AcDbSpline
 62
7
  6
CONTINUOUS
 70
0
 71
3
 72
9
 73
5
 74
0
 42
0.0000001
 43
0.0000001
 44
0.0000000001
 40
0.0
 40
0.0
 40
0.0
 40
0.0
 40
0.2530002895
 40
1.0
 40
1.0
 40
1.0
 40
1.0
 10
15.8573771241
 20
13.1016528837
 30
0.0
 10
15.8605190782
 20
13.1076569523
 30
0.0
 10
15.8734291858
 20
13.1310953054
 30
0.0
 10
15.8891555503
 20
13.1532415739
 30
0.0
 10
15.9032168999
 20
13.167475288
 30
0.0
  0
SPLINE
  5
52D
100
AcDbEntity
  8
0
100
AcDbSpline
 62
7
  6
CONTINUOUS
 70
0
 71
3
 72
9
 73
5
 74
0
 42
0.0000001
 43
0.0000001
 44
0.0000000001
 40
0.0
 40
0.0
 40
0.0
 40
0.0
 40
0.4904827271
 40
1.0
 40
1.0
 40
1.0
 40
1.0
 10
16.0271763307
 20
13.2203223796
 30
0.0
 10
16.0401549604
 20
13.2203223796
 30
0.0
 10
16.0666274801
 20
13.2174882982
 30
0.0
 10
16.0923454692
 20
13.2110962776
 30
0.0
 10
16.1052959855
 20
13.2073470668
 30
0.0
  0
SPLINE
  5
52E
100
AcDbEntity
  8
0
100
AcDbSpline
 62
7
  6
CONTINUOUS
 70
0
 71
3
 72
10
 73
6
 74
0
 42
0.0000001
 43
0.0000001
 44
0.0000000001
 40
0.0
 40
0.0
 40
0.0
 40
0.0
 40
0.471391384
 40
0.727895819
 40
1.0
 40
1.0
 40
1.0
 40
1.0
 10
15.9617913932
 20
13.2073470668
 30
0.0
 10
15.9715561021
 20
13.2112960089
 30
0.0
 10
15.9871699221
 20
13.2162327832
 30
0.0
 10
16.0092724219
 20
13.2197296104
 30
0.0
 10
16.0210963126
 20
13.2203223796
 30
0.0
 10
16.0271763307
 20
13.2203223796
 30
0.0
  0
SPLINE
  5
52F
100
AcDbEntity
  8
0
100
AcDbSpline
 62
7
  6
CONTINUOUS
 70
0
 71
3
 72
9
 73
5
 74
0
 42
0.0000001
 43
0.0000001
 44
0.0000000001
 40
0.0
 40
0.0
 40
0.0
 40
0.0
 40
0.2558413961
 40
1.0
 40
1.0
 40
1.0
 40
1.0
 10
15.8861296761
 20
13.0196242122
 30
0.0
 10
15.8858087577
 20
13.0175464247
 30
0.0
 10
15.8847967187
 20
13.0093904201
 30
0.0
 10
15.8848017092
 20
13.0011007114
 30
0.0
 10
15.8854393193
 20
12.9950187796
 30
0.0
  0
SPLINE
  5
530
100
AcDbEntity
  8
0
100
AcDbSpline
 62
7
  6
CONTINUOUS
 70
0
 71
3
 72
10
 73
6
 74
0
 42
0.0000001
 43
0.0000001
 44
0.0000000001
 40
0.0
 40
0.0
 40
0.0
 40
0.0
 40
0.2395190056
 40
0.4838412488
 40
1.0
 40
1.0
 40
1.0
 40
1.0
 10
13.724614615
 20
11.7883253955
 30
0.0
 10
13.7234824739
 20
11.790631208
 30
0.0
 10
13.7216789188
 20
11.7955451857
 30
0.0
 10
13.7200884451
 20
11.8062074851
 30
0.0
 10
13.7213128226
 20
11.8145033729
 30
0.0
 10
13.7229472003
 20
11.8197922212
 30
0.0
  0
SPLINE
  5
531
100
AcDbEntity
  8
0
100
AcDbSpline
 62
7
  6
CONTINUOUS
 70
0
 71
3
 72
10
 73
6
 74
0
 42
0.0000001
 43
0.0000001
 44
0.0000000001
 40
0.0
 40
0.0
 40
0.0
 40
0.0
 40
0.2395190056
 40
0.4838412488
 40
1.0
 40
1.0
 40
1.0
 40
1.0
 10
16.6522727745
 20
11.7883253955
 30
0.0
 10
16.6511406334
 20
11.790631208
 30
0.0
 10
16.6493370783
 20
11.7955451857
 30
0.0
 10
16.6477466046
 20
11.8062074851
 30
0.0
 10
16.6489709821
 20
11.8145033729
 30
0.0
 10
16.6506053598
 20
11.8197922212
 30
0.0
  0
SPLINE
  5
532
100
AcDbEntity
  8
0
100
AcDbSpline
 62
7
  6
CONTINUOUS
 70
0
 71
3
 72
11
 73
7
 74
0
 42
0.0000001
 43
0.0000001
 44
0.0000000001
 40
0.0
 40
0.0
 40
0.0
 40
0.0
 40
0.2345403064
 40
0.4776834498
 40
0.7322593154
 40
1.0
 40
1.0
 40
1.0
 40
1.0
 10
15.5094282801
 20
11.9039568203
 30
0.0
 10
15.5102075238
 20
11.9129832487
 30
0.0
 10
15.5103366008
 20
11.9315193911
 30
0.0
 10
15.50636978
 20
11.9596168652
 30
0.0
 10
15.4982960228
 20
11.9881454204
 30
0.0
 10
15.490460702
 20
12.006795052
 30
0.0
 10
15.4859487438
 20
12.0161014669
 30
0.0
  0
SPLINE
  5
533
100
AcDbEntity
  8
0
100
AcDbSpline
 62
7
  6
CONTINUOUS
 70
0
 71
3
 72
9
 73
5
 74
0
 42
0.0000001
 43
0.0000001
 44
0.0000000001
 40
0.0
 40
0.0
 40
0.0
 40
0.0
 40
0.5955990209
 40
1.0
 40
1.0
 40
1.0
 40
1.0
 10
16.0041646913
 20
12.797570914
 30
0.0
 10
16.0012720196
 20
12.8053922506
 30
0.0
 10
15.9965631496
 20
12.8185808138
 30
0.0
 10
15.9924507156
 20
12.8319730777
 30
0.0
 10
15.9909868884
 20
12.8374426928
 30
0.0
  0
SPLINE
  5
534
100
AcDbEntity
  8
0
100
AcDbSpline
 62
7
  6
CONTINUOUS
 70
0
 71
3
 72
25
 73
21
 74
0
 42
0.0000001
 43
0.0000001
 44
0.0000000001
 40
0.0
 40
0.0
 40
0.0
 40
0.0
 40
0.0214606713
 40
0.0432171666
 40
0.0655460029
 40
0.0886901008
 40
0.1380818539
 40
0.1924668008
 40
0.2521129767
 40
0.3167218058
 40
0.3855749706
 40
0.4576554274
 40
0.5317464569
 40
0.6065165005
 40
0.6805970398
 40
0.7526555897
 40
0.8214786597
 40
0.8860490443
 40
0.9456589869
 40
1.0
 40
1.0
 40
1.0
 40
1.0
 10
15.4616681632
 20
11.8815797116
 30
0.0
 10
15.4595227394
 20
11.8746347496
 30
0.0
 10
15.4541771223
 20
11.8609430964
 30
0.0
 10
15.4431936809
 20
11.8415700093
 30
0.0
 10
15.4293183612
 20
11.8234274142
 30
0.0
 10
15.4066224661
 20
11.8005755953
 30
0.0
 10
15.3710030329
 20
11.7758343347
 30
0.0
 10
15.3200064915
 20
11.7536223421
 30
0.0
 10
15.2611673664
 20
11.7385976538
 30
0.0
 10
15.196021652
 20
11.7310964245
 30
0.0
 10
15.1262619944
 20
11.7312771297
 30
0.0
 10
15.0537321897
 20
11.7391273684
 30
0.0
 10
14.9803640601
 20
11.7544347063
 30
0.0
 10
14.9081211623
 20
11.7767890557
 30
0.0
 10
14.8389405805
 20
11.8055915498
 30
0.0
 10
14.7746724738
 20
11.8400707829
 30
0.0
 10
14.7170342045
 20
11.879310386
 30
0.0
 10
14.6675428669
 20
11.922288739
 30
0.0
 10
14.6275278162
 20
11.9678824768
 30
0.0
 10
14.6069316735
 20
12.0008171005
 30
0.0
 10
14.5988232821
 20
12.0173402648
 30
0.0
  0
SPLINE
  5
535
100
AcDbEntity
  8
0
100
AcDbSpline
 62
7
  6
CONTINUOUS
 70
0
 71
3
 72
10
 73
6
 74
0
 42
0.0000001
 43
0.0000001
 44
0.0000000001
 40
0.0
 40
0.0
 40
0.0
 40
0.0
 40
0.2922976526
 40
0.5609485553
 40
1.0
 40
1.0
 40
1.0
 40
1.0
 10
14.6241889787
 20
13.1766711797
 30
0.0
 10
14.6213887736
 20
13.1748648207
 30
0.0
 10
14.6157056657
 20
13.1718128651
 30
0.0
 10
14.6049141409
 20
13.1682608563
 30
0.0
 10
14.5962062828
 20
13.1682133701
 30
0.0
 10
14.5916151679
 20
13.1702070704
 30
0.0
  0
SPLINE
  5
536
100
AcDbEntity
  8
0
100
AcDbSpline
 62
7
  6
CONTINUOUS
 70
0
 71
3
 72
10
 73
6
 74
0
 42
0.0000001
 43
0.0000001
 44
0.0000000001
 40
0.0
 40
0.0
 40
0.0
 40
0.0
 40
0.2395190056
 40
0.4838412488
 40
1.0
 40
1.0
 40
1.0
 40
1.0
 10
16.8122094524
 20
12.3058806751
 30
0.0
 10
16.8110773114
 20
12.3081864875
 30
0.0
 10
16.8092737563
 20
12.3131004653
 30
0.0
 10
16.8076832826
 20
12.3237627647
 30
0.0
 10
16.8089076601
 20
12.3320586524
 30
0.0
 10
16.8105420378
 20
12.3373475007
 30
0.0
  0
SPLINE
  5
537
100
AcDbEntity
  8
0
100
AcDbSpline
 62
7
  6
CONTINUOUS
 70
0
 71
3
 72
10
 73
6
 74
0
 42
0.0000001
 43
0.0000001
 44
0.0000000001
 40
0.0
 40
0.0
 40
0.0
 40
0.0
 40
0.4713779749
 40
0.7278915305
 40
1.0
 40
1.0
 40
1.0
 40
1.0
 10
15.7821583502
 20
12.6260543266
 30
0.0
 10
15.7919227828
 20
12.630003157
 30
0.0
 10
15.8075363408
 20
12.6349406643
 30
0.0
 10
15.8296390348
 20
12.6384362609
 30
0.0
 10
15.8414631729
 20
12.6390296394
 30
0.0
 10
15.8475432877
 20
12.6390296394
 30
0.0
  0
SPLINE
  5
538
100
AcDbEntity
  8
0
100
AcDbSpline
 62
7
  6
CONTINUOUS
 70
0
 71
3
 72
11
 73
7
 74
0
 42
0.0000001
 43
0.0000001
 44
0.0000000001
 40
0.0
 40
0.0
 40
0.0
 40
0.0
 40
0.2427017075
 40
0.4955310213
 40
0.7506985425
 40
1.0
 40
1.0
 40
1.0
 40
1.0
 10
15.9128672335
 20
12.8504180056
 30
0.0
 10
15.9017089818
 20
12.8504180056
 30
0.0
 10
15.8788769472
 20
12.8478176096
 30
0.0
 10
15.8458238771
 20
12.8372185809
 30
0.0
 10
15.815041622
 20
12.8205384195
 30
0.0
 10
15.7969629115
 20
12.8057247626
 30
0.0
 10
15.7889078028
 20
12.797570914
 30
0.0
  0
SPLINE
  5
539
100
AcDbEntity
  8
0
100
AcDbSpline
 62
7
  6
CONTINUOUS
 70
0
 71
3
 72
9
 73
5
 74
0
 42
0.0000001
 43
0.0000001
 44
0.0000000001
 40
0.0
 40
0.0
 40
0.0
 40
0.0
 40
0.4947268558
 40
1.0
 40
1.0
 40
1.0
 40
1.0
 10
16.0041646913
 20
12.797570914
 30
0.0
 10
16.0019718858
 20
12.8034999207
 30
0.0
 10
15.9958795545
 20
12.8149356204
 30
0.0
 10
15.9869597064
 20
12.8243099478
 30
0.0
 10
15.981974206
 20
12.8284121681
 30
0.0
  0
SPLINE
  5
53A
100
AcDbEntity
  8
0
100
AcDbSpline
 62
7
  6
CONTINUOUS
 70
0
 71
3
 72
11
 73
7
 74
0
 42
0.0000001
 43
0.0000001
 44
0.0000000001
 40
0.0
 40
0.0
 40
0.0
 40
0.0
 40
0.2307439998
 40
0.473651612
 40
0.7301995559
 40
1.0
 40
1.0
 40
1.0
 40
1.0
 10
15.981974206
 20
12.8284121681
 30
0.0
 10
15.9775867768
 20
12.8320222774
 30
0.0
 10
15.9677625145
 20
12.8384786803
 30
0.0
 10
15.9510555322
 20
12.8453685949
 30
0.0
 10
15.9324943978
 20
12.8495336327
 30
0.0
 10
15.9195107086
 20
12.8504180056
 30
0.0
 10
15.9128672335
 20
12.8504180056
 30
0.0
  0
SPLINE
  5
53B
100
AcDbEntity
  8
0
100
AcDbSpline
 62
7
  6
CONTINUOUS
 70
0
 71
3
 72
12
 73
8
 74
0
 42
0.0000001
 43
0.0000001
 44
0.0000000001
 40
0.0
 40
0.0
 40
0.0
 40
0.0
 40
0.279915554
 40
0.5389435661
 40
0.7767115851
 40
0.8896824574
 40
1.0
 40
1.0
 40
1.0
 40
1.0
 10
15.9715027184
 20
12.6918767309
 30
0.0
 10
15.9791359525
 20
12.6996035335
 30
0.0
 10
15.9924060449
 20
12.7160208868
 30
0.0
 10
16.0055269442
 20
12.7434872894
 30
0.0
 10
16.0094905057
 20
12.767238625
 30
0.0
 10
16.0079139109
 20
12.7851356795
 30
0.0
 10
16.0056495393
 20
12.7935561149
 30
0.0
 10
16.0041646913
 20
12.797570914
 30
0.0
  0
SPLINE
  5
53C
100
AcDbEntity
  8
0
100
AcDbSpline
 62
7
  6
CONTINUOUS
 70
0
 71
3
 72
11
 73
7
 74
0
 42
0.0000001
 43
0.0000001
 44
0.0000000001
 40
0.0
 40
0.0
 40
0.0
 40
0.0
 40
0.2427017075
 40
0.4955310213
 40
0.7506985425
 40
1.0
 40
1.0
 40
1.0
 40
1.0
 10
15.8475432877
 20
12.6390296394
 30
0.0
 10
15.8587015393
 20
12.6390296394
 30
0.0
 10
15.8815335739
 20
12.6416300353
 30
0.0
 10
15.9145866441
 20
12.6522290641
 30
0.0
 10
15.9453688992
 20
12.6689092255
 30
0.0
 10
15.9634476096
 20
12.6837228824
 30
0.0
 10
15.9715027184
 20
12.6918767309
 30
0.0
  0
SPLINE
  5
53D
100
AcDbEntity
  8
0
100
AcDbSpline
 62
7
  6
CONTINUOUS
 70
0
 71
3
 72
13
 73
9
 74
0
 42
0.0000001
 43
0.0000001
 44
0.0000000001
 40
0.0
 40
0.0
 40
0.0
 40
0.0
 40
0.1134862894
 40
0.227842983
 40
0.344602034
 40
0.4652563183
 40
0.721293789
 40
1.0
 40
1.0
 40
1.0
 40
1.0
 10
15.7562458298
 20
12.6918767309
 30
0.0
 10
15.7577177314
 20
12.687896937
 30
0.0
 10
15.7614081028
 20
12.6801571565
 30
0.0
 10
15.7690015049
 20
12.6696659949
 30
0.0
 10
15.7785171129
 20
12.6604891638
 30
0.0
 10
15.7938015925
 20
12.6500228799
 30
0.0
 10
15.8170317272
 20
12.6411517367
 30
0.0
 10
15.837122444
 20
12.6390296394
 30
0.0
 10
15.8475432877
 20
12.6390296394
 30
0.0
  0
SPLINE
  5
53E
100
AcDbEntity
  8
0
100
AcDbSpline
 62
7
  6
CONTINUOUS
 70
0
 71
3
 72
12
 73
8
 74
0
 42
0.0000001
 43
0.0000001
 44
0.0000000001
 40
0.0
 40
0.0
 40
0.0
 40
0.0
 40
0.279915554
 40
0.5389435661
 40
0.7767115851
 40
0.8896824574
 40
1.0
 40
1.0
 40
1.0
 40
1.0
 10
15.7889078028
 20
12.797570914
 30
0.0
 10
15.7812745687
 20
12.7898441115
 30
0.0
 10
15.7680044763
 20
12.7734267581
 30
0.0
 10
15.7548835769
 20
12.7459603555
 30
0.0
 10
15.7509200155
 20
12.72220902
 30
0.0
 10
15.7524966103
 20
12.7043119654
 30
0.0
 10
15.7547609819
 20
12.69589153
 30
0.0
 10
15.7562458298
 20
12.6918767309
 30
0.0
  0
SPLINE
  5
53F
100
AcDbEntity
  8
0
100
AcDbSpline
 62
7
  6
CONTINUOUS
 70
0
 71
3
 72
9
 73
5
 74
0
 42
0.0000001
 43
0.0000001
 44
0.0000000001
 40
0.0
 40
0.0
 40
0.0
 40
0.0
 40
0.5324552752
 40
1.0
 40
1.0
 40
1.0
 40
1.0
 10
16.0300772116
 20
12.7317485097
 30
0.0
 10
16.0253358665
 20
12.7433744095
 30
0.0
 10
16.0165099456
 20
12.7652409378
 30
0.0
 10
16.0079890181
 20
12.7872305264
 30
0.0
 10
16.0041646913
 20
12.797570914
 30
0.0
  0
SPLINE
  5
540
100
AcDbEntity
  8
0
100
AcDbSpline
 62
7
  6
CONTINUOUS
 70
0
 71
3
 72
10
 73
6
 74
0
 42
0.0000001
 43
0.0000001
 44
0.0000000001
 40
0.0
 40
0.0
 40
0.0
 40
0.0
 40
0.2670108325
 40
0.5223319116
 40
1.0
 40
1.0
 40
1.0
 40
1.0
 10
15.9715027184
 20
12.6918767309
 30
0.0
 10
15.9759580205
 20
12.6963866463
 30
0.0
 10
15.9851365858
 20
12.7047686623
 30
0.0
 10
16.0042814195
 20
12.7188678228
 30
0.0
 10
16.0197227471
 20
12.7271221417
 30
0.0
 10
16.0300772116
 20
12.7317485097
 30
0.0
  0
SPLINE
  5
541
100
AcDbEntity
  8
0
100
AcDbSpline
 62
7
  6
CONTINUOUS
 70
0
 71
3
 72
9
 73
5
 74
0
 42
0.0000001
 43
0.0000001
 44
0.0000000001
 40
0.0
 40
0.0
 40
0.0
 40
0.0
 40
0.5074061306
 40
1.0
 40
1.0
 40
1.0
 40
1.0
 10
15.4725445173
 20
11.8134251794
 30
0.0
 10
15.479118461
 20
11.8207730081
 30
0.0
 10
15.4910207743
 20
11.8362440634
 30
0.0
 10
15.5002566157
 20
11.8534570894
 30
0.0
 10
15.5040413412
 20
11.8622485988
 30
0.0
  0
SPLINE
  5
542
100
AcDbEntity
  8
0
100
AcDbSpline
 62
7
  6
CONTINUOUS
 70
0
 71
3
 72
9
 73
5
 74
0
 42
0.0000001
 43
0.0000001
 44
0.0000000001
 40
0.0
 40
0.0
 40
0.0
 40
0.0
 40
0.2529888343
 40
1.0
 40
1.0
 40
1.0
 40
1.0
 10
15.9256629425
 20
12.6260543266
 30
0.0
 10
15.928804748
 20
12.6320581111
 30
0.0
 10
15.941717475
 20
12.6554949185
 30
0.0
 10
15.9574411818
 20
12.6776428275
 30
0.0
 10
15.9715027184
 20
12.6918767309
 30
0.0
  0
SPLINE
  5
543
100
AcDbEntity
  8
0
100
AcDbSpline
 62
7
  6
CONTINUOUS
 70
0
 71
3
 72
9
 73
5
 74
0
 42
0.0000001
 43
0.0000001
 44
0.0000000001
 40
0.0
 40
0.0
 40
0.0
 40
0.0
 40
0.4905053261
 40
1.0
 40
1.0
 40
1.0
 40
1.0
 10
15.8475432877
 20
12.6390296394
 30
0.0
 10
15.8605225254
 20
12.6390296394
 30
0.0
 10
15.8869951819
 20
12.6361963383
 30
0.0
 10
15.9127129906
 20
12.6298033741
 30
0.0
 10
15.9256629425
 20
12.6260543266
 30
0.0
  0
SPLINE
  5
544
100
AcDbEntity
  8
0
100
AcDbSpline
 62
7
  6
CONTINUOUS
 70
0
 71
3
 72
11
 73
7
 74
0
 42
0.0000001
 43
0.0000001
 44
0.0000000001
 40
0.0
 40
0.0
 40
0.0
 40
0.0
 40
0.2643566105
 40
0.5171047622
 40
0.7609078978
 40
1.0
 40
1.0
 40
1.0
 40
1.0
 10
16.0625209833
 20
12.6656350542
 30
0.0
 10
16.0643505088
 20
12.671555401
 30
0.0
 10
16.0670289705
 20
12.6834448994
 30
0.0
 10
16.0678388393
 20
12.7013618724
 30
0.0
 10
16.0652896452
 20
12.7185270563
 30
0.0
 10
16.0613538216
 20
12.7292412987
 30
0.0
 10
16.0588857439
 20
12.734272964
 30
0.0
  0
SPLINE
  5
545
100
AcDbEntity
  8
0
100
AcDbSpline
 62
7
  6
CONTINUOUS
 70
0
 71
3
 72
12
 73
8
 74
0
 42
0.0000001
 43
0.0000001
 44
0.0000000001
 40
0.0
 40
0.0
 40
0.0
 40
0.0
 40
0.2659306834
 40
0.3972374845
 40
0.5260030041
 40
0.7721605318
 40
1.0
 40
1.0
 40
1.0
 40
1.0
 10
15.9581067142
 20
12.5599408711
 30
0.0
 10
15.970569251
 20
12.5652539709
 30
0.0
 10
15.9885007812
 20
12.5749746305
 30
0.0
 10
16.0100155401
 20
12.5910029081
 30
0.0
 10
16.0291017725
 20
12.6084028783
 30
0.0
 10
16.0485663936
 20
12.6324608613
 30
0.0
 10
16.0590939646
 20
12.6545452177
 30
0.0
 10
16.0625209833
 20
12.6656350542
 30
0.0
  0
SPLINE
  5
546
100
AcDbEntity
  8
0
100
AcDbSpline
 62
7
  6
CONTINUOUS
 70
0
 71
3
 72
9
 73
5
 74
0
 42
0.0000001
 43
0.0000001
 44
0.0000000001
 40
0.0
 40
0.0
 40
0.0
 40
0.0
 40
0.2420499153
 40
1.0
 40
1.0
 40
1.0
 40
1.0
 10
15.8813015932
 20
12.5435899241
 30
0.0
 10
15.8876616695
 20
12.5435899241
 30
0.0
 10
15.9139277881
 20
12.5450727309
 30
0.0
 10
15.9397863323
 20
12.5521304214
 30
0.0
 10
15.9581067142
 20
12.5599408711
 30
0.0
  0
SPLINE
  5
547
100
AcDbEntity
  8
0
100
AcDbSpline
 62
7
  6
CONTINUOUS
 70
0
 71
3
 72
9
 73
5
 74
0
 42
0.0000001
 43
0.0000001
 44
0.0000000001
 40
0.0
 40
0.0
 40
0.0
 40
0.0
 40
0.4788349354
 40
1.0
 40
1.0
 40
1.0
 40
1.0
 10
15.8146021218
 20
12.5599408711
 30
0.0
 10
15.8241698966
 20
12.554402611
 30
0.0
 10
15.8460779578
 20
12.5460371716
 30
0.0
 10
15.8692692259
 20
12.5435899241
 30
0.0
 10
15.8813015932
 20
12.5435899241
 30
0.0
  0
SPLINE
  5
548
100
AcDbEntity
  8
0
100
AcDbSpline
 62
7
  6
CONTINUOUS
 70
0
 71
3
 72
34
 73
30
 74
0
 42
0.0000001
 43
0.0000001
 44
0.0000000001
 40
0.0
 40
0.0
 40
0.0
 40
0.0
 40
0.0277727383
 40
0.05716944
 40
0.0881740308
 40
0.120743048
 40
0.1547763746
 40
0.1901324979
 40
0.2640639648
 40
0.3409196106
 40
0.4188007008
 40
0.4957303986
 40
0.5698051038
 40
0.6052553086
 40
0.6393946725
 40
0.6720798573
 40
0.7032070486
 40
0.7327204734
 40
0.7606196143
 40
0.7869721983
 40
0.8119215541
 40
0.8356935836
 40
0.8585971858
 40
0.881010886
 40
0.9033584268
 40
0.9260676034
 40
0.9495336891
 40
0.9740975374
 40
1.0
 40
1.0
 40
1.0
 40
1.0
 10
15.8759730354
 20
12.0173402648
 30
0.0
 10
15.8665272533
 20
12.0365887449
 30
0.0
 10
15.844698651
 20
12.0750714678
 30
0.0
 10
15.805125175
 20
12.1305827009
 30
0.0
 10
15.7581667671
 20
12.1849906879
 30
0.0
 10
15.7042850332
 20
12.2377821109
 30
0.0
 10
15.6439832847
 20
12.2884868488
 30
0.0
 10
15.5544466894
 20
12.3536216292
 30
0.0
 10
15.4301000529
 20
12.426469933
 30
0.0
 10
15.2680737967
 20
12.4974676226
 30
0.0
 10
15.0969490515
 20
12.5507425346
 30
0.0
 10
14.923094865
 20
12.5843116311
 30
0.0
 10
14.7791390661
 20
12.5950047595
 30
0.0
 10
14.6681858268
 20
12.5922973947
 30
0.0
 10
14.5895061071
 20
12.5848694318
 30
0.0
 10
14.5148946332
 20
12.5720812048
 30
0.0
 10
14.4450446396
 20
12.5540452316
 30
0.0
 10
14.3806055238
 20
12.5309232479
 30
0.0
 10
14.3221808906
 20
12.5029045435
 30
0.0
 10
14.2703196907
 20
12.4702299266
 30
0.0
 10
14.2255262214
 20
12.433167719
 30
0.0
 10
14.1882671584
 20
12.3920271185
 30
0.0
 10
14.1589510057
 20
12.3471863244
 30
0.0
 10
14.1379382342
 20
12.2990842191
 30
0.0
 10
14.1254834582
 20
12.2482442069
 30
0.0
 10
14.1217028694
 20
12.1952364259
 30
0.0
 10
14.1266022047
 20
12.1406241161
 30
0.0
 10
14.1400701783
 20
12.0849711485
 30
0.0
 10
14.1542361152
 20
12.0485470786
 30
0.0
 10
14.1625502313
 20
12.0303600191
 30
0.0
  0
SPLINE
  5
549
100
AcDbEntity
  8
0
100
AcDbSpline
 62
7
  6
CONTINUOUS
 70
0
 71
3
 72
11
 73
7
 74
0
 42
0.0000001
 43
0.0000001
 44
0.0000000001
 40
0.0
 40
0.0
 40
0.0
 40
0.0
 40
0.2714841407
 40
0.5255361152
 40
0.7663193758
 40
1.0
 40
1.0
 40
1.0
 40
1.0
 10
14.5554018353
 20
12.0173402648
 30
0.0
 10
14.5492734105
 20
12.0298286815
 30
0.0
 10
14.5391015793
 20
12.0549019485
 30
0.0
 10
14.5306377972
 20
12.0934618966
 30
0.0
 10
14.529759115
 20
12.1310270264
 30
0.0
 10
14.5343460614
 20
12.1551274048
 30
0.0
 10
14.5378484256
 20
12.1665777326
 30
0.0
  0
SPLINE
  5
54A
100
AcDbEntity
  8
0
100
AcDbSpline
 62
7
  6
CONTINUOUS
 70
0
 71
3
 72
27
 73
23
 74
0
 42
0.0000001
 43
0.0000001
 44
0.0000000001
 40
0.0
 40
0.0
 40
0.0
 40
0.0
 40
0.0543374353
 40
0.0835092186
 40
0.1139757842
 40
0.1785405392
 40
0.2473558004
 40
0.3194073339
 40
0.3934795514
 40
0.4682416152
 40
0.5423246469
 40
0.6143971555
 40
0.6832425451
 40
0.747843938
 40
0.8074830725
 40
0.8618614734
 40
0.8871690461
 40
0.9113199364
 40
0.9344608615
 40
0.9567879251
 40
0.978541959
 40
1.0
 40
1.0
 40
1.0
 40
1.0
 10
15.8925891399
 20
12.0285306492
 30
0.0
 10
15.8759936663
 20
12.0623486688
 30
0.0
 10
15.8450868668
 20
12.111781878
 30
0.0
 10
15.7955370098
 20
12.1733749938
 30
0.0
 10
15.7366779677
 20
12.2363309202
 30
0.0
 10
15.6506575653
 20
12.3110257882
 30
0.0
 10
15.5327004475
 20
12.3913288059
 30
0.0
 10
15.4011667204
 20
12.4618976195
 30
0.0
 10
15.2595804244
 20
12.5208441463
 30
0.0
 10
15.1117267609
 20
12.5665948473
 30
0.0
 10
14.9615704213
 20
12.5979225107
 30
0.0
 10
14.8131291336
 20
12.6139876809
 30
0.0
 10
14.6703613167
 20
12.6143592759
 30
0.0
 10
14.5370243771
 20
12.5990001961
 30
0.0
 10
14.4166359484
 20
12.5682749147
 30
0.0
 10
14.3275578695
 20
12.5294489313
 30
0.0
 10
14.2665256742
 20
12.4910517573
 30
0.0
 10
14.2269913536
 20
12.4597255236
 30
0.0
 10
14.1928966648
 20
12.4253908211
 30
0.0
 10
14.1644960058
 20
12.3882648408
 30
0.0
 10
14.142021841
 20
12.3486119435
 30
0.0
 10
14.1310786768
 20
12.3205923124
 30
0.0
 10
14.1266859212
 20
12.3063794452
 30
0.0
  0
SPLINE
  5
54B
100
AcDbEntity
  8
0
100
AcDbSpline
 62
7
  6
CONTINUOUS
 70
0
 71
3
 72
10
 73
6
 74
0
 42
0.0000001
 43
0.0000001
 44
0.0000000001
 40
0.0
 40
0.0
 40
0.0
 40
0.0
 40
0.2572613385
 40
0.5120796907
 40
1.0
 40
1.0
 40
1.0
 40
1.0
 10
17.0713967056
 20
12.4751152388
 30
0.0
 10
17.0729232911
 20
12.4748792687
 30
0.0
 10
17.0759565044
 20
12.4743653834
 30
0.0
 10
17.0818364212
 20
12.4731761372
 30
0.0
 10
17.0861501076
 20
12.471882357
 30
0.0
 10
17.0887998577
 20
12.4706325761
 30
0.0
  0
SPLINE
  5
54C
100
AcDbEntity
  8
0
100
AcDbSpline
 62
7
  6
CONTINUOUS
 70
0
 71
3
 72
9
 73
5
 74
0
 42
0.0000001
 43
0.0000001
 44
0.0000000001
 40
0.0
 40
0.0
 40
0.0
 40
0.0
 40
0.2618635142
 40
1.0
 40
1.0
 40
1.0
 40
1.0
 10
14.5796838594
 20
12.6948514415
 30
0.0
 10
14.5798101037
 20
12.6953527788
 30
0.0
 10
14.580234797
 20
12.6972805515
 30
0.0
 10
14.5804219037
 20
12.699266181
 30
0.0
 10
14.5803816932
 20
12.7007229037
 30
0.0
  0
SPLINE
  5
54D
100
AcDbEntity
  8
0
100
AcDbSpline
 62
7
  6
CONTINUOUS
 70
0
 71
3
 72
9
 73
5
 74
0
 42
0.0000001
 43
0.0000001
 44
0.0000000001
 40
0.0
 40
0.0
 40
0.0
 40
0.0
 40
0.2557817652
 40
1.0
 40
1.0
 40
1.0
 40
1.0
 10
14.5916151679
 20
13.1702070704
 30
0.0
 10
14.591208476
 20
13.1703836771
 30
0.0
 10
14.5896464644
 20
13.1711362936
 30
0.0
 10
14.5882071992
 20
13.1721479554
 30
0.0
 10
14.5872602928
 20
13.1730240946
 30
0.0
  0
SPLINE
  5
54E
100
AcDbEntity
  8
0
100
AcDbSpline
 62
7
  6
CONTINUOUS
 70
0
 71
3
 72
11
 73
7
 74
0
 42
0.0000001
 43
0.0000001
 44
0.0000000001
 40
0.0
 40
0.0
 40
0.0
 40
0.0
 40
0.2208795625
 40
0.457329095
 40
0.7165538565
 40
1.0
 40
1.0
 40
1.0
 40
1.0
 10
14.5851202703
 20
13.1755132833
 30
0.0
 10
14.5843206012
 20
13.1766935587
 30
0.0
 10
14.5830297229
 20
13.179399611
 30
0.0
 10
14.582199341
 20
13.1839939297
 30
0.0
 10
14.582425018
 20
13.1890511712
 30
0.0
 10
14.5832109657
 20
13.1924834525
 30
0.0
 10
14.5837511209
 20
13.1942313953
 30
0.0
  0
SPLINE
  5
54F
100
AcDbEntity
  8
0
100
AcDbSpline
 62
7
  6
CONTINUOUS
 70
0
 71
3
 72
9
 73
5
 74
0
 42
0.0000001
 43
0.0000001
 44
0.0000000001
 40
0.0
 40
0.0
 40
0.0
 40
0.0
 40
0.2450103886
 40
1.0
 40
1.0
 40
1.0
 40
1.0
 10
14.5310911572
 20
12.666806915
 30
0.0
 10
14.5313235375
 20
12.6666011847
 30
0.0
 10
14.5323075015
 20
12.665801997
 30
0.0
 10
14.5334268593
 20
12.6651736724
 30
0.0
 10
14.5343078004
 20
12.6648013932
 30
0.0
  0
LINE
  5
550
100
AcDbEntity
  8
0
100
AcDbLine
 62
7
  6
CONTINUOUS
 10
14.5343078004
 20
12.6648013932
 11
14.5371331006
 21
12.6639449661
  0
SPLINE
  5
551
100
AcDbEntity
  8
0
100
AcDbSpline
 62
7
  6
CONTINUOUS
 70
0
 71
3
 72
9
 73
5
 74
0
 42
0.0000001
 43
0.0000001
 44
0.0000000001
 40
0.0
 40
0.0
 40
0.0
 40
0.0
 40
0.48642238
 40
1.0
 40
1.0
 40
1.0
 40
1.0
 10
14.5505669727
 20
12.6653935641
 30
0.0
 10
14.5538223944
 20
12.6665253629
 30
0.0
 10
14.5602214346
 20
12.6697264814
 30
0.0
 10
14.5658199642
 20
12.6741557817
 30
0.0
 10
14.5684263567
 20
12.6766952253
 30
0.0
  0
SPLINE
  5
552
100
AcDbEntity
  8
0
100
AcDbSpline
 62
7
  6
CONTINUOUS
 70
0
 71
3
 72
9
 73
5
 74
0
 42
0.0000001
 43
0.0000001
 44
0.0000000001
 40
0.0
 40
0.0
 40
0.0
 40
0.0
 40
0.2626681084
 40
1.0
 40
1.0
 40
1.0
 40
1.0
 10
14.5751855763
 20
12.6848818703
 30
0.0
 10
14.5756395405
 20
12.6855840029
 30
0.0
 10
14.5772856915
 20
12.6883077766
 30
0.0
 10
14.5786067227
 20
12.691239505
 30
0.0
 10
14.5792996747
 20
12.6934818987
 30
0.0
  0
SPLINE
  5
553
100
AcDbEntity
  8
0
100
AcDbSpline
 62
7
  6
CONTINUOUS
 70
0
 71
3
 72
9
 73
5
 74
0
 42
0.0000001
 43
0.0000001
 44
0.0000000001
 40
0.0
 40
0.0
 40
0.0
 40
0.0
 40
0.2475721414
 40
1.0
 40
1.0
 40
1.0
 40
1.0
 10
14.9444720669
 20
11.3958860453
 30
0.0
 10
14.9446185369
 20
11.3963599847
 30
0.0
 10
14.9451326306
 20
11.3982977578
 30
0.0
 10
14.9453245087
 20
11.4003184568
 30
0.0
 10
14.9452951439
 20
11.4018257989
 30
0.0
  0
SPLINE
  5
554
100
AcDbEntity
  8
0
100
AcDbSpline
 62
7
  6
CONTINUOUS
 70
0
 71
3
 72
9
 73
5
 74
0
 42
0.0000001
 43
0.0000001
 44
0.0000000001
 40
0.0
 40
0.0
 40
0.0
 40
0.0
 40
0.2369015649
 40
1.0
 40
1.0
 40
1.0
 40
1.0
 10
14.9452951439
 20
11.4018257989
 30
0.0
 10
14.9452783622
 20
11.4026872279
 30
0.0
 10
14.9449737621
 20
11.4063189287
 30
0.0
 10
14.9437806577
 20
11.4098439592
 30
0.0
 10
14.9425580066
 20
11.4123354603
 30
0.0
  0
SPLINE
  5
555
100
AcDbEntity
  8
0
100
AcDbSpline
 62
7
  6
CONTINUOUS
 70
0
 71
3
 72
18
 73
14
 74
0
 42
0.0000001
 43
0.0000001
 44
0.0000000001
 40
0.0
 40
0.0
 40
0.0
 40
0.0
 40
0.065650763
 40
0.0927555816
 40
0.1222021296
 40
0.1571864709
 40
0.1991571246
 40
0.2486606828
 40
0.3057458157
 40
0.4416331259
 40
0.6043152183
 40
0.7913242431
 40
1.0
 40
1.0
 40
1.0
 40
1.0
 10
14.1745463299
 20
12.8404701755
 30
0.0
 10
14.1742131686
 20
12.8411493915
 30
0.0
 10
14.17351407
 20
12.8421260449
 30
0.0
 10
14.1720842772
 20
12.8424319565
 30
0.0
 10
14.1710340832
 20
12.8421868813
 30
0.0
 10
14.1699600228
 20
12.8415751593
 30
0.0
 10
14.1688472904
 20
12.8406251739
 30
0.0
 10
14.1676974678
 20
12.8393524653
 30
0.0
 10
14.1660252775
 20
12.8371101933
 30
0.0
 10
14.1639439927
 20
12.8335673734
 30
0.0
 10
14.1615497024
 20
12.8285053513
 30
0.0
 10
14.1591924744
 20
12.8225140176
 30
0.0
 10
14.1577515562
 20
12.8181858838
 30
0.0
 10
14.1570417712
 20
12.8158883524
 30
0.0
  0
SPLINE
  5
556
100
AcDbEntity
  8
0
100
AcDbSpline
 62
7
  6
CONTINUOUS
 70
0
 71
3
 72
11
 73
7
 74
0
 42
0.0000001
 43
0.0000001
 44
0.0000000001
 40
0.0
 40
0.0
 40
0.0
 40
0.0
 40
0.2410646747
 40
0.4867542504
 40
0.7391386461
 40
1.0
 40
1.0
 40
1.0
 40
1.0
 10
14.0975212086
 20
11.8895372325
 30
0.0
 10
14.0928679481
 20
11.8809566567
 30
0.0
 10
14.0825322472
 20
11.8641229156
 30
0.0
 10
14.0642370273
 20
11.8403720635
 30
0.0
 10
14.0431183028
 20
11.8179861239
 30
0.0
 10
14.0275129217
 20
11.804211364
 30
0.0
 10
14.0192904228
 20
11.7975810408
 30
0.0
  0
SPLINE
  5
557
100
AcDbEntity
  8
0
100
AcDbSpline
 62
7
  6
CONTINUOUS
 70
0
 71
3
 72
9
 73
5
 74
0
 42
0.0000001
 43
0.0000001
 44
0.0000000001
 40
0.0
 40
0.0
 40
0.0
 40
0.0
 40
0.2417458846
 40
1.0
 40
1.0
 40
1.0
 40
1.0
 10
13.851347903
 20
11.9964365295
 30
0.0
 10
13.8506918198
 20
11.996330833
 30
0.0
 10
13.8479683339
 20
11.9959537444
 30
0.0
 10
13.8452145386
 20
11.9958076428
 30
0.0
 10
13.8431301505
 20
11.9958076428
 30
0.0
  0
SPLINE
  5
558
100
AcDbEntity
  8
0
100
AcDbSpline
 62
7
  6
CONTINUOUS
 70
0
 71
3
 72
9
 73
5
 74
0
 42
0.0000001
 43
0.0000001
 44
0.0000000001
 40
0.0
 40
0.0
 40
0.0
 40
0.0
 40
0.4837785704
 40
1.0
 40
1.0
 40
1.0
 40
1.0
 10
13.9985462955
 20
12.0362822861
 30
0.0
 10
13.9757055463
 20
12.027067119
 30
0.0
 10
13.9272129915
 20
12.0111096697
 30
0.0
 10
13.8772946861
 20
12.0006166147
 30
0.0
 10
13.851347903
 20
11.9964365295
 30
0.0
  0
SPLINE
  5
559
100
AcDbEntity
  8
0
100
AcDbSpline
 62
7
  6
CONTINUOUS
 70
0
 71
3
 72
9
 73
5
 74
0
 42
0.0000001
 43
0.0000001
 44
0.0000000001
 40
0.0
 40
0.0
 40
0.0
 40
0.0
 40
0.2418265098
 40
1.0
 40
1.0
 40
1.0
 40
1.0
 10
14.5837511209
 20
13.1942313953
 30
0.0
 10
14.5839024909
 20
13.1947212289
 30
0.0
 10
14.5845713045
 20
13.1967334411
 30
0.0
 10
14.5854014287
 20
13.1986907764
 30
0.0
 10
14.5861020752
 20
13.2001374153
 30
0.0
  0
SPLINE
  5
55A
100
AcDbEntity
  8
0
100
AcDbSpline
 62
7
  6
CONTINUOUS
 70
0
 71
3
 72
17
 73
13
 74
0
 42
0.0000001
 43
0.0000001
 44
0.0000000001
 40
0.0
 40
0.0
 40
0.0
 40
0.0
 40
0.0505067279
 40
0.1018431688
 40
0.1547453909
 40
0.2097731842
 40
0.3271393387
 40
0.4546727824
 40
0.5900481807
 40
0.7292268727
 40
0.8674010963
 40
1.0
 40
1.0
 40
1.0
 40
1.0
 10
16.1775530021
 20
13.0952974011
 30
0.0
 10
16.1797925739
 20
13.090732989
 30
0.0
 10
16.1834438867
 20
13.0810770835
 30
0.0
 10
16.1861833645
 20
13.0656596439
 30
0.0
 10
16.1861629201
 20
13.0495466244
 30
0.0
 10
16.1824121112
 20
13.0270916194
 30
0.0
 10
16.1706093351
 20
12.998834853
 30
0.0
 10
16.1473738788
 20
12.9680107148
 30
0.0
 10
16.1164678901
 20
12.9414336646
 30
0.0
 10
16.0800393419
 20
12.9209125785
 30
0.0
 10
16.0406372212
 20
12.9078369779
 30
0.0
 10
16.0133164593
 20
12.9046141557
 30
0.0
 10
15.9999684313
 20
12.9046141557
 30
0.0
  0
SPLINE
  5
55B
100
AcDbEntity
  8
0
100
AcDbSpline
 62
7
  6
CONTINUOUS
 70
0
 71
3
 72
22
 73
18
 74
0
 42
0.0000001
 43
0.0000001
 44
0.0000000001
 40
0.0
 40
0.0
 40
0.0
 40
0.0
 40
0.0621344672
 40
0.1267589631
 40
0.1933850339
 40
0.2615145595
 40
0.3305857394
 40
0.4000187993
 40
0.4692246281
 40
0.5376186236
 40
0.6046374212
 40
0.6697541899
 40
0.7324952672
 40
0.7924577725
 40
0.8493303091
 40
0.9029182347
 40
1.0
 40
1.0
 40
1.0
 40
1.0
 10
16.0514929621
 20
13.2262288671
 30
0.0
 10
16.0241293975
 20
13.2490074731
 30
0.0
 10
15.9662937714
 20
13.2931017599
 30
0.0
 10
15.8732145473
 20
13.3534040451
 30
0.0
 10
15.773057049
 20
13.4085612878
 30
0.0
 10
15.6670919902
 20
13.4578815476
 30
0.0
 10
15.556631897
 20
13.5007486704
 30
0.0
 10
15.4430628676
 20
13.5366271023
 30
0.0
 10
15.3278059517
 20
13.5650692649
 30
0.0
 10
15.2123032234
 20
13.5857178415
 30
0.0
 10
15.097998684
 20
13.5983128674
 30
0.0
 10
14.9863206266
 20
13.6026989858
 30
0.0
 10
14.8786545391
 20
13.5988181713
 30
0.0
 10
14.7763528661
 20
13.5867206562
 30
0.0
 10
14.6806226091
 20
13.5665191173
 30
0.0
 10
14.567258851
 20
13.5303764249
 30
0.0
 10
14.4892846651
 20
13.490396017
 30
0.0
 10
14.4443507607
 20
13.4576007424
 30
0.0
  0
SPLINE
  5
55C
100
AcDbEntity
  8
0
100
AcDbSpline
 62
7
  6
CONTINUOUS
 70
0
 71
3
 72
9
 73
5
 74
0
 42
0.0000001
 43
0.0000001
 44
0.0000000001
 40
0.0
 40
0.0
 40
0.0
 40
0.0
 40
0.2564760176
 40
1.0
 40
1.0
 40
1.0
 40
1.0
 10
14.4381399515
 20
13.4529966592
 30
0.0
 10
14.4322932548
 20
13.4485944182
 30
0.0
 10
14.4098669776
 20
13.430947739
 30
0.0
 10
14.3889784721
 20
13.4113189791
 30
0.0
 10
14.374654195
 20
13.3956673253
 30
0.0
  0
SPLINE
  5
55D
100
AcDbEntity
  8
0
100
AcDbSpline
 62
7
  6
CONTINUOUS
 70
0
 71
3
 72
9
 73
5
 74
0
 42
0.0000001
 43
0.0000001
 44
0.0000000001
 40
0.0
 40
0.0
 40
0.0
 40
0.0
 40
0.2529948252
 40
1.0
 40
1.0
 40
1.0
 40
1.0
 10
14.3540838182
 20
13.3713736192
 30
0.0
 10
14.3510681829
 20
13.3675138972
 30
0.0
 10
14.3394318488
 20
13.3520389989
 30
0.0
 10
14.328960588
 20
13.3356836084
 30
0.0
 10
14.3219068712
 20
13.3230579807
 30
0.0
  0
SPLINE
  5
55E
100
AcDbEntity
  8
0
100
AcDbSpline
 62
7
  6
CONTINUOUS
 70
0
 71
3
 72
10
 73
6
 74
0
 42
0.0000001
 43
0.0000001
 44
0.0000000001
 40
0.0
 40
0.0
 40
0.0
 40
0.0
 40
0.4858871704
 40
0.7480543887
 40
1.0
 40
1.0
 40
1.0
 40
1.0
 10
16.0475932942
 20
12.1684109187
 30
0.0
 10
16.0463272386
 20
12.1654445667
 30
0.0
 10
16.0425633525
 20
12.1616198953
 30
0.0
 10
16.0364923731
 20
12.158892453
 30
0.0
 10
16.033061022
 20
12.1583365185
 30
0.0
 10
16.0313886506
 20
12.1583364157
 30
0.0
  0
SPLINE
  5
55F
100
AcDbEntity
  8
0
100
AcDbSpline
 62
7
  6
CONTINUOUS
 70
0
 71
3
 72
12
 73
8
 74
0
 42
0.0000001
 43
0.0000001
 44
0.0000000001
 40
0.0
 40
0.0
 40
0.0
 40
0.0
 40
0.229743203
 40
0.3547417977
 40
0.4842211668
 40
0.7469745605
 40
1.0
 40
1.0
 40
1.0
 40
1.0
 10
13.7229472003
 20
11.8197922212
 30
0.0
 10
13.7253452141
 20
11.8275521966
 30
0.0
 10
13.731749688
 20
11.8387699939
 30
0.0
 10
13.7435273613
 20
11.851229618
 30
0.0
 10
13.7579853438
 20
11.8625368231
 30
0.0
 10
13.7787853371
 20
11.8726073251
 30
0.0
 10
13.7970825828
 20
11.8757441433
 30
0.0
 10
13.806027723
 20
11.8757441433
 30
0.0
  0
SPLINE
  5
560
100
AcDbEntity
  8
0
100
AcDbSpline
 62
7
  6
CONTINUOUS
 70
0
 71
3
 72
9
 73
5
 74
0
 42
0.0000001
 43
0.0000001
 44
0.0000000001
 40
0.0
 40
0.0
 40
0.0
 40
0.0
 40
0.5257566131
 40
1.0
 40
1.0
 40
1.0
 40
1.0
 10
16.2461145273
 20
11.517849817
 30
0.0
 10
16.2467823586
 20
11.5164889199
 30
0.0
 10
16.2477162772
 20
11.5136954607
 30
0.0
 10
16.247499847
 20
11.5107206521
 30
0.0
 10
16.2470960966
 20
11.5094142196
 30
0.0
  0
LINE
  5
561
100
AcDbEntity
  8
0
100
AcDbLine
 62
7
  6
CONTINUOUS
 10
16.8575500872
 20
11.6911028003
 11
16.8464867728
 21
11.6865071459
  0
SPLINE
  5
562
100
AcDbEntity
  8
0
100
AcDbSpline
 62
7
  6
CONTINUOUS
 70
0
 71
3
 72
9
 73
5
 74
0
 42
0.0000001
 43
0.0000001
 44
0.0000000001
 40
0.0
 40
0.0
 40
0.0
 40
0.0
 40
0.2578994603
 40
1.0
 40
1.0
 40
1.0
 40
1.0
 10
16.6693675104
 20
12.3373475007
 30
0.0
 10
16.6681869815
 20
12.3335273076
 30
0.0
 10
16.6641310629
 20
12.3185626939
 30
0.0
 10
16.6622469317
 20
12.3029764959
 30
0.0
 10
16.6623438305
 20
12.2914714723
 30
0.0
  0
SPLINE
  5
563
100
AcDbEntity
  8
0
100
AcDbSpline
 62
7
  6
CONTINUOUS
 70
0
 71
3
 72
12
 73
8
 74
0
 42
0.0000001
 43
0.0000001
 44
0.0000000001
 40
0.0
 40
0.0
 40
0.0
 40
0.0
 40
0.2668372105
 40
0.3977069785
 40
0.5258297346
 40
0.7711836134
 40
1.0
 40
1.0
 40
1.0
 40
1.0
 10
16.793930769
 20
12.477227306
 30
0.0
 10
16.7789394808
 20
12.4691171447
 30
0.0
 10
16.7575254336
 20
12.455158067
 30
0.0
 10
16.7319596451
 20
12.4333235266
 30
0.0
 10
16.7093965396
 20
12.4102759941
 30
0.0
 10
16.68634673
 20
12.3791688251
 30
0.0
 10
16.6736827994
 20
12.351311781
 30
0.0
 10
16.6693675104
 20
12.3373475007
 30
0.0
  0
SPLINE
  5
564
100
AcDbEntity
  8
0
100
AcDbSpline
 62
7
  6
CONTINUOUS
 70
0
 71
3
 72
11
 73
7
 74
0
 42
0.0000001
 43
0.0000001
 44
0.0000000001
 40
0.0
 40
0.0
 40
0.0
 40
0.0
 40
0.2775738473
 40
0.5349741404
 40
0.7732019059
 40
1.0
 40
1.0
 40
1.0
 40
1.0
 10
14.100446333
 20
12.1583350018
 30
0.0
 10
14.0994242359
 20
12.158335195
 30
0.0
 10
14.097446037
 20
12.1585320897
 30
0.0
 10
14.0947269772
 20
12.1594741621
 30
0.0
 10
14.0925184166
 20
12.1610259514
 30
0.0
 10
14.0914812526
 20
12.1624351514
 30
0.0
 10
14.0911074518
 20
12.1631819524
 30
0.0
  0
SPLINE
  5
565
100
AcDbEntity
  8
0
100
AcDbSpline
 62
7
  6
CONTINUOUS
 70
0
 71
3
 72
9
 73
5
 74
0
 42
0.0000001
 43
0.0000001
 44
0.0000000001
 40
0.0
 40
0.0
 40
0.0
 40
0.0
 40
0.5111439386
 40
1.0
 40
1.0
 40
1.0
 40
1.0
 10
16.5094308325
 20
11.8197922212
 30
0.0
 10
16.5068345692
 20
11.81139071
 30
0.0
 10
16.5030105208
 20
11.7945295433
 30
0.0
 10
16.5021552899
 20
11.7772385762
 30
0.0
 10
16.5025467401
 20
11.7688376042
 30
0.0
  0
SPLINE
  5
566
100
AcDbEntity
  8
0
100
AcDbSpline
 62
7
  6
CONTINUOUS
 70
0
 71
3
 72
13
 73
9
 74
0
 42
0.0000001
 43
0.0000001
 44
0.0000000001
 40
0.0
 40
0.0
 40
0.0
 40
0.0
 40
0.2528458989
 40
0.3844165477
 40
0.5160987777
 40
0.6454891242
 40
0.7704201625
 40
1.0
 40
1.0
 40
1.0
 40
1.0
 10
16.77078831
 20
11.9958076428
 30
0.0
 10
16.7426497146
 20
11.9958076428
 30
0.0
 10
16.6996173422
 20
11.9884259072
 30
0.0
 10
16.6461926748
 20
11.9670672307
 30
0.0
 10
16.6081431368
 20
11.9452660692
 30
0.0
 10
16.574169877
 20
11.9186855627
 30
0.0
 10
16.5371219133
 20
11.8794944705
 30
0.0
 10
16.5169742177
 20
11.8442026247
 30
0.0
 10
16.5094308325
 20
11.8197922212
 30
0.0
  0
SPLINE
  5
567
100
AcDbEntity
  8
0
100
AcDbSpline
 62
7
  6
CONTINUOUS
 70
0
 71
3
 72
12
 73
8
 74
0
 42
0.0000001
 43
0.0000001
 44
0.0000000001
 40
0.0
 40
0.0
 40
0.0
 40
0.0
 40
0.229743203
 40
0.3547417977
 40
0.4842211668
 40
0.7469745605
 40
1.0
 40
1.0
 40
1.0
 40
1.0
 10
16.6506053598
 20
11.8197922212
 30
0.0
 10
16.6530033736
 20
11.8275521966
 30
0.0
 10
16.6594078475
 20
11.8387699939
 30
0.0
 10
16.6711855209
 20
11.851229618
 30
0.0
 10
16.6856435033
 20
11.8625368231
 30
0.0
 10
16.7064434967
 20
11.8726073251
 30
0.0
 10
16.7247407424
 20
11.8757441433
 30
0.0
 10
16.7336858825
 20
11.8757441433
 30
0.0
  0
LINE
  5
568
100
AcDbEntity
  8
0
100
AcDbLine
 62
7
  6
CONTINUOUS
 10
14.0457426167
 20
12.4497999669
 11
14.0463812528
 21
12.4530160407
  0
SPLINE
  5
569
100
AcDbEntity
  8
0
100
AcDbSpline
 62
7
  6
CONTINUOUS
 70
0
 71
3
 72
12
 73
8
 74
0
 42
0.0000001
 43
0.0000001
 44
0.0000000001
 40
0.0
 40
0.0
 40
0.0
 40
0.0
 40
0.229743203
 40
0.3547417977
 40
0.4842211668
 40
0.7469745605
 40
1.0
 40
1.0
 40
1.0
 40
1.0
 10
16.8105420378
 20
12.3373475007
 30
0.0
 10
16.8129400516
 20
12.3451074761
 30
0.0
 10
16.8193445255
 20
12.3563252735
 30
0.0
 10
16.8311221988
 20
12.3687848975
 30
0.0
 10
16.8455801813
 20
12.3800921026
 30
0.0
 10
16.8663801746
 20
12.3901626046
 30
0.0
 10
16.8846774203
 20
12.3932994229
 30
0.0
 10
16.8936225605
 20
12.3932994229
 30
0.0
  0
SPLINE
  5
56A
100
AcDbEntity
  8
0
100
AcDbSpline
 62
7
  6
CONTINUOUS
 70
0
 71
3
 72
11
 73
7
 74
0
 42
0.0000001
 43
0.0000001
 44
0.0000000001
 40
0.0
 40
0.0
 40
0.0
 40
0.0
 40
0.2330592579
 40
0.4793568296
 40
0.7361595953
 40
1.0
 40
1.0
 40
1.0
 40
1.0
 10
16.4362311536
 20
11.9689574834
 30
0.0
 10
16.4333007878
 20
11.9594748163
 30
0.0
 10
16.4299985678
 20
11.9390682302
 30
0.0
 10
16.4321284622
 20
11.9075914444
 30
0.0
 10
16.4401575423
 20
11.8757879728
 30
0.0
 10
16.448696744
 20
11.8552422989
 30
0.0
 10
16.4536476427
 20
11.8451558861
 30
0.0
  0
SPLINE
  5
56B
100
AcDbEntity
  8
0
100
AcDbSpline
 62
7
  6
CONTINUOUS
 70
0
 71
3
 72
18
 73
14
 74
0
 42
0.0000001
 43
0.0000001
 44
0.0000000001
 40
0.0
 40
0.0
 40
0.0
 40
0.0
 40
0.1411098544
 40
0.2797506687
 40
0.4137440161
 40
0.5416291437
 40
0.6626234709
 40
0.7206245979
 40
0.7771462788
 40
0.8325830196
 40
0.8875899562
 40
0.9430688367
 40
1.0
 40
1.0
 40
1.0
 40
1.0
 10
16.7499831671
 20
12.0382040667
 30
0.0
 10
16.7341598094
 20
12.0428632544
 30
0.0
 10
16.7022786849
 20
12.0504374543
 30
0.0
 10
16.6542948558
 20
12.0570187983
 30
0.0
 10
16.6074244791
 20
12.0588164691
 30
0.0
 10
16.5626882206
 20
12.0555797424
 30
0.0
 10
16.5274308272
 20
12.0480066833
 30
0.0
 10
16.5016144271
 20
12.0382992223
 30
0.0
 10
16.4839260827
 20
12.0291300353
 30
0.0
 10
16.467986663
 20
12.01773208
 30
0.0
 10
16.4542507705
 20
12.0038882273
 30
0.0
 10
16.4432673967
 20
11.9875450341
 30
0.0
 10
16.4381960172
 20
11.9753157842
 30
0.0
 10
16.4362311536
 20
11.9689574834
 30
0.0
  0
SPLINE
  5
56C
100
AcDbEntity
  8
0
100
AcDbSpline
 62
7
  6
CONTINUOUS
 70
0
 71
3
 72
11
 73
7
 74
0
 42
0.0000001
 43
0.0000001
 44
0.0000000001
 40
0.0
 40
0.0
 40
0.0
 40
0.0
 40
0.2765238907
 40
0.5364833628
 40
0.7778731868
 40
1.0
 40
1.0
 40
1.0
 40
1.0
 10
16.3027874057
 20
11.8970930184
 30
0.0
 10
16.2740405964
 20
11.9164989695
 30
0.0
 10
16.2200208111
 20
11.9568535606
 30
0.0
 10
16.1485421528
 20
12.0235857143
 30
0.0
 10
16.0903025327
 20
12.0935047301
 30
0.0
 10
16.0598770629
 20
12.143401013
 30
0.0
 10
16.0475986397
 20
12.1684104542
 30
0.0
  0
SPLINE
  5
56D
100
AcDbEntity
  8
0
100
AcDbSpline
 62
7
  6
CONTINUOUS
 70
0
 71
3
 72
10
 73
6
 74
0
 42
0.0000001
 43
0.0000001
 44
0.0000000001
 40
0.0
 40
0.0
 40
0.0
 40
0.0
 40
0.5174095112
 40
0.7629747303
 40
1.0
 40
1.0
 40
1.0
 40
1.0
 10
16.7224126109
 20
12.5720774038
 30
0.0
 10
16.7260675875
 20
12.5725977189
 30
0.0
 10
16.7316025534
 20
12.5725346755
 30
0.0
 10
16.7386103116
 20
12.5711603859
 30
0.0
 10
16.7418927232
 20
12.5700690339
 30
0.0
 10
16.7434483097
 20
12.569405412
 30
0.0
  0
SPLINE
  5
56E
100
AcDbEntity
  8
0
100
AcDbSpline
 62
7
  6
CONTINUOUS
 70
0
 71
3
 72
10
 73
6
 74
0
 42
0.0000001
 43
0.0000001
 44
0.0000000001
 40
0.0
 40
0.0
 40
0.0
 40
0.0
 40
0.2460849786
 40
0.4950698976
 40
1.0
 40
1.0
 40
1.0
 40
1.0
 10
16.5925985468
 20
12.6395862115
 30
0.0
 10
16.6029059931
 20
12.6334253874
 30
0.0
 10
16.6238217821
 20
12.6213284607
 30
0.0
 10
16.6667443063
 20
12.5981038868
 30
0.0
 10
16.6999321259
 20
12.5821630729
 30
0.0
 10
16.7224126109
 20
12.5720774038
 30
0.0
  0
SPLINE
  5
56F
100
AcDbEntity
  8
0
100
AcDbSpline
 62
7
  6
CONTINUOUS
 70
0
 71
3
 72
16
 73
12
 74
0
 42
0.0000001
 43
0.0000001
 44
0.0000000001
 40
0.0
 40
0.0
 40
0.0
 40
0.0
 40
0.143593247
 40
0.2838829971
 40
0.4188900607
 40
0.5468303403
 40
0.667046241
 40
0.7247152033
 40
0.7810496575
 40
0.8910200042
 40
1.0
 40
1.0
 40
1.0
 40
1.0
 10
15.8218684021
 20
13.0479238019
 30
0.0
 10
15.8181322187
 20
13.0555398108
 30
0.0
 10
15.8113880305
 20
13.0709291095
 30
0.0
 10
15.8040350164
 20
13.0946248486
 30
0.0
 10
15.8002831103
 20
13.1182570041
 30
0.0
 10
15.8008858892
 20
13.1410405908
 30
0.0
 10
15.8054945943
 20
13.1587196965
 30
0.0
 10
15.8115670726
 20
13.1711956883
 30
0.0
 10
15.8189265591
 20
13.1822349381
 30
0.0
 10
15.830603728
 20
13.1938389215
 30
0.0
 10
15.8418891875
 20
13.2004306108
 30
0.0
 10
15.8477624652
 20
13.2030679185
 30
0.0
  0
SPLINE
  5
570
100
AcDbEntity
  8
0
100
AcDbSpline
 62
7
  6
CONTINUOUS
 70
0
 71
3
 72
11
 73
7
 74
0
 42
0.0000001
 43
0.0000001
 44
0.0000000001
 40
0.0
 40
0.0
 40
0.0
 40
0.0
 40
0.2417935582
 40
0.4891466668
 40
0.7421979252
 40
1.0
 40
1.0
 40
1.0
 40
1.0
 10
15.8477624652
 20
13.2030679185
 30
0.0
 10
15.8555892682
 20
13.2065824277
 30
0.0
 10
15.8724882173
 20
13.2114270683
 30
0.0
 10
15.8989257816
 20
13.2129645359
 30
0.0
 10
15.9257629343
 20
13.2099336019
 30
0.0
 10
15.9433803774
 20
13.2054533183
 30
0.0
 10
15.9521088562
 20
13.2027157872
 30
0.0
  0
SPLINE
  5
571
100
AcDbEntity
  8
0
100
AcDbSpline
 62
7
  6
CONTINUOUS
 70
0
 71
3
 72
11
 73
7
 74
0
 42
0.0000001
 43
0.0000001
 44
0.0000000001
 40
0.0
 40
0.0
 40
0.0
 40
0.0
 40
0.2330155663
 40
0.4792627259
 40
0.736068936
 40
1.0
 40
1.0
 40
1.0
 40
1.0
 10
16.5961678316
 20
12.486512763
 30
0.0
 10
16.593238012
 20
12.4770318634
 30
0.0
 10
16.5899365625
 20
12.4566292889
 30
0.0
 10
16.5920640977
 20
12.4251564623
 30
0.0
 10
16.6000902013
 20
12.3933499807
 30
0.0
 10
16.6086333929
 20
12.3728015986
 30
0.0
 10
16.6135850896
 20
12.3627112633
 30
0.0
  0
SPLINE
  5
572
100
AcDbEntity
  8
0
100
AcDbSpline
 62
7
  6
CONTINUOUS
 70
0
 71
3
 72
14
 73
10
 74
0
 42
0.0000001
 43
0.0000001
 44
0.0000000001
 40
0.0
 40
0.0
 40
0.0
 40
0.0
 40
0.2639664968
 40
0.3905118522
 40
0.5138150839
 40
0.6347580089
 40
0.7547607793
 40
0.8758229972
 40
1.0
 40
1.0
 40
1.0
 40
1.0
 10
16.7224126109
 20
12.5720774038
 30
0.0
 10
16.70837153
 20
12.5700629029
 30
0.0
 10
16.6877175266
 20
12.5656625399
 30
0.0
 10
16.661812112
 20
12.5559758524
 30
0.0
 10
16.6440585413
 20
12.5468045067
 30
0.0
 10
16.6280531613
 20
12.5354021033
 30
0.0
 10
16.6142578316
 20
12.5215341389
 30
0.0
 10
16.6032303628
 20
12.5051511348
 30
0.0
 10
16.5981380001
 20
12.4928882305
 30
0.0
 10
16.5961678316
 20
12.486512763
 30
0.0
  0
SPLINE
  5
573
100
AcDbEntity
  8
0
100
AcDbSpline
 62
7
  6
CONTINUOUS
 70
0
 71
3
 72
11
 73
7
 74
0
 42
0.0000001
 43
0.0000001
 44
0.0000000001
 40
0.0
 40
0.0
 40
0.0
 40
0.0
 40
0.2278639657
 40
0.4706634403
 40
0.7283009182
 40
1.0
 40
1.0
 40
1.0
 40
1.0
 10
16.0475986397
 20
12.1684104542
 30
0.0
 10
16.0353218284
 20
12.1934160769
 30
0.0
 10
16.0064401196
 20
12.2433833052
 30
0.0
 10
15.9532442951
 20
12.3149813991
 30
0.0
 10
15.8894500321
 20
12.3847506339
 30
0.0
 10
15.8415684609
 20
12.4284207668
 30
0.0
 10
15.8161477179
 20
12.4497999669
 30
0.0
  0
SPLINE
  5
574
100
AcDbEntity
  8
0
100
AcDbSpline
 62
7
  6
CONTINUOUS
 70
0
 71
3
 72
18
 73
14
 74
0
 42
0.0000001
 43
0.0000001
 44
0.0000000001
 40
0.0
 40
0.0
 40
0.0
 40
0.0
 40
0.2086577422
 40
0.3956971586
 40
0.5583819171
 40
0.6942384535
 40
0.7513430041
 40
0.8008647679
 40
0.8428303279
 40
0.8777804917
 40
0.9072328319
 40
0.9343622435
 40
1.0
 40
1.0
 40
1.0
 40
1.0
 10
14.2713505853
 20
13.1857921944
 30
0.0
 10
14.2720603026
 20
13.1880894689
 30
0.0
 10
14.2735013219
 20
13.1924176174
 30
0.0
 10
14.2758596142
 20
13.1984085568
 30
0.0
 10
14.2782540926
 20
13.2034703404
 30
0.0
 10
14.2803349683
 20
13.2070131591
 30
0.0
 10
14.2820070343
 20
13.209255542
 30
0.0
 10
14.2831568548
 20
13.2105286801
 30
0.0
 10
14.2842690193
 20
13.2114789059
 30
0.0
 10
14.285342884
 20
13.2120903
 30
0.0
 10
14.2863929555
 20
13.2123349476
 30
0.0
 10
14.2878231299
 20
13.2120308295
 30
0.0
 10
14.2885236513
 20
13.2110544725
 30
0.0
 10
14.2888562701
 20
13.2103751779
 30
0.0
  0
SPLINE
  5
575
100
AcDbEntity
  8
0
100
AcDbSpline
 62
7
  6
CONTINUOUS
 70
0
 71
3
 72
9
 73
5
 74
0
 42
0.0000001
 43
0.0000001
 44
0.0000000001
 40
0.0
 40
0.0
 40
0.0
 40
0.0
 40
0.489397526
 40
1.0
 40
1.0
 40
1.0
 40
1.0
 10
15.8934561352
 20
12.9669015184
 30
0.0
 10
15.8971816336
 20
12.959306352
 30
0.0
 10
15.9073337871
 20
12.9449236144
 30
0.0
 10
15.9212724476
 20
12.934266911
 30
0.0
 10
15.928911219
 20
12.9298452451
 30
0.0
  0
SPLINE
  5
576
100
AcDbEntity
  8
0
100
AcDbSpline
 62
7
  6
CONTINUOUS
 70
0
 71
3
 72
9
 73
5
 74
0
 42
0.0000001
 43
0.0000001
 44
0.0000000001
 40
0.0
 40
0.0
 40
0.0
 40
0.0
 40
0.2563009913
 40
1.0
 40
1.0
 40
1.0
 40
1.0
 10
14.1870677077
 20
12.9119166545
 30
0.0
 10
14.1828111012
 20
12.9107187029
 30
0.0
 10
14.1660608243
 20
12.9065788644
 30
0.0
 10
14.1487474745
 20
12.9046141557
 30
0.0
 10
14.1359164197
 20
12.9046141557
 30
0.0
  0
SPLINE
  5
577
100
AcDbEntity
  8
0
100
AcDbSpline
 62
7
  6
CONTINUOUS
 70
0
 71
3
 72
11
 73
7
 74
0
 42
0.0000001
 43
0.0000001
 44
0.0000000001
 40
0.0
 40
0.0
 40
0.0
 40
0.0
 40
0.2310609312
 40
0.4764500197
 40
0.7340123735
 40
1.0
 40
1.0
 40
1.0
 40
1.0
 10
16.6186454188
 20
12.5592502618
 30
0.0
 10
16.6195885264
 20
12.5623021592
 30
0.0
 10
16.62063428
 20
12.5688917926
 30
0.0
 10
16.6198910995
 20
12.5790787292
 30
0.0
 10
16.6171714618
 20
12.5894037861
 30
0.0
 10
16.6143441377
 20
12.5960900368
 30
0.0
 10
16.6127237759
 20
12.5993909131
 30
0.0
  0
LINE
  5
578
100
AcDbEntity
  8
0
100
AcDbLine
 62
7
  6
CONTINUOUS
 10
13.7571922177
 20
11.6865071459
 11
13.7489692325
 21
11.6911028003
  0
SPLINE
  5
579
100
AcDbEntity
  8
0
100
AcDbSpline
 62
7
  6
CONTINUOUS
 70
0
 71
3
 72
12
 73
8
 74
0
 42
0.0000001
 43
0.0000001
 44
0.0000000001
 40
0.0
 40
0.0
 40
0.0
 40
0.0
 40
0.2594634536
 40
0.5135620761
 40
0.6386153299
 40
0.7625658002
 40
1.0
 40
1.0
 40
1.0
 40
1.0
 10
13.8033941022
 20
11.6799124159
 30
0.0
 10
13.7993375623
 20
11.6799124159
 30
0.0
 10
13.791306125
 20
11.6801484505
 30
0.0
 10
13.7813561798
 20
11.6810413635
 30
0.0
 10
13.7735644332
 20
11.6821529375
 30
0.0
 10
13.766089508
 20
11.6834871098
 30
0.0
 10
13.7605496321
 20
11.6849235881
 30
0.0
 10
13.7571922177
 20
11.6865071459
 30
0.0
  0
LINE
  5
57A
100
AcDbEntity
  8
0
100
AcDbLine
 62
7
  6
CONTINUOUS
 10
13.7683275135
 20
11.6736223884
 11
13.8033941022
 21
11.6799124159
  0
SPLINE
  5
57B
100
AcDbEntity
  8
0
100
AcDbSpline
 62
7
  6
CONTINUOUS
 70
0
 71
3
 72
14
 73
10
 74
0
 42
0.0000001
 43
0.0000001
 44
0.0000000001
 40
0.0
 40
0.0
 40
0.0
 40
0.0
 40
0.253641277
 40
0.3827824261
 40
0.5105426055
 40
0.6368283049
 40
0.7658133469
 40
0.8881377525
 40
1.0
 40
1.0
 40
1.0
 40
1.0
 10
13.7571922177
 20
11.6865071459
 30
0.0
 10
13.757299037
 20
11.6848418596
 30
0.0
 10
13.7577100815
 20
11.6823332518
 30
0.0
 10
13.758796484
 20
11.6791476327
 30
0.0
 10
13.7599299727
 20
11.676886264
 30
0.0
 10
13.761450207
 20
11.6748478594
 30
0.0
 10
13.7636319151
 20
11.6734621383
 30
0.0
 10
13.7660762364
 20
11.6733063536
 30
0.0
 10
13.7676013326
 20
11.6735029175
 30
0.0
 10
13.7683275135
 20
11.6736223884
 30
0.0
  0
SPLINE
  5
57C
100
AcDbEntity
  8
0
100
AcDbSpline
 62
7
  6
CONTINUOUS
 70
0
 71
3
 72
18
 73
14
 74
0
 42
0.0000001
 43
0.0000001
 44
0.0000000001
 40
0.0
 40
0.0
 40
0.0
 40
0.0
 40
0.1140877696
 40
0.174701839
 40
0.2372894773
 40
0.3669180491
 40
0.4999292123
 40
0.6329443819
 40
0.7625850593
 40
0.8251807885
 40
0.8858055431
 40
0.9441603388
 40
1.0
 40
1.0
 40
1.0
 40
1.0
 10
14.8304015305
 20
13.6441351589
 30
0.0
 10
14.8815469417
 20
13.6554644715
 30
0.0
 10
14.9614825523
 20
13.6660110105
 30
0.0
 10
15.0704323452
 20
13.6691197761
 30
0.0
 10
15.1865240614
 20
13.6648072225
 30
0.0
 10
15.3349624708
 20
13.6453183072
 30
0.0
 10
15.511602969
 20
13.6013087007
 30
0.0
 10
15.6822954066
 20
13.5380334369
 30
0.0
 10
15.8158852287
 20
13.4704103333
 30
0.0
 10
15.9141889135
 20
13.4085029751
 30
0.0
 10
15.9817302905
 20
13.3595087306
 30
0.0
 10
16.0432848048
 20
13.3078843031
 30
0.0
 10
16.0808264686
 20
13.2711826625
 30
0.0
 10
16.0983736815
 20
13.2524880935
 30
0.0
  0
SPLINE
  5
57D
100
AcDbEntity
  8
0
100
AcDbSpline
 62
7
  6
CONTINUOUS
 70
0
 71
3
 72
9
 73
5
 74
0
 42
0.0000001
 43
0.0000001
 44
0.0000000001
 40
0.0
 40
0.0
 40
0.0
 40
0.0
 40
0.2630094351
 40
1.0
 40
1.0
 40
1.0
 40
1.0
 10
15.8130506327
 20
12.4546292064
 30
0.0
 10
15.8132186146
 20
12.4541518998
 30
0.0
 10
15.8139317181
 20
12.4523696971
 30
0.0
 10
15.8150625708
 20
12.4507125908
 30
0.0
 10
15.8161477179
 20
12.4497999669
 30
0.0
  0
SPLINE
  5
57E
100
AcDbEntity
  8
0
100
AcDbSpline
 62
7
  6
CONTINUOUS
 70
0
 71
3
 72
9
 73
5
 74
0
 42
0.0000001
 43
0.0000001
 44
0.0000000001
 40
0.0
 40
0.0
 40
0.0
 40
0.0
 40
0.230008956
 40
1.0
 40
1.0
 40
1.0
 40
1.0
 10
15.8127306732
 20
12.4598352303
 30
0.0
 10
15.8126114363
 20
12.4594493794
 30
0.0
 10
15.8122837817
 20
12.4577131579
 30
0.0
 10
15.8126011775
 20
12.4559042759
 30
0.0
 10
15.8130506327
 20
12.4546292064
 30
0.0
  0
SPLINE
  5
57F
100
AcDbEntity
  8
0
100
AcDbSpline
 62
7
  6
CONTINUOUS
 70
0
 71
3
 72
9
 73
5
 74
0
 42
0.0000001
 43
0.0000001
 44
0.0000000001
 40
0.0
 40
0.0
 40
0.0
 40
0.0
 40
0.4886225348
 40
1.0
 40
1.0
 40
1.0
 40
1.0
 10
16.0514929621
 20
13.2262288671
 30
0.0
 10
16.0510754082
 20
13.2261559176
 30
0.0
 10
16.0502391363
 20
13.2258382586
 30
0.0
 10
16.0496064856
 20
13.2252068476
 30
0.0
 10
16.049351899
 20
13.2248435534
 30
0.0
  0
LINE
  5
580
100
AcDbEntity
  8
0
100
AcDbLine
 62
7
  6
CONTINUOUS
 10
16.049351899
 20
13.2248435534
 11
16.0487453386
 21
13.2235789672
  0
SPLINE
  5
581
100
AcDbEntity
  8
0
100
AcDbSpline
 62
7
  6
CONTINUOUS
 70
0
 71
3
 72
9
 73
5
 74
0
 42
0.0000001
 43
0.0000001
 44
0.0000000001
 40
0.0
 40
0.0
 40
0.0
 40
0.0
 40
0.2862237023
 40
1.0
 40
1.0
 40
1.0
 40
1.0
 10
14.6202466699
 20
13.2305678351
 30
0.0
 10
14.6221405635
 20
13.2312324599
 30
0.0
 10
14.6288434721
 20
13.2331357225
 30
0.0
 10
14.6364435805
 20
13.2331776391
 30
0.0
 10
14.6410346954
 20
13.2311839389
 30
0.0
  0
SPLINE
  5
582
100
AcDbEntity
  8
0
100
AcDbSpline
 62
7
  6
CONTINUOUS
 70
0
 71
3
 72
20
 73
16
 74
0
 42
0.0000001
 43
0.0000001
 44
0.0000000001
 40
0.0
 40
0.0
 40
0.0
 40
0.0
 40
0.1213095238
 40
0.2396211885
 40
0.2975724245
 40
0.3547560587
 40
0.4113777396
 40
0.4680046761
 40
0.5254640528
 40
0.584796444
 40
0.6469452384
 40
0.7123718077
 40
0.7810106155
 40
0.8523251414
 40
1.0
 40
1.0
 40
1.0
 40
1.0
 10
15.8375485833
 20
12.8328879448
 30
0.0
 10
15.8266085685
 20
12.8363060239
 30
0.0
 10
15.8044938279
 20
12.8415841334
 30
0.0
 10
15.7761834935
 20
12.8430997663
 30
0.0
 10
15.7542560262
 20
12.8402030822
 30
0.0
 10
15.7385763427
 20
12.835768186
 30
0.0
 10
15.7239642044
 20
12.8287934606
 30
0.0
 10
15.7109352362
 20
12.8190911113
 30
0.0
 10
15.7001257049
 20
12.8065969827
 30
0.0
 10
15.6921197207
 20
12.7915464347
 30
0.0
 10
15.6873531148
 20
12.7744104742
 30
0.0
 10
15.6859045174
 20
12.7558299638
 30
0.0
 10
15.6875767399
 20
12.7364237331
 30
0.0
 10
15.6935630279
 20
12.7098544924
 30
0.0
 10
15.7014138741
 20
12.6905456762
 30
0.0
 10
15.7075602615
 20
12.6780198251
 30
0.0
  0
SPLINE
  5
583
100
AcDbEntity
  8
0
100
AcDbSpline
 62
7
  6
CONTINUOUS
 70
0
 71
3
 72
14
 73
10
 74
0
 42
0.0000001
 43
0.0000001
 44
0.0000000001
 40
0.0
 40
0.0
 40
0.0
 40
0.0
 40
0.2684722733
 40
0.3988503302
 40
0.5256991963
 40
0.6482586841
 40
0.7663074811
 40
0.8816992097
 40
1.0
 40
1.0
 40
1.0
 40
1.0
 10
16.3149219022
 20
11.8895372325
 30
0.0
 10
16.3236504516
 20
11.8845444722
 30
0.0
 10
16.3372931065
 20
11.8781454874
 30
0.0
 10
16.3563316975
 20
11.8729510411
 30
0.0
 10
16.3705062685
 20
11.8711697588
 30
0.0
 10
16.3843442744
 20
11.8719615395
 30
0.0
 10
16.3972521014
 20
11.8759734048
 30
0.0
 10
16.408087948
 20
11.8840258713
 30
0.0
 10
16.4124453412
 20
11.8919865662
 30
0.0
 10
16.4137535665
 20
11.8962199847
 30
0.0
  0
SPLINE
  5
584
100
AcDbEntity
  8
0
100
AcDbSpline
 62
7
  6
CONTINUOUS
 70
0
 71
3
 72
9
 73
5
 74
0
 42
0.0000001
 43
0.0000001
 44
0.0000000001
 40
0.0
 40
0.0
 40
0.0
 40
0.0
 40
0.489397526
 40
1.0
 40
1.0
 40
1.0
 40
1.0
 10
14.0294041235
 20
12.9669015184
 30
0.0
 10
14.0331296219
 20
12.959306352
 30
0.0
 10
14.0432817755
 20
12.9449236144
 30
0.0
 10
14.0572204359
 20
12.934266911
 30
0.0
 10
14.0648592073
 20
12.9298452451
 30
0.0
  0
SPLINE
  5
585
100
AcDbEntity
  8
0
100
AcDbSpline
 62
7
  6
CONTINUOUS
 70
0
 71
3
 72
9
 73
5
 74
0
 42
0.0000001
 43
0.0000001
 44
0.0000000001
 40
0.0
 40
0.0
 40
0.0
 40
0.0
 40
0.2383088416
 40
1.0
 40
1.0
 40
1.0
 40
1.0
 10
14.5741097421
 20
12.6993453515
 30
0.0
 10
14.5737287449
 20
12.6981185913
 30
0.0
 10
14.5723242829
 20
12.6929099295
 30
0.0
 10
14.5715772628
 20
12.6875454823
 30
0.0
 10
14.5711958036
 20
12.6834574784
 30
0.0
  0
SPLINE
  5
586
100
AcDbEntity
  8
0
100
AcDbSpline
 62
7
  6
CONTINUOUS
 70
0
 71
3
 72
9
 73
5
 74
0
 42
0.0000001
 43
0.0000001
 44
0.0000000001
 40
0.0
 40
0.0
 40
0.0
 40
0.0
 40
0.4795121998
 40
1.0
 40
1.0
 40
1.0
 40
1.0
 10
14.5800121658
 20
12.711849186
 30
0.0
 10
14.5788022773
 20
12.7099931139
 30
0.0
 10
14.5765047653
 20
12.7059672167
 30
0.0
 10
14.5748230332
 20
12.7016420537
 30
0.0
 10
14.5741097421
 20
12.6993453515
 30
0.0
  0
SPLINE
  5
587
100
AcDbEntity
  8
0
100
AcDbSpline
 62
7
  6
CONTINUOUS
 70
0
 71
3
 72
9
 73
5
 74
0
 42
0.0000001
 43
0.0000001
 44
0.0000000001
 40
0.0
 40
0.0
 40
0.0
 40
0.0
 40
0.2548343449
 40
1.0
 40
1.0
 40
1.0
 40
1.0
 10
14.5547567697
 20
12.6755241985
 30
0.0
 10
14.5534997994
 20
12.6747145659
 30
0.0
 10
14.5486789836
 20
12.6713633764
 30
0.0
 10
14.5443208102
 20
12.6673769863
 30
0.0
 10
14.5413075928
 20
12.664209194
 30
0.0
  0
SPLINE
  5
588
100
AcDbEntity
  8
0
100
AcDbSpline
 62
7
  6
CONTINUOUS
 70
0
 71
3
 72
9
 73
5
 74
0
 42
0.0000001
 43
0.0000001
 44
0.0000000001
 40
0.0
 40
0.0
 40
0.0
 40
0.0
 40
0.2481151797
 40
1.0
 40
1.0
 40
1.0
 40
1.0
 10
14.5383099811
 20
12.1665616116
 30
0.0
 10
14.5376555251
 20
12.1637226352
 30
0.0
 10
14.5353159389
 20
12.15221327
 30
0.0
 10
14.5341858906
 20
12.1404621179
 30
0.0
 10
14.5339947411
 20
12.1316353561
 30
0.0
  0
SPLINE
  5
589
100
AcDbEntity
  8
0
100
AcDbSpline
 62
7
  6
CONTINUOUS
 70
0
 71
3
 72
11
 73
7
 74
0
 42
0.0000001
 43
0.0000001
 44
0.0000000001
 40
0.0
 40
0.0
 40
0.0
 40
0.0
 40
0.3997595222
 40
0.7002651211
 40
0.8979968024
 40
1.0
 40
1.0
 40
1.0
 40
1.0
 10
17.0887998577
 20
12.4706325761
 30
0.0
 10
17.0888941534
 20
12.470897972
 30
0.0
 10
17.089072274
 20
12.4713555974
 30
0.0
 10
17.0893669397
 20
12.4719280969
 30
0.0
 10
17.0895993588
 20
12.4722598849
 30
0.0
 10
17.0897927288
 20
12.4724110843
 30
0.0
 10
17.089863877
 20
12.4724009517
 30
0.0
  0
SPLINE
  5
58A
100
AcDbEntity
  8
0
100
AcDbSpline
 62
7
  6
CONTINUOUS
 70
0
 71
3
 72
9
 73
5
 74
0
 42
0.0000001
 43
0.0000001
 44
0.0000000001
 40
0.0
 40
0.0
 40
0.0
 40
0.0
 40
0.2517257568
 40
1.0
 40
1.0
 40
1.0
 40
1.0
 10
14.5711962093
 20
12.6834608808
 30
0.0
 10
14.5697558075
 20
12.6829350675
 30
0.0
 10
14.5640751545
 20
12.6807411035
 30
0.0
 10
14.5585887302
 20
12.6779924192
 30
0.0
 10
14.5547567697
 20
12.6755241985
 30
0.0
  0
LINE
  5
58B
100
AcDbEntity
  8
0
100
AcDbLine
 62
7
  6
CONTINUOUS
 10
14.5292768174
 20
12.6704678213
 11
14.5260401602
 21
12.671753819
  0
SPLINE
  5
58C
100
AcDbEntity
  8
0
100
AcDbSpline
 62
7
  6
CONTINUOUS
 70
0
 71
3
 72
9
 73
5
 74
0
 42
0.0000001
 43
0.0000001
 44
0.0000000001
 40
0.0
 40
0.0
 40
0.0
 40
0.0
 40
0.2777845329
 40
1.0
 40
1.0
 40
1.0
 40
1.0
 10
14.5260401602
 20
12.671753819
 30
0.0
 10
14.525515184
 20
12.6719419402
 30
0.0
 10
14.5236135055
 20
12.672585093
 30
0.0
 10
14.5216624995
 20
12.6730871352
 30
0.0
 10
14.5202363047
 20
12.6733481265
 30
0.0
  0
SPLINE
  5
58D
100
AcDbEntity
  8
0
100
AcDbSpline
 62
7
  6
CONTINUOUS
 70
0
 71
3
 72
11
 73
7
 74
0
 42
0.0000001
 43
0.0000001
 44
0.0000000001
 40
0.0
 40
0.0
 40
0.0
 40
0.0
 40
0.2778960494
 40
0.534982836
 40
0.7731369267
 40
1.0
 40
1.0
 40
1.0
 40
1.0
 10
17.0745452557
 20
12.3932994229
 30
0.0
 10
17.0796885864
 20
12.3932994229
 30
0.0
 10
17.0896336315
 20
12.3923129949
 30
0.0
 10
17.1032902668
 20
12.3875432971
 30
0.0
 10
17.1143549323
 20
12.3797000694
 30
0.0
 10
17.1195283051
 20
12.3725840311
 30
0.0
 10
17.1213775979
 20
12.3688144032
 30
0.0
  0
SPLINE
  5
58E
100
AcDbEntity
  8
0
100
AcDbSpline
 62
7
  6
CONTINUOUS
 70
0
 71
3
 72
9
 73
5
 74
0
 42
0.0000001
 43
0.0000001
 44
0.0000000001
 40
0.0
 40
0.0
 40
0.0
 40
0.0
 40
0.5311671652
 40
1.0
 40
1.0
 40
1.0
 40
1.0
 10
14.5413075928
 20
12.664209194
 30
0.0
 10
14.5392292328
 20
12.6654134945
 30
0.0
 10
14.5352836414
 20
12.6676248266
 30
0.0
 10
14.5312219249
 20
12.6696241991
 30
0.0
 10
14.5292768174
 20
12.6704678213
 30
0.0
  0
SPLINE
  5
58F
100
AcDbEntity
  8
0
100
AcDbSpline
 62
7
  6
CONTINUOUS
 70
0
 71
3
 72
11
 73
7
 74
0
 42
0.0000001
 43
0.0000001
 44
0.0000000001
 40
0.0
 40
0.0
 40
0.0
 40
0.0
 40
0.2778960494
 40
0.534982836
 40
0.7731369267
 40
1.0
 40
1.0
 40
1.0
 40
1.0
 10
16.9146085778
 20
11.8757441433
 30
0.0
 10
16.9197519085
 20
11.8757441433
 30
0.0
 10
16.9296969536
 20
11.8747577153
 30
0.0
 10
16.9433535889
 20
11.8699880175
 30
0.0
 10
16.9544182543
 20
11.8621447898
 30
0.0
 10
16.9595916272
 20
11.8550287515
 30
0.0
 10
16.9614409199
 20
11.8512591236
 30
0.0
  0
SPLINE
  5
590
100
AcDbEntity
  8
0
100
AcDbSpline
 62
7
  6
CONTINUOUS
 70
0
 71
3
 72
11
 73
7
 74
0
 42
0.0000001
 43
0.0000001
 44
0.0000000001
 40
0.0
 40
0.0
 40
0.0
 40
0.0
 40
0.2778960494
 40
0.534982836
 40
0.7731369267
 40
1.0
 40
1.0
 40
1.0
 40
1.0
 10
13.9869504182
 20
11.8757441433
 30
0.0
 10
13.9920937489
 20
11.8757441433
 30
0.0
 10
14.0020387941
 20
11.8747577153
 30
0.0
 10
14.0156954294
 20
11.8699880175
 30
0.0
 10
14.0267600948
 20
11.8621447898
 30
0.0
 10
14.0319334677
 20
11.8550287515
 30
0.0
 10
14.0337827604
 20
11.8512591236
 30
0.0
  0
SPLINE
  5
591
100
AcDbEntity
  8
0
100
AcDbSpline
 62
7
  6
CONTINUOUS
 70
0
 71
3
 72
17
 73
13
 74
0
 42
0.0000001
 43
0.0000001
 44
0.0000000001
 40
0.0
 40
0.0
 40
0.0
 40
0.0
 40
0.0740409541
 40
0.1068773924
 40
0.1418044617
 40
0.1813535197
 40
0.2267167054
 40
0.3360069268
 40
0.4701396049
 40
0.6269877436
 40
0.8042986321
 40
1.0
 40
1.0
 40
1.0
 40
1.0
 10
14.0783568564
 20
11.8734252591
 30
0.0
 10
14.0786666127
 20
11.8727949456
 30
0.0
 10
14.0793558348
 20
11.8719227648
 30
0.0
 10
14.0806723311
 20
11.8715210016
 30
0.0
 10
14.0817040138
 20
11.8715675041
 30
0.0
 10
14.0827988368
 20
11.8719026383
 30
0.0
 10
14.0844432156
 20
11.8727475215
 30
0.0
 10
14.0866047519
 20
11.8744638009
 30
0.0
 10
14.089221918
 20
11.8772212288
 30
0.0
 10
14.0919631724
 20
11.8807237559
 30
0.0
 10
14.0947794107
 20
11.8848897856
 30
0.0
 10
14.0966002967
 20
11.8879254495
 30
0.0
 10
14.0975212086
 20
11.8895372325
 30
0.0
  0
SPLINE
  5
592
100
AcDbEntity
  8
0
100
AcDbSpline
 62
7
  6
CONTINUOUS
 70
0
 71
3
 72
9
 73
5
 74
0
 42
0.0000001
 43
0.0000001
 44
0.0000000001
 40
0.0
 40
0.0
 40
0.0
 40
0.0
 40
0.4742451236
 40
1.0
 40
1.0
 40
1.0
 40
1.0
 10
16.2073282437
 20
11.380724743
 30
0.0
 10
16.2077319548
 20
11.3820312063
 30
0.0
 10
16.2079483783
 20
11.3850060465
 30
0.0
 10
16.2070143239
 20
11.3877994907
 30
0.0
 10
16.2063464885
 20
11.3891603961
 30
0.0
  0
SPLINE
  5
593
100
AcDbEntity
  8
0
100
AcDbSpline
 62
7
  6
CONTINUOUS
 70
0
 71
3
 72
9
 73
5
 74
0
 42
0.0000001
 43
0.0000001
 44
0.0000000001
 40
0.0
 40
0.0
 40
0.0
 40
0.0
 40
0.2434800169
 40
1.0
 40
1.0
 40
1.0
 40
1.0
 10
14.0172495815
 20
12.5435899241
 30
0.0
 10
14.0214701596
 20
12.5435899241
 30
0.0
 10
14.0388013114
 20
12.5442415948
 30
0.0
 10
14.0560147757
 20
12.5473901928
 30
0.0
 10
14.0686338777
 20
12.5509581588
 30
0.0
  0
SPLINE
  5
594
100
AcDbEntity
  8
0
100
AcDbSpline
 62
7
  6
CONTINUOUS
 70
0
 71
3
 72
11
 73
7
 74
0
 42
0.0000001
 43
0.0000001
 44
0.0000000001
 40
0.0
 40
0.0
 40
0.0
 40
0.0
 40
0.228543351
 40
0.4907350772
 40
0.758050382
 40
1.0
 40
1.0
 40
1.0
 40
1.0
 10
14.5956618469
 20
13.1984362556
 30
0.0
 10
14.5982166205
 20
13.1985568182
 30
0.0
 10
14.6036346904
 20
13.2001010254
 30
0.0
 10
14.6108720097
 20
13.2046767113
 30
0.0
 10
14.6168974929
 20
13.2109717264
 30
0.0
 10
14.6196725465
 20
13.2160822749
 30
0.0
 10
14.6204719717
 20
13.2186692158
 30
0.0
  0
SPLINE
  5
595
100
AcDbEntity
  8
0
100
AcDbSpline
 62
7
  6
CONTINUOUS
 70
0
 71
3
 72
9
 73
5
 74
0
 42
0.0000001
 43
0.0000001
 44
0.0000000001
 40
0.0
 40
0.0
 40
0.0
 40
0.0
 40
0.4788349354
 40
1.0
 40
1.0
 40
1.0
 40
1.0
 10
13.9505501102
 20
12.5599408711
 30
0.0
 10
13.9601178849
 20
12.554402611
 30
0.0
 10
13.9820259461
 20
12.5460371716
 30
0.0
 10
14.0052172142
 20
12.5435899241
 30
0.0
 10
14.0172495815
 20
12.5435899241
 30
0.0
  0
SPLINE
  5
596
100
AcDbEntity
  8
0
100
AcDbSpline
 62
7
  6
CONTINUOUS
 70
0
 71
3
 72
11
 73
7
 74
0
 42
0.0000001
 43
0.0000001
 44
0.0000000001
 40
0.0
 40
0.0
 40
0.0
 40
0.0
 40
0.2476528855
 40
0.4889554324
 40
0.7357783477
 40
1.0
 40
1.0
 40
1.0
 40
1.0
 10
14.6410346954
 20
13.2311839389
 30
0.0
 10
14.6423467809
 20
13.2306141633
 30
0.0
 10
14.6448081475
 20
13.2291450537
 30
0.0
 10
14.6477236883
 20
13.2259692635
 30
0.0
 10
14.6496186791
 20
13.2219943479
 30
0.0
 10
14.6501507119
 20
13.2190563547
 30
0.0
 10
14.6502607478
 20
13.2175341655
 30
0.0
  0
SPLINE
  5
597
100
AcDbEntity
  8
0
100
AcDbSpline
 62
7
  6
CONTINUOUS
 70
0
 71
3
 72
9
 73
5
 74
0
 42
0.0000001
 43
0.0000001
 44
0.0000000001
 40
0.0
 40
0.0
 40
0.0
 40
0.0
 40
0.2337506819
 40
1.0
 40
1.0
 40
1.0
 40
1.0
 10
14.6502607478
 20
13.2175341655
 30
0.0
 10
14.6503197263
 20
13.216718282
 30
0.0
 10
14.6503703982
 20
13.2132135186
 30
0.0
 10
14.649690447
 20
13.2097215709
 30
0.0
 10
14.6488987424
 20
13.207159614
 30
0.0
  0
SPLINE
  5
598
100
AcDbEntity
  8
0
100
AcDbSpline
 62
7
  6
CONTINUOUS
 70
0
 71
3
 72
9
 73
5
 74
0
 42
0.0000001
 43
0.0000001
 44
0.0000000001
 40
0.0
 40
0.0
 40
0.0
 40
0.0
 40
0.2563009913
 40
1.0
 40
1.0
 40
1.0
 40
1.0
 10
14.0727586106
 20
12.5420122805
 30
0.0
 10
14.068502004
 20
12.5408143289
 30
0.0
 10
14.0517517272
 20
12.5366744904
 30
0.0
 10
14.0344383773
 20
12.5347097817
 30
0.0
 10
14.0216073225
 20
12.5347097817
 30
0.0
  0
SPLINE
  5
599
100
AcDbEntity
  8
0
100
AcDbSpline
 62
7
  6
CONTINUOUS
 70
0
 71
3
 72
17
 73
13
 74
0
 42
0.0000001
 43
0.0000001
 44
0.0000000001
 40
0.0
 40
0.0
 40
0.0
 40
0.0
 40
0.0505067279
 40
0.1018431688
 40
0.1547453909
 40
0.2097731842
 40
0.3271393387
 40
0.4546727824
 40
0.5900481807
 40
0.7292268727
 40
0.8674010963
 40
1.0
 40
1.0
 40
1.0
 40
1.0
 10
16.0632439049
 20
12.7253930271
 30
0.0
 10
16.0654834767
 20
12.720828615
 30
0.0
 10
16.0691347896
 20
12.7111727095
 30
0.0
 10
16.0718742674
 20
12.6957552699
 30
0.0
 10
16.0718538229
 20
12.6796422504
 30
0.0
 10
16.0681030141
 20
12.6571872454
 30
0.0
 10
16.056300238
 20
12.628930479
 30
0.0
 10
16.0330647816
 20
12.5981063408
 30
0.0
 10
16.002158793
 20
12.5715292906
 30
0.0
 10
15.9657302447
 20
12.5510082045
 30
0.0
 10
15.926328124
 20
12.5379326039
 30
0.0
 10
15.8990073621
 20
12.5347097817
 30
0.0
 10
15.8856593342
 20
12.5347097817
 30
0.0
  0
SPLINE
  5
59A
100
AcDbEntity
  8
0
100
AcDbSpline
 62
7
  6
CONTINUOUS
 70
0
 71
3
 72
9
 73
5
 74
0
 42
0.0000001
 43
0.0000001
 44
0.0000000001
 40
0.0
 40
0.0
 40
0.0
 40
0.0
 40
0.489397526
 40
1.0
 40
1.0
 40
1.0
 40
1.0
 10
13.9150950263
 20
12.5969971444
 30
0.0
 10
13.9188205248
 20
12.5894019781
 30
0.0
 10
13.9289726783
 20
12.5750192404
 30
0.0
 10
13.9429113387
 20
12.564362537
 30
0.0
 10
13.9505501102
 20
12.5599408711
 30
0.0
  0
SPLINE
  5
59B
100
AcDbEntity
  8
0
100
AcDbSpline
 62
7
  6
CONTINUOUS
 70
0
 71
3
 72
12
 73
8
 74
0
 42
0.0000001
 43
0.0000001
 44
0.0000000001
 40
0.0
 40
0.0
 40
0.0
 40
0.0
 40
0.2885539403
 40
0.5294876656
 40
0.641409788
 40
0.754201602
 40
1.0
 40
1.0
 40
1.0
 40
1.0
 10
16.1846548133
 20
11.3694947397
 30
0.0
 10
16.1857422195
 20
11.3697495173
 30
0.0
 10
16.1877049574
 20
11.3704605378
 30
0.0
 10
16.1896037882
 20
11.3722139324
 30
0.0
 10
16.1903263225
 20
11.373891844
 30
0.0
 10
16.1905531236
 20
11.3757200222
 30
0.0
 10
16.1901495023
 20
11.3771159383
 30
0.0
 10
16.1897303839
 20
11.3779700117
 30
0.0
  0
SPLINE
  5
59C
100
AcDbEntity
  8
0
100
AcDbSpline
 62
7
  6
CONTINUOUS
 70
0
 71
3
 72
11
 73
7
 74
0
 42
0.0000001
 43
0.0000001
 44
0.0000000001
 40
0.0
 40
0.0
 40
0.0
 40
0.0
 40
0.2678739358
 40
0.5240772669
 40
0.7677811898
 40
1.0
 40
1.0
 40
1.0
 40
1.0
 10
14.0216073225
 20
12.5347097817
 30
0.0
 10
14.0146114348
 20
12.5347097817
 30
0.0
 10
14.0009049708
 20
12.5355646832
 30
0.0
 10
13.9811847203
 20
12.5395565482
 30
0.0
 10
13.9631638322
 20
12.5461751689
 30
0.0
 10
13.9523141142
 20
12.5523954247
 30
0.0
 10
13.94735911
 20
12.5558923655
 30
0.0
  0
SPLINE
  5
59D
100
AcDbEntity
  8
0
100
AcDbSpline
 62
7
  6
CONTINUOUS
 70
0
 71
3
 72
9
 73
5
 74
0
 42
0.0000001
 43
0.0000001
 44
0.0000000001
 40
0.0
 40
0.0
 40
0.0
 40
0.0
 40
0.5075915278
 40
1.0
 40
1.0
 40
1.0
 40
1.0
 10
13.94735911
 20
12.5558923655
 30
0.0
 10
13.9414192753
 20
12.5600843399
 30
0.0
 10
13.93060308
 20
12.5697128602
 30
0.0
 10
13.9225589793
 20
12.5817852515
 30
0.0
 10
13.9194523471
 20
12.5881167965
 30
0.0
  0
SPLINE
  5
59E
100
AcDbEntity
  8
0
100
AcDbSpline
 62
7
  6
CONTINUOUS
 70
0
 71
3
 72
9
 73
5
 74
0
 42
0.0000001
 43
0.0000001
 44
0.0000000001
 40
0.0
 40
0.0
 40
0.0
 40
0.0
 40
0.2445608825
 40
1.0
 40
1.0
 40
1.0
 40
1.0
 10
16.9517110053
 20
11.9958076428
 30
0.0
 10
16.9509886264
 20
11.9958076428
 30
0.0
 10
16.9480349971
 20
11.995862387
 30
0.0
 10
16.9450861463
 20
11.9961290858
 30
0.0
 10
16.9428760273
 20
11.9964365295
 30
0.0
  0
SPLINE
  5
59F
100
AcDbEntity
  8
0
100
AcDbSpline
 62
7
  6
CONTINUOUS
 70
0
 71
3
 72
12
 73
8
 74
0
 42
0.0000001
 43
0.0000001
 44
0.0000000001
 40
0.0
 40
0.0
 40
0.0
 40
0.0
 40
0.2571773213
 40
0.3838655037
 40
0.5091060521
 40
0.7564553964
 40
1.0
 40
1.0
 40
1.0
 40
1.0
 10
16.8464867728
 20
11.6865071459
 30
0.0
 10
16.8423892436
 20
11.6850107243
 30
0.0
 10
16.8360061125
 20
11.6835300029
 30
0.0
 10
16.8274848029
 20
11.6821626532
 30
0.0
 10
16.8190858564
 20
11.6810577273
 30
0.0
 10
16.8086681886
 20
11.6801614476
 30
0.0
 10
16.8003400264
 20
11.6799124159
 30
0.0
 10
16.7962090369
 20
11.6799124159
 30
0.0
  0
LINE
  5
5A0
100
AcDbEntity
  8
0
100
AcDbLine
 62
7
  6
CONTINUOUS
 10
16.7962090369
 20
11.6799124159
 11
16.8374490199
 21
11.6736223884
  0
SPLINE
  5
5A1
100
AcDbEntity
  8
0
100
AcDbSpline
 62
7
  6
CONTINUOUS
 70
0
 71
3
 72
11
 73
7
 74
0
 42
0.0000001
 43
0.0000001
 44
0.0000000001
 40
0.0
 40
0.0
 40
0.0
 40
0.0
 40
0.2427017075
 40
0.4955310213
 40
0.7506985425
 40
1.0
 40
1.0
 40
1.0
 40
1.0
 10
13.983491276
 20
12.6390296394
 30
0.0
 10
13.9946495277
 20
12.6390296394
 30
0.0
 10
14.0174815623
 20
12.6416300353
 30
0.0
 10
14.0505346324
 20
12.6522290641
 30
0.0
 10
14.0813168875
 20
12.6689092255
 30
0.0
 10
14.099395598
 20
12.6837228824
 30
0.0
 10
14.1074507067
 20
12.6918767309
 30
0.0
  0
SPLINE
  5
5A2
100
AcDbEntity
  8
0
100
AcDbSpline
 62
7
  6
CONTINUOUS
 70
0
 71
3
 72
13
 73
9
 74
0
 42
0.0000001
 43
0.0000001
 44
0.0000000001
 40
0.0
 40
0.0
 40
0.0
 40
0.0
 40
0.1134862894
 40
0.227842983
 40
0.344602034
 40
0.4652563183
 40
0.721293789
 40
1.0
 40
1.0
 40
1.0
 40
1.0
 10
13.8921938182
 20
12.6918767309
 30
0.0
 10
13.8936657197
 20
12.687896937
 30
0.0
 10
13.8973560912
 20
12.6801571565
 30
0.0
 10
13.9049494932
 20
12.6696659949
 30
0.0
 10
13.9144651012
 20
12.6604891638
 30
0.0
 10
13.9297495809
 20
12.6500228799
 30
0.0
 10
13.9529797155
 20
12.6411517367
 30
0.0
 10
13.9730704323
 20
12.6390296394
 30
0.0
 10
13.983491276
 20
12.6390296394
 30
0.0
  0
SPLINE
  5
5A3
100
AcDbEntity
  8
0
100
AcDbSpline
 62
7
  6
CONTINUOUS
 70
0
 71
3
 72
12
 73
8
 74
0
 42
0.0000001
 43
0.0000001
 44
0.0000000001
 40
0.0
 40
0.0
 40
0.0
 40
0.0
 40
0.279915554
 40
0.5389435661
 40
0.7767115851
 40
0.8896824574
 40
1.0
 40
1.0
 40
1.0
 40
1.0
 10
13.9248557911
 20
12.797570914
 30
0.0
 10
13.917222557
 20
12.7898441115
 30
0.0
 10
13.9039524646
 20
12.7734267581
 30
0.0
 10
13.8908315652
 20
12.7459603555
 30
0.0
 10
13.8868680038
 20
12.72220902
 30
0.0
 10
13.8884445986
 20
12.7043119654
 30
0.0
 10
13.8907089702
 20
12.69589153
 30
0.0
 10
13.8921938182
 20
12.6918767309
 30
0.0
  0
SPLINE
  5
5A4
100
AcDbEntity
  8
0
100
AcDbSpline
 62
7
  6
CONTINUOUS
 70
0
 71
3
 72
11
 73
7
 74
0
 42
0.0000001
 43
0.0000001
 44
0.0000000001
 40
0.0
 40
0.0
 40
0.0
 40
0.0
 40
0.2427017075
 40
0.4955310213
 40
0.7506985425
 40
1.0
 40
1.0
 40
1.0
 40
1.0
 10
14.0488152218
 20
12.8504180056
 30
0.0
 10
14.0376569701
 20
12.8504180056
 30
0.0
 10
14.0148249356
 20
12.8478176096
 30
0.0
 10
13.9817718654
 20
12.8372185809
 30
0.0
 10
13.9509896103
 20
12.8205384195
 30
0.0
 10
13.9329108998
 20
12.8057247626
 30
0.0
 10
13.9248557911
 20
12.797570914
 30
0.0
  0
SPLINE
  5
5A5
100
AcDbEntity
  8
0
100
AcDbSpline
 62
7
  6
CONTINUOUS
 70
0
 71
3
 72
9
 73
5
 74
0
 42
0.0000001
 43
0.0000001
 44
0.0000000001
 40
0.0
 40
0.0
 40
0.0
 40
0.0
 40
0.4947268558
 40
1.0
 40
1.0
 40
1.0
 40
1.0
 10
14.1401126796
 20
12.797570914
 30
0.0
 10
14.1379198741
 20
12.8034999207
 30
0.0
 10
14.1318275428
 20
12.8149356204
 30
0.0
 10
14.1229076947
 20
12.8243099478
 30
0.0
 10
14.1179221943
 20
12.8284121681
 30
0.0
  0
SPLINE
  5
5A6
100
AcDbEntity
  8
0
100
AcDbSpline
 62
7
  6
CONTINUOUS
 70
0
 71
3
 72
11
 73
7
 74
0
 42
0.0000001
 43
0.0000001
 44
0.0000000001
 40
0.0
 40
0.0
 40
0.0
 40
0.0
 40
0.2307439998
 40
0.473651612
 40
0.7301995559
 40
1.0
 40
1.0
 40
1.0
 40
1.0
 10
14.1179221943
 20
12.8284121681
 30
0.0
 10
14.1135347651
 20
12.8320222774
 30
0.0
 10
14.1037105029
 20
12.8384786803
 30
0.0
 10
14.0870035205
 20
12.8453685949
 30
0.0
 10
14.0684423861
 20
12.8495336327
 30
0.0
 10
14.055458697
 20
12.8504180056
 30
0.0
 10
14.0488152218
 20
12.8504180056
 30
0.0
  0
SPLINE
  5
5A7
100
AcDbEntity
  8
0
100
AcDbSpline
 62
7
  6
CONTINUOUS
 70
0
 71
3
 72
12
 73
8
 74
0
 42
0.0000001
 43
0.0000001
 44
0.0000000001
 40
0.0
 40
0.0
 40
0.0
 40
0.0
 40
0.279915554
 40
0.5389435661
 40
0.7767115851
 40
0.8896824574
 40
1.0
 40
1.0
 40
1.0
 40
1.0
 10
14.1074507067
 20
12.6918767309
 30
0.0
 10
14.1150839408
 20
12.6996035335
 30
0.0
 10
14.1283540332
 20
12.7160208868
 30
0.0
 10
14.1414749326
 20
12.7434872894
 30
0.0
 10
14.145438494
 20
12.767238625
 30
0.0
 10
14.1438618992
 20
12.7851356795
 30
0.0
 10
14.1415975276
 20
12.7935561149
 30
0.0
 10
14.1401126796
 20
12.797570914
 30
0.0
  0
SPLINE
  5
5A8
100
AcDbEntity
  8
0
100
AcDbSpline
 62
7
  6
CONTINUOUS
 70
0
 71
3
 72
9
 73
5
 74
0
 42
0.0000001
 43
0.0000001
 44
0.0000000001
 40
0.0
 40
0.0
 40
0.0
 40
0.0
 40
0.2529888343
 40
1.0
 40
1.0
 40
1.0
 40
1.0
 10
14.0616109309
 20
12.6260543266
 30
0.0
 10
14.0647527363
 20
12.6320581111
 30
0.0
 10
14.0776654633
 20
12.6554949185
 30
0.0
 10
14.0933891702
 20
12.6776428275
 30
0.0
 10
14.1074507067
 20
12.6918767309
 30
0.0
  0
SPLINE
  5
5A9
100
AcDbEntity
  8
0
100
AcDbSpline
 62
7
  6
CONTINUOUS
 70
0
 71
3
 72
9
 73
5
 74
0
 42
0.0000001
 43
0.0000001
 44
0.0000000001
 40
0.0
 40
0.0
 40
0.0
 40
0.0
 40
0.4905053261
 40
1.0
 40
1.0
 40
1.0
 40
1.0
 10
13.983491276
 20
12.6390296394
 30
0.0
 10
13.9964705138
 20
12.6390296394
 30
0.0
 10
14.0229431703
 20
12.6361963383
 30
0.0
 10
14.0486609789
 20
12.6298033741
 30
0.0
 10
14.0616109309
 20
12.6260543266
 30
0.0
  0
SPLINE
  5
5AA
100
AcDbEntity
  8
0
100
AcDbSpline
 62
7
  6
CONTINUOUS
 70
0
 71
3
 72
9
 73
5
 74
0
 42
0.0000001
 43
0.0000001
 44
0.0000000001
 40
0.0
 40
0.0
 40
0.0
 40
0.0
 40
0.2697507877
 40
1.0
 40
1.0
 40
1.0
 40
1.0
 10
14.1561093681
 20
12.7562836616
 30
0.0
 10
14.1546314002
 20
12.759980557
 30
0.0
 10
14.1491808787
 20
12.7736966158
 30
0.0
 10
14.1438513886
 20
12.7874620236
 30
0.0
 10
14.1401126796
 20
12.797570914
 30
0.0
  0
SPLINE
  5
5AB
100
AcDbEntity
  8
0
100
AcDbSpline
 62
7
  6
CONTINUOUS
 70
0
 71
3
 72
9
 73
5
 74
0
 42
0.0000001
 43
0.0000001
 44
0.0000000001
 40
0.0
 40
0.0
 40
0.0
 40
0.0
 40
0.5133616893
 40
1.0
 40
1.0
 40
1.0
 40
1.0
 10
14.1074507067
 20
12.6918767309
 30
0.0
 10
14.1126746715
 20
12.6971647313
 30
0.0
 10
14.1234841729
 20
12.7068635986
 30
0.0
 10
14.1354047277
 20
12.715147656
 30
0.0
 10
14.1414070626
 20
12.7188384578
 30
0.0
  0
SPLINE
  5
5AC
100
AcDbEntity
  8
0
100
AcDbSpline
 62
7
  6
CONTINUOUS
 70
0
 71
3
 72
9
 73
5
 74
0
 42
0.0000001
 43
0.0000001
 44
0.0000000001
 40
0.0
 40
0.0
 40
0.0
 40
0.0
 40
0.489397526
 40
1.0
 40
1.0
 40
1.0
 40
1.0
 10
15.779147038
 20
12.5969971444
 30
0.0
 10
15.7828725364
 20
12.5894019781
 30
0.0
 10
15.79302469
 20
12.5750192404
 30
0.0
 10
15.8069633504
 20
12.564362537
 30
0.0
 10
15.8146021218
 20
12.5599408711
 30
0.0
  0
SPLINE
  5
5AD
100
AcDbEntity
  8
0
100
AcDbSpline
 62
7
  6
CONTINUOUS
 70
0
 71
3
 72
9
 73
5
 74
0
 42
0.0000001
 43
0.0000001
 44
0.0000000001
 40
0.0
 40
0.0
 40
0.0
 40
0.0
 40
0.5955990209
 40
1.0
 40
1.0
 40
1.0
 40
1.0
 10
14.1401126796
 20
12.797570914
 30
0.0
 10
14.1372200079
 20
12.8053922506
 30
0.0
 10
14.1325111379
 20
12.8185808138
 30
0.0
 10
14.128398704
 20
12.8319730777
 30
0.0
 10
14.1269348767
 20
12.8374426928
 30
0.0
  0
SPLINE
  5
5AE
100
AcDbEntity
  8
0
100
AcDbSpline
 62
7
  6
CONTINUOUS
 70
0
 71
3
 72
9
 73
5
 74
0
 42
0.0000001
 43
0.0000001
 44
0.0000000001
 40
0.0
 40
0.0
 40
0.0
 40
0.0
 40
0.4775882366
 40
1.0
 40
1.0
 40
1.0
 40
1.0
 10
14.6488987424
 20
13.207159614
 30
0.0
 10
14.6479860542
 20
13.2042061537
 30
0.0
 10
14.6453095658
 20
13.1982521504
 30
0.0
 10
14.6416000257
 20
13.1929073998
 30
0.0
 10
14.6394567405
 20
13.1902920314
 30
0.0
  0
SPLINE
  5
5AF
100
AcDbEntity
  8
0
100
AcDbSpline
 62
7
  6
CONTINUOUS
 70
0
 71
3
 72
25
 73
21
 74
0
 42
0.0000001
 43
0.0000001
 44
0.0000000001
 40
0.0
 40
0.0
 40
0.0
 40
0.0
 40
0.0214525754
 40
0.0431996286
 40
0.0655165106
 40
0.088645262
 40
0.1379943177
 40
0.1923202057
 40
0.2518946425
 40
0.3164250845
 40
0.3852006279
 40
0.4572122449
 40
0.5312512864
 40
0.6059936922
 40
0.680077528
 40
0.7521746705
 40
0.8210730121
 40
0.8857542089
 40
0.9455022277
 40
1.0
 40
1.0
 40
1.0
 40
1.0
 10
15.5067094651
 20
11.867660897
 30
0.0
 10
15.5043491666
 20
11.8600203101
 30
0.0
 10
15.4984708128
 20
11.8449570244
 30
0.0
 10
15.4863980631
 20
11.8236397691
 30
0.0
 10
15.471150188
 20
11.8036725136
 30
0.0
 10
15.446213843
 20
11.7785176565
 30
0.0
 10
15.4070816333
 20
11.7512665895
 30
0.0
 10
15.3510491694
 20
11.7267703597
 30
0.0
 10
15.2863920663
 20
11.7101608433
 30
0.0
 10
15.214791265
 20
11.7018081616
 30
0.0
 10
15.1380993477
 20
11.7018882734
 30
0.0
 10
15.0583347239
 20
11.7103905224
 30
0.0
 10
14.9776129118
 20
11.7270856999
 30
0.0
 10
14.8980850506
 20
11.7515283666
 30
0.0
 10
14.8218746174
 20
11.7830665693
 30
0.0
 10
14.7510114916
 20
11.8208589598
 30
0.0
 10
14.6873813857
 20
11.8639050148
 30
0.0
 10
14.6326534345
 20
11.9110881267
 30
0.0
 10
14.5882886656
 20
11.961179079
 30
0.0
 10
14.5653553078
 20
11.9973840557
 30
0.0
 10
14.5562826331
 20
12.0155606427
 30
0.0
  0
SPLINE
  5
5B0
100
AcDbEntity
  8
0
100
AcDbSpline
 62
7
  6
CONTINUOUS
 70
0
 71
3
 72
10
 73
6
 74
0
 42
0.0000001
 43
0.0000001
 44
0.0000000001
 40
0.0
 40
0.0
 40
0.0
 40
0.0
 40
0.5216843196
 40
0.7715185339
 40
1.0
 40
1.0
 40
1.0
 40
1.0
 10
14.54250281
 20
12.7130537503
 30
0.0
 10
14.5379438933
 20
12.7101172867
 30
0.0
 10
14.5318275414
 20
12.7046582491
 30
0.0
 10
14.5259090173
 20
12.6960771545
 30
0.0
 10
14.523854258
 20
12.6915007368
 30
0.0
 10
14.5231498376
 20
12.6892325972
 30
0.0
  0
SPLINE
  5
5B1
100
AcDbEntity
  8
0
100
AcDbSpline
 62
7
  6
CONTINUOUS
 70
0
 71
3
 72
10
 73
6
 74
0
 42
0.0000001
 43
0.0000001
 44
0.0000000001
 40
0.0
 40
0.0
 40
0.0
 40
0.0
 40
0.4389449279
 40
0.7076408689
 40
1.0
 40
1.0
 40
1.0
 40
1.0
 10
14.5679827623
 20
12.7181101274
 30
0.0
 10
14.5643920056
 20
12.7196674923
 30
0.0
 10
14.5575824408
 20
12.7196263813
 30
0.0
 10
14.5491415402
 20
12.7168504417
 30
0.0
 10
14.5446944053
 20
12.7144653883
 30
0.0
 10
14.54250281
 20
12.7130537503
 30
0.0
  0
SPLINE
  5
5B2
100
AcDbEntity
  8
0
100
AcDbSpline
 62
7
  6
CONTINUOUS
 70
0
 71
3
 72
9
 73
5
 74
0
 42
0.0000001
 43
0.0000001
 44
0.0000000001
 40
0.0
 40
0.0
 40
0.0
 40
0.0
 40
0.2672111908
 40
1.0
 40
1.0
 40
1.0
 40
1.0
 10
14.5741097421
 20
12.6993453515
 30
0.0
 10
14.5743263491
 20
12.7000427972
 30
0.0
 10
14.5750354771
 20
12.7026806247
 30
0.0
 10
14.5753267025
 20
12.7054509384
 30
0.0
 10
14.5751846071
 20
12.7074486561
 30
0.0
  0
SPLINE
  5
5B3
100
AcDbEntity
  8
0
100
AcDbSpline
 62
7
  6
CONTINUOUS
 70
0
 71
3
 72
9
 73
5
 74
0
 42
0.0000001
 43
0.0000001
 44
0.0000000001
 40
0.0
 40
0.0
 40
0.0
 40
0.0
 40
0.5170579152
 40
1.0
 40
1.0
 40
1.0
 40
1.0
 10
14.5751846071
 20
12.7074486561
 30
0.0
 10
14.5751000249
 20
12.708637796
 30
0.0
 10
14.5746877166
 20
12.7109318446
 30
0.0
 10
14.5736806302
 20
12.7130451107
 30
0.0
 10
14.5730562493
 20
12.7139670646
 30
0.0
  0
SPLINE
  5
5B4
100
AcDbEntity
  8
0
100
AcDbSpline
 62
7
  6
CONTINUOUS
 70
0
 71
3
 72
9
 73
5
 74
0
 42
0.0000001
 43
0.0000001
 44
0.0000000001
 40
0.0
 40
0.0
 40
0.0
 40
0.0
 40
0.4934087092
 40
1.0
 40
1.0
 40
1.0
 40
1.0
 10
14.5730562493
 20
12.7139670646
 30
0.0
 10
14.5724459556
 20
12.7148682174
 30
0.0
 10
14.5709299944
 20
12.7165200768
 30
0.0
 10
14.5690079342
 20
12.717665495
 30
0.0
 10
14.5679827623
 20
12.7181101274
 30
0.0
  0
SPLINE
  5
5B5
100
AcDbEntity
  8
0
100
AcDbSpline
 62
7
  6
CONTINUOUS
 70
0
 71
3
 72
9
 73
5
 74
0
 42
0.0000001
 43
0.0000001
 44
0.0000000001
 40
0.0
 40
0.0
 40
0.0
 40
0.0
 40
0.2554081212
 40
1.0
 40
1.0
 40
1.0
 40
1.0
 10
14.5632391643
 20
12.6823573625
 30
0.0
 10
14.5638840322
 20
12.6829975632
 30
0.0
 10
14.566342103
 20
12.6855699305
 30
0.0
 10
14.5685351347
 20
12.6884001752
 30
0.0
 10
14.5699618973
 20
12.6906322285
 30
0.0
  0
SPLINE
  5
5B6
100
AcDbEntity
  8
0
100
AcDbSpline
 62
7
  6
CONTINUOUS
 70
0
 71
3
 72
9
 73
5
 74
0
 42
0.0000001
 43
0.0000001
 44
0.0000000001
 40
0.0
 40
0.0
 40
0.0
 40
0.0
 40
0.2591776892
 40
1.0
 40
1.0
 40
1.0
 40
1.0
 10
14.5699618973
 20
12.6906322285
 30
0.0
 10
14.5703136127
 20
12.6911824584
 30
0.0
 10
14.5716219549
 20
12.6933357563
 30
0.0
 10
14.5727355238
 20
12.6956106574
 30
0.0
 10
14.5734115994
 20
12.6973505309
 30
0.0
  0
SPLINE
  5
5B7
100
AcDbEntity
  8
0
100
AcDbSpline
 62
7
  6
CONTINUOUS
 70
0
 71
3
 72
9
 73
5
 74
0
 42
0.0000001
 43
0.0000001
 44
0.0000000001
 40
0.0
 40
0.0
 40
0.0
 40
0.0
 40
0.2335335866
 40
1.0
 40
1.0
 40
1.0
 40
1.0
 10
14.5292768174
 20
12.6704678213
 30
0.0
 10
14.529816069
 20
12.6702339398
 30
0.0
 10
14.5321926952
 20
12.6693880244
 30
0.0
 10
14.534756029
 20
12.6691414398
 30
0.0
 10
14.536684347
 20
12.6691976808
 30
0.0
  0
SPLINE
  5
5B8
100
AcDbEntity
  8
0
100
AcDbSpline
 62
7
  6
CONTINUOUS
 70
0
 71
3
 72
9
 73
5
 74
0
 42
0.0000001
 43
0.0000001
 44
0.0000000001
 40
0.0
 40
0.0
 40
0.0
 40
0.0
 40
0.4670896736
 40
1.0
 40
1.0
 40
1.0
 40
1.0
 10
14.536684347
 20
12.6691976808
 30
0.0
 10
14.5396904038
 20
12.6692853549
 30
0.0
 10
14.5460894973
 20
12.670716421
 30
0.0
 10
14.5518722376
 20
12.67366623
 30
0.0
 10
14.5547567697
 20
12.6755241985
 30
0.0
  0
SPLINE
  5
5B9
100
AcDbEntity
  8
0
100
AcDbSpline
 62
7
  6
CONTINUOUS
 70
0
 71
3
 72
10
 73
6
 74
0
 42
0.0000001
 43
0.0000001
 44
0.0000000001
 40
0.0
 40
0.0
 40
0.0
 40
0.0
 40
0.4713779749
 40
0.7278915305
 40
1.0
 40
1.0
 40
1.0
 40
1.0
 10
13.9181063385
 20
12.6260543266
 30
0.0
 10
13.9278707711
 20
12.630003157
 30
0.0
 10
13.9434843292
 20
12.6349406643
 30
0.0
 10
13.9655870232
 20
12.6384362609
 30
0.0
 10
13.9774111612
 20
12.6390296394
 30
0.0
 10
13.983491276
 20
12.6390296394
 30
0.0
  0
SPLINE
  5
5BA
100
AcDbEntity
  8
0
100
AcDbSpline
 62
7
  6
CONTINUOUS
 70
0
 71
3
 72
11
 73
7
 74
0
 42
0.0000001
 43
0.0000001
 44
0.0000000001
 40
0.0
 40
0.0
 40
0.0
 40
0.0
 40
0.2835571203
 40
0.5427982644
 40
0.7791959909
 40
1.0
 40
1.0
 40
1.0
 40
1.0
 10
14.5231498376
 20
12.6892325972
 30
0.0
 10
14.5227257965
 20
12.6878672417
 30
0.0
 10
14.5221079556
 20
12.685186303
 30
0.0
 10
14.5219267405
 20
12.681235585
 30
0.0
 10
14.522571894
 20
12.67764653
 30
0.0
 10
14.5235790603
 20
12.6755326744
 30
0.0
 10
14.5242033304
 20
12.6746108842
 30
0.0
  0
SPLINE
  5
5BB
100
AcDbEntity
  8
0
100
AcDbSpline
 62
7
  6
CONTINUOUS
 70
0
 71
3
 72
9
 73
5
 74
0
 42
0.0000001
 43
0.0000001
 44
0.0000000001
 40
0.0
 40
0.0
 40
0.0
 40
0.0
 40
0.2465115293
 40
1.0
 40
1.0
 40
1.0
 40
1.0
 10
14.5248967943
 20
12.6736925622
 30
0.0
 10
14.5251856264
 20
12.6733484764
 30
0.0
 10
14.5264402054
 20
12.6720230026
 30
0.0
 10
14.5280170443
 20
12.6710142038
 30
0.0
 10
14.5292768174
 20
12.6704678213
 30
0.0
  0
SPLINE
  5
5BC
100
AcDbEntity
  8
0
100
AcDbSpline
 62
7
  6
CONTINUOUS
 70
0
 71
3
 72
9
 73
5
 74
0
 42
0.0000001
 43
0.0000001
 44
0.0000000001
 40
0.0
 40
0.0
 40
0.0
 40
0.0
 40
0.5402886346
 40
1.0
 40
1.0
 40
1.0
 40
1.0
 10
14.8742465615
 20
11.4469680157
 30
0.0
 10
14.8692022488
 20
11.4469680157
 30
0.0
 10
14.8598309095
 20
11.4460727341
 30
0.0
 10
14.8509165664
 20
11.4426744862
 30
0.0
 10
14.8473131615
 20
11.4403427743
 30
0.0
  0
SPLINE
  5
5BD
100
AcDbEntity
  8
0
100
AcDbSpline
 62
7
  6
CONTINUOUS
 70
0
 71
3
 72
9
 73
5
 74
0
 42
0.0000001
 43
0.0000001
 44
0.0000000001
 40
0.0
 40
0.0
 40
0.0
 40
0.0
 40
0.5219298717
 40
1.0
 40
1.0
 40
1.0
 40
1.0
 10
14.8473131615
 20
11.4403427743
 30
0.0
 10
14.845112102
 20
11.4389185001
 30
0.0
 10
14.8412113073
 20
11.4356047351
 30
0.0
 10
14.8387204856
 20
11.431079181
 30
0.0
 10
14.8380114354
 20
11.4287848753
 30
0.0
  0
SPLINE
  5
5BE
100
AcDbEntity
  8
0
100
AcDbSpline
 62
7
  6
CONTINUOUS
 70
0
 71
3
 72
9
 73
5
 74
0
 42
0.0000001
 43
0.0000001
 44
0.0000000001
 40
0.0
 40
0.0
 40
0.0
 40
0.0
 40
0.2268882194
 40
1.0
 40
1.0
 40
1.0
 40
1.0
 10
14.2544217768
 20
13.167475288
 30
0.0
 10
14.2555825428
 20
13.1643367564
 30
0.0
 10
14.2607690101
 20
13.1505298567
 30
0.0
 10
14.2661734841
 20
13.1368058624
 30
0.0
 10
14.2704062273
 20
13.12621821
 30
0.0
  0
SPLINE
  5
5BF
100
AcDbEntity
  8
0
100
AcDbSpline
 62
7
  6
CONTINUOUS
 70
0
 71
3
 72
9
 73
5
 74
0
 42
0.0000001
 43
0.0000001
 44
0.0000000001
 40
0.0
 40
0.0
 40
0.0
 40
0.0
 40
0.4045014365
 40
1.0
 40
1.0
 40
1.0
 40
1.0
 10
14.2412439739
 20
13.2073470668
 30
0.0
 10
14.242708164
 20
13.2018760958
 30
0.0
 10
14.2468216537
 20
13.188484162
 30
0.0
 10
14.2515295945
 20
13.1752953012
 30
0.0
 10
14.2544217768
 20
13.167475288
 30
0.0
  0
SPLINE
  5
5C0
100
AcDbEntity
  8
0
100
AcDbSpline
 62
7
  6
CONTINUOUS
 70
0
 71
3
 72
10
 73
6
 74
0
 42
0.0000001
 43
0.0000001
 44
0.0000000001
 40
0.0
 40
0.0
 40
0.0
 40
0.0
 40
0.2449052079
 40
0.621104055
 40
1.0
 40
1.0
 40
1.0
 40
1.0
 10
14.2217598039
 20
13.0617811049
 30
0.0
 10
14.2171427718
 20
13.0571074771
 30
0.0
 10
14.2060577849
 20
13.0446269983
 30
0.0
 10
14.1906068962
 20
13.0226194286
 30
0.0
 10
14.18063259
 20
13.004964098
 30
0.0
 10
14.175920028
 20
12.9959587006
 30
0.0
  0
SPLINE
  5
5C1
100
AcDbEntity
  8
0
100
AcDbSpline
 62
7
  6
CONTINUOUS
 70
0
 71
3
 72
9
 73
5
 74
0
 42
0.0000001
 43
0.0000001
 44
0.0000000001
 40
0.0
 40
0.0
 40
0.0
 40
0.0
 40
0.4867309454
 40
1.0
 40
1.0
 40
1.0
 40
1.0
 10
14.255654674
 20
13.088703719
 30
0.0
 10
14.2496640358
 20
13.0850140929
 30
0.0
 10
14.2377700403
 20
13.0767359395
 30
0.0
 10
14.2269739927
 20
13.0670592095
 30
0.0
 10
14.2217598039
 20
13.0617811049
 30
0.0
  0
SPLINE
  5
5C2
100
AcDbEntity
  8
0
100
AcDbSpline
 62
7
  6
CONTINUOUS
 70
0
 71
3
 72
10
 73
6
 74
0
 42
0.0000001
 43
0.0000001
 44
0.0000000001
 40
0.0
 40
0.0
 40
0.0
 40
0.0
 40
0.2721041621
 40
0.5286085646
 40
1.0
 40
1.0
 40
1.0
 40
1.0
 10
14.0978003732
 20
13.0089340134
 30
0.0
 10
14.0917203555
 20
13.0089340134
 30
0.0
 10
14.0798964658
 20
13.0083412464
 30
0.0
 10
14.0577939666
 20
13.0048444149
 30
0.0
 10
14.0421801457
 20
12.9999076431
 30
0.0
 10
14.0324154357
 20
12.9959587006
 30
0.0
  0
SPLINE
  5
5C3
100
AcDbEntity
  8
0
100
AcDbSpline
 62
7
  6
CONTINUOUS
 70
0
 71
3
 72
9
 73
5
 74
0
 42
0.0000001
 43
0.0000001
 44
0.0000000001
 40
0.0
 40
0.0
 40
0.0
 40
0.0
 40
0.5095172034
 40
1.0
 40
1.0
 40
1.0
 40
1.0
 10
14.175920028
 20
12.9959587006
 30
0.0
 10
14.1629695135
 20
12.9997079109
 30
0.0
 10
14.1372515246
 20
13.0060999324
 30
0.0
 10
14.1107790047
 20
13.0089340134
 30
0.0
 10
14.0978003732
 20
13.0089340134
 30
0.0
  0
SPLINE
  5
5C4
100
AcDbEntity
  8
0
100
AcDbSpline
 62
7
  6
CONTINUOUS
 70
0
 71
3
 72
9
 73
5
 74
0
 42
0.0000001
 43
0.0000001
 44
0.0000000001
 40
0.0
 40
0.0
 40
0.0
 40
0.0
 40
0.4947268558
 40
1.0
 40
1.0
 40
1.0
 40
1.0
 10
14.2544217768
 20
13.167475288
 30
0.0
 10
14.2522289713
 20
13.1734042946
 30
0.0
 10
14.24613664
 20
13.1848399944
 30
0.0
 10
14.2372167919
 20
13.1942143218
 30
0.0
 10
14.2322312915
 20
13.1983165421
 30
0.0
  0
SPLINE
  5
5C5
100
AcDbEntity
  8
0
100
AcDbSpline
 62
7
  6
CONTINUOUS
 70
0
 71
3
 72
11
 73
7
 74
0
 42
0.0000001
 43
0.0000001
 44
0.0000000001
 40
0.0
 40
0.0
 40
0.0
 40
0.0
 40
0.2307439998
 40
0.473651612
 40
0.7301995559
 40
1.0
 40
1.0
 40
1.0
 40
1.0
 10
14.2322312915
 20
13.1983165421
 30
0.0
 10
14.2278438623
 20
13.2019266514
 30
0.0
 10
14.2180196
 20
13.2083830543
 30
0.0
 10
14.2013126177
 20
13.2152729689
 30
0.0
 10
14.1827514833
 20
13.2194380067
 30
0.0
 10
14.1697677941
 20
13.2203223796
 30
0.0
 10
14.163124319
 20
13.2203223796
 30
0.0
  0
SPLINE
  5
5C6
100
AcDbEntity
  8
0
100
AcDbSpline
 62
7
  6
CONTINUOUS
 70
0
 71
3
 72
12
 73
8
 74
0
 42
0.0000001
 43
0.0000001
 44
0.0000000001
 40
0.0
 40
0.0
 40
0.0
 40
0.0
 40
0.279915554
 40
0.5389435661
 40
0.7767115851
 40
0.8896824574
 40
1.0
 40
1.0
 40
1.0
 40
1.0
 10
14.2217598039
 20
13.0617811049
 30
0.0
 10
14.2293930379
 20
13.0695079075
 30
0.0
 10
14.2426631304
 20
13.0859252608
 30
0.0
 10
14.2557840297
 20
13.1133916634
 30
0.0
 10
14.2597475911
 20
13.137142999
 30
0.0
 10
14.2581709963
 20
13.1550400535
 30
0.0
 10
14.2559066248
 20
13.1634604889
 30
0.0
 10
14.2544217768
 20
13.167475288
 30
0.0
  0
SPLINE
  5
5C7
100
AcDbEntity
  8
0
100
AcDbSpline
 62
7
  6
CONTINUOUS
 70
0
 71
3
 72
11
 73
7
 74
0
 42
0.0000001
 43
0.0000001
 44
0.0000000001
 40
0.0
 40
0.0
 40
0.0
 40
0.0
 40
0.2427017075
 40
0.4955310213
 40
0.7506985425
 40
1.0
 40
1.0
 40
1.0
 40
1.0
 10
14.0978003732
 20
13.0089340134
 30
0.0
 10
14.1089586248
 20
13.0089340134
 30
0.0
 10
14.1317906594
 20
13.0115344093
 30
0.0
 10
14.1648437296
 20
13.022133438
 30
0.0
 10
14.1956259847
 20
13.0388135995
 30
0.0
 10
14.2137046951
 20
13.0536272564
 30
0.0
 10
14.2217598039
 20
13.0617811049
 30
0.0
  0
SPLINE
  5
5C8
100
AcDbEntity
  8
0
100
AcDbSpline
 62
7
  6
CONTINUOUS
 70
0
 71
3
 72
13
 73
9
 74
0
 42
0.0000001
 43
0.0000001
 44
0.0000000001
 40
0.0
 40
0.0
 40
0.0
 40
0.0
 40
0.1134862894
 40
0.227842983
 40
0.344602034
 40
0.4652563183
 40
0.721293789
 40
1.0
 40
1.0
 40
1.0
 40
1.0
 10
14.0065029153
 20
13.0617811049
 30
0.0
 10
14.0079748169
 20
13.057801311
 30
0.0
 10
14.0116651883
 20
13.0500615305
 30
0.0
 10
14.0192585903
 20
13.0395703689
 30
0.0
 10
14.0287741984
 20
13.0303935378
 30
0.0
 10
14.044058678
 20
13.0199272539
 30
0.0
 10
14.0672888127
 20
13.0110561107
 30
0.0
 10
14.0873795295
 20
13.0089340134
 30
0.0
 10
14.0978003732
 20
13.0089340134
 30
0.0
  0
SPLINE
  5
5C9
100
AcDbEntity
  8
0
100
AcDbSpline
 62
7
  6
CONTINUOUS
 70
0
 71
3
 72
12
 73
8
 74
0
 42
0.0000001
 43
0.0000001
 44
0.0000000001
 40
0.0
 40
0.0
 40
0.0
 40
0.0
 40
0.279915554
 40
0.5389435661
 40
0.7767115851
 40
0.8896824574
 40
1.0
 40
1.0
 40
1.0
 40
1.0
 10
14.0391648883
 20
13.167475288
 30
0.0
 10
14.0315316542
 20
13.1597484855
 30
0.0
 10
14.0182615618
 20
13.1433311321
 30
0.0
 10
14.0051406624
 20
13.1158647295
 30
0.0
 10
14.001177101
 20
13.092113394
 30
0.0
 10
14.0027536958
 20
13.0742163394
 30
0.0
 10
14.0050180674
 20
13.065795904
 30
0.0
 10
14.0065029153
 20
13.0617811049
 30
0.0
  0
SPLINE
  5
5CA
100
AcDbEntity
  8
0
100
AcDbSpline
 62
7
  6
CONTINUOUS
 70
0
 71
3
 72
11
 73
7
 74
0
 42
0.0000001
 43
0.0000001
 44
0.0000000001
 40
0.0
 40
0.0
 40
0.0
 40
0.0
 40
0.2427017075
 40
0.4955310213
 40
0.7506985425
 40
1.0
 40
1.0
 40
1.0
 40
1.0
 10
14.163124319
 20
13.2203223796
 30
0.0
 10
14.1519660673
 20
13.2203223796
 30
0.0
 10
14.1291340327
 20
13.2177219836
 30
0.0
 10
14.0960809626
 20
13.2071229549
 30
0.0
 10
14.0652987075
 20
13.1904427935
 30
0.0
 10
14.047219997
 20
13.1756291366
 30
0.0
 10
14.0391648883
 20
13.167475288
 30
0.0
  0
SPLINE
  5
5CB
100
AcDbEntity
  8
0
100
AcDbSpline
 62
7
  6
CONTINUOUS
 70
0
 71
3
 72
9
 73
5
 74
0
 42
0.0000001
 43
0.0000001
 44
0.0000000001
 40
0.0
 40
0.0
 40
0.0
 40
0.0
 40
0.2434800169
 40
1.0
 40
1.0
 40
1.0
 40
1.0
 10
14.1315586787
 20
12.9134942981
 30
0.0
 10
14.1357792568
 20
12.9134942981
 30
0.0
 10
14.1531104085
 20
12.9141459688
 30
0.0
 10
14.1703238729
 20
12.9172945668
 30
0.0
 10
14.1829429749
 20
12.9208625328
 30
0.0
  0
SPLINE
  5
5CC
100
AcDbEntity
  8
0
100
AcDbSpline
 62
7
  6
CONTINUOUS
 70
0
 71
3
 72
9
 73
5
 74
0
 42
0.0000001
 43
0.0000001
 44
0.0000000001
 40
0.0
 40
0.0
 40
0.0
 40
0.0
 40
0.4788349354
 40
1.0
 40
1.0
 40
1.0
 40
1.0
 10
14.0648592073
 20
12.9298452451
 30
0.0
 10
14.0744269821
 20
12.924306985
 30
0.0
 10
14.0963350433
 20
12.9159415456
 30
0.0
 10
14.1195263114
 20
12.9134942981
 30
0.0
 10
14.1315586787
 20
12.9134942981
 30
0.0
  0
LINE
  5
5CD
100
AcDbEntity
  8
0
100
AcDbLine
 62
7
  6
CONTINUOUS
 10
14.9425580066
 20
11.4123354603
 11
14.9409720883
 21
11.4152043113
  0
SPLINE
  5
5CE
100
AcDbEntity
  8
0
100
AcDbSpline
 62
7
  6
CONTINUOUS
 70
0
 71
3
 72
9
 73
5
 74
0
 42
0.0000001
 43
0.0000001
 44
0.0000000001
 40
0.0
 40
0.0
 40
0.0
 40
0.0
 40
0.2380713799
 40
1.0
 40
1.0
 40
1.0
 40
1.0
 10
14.9409720883
 20
11.4152043113
 30
0.0
 10
14.9405550478
 20
11.4158827421
 30
0.0
 10
14.938712527
 20
11.4186763762
 30
0.0
 10
14.9365388397
 20
11.4212452256
 30
0.0
 10
14.93476118
 20
11.4230716296
 30
0.0
  0
SPLINE
  5
5CF
100
AcDbEntity
  8
0
100
AcDbSpline
 62
7
  6
CONTINUOUS
 70
0
 71
3
 72
11
 73
7
 74
0
 42
0.0000001
 43
0.0000001
 44
0.0000000001
 40
0.0
 40
0.0
 40
0.0
 40
0.0
 40
0.2317317313
 40
0.4862602703
 40
0.7480306563
 40
1.0
 40
1.0
 40
1.0
 40
1.0
 10
14.93476118
 20
11.4230716296
 30
0.0
 10
14.931177244
 20
11.4267538389
 30
0.0
 10
14.9225800737
 20
11.4334484193
 30
0.0
 10
14.9076644048
 20
11.4408949508
 30
0.0
 10
14.8912431096
 20
11.4457331749
 30
0.0
 10
14.87983372
 20
11.4469680157
 30
0.0
 10
14.8742465615
 20
11.4469680157
 30
0.0
  0
SPLINE
  5
5D0
100
AcDbEntity
  8
0
100
AcDbSpline
 62
7
  6
CONTINUOUS
 70
0
 71
3
 72
24
 73
20
 74
0
 42
0.0000001
 43
0.0000001
 44
0.0000000001
 40
0.0
 40
0.0
 40
0.0
 40
0.0
 40
0.0540941595
 40
0.1130698967
 40
0.1766411042
 40
0.2441792964
 40
0.3147994992
 40
0.3874494988
 40
0.4609683574
 40
0.5341544279
 40
0.6058218409
 40
0.6748615032
 40
0.7403049659
 40
0.8013967358
 40
0.8576808521
 40
0.9091067658
 40
0.9561504951
 40
0.9783892964
 40
1.0
 40
1.0
 40
1.0
 40
1.0
 10
15.4814069034
 20
12.025073939
 30
0.0
 10
15.4724271939
 20
12.0420954637
 30
0.0
 10
15.4502854934
 20
12.0759440766
 30
0.0
 10
15.4082802926
 20
12.1229285652
 30
0.0
 10
15.3570499256
 20
12.1673223662
 30
0.0
 10
15.2978214613
 20
12.2080844445
 30
0.0
 10
15.2319924663
 20
12.2442622046
 30
0.0
 10
15.1611375164
 20
12.2749954208
 30
0.0
 10
15.0869521073
 20
12.2995469537
 30
0.0
 10
15.0112170661
 20
12.3173275803
 30
0.0
 10
14.9357481883
 20
12.3279109384
 30
0.0
 10
14.8623494863
 20
12.3310437047
 30
0.0
 10
14.7927637864
 20
12.3266460723
 30
0.0
 10
14.7286290688
 20
12.3148084875
 30
0.0
 10
14.6714322507
 20
12.2957579576
 30
0.0
 10
14.6225192849
 20
12.2698674176
 30
0.0
 10
14.5890207082
 20
12.2423810866
 30
0.0
 10
14.568080733
 20
12.2176470588
 30
0.0
 10
14.5595585534
 20
12.2045169744
 30
0.0
 10
14.5558142614
 20
12.1978019542
 30
0.0
  0
SPLINE
  5
5D1
100
AcDbEntity
  8
0
100
AcDbSpline
 62
7
  6
CONTINUOUS
 70
0
 71
3
 72
9
 73
5
 74
0
 42
0.0000001
 43
0.0000001
 44
0.0000000001
 40
0.0
 40
0.0
 40
0.0
 40
0.0
 40
0.4674985196
 40
1.0
 40
1.0
 40
1.0
 40
1.0
 10
16.1184737885
 20
13.167475288
 30
0.0
 10
16.1222977375
 20
13.1571359218
 30
0.0
 10
16.1308182461
 20
13.1351461699
 30
0.0
 10
16.139644552
 20
13.1132797929
 30
0.0
 10
16.1443863088
 20
13.1016528837
 30
0.0
  0
SPLINE
  5
5D2
100
AcDbEntity
  8
0
100
AcDbSpline
 62
7
  6
CONTINUOUS
 70
0
 71
3
 72
9
 73
5
 74
0
 42
0.0000001
 43
0.0000001
 44
0.0000000001
 40
0.0
 40
0.0
 40
0.0
 40
0.0
 40
0.4045014365
 40
1.0
 40
1.0
 40
1.0
 40
1.0
 10
16.1052959855
 20
13.2073470668
 30
0.0
 10
16.1067601757
 20
13.2018760958
 30
0.0
 10
16.1108736654
 20
13.188484162
 30
0.0
 10
16.1155816062
 20
13.1752953012
 30
0.0
 10
16.1184737885
 20
13.167475288
 30
0.0
  0
SPLINE
  5
5D3
100
AcDbEntity
  8
0
100
AcDbSpline
 62
7
  6
CONTINUOUS
 70
0
 71
3
 72
9
 73
5
 74
0
 42
0.0000001
 43
0.0000001
 44
0.0000000001
 40
0.0
 40
0.0
 40
0.0
 40
0.0
 40
0.2588511634
 40
1.0
 40
1.0
 40
1.0
 40
1.0
 10
14.5988232821
 20
12.0173402648
 30
0.0
 10
14.5969172987
 20
12.0212242507
 30
0.0
 10
14.5899227643
 20
12.0364042527
 30
0.0
 10
14.5844581617
 20
12.0523110309
 30
0.0
 10
14.5815233911
 20
12.0643459476
 30
0.0
  0
SPLINE
  5
5D4
100
AcDbEntity
  8
0
100
AcDbSpline
 62
7
  6
CONTINUOUS
 70
0
 71
3
 72
10
 73
6
 74
0
 42
0.0000001
 43
0.0000001
 44
0.0000000001
 40
0.0
 40
0.0
 40
0.0
 40
0.0
 40
0.5108688719
 40
0.7569010051
 40
1.0
 40
1.0
 40
1.0
 40
1.0
 10
14.5802742431
 20
12.0697994915
 30
0.0
 10
14.577273587
 20
12.0838090011
 30
0.0
 10
14.575119
 20
12.1052125584
 30
0.0
 10
14.5778529315
 20
12.1331846497
 30
0.0
 10
14.5810132887
 20
12.1465868684
 30
0.0
 10
14.5830255651
 20
12.1531008179
 30
0.0
  0
SPLINE
  5
5D5
100
AcDbEntity
  8
0
100
AcDbSpline
 62
7
  6
CONTINUOUS
 70
0
 71
3
 72
10
 73
6
 74
0
 42
0.0000001
 43
0.0000001
 44
0.0000000001
 40
0.0
 40
0.0
 40
0.0
 40
0.0
 40
0.2449052079
 40
0.621104055
 40
1.0
 40
1.0
 40
1.0
 40
1.0
 10
16.0858118156
 20
13.0617811049
 30
0.0
 10
16.0811947835
 20
13.0571074771
 30
0.0
 10
16.0701097966
 20
13.0446269983
 30
0.0
 10
16.0546589079
 20
13.0226194286
 30
0.0
 10
16.0446846017
 20
13.004964098
 30
0.0
 10
16.0399720397
 20
12.9959587006
 30
0.0
  0
SPLINE
  5
5D6
100
AcDbEntity
  8
0
100
AcDbSpline
 62
7
  6
CONTINUOUS
 70
0
 71
3
 72
10
 73
6
 74
0
 42
0.0000001
 43
0.0000001
 44
0.0000000001
 40
0.0
 40
0.0
 40
0.0
 40
0.0
 40
0.4776966905
 40
0.7330286841
 40
1.0
 40
1.0
 40
1.0
 40
1.0
 10
16.1443863088
 20
13.1016528837
 30
0.0
 10
16.1340313635
 20
13.0970263009
 30
0.0
 10
16.1185900855
 20
13.0887695338
 30
0.0
 10
16.0994490337
 20
13.074666556
 30
0.0
 10
16.0902663985
 20
13.0662902923
 30
0.0
 10
16.0858118156
 20
13.0617811049
 30
0.0
  0
SPLINE
  5
5D7
100
AcDbEntity
  8
0
100
AcDbSpline
 62
7
  6
CONTINUOUS
 70
0
 71
3
 72
10
 73
6
 74
0
 42
0.0000001
 43
0.0000001
 44
0.0000000001
 40
0.0
 40
0.0
 40
0.0
 40
0.0
 40
0.2721041621
 40
0.5286085646
 40
1.0
 40
1.0
 40
1.0
 40
1.0
 10
15.9618523848
 20
13.0089340134
 30
0.0
 10
15.9557723672
 20
13.0089340134
 30
0.0
 10
15.9439484775
 20
13.0083412464
 30
0.0
 10
15.9218459783
 20
13.0048444149
 30
0.0
 10
15.9062321574
 20
12.9999076431
 30
0.0
 10
15.8964674473
 20
12.9959587006
 30
0.0
  0
SPLINE
  5
5D8
100
AcDbEntity
  8
0
100
AcDbSpline
 62
7
  6
CONTINUOUS
 70
0
 71
3
 72
9
 73
5
 74
0
 42
0.0000001
 43
0.0000001
 44
0.0000000001
 40
0.0
 40
0.0
 40
0.0
 40
0.0
 40
0.5095172034
 40
1.0
 40
1.0
 40
1.0
 40
1.0
 10
16.0399720397
 20
12.9959587006
 30
0.0
 10
16.0270215252
 20
12.9997079109
 30
0.0
 10
16.0013035363
 20
13.0060999324
 30
0.0
 10
15.9748310164
 20
13.0089340134
 30
0.0
 10
15.9618523848
 20
13.0089340134
 30
0.0
  0
SPLINE
  5
5D9
100
AcDbEntity
  8
0
100
AcDbSpline
 62
7
  6
CONTINUOUS
 70
0
 71
3
 72
13
 73
9
 74
0
 42
0.0000001
 43
0.0000001
 44
0.0000000001
 40
0.0
 40
0.0
 40
0.0
 40
0.0
 40
0.1134862894
 40
0.227842983
 40
0.344602034
 40
0.4652563183
 40
0.721293789
 40
1.0
 40
1.0
 40
1.0
 40
1.0
 10
15.870554927
 20
13.0617811049
 30
0.0
 10
15.8720268286
 20
13.057801311
 30
0.0
 10
15.8757172
 20
13.0500615305
 30
0.0
 10
15.883310602
 20
13.0395703689
 30
0.0
 10
15.89282621
 20
13.0303935378
 30
0.0
 10
15.9081106897
 20
13.0199272539
 30
0.0
 10
15.9313408243
 20
13.0110561107
 30
0.0
 10
15.9514315412
 20
13.0089340134
 30
0.0
 10
15.9618523848
 20
13.0089340134
 30
0.0
  0
SPLINE
  5
5DA
100
AcDbEntity
  8
0
100
AcDbSpline
 62
7
  6
CONTINUOUS
 70
0
 71
3
 72
12
 73
8
 74
0
 42
0.0000001
 43
0.0000001
 44
0.0000000001
 40
0.0
 40
0.0
 40
0.0
 40
0.0
 40
0.279915554
 40
0.5389435661
 40
0.7767115851
 40
0.8896824574
 40
1.0
 40
1.0
 40
1.0
 40
1.0
 10
15.9032168999
 20
13.167475288
 30
0.0
 10
15.8955836659
 20
13.1597484855
 30
0.0
 10
15.8823135734
 20
13.1433311321
 30
0.0
 10
15.8691926741
 20
13.1158647295
 30
0.0
 10
15.8652291127
 20
13.092113394
 30
0.0
 10
15.8668057075
 20
13.0742163394
 30
0.0
 10
15.869070079
 20
13.065795904
 30
0.0
 10
15.870554927
 20
13.0617811049
 30
0.0
  0
SPLINE
  5
5DB
100
AcDbEntity
  8
0
100
AcDbSpline
 62
7
  6
CONTINUOUS
 70
0
 71
3
 72
11
 73
7
 74
0
 42
0.0000001
 43
0.0000001
 44
0.0000000001
 40
0.0
 40
0.0
 40
0.0
 40
0.0
 40
0.2427017075
 40
0.4955310213
 40
0.7506985425
 40
1.0
 40
1.0
 40
1.0
 40
1.0
 10
16.0271763307
 20
13.2203223796
 30
0.0
 10
16.016018079
 20
13.2203223796
 30
0.0
 10
15.9931860444
 20
13.2177219836
 30
0.0
 10
15.9601329743
 20
13.2071229549
 30
0.0
 10
15.9293507191
 20
13.1904427935
 30
0.0
 10
15.9112720087
 20
13.1756291366
 30
0.0
 10
15.9032168999
 20
13.167475288
 30
0.0
  0
SPLINE
  5
5DC
100
AcDbEntity
  8
0
100
AcDbSpline
 62
7
  6
CONTINUOUS
 70
0
 71
3
 72
9
 73
5
 74
0
 42
0.0000001
 43
0.0000001
 44
0.0000000001
 40
0.0
 40
0.0
 40
0.0
 40
0.0
 40
0.4947268558
 40
1.0
 40
1.0
 40
1.0
 40
1.0
 10
16.1184737885
 20
13.167475288
 30
0.0
 10
16.116280983
 20
13.1734042946
 30
0.0
 10
16.1101886517
 20
13.1848399944
 30
0.0
 10
16.1012688036
 20
13.1942143218
 30
0.0
 10
16.0962833032
 20
13.1983165421
 30
0.0
  0
SPLINE
  5
5DD
100
AcDbEntity
  8
0
100
AcDbSpline
 62
7
  6
CONTINUOUS
 70
0
 71
3
 72
11
 73
7
 74
0
 42
0.0000001
 43
0.0000001
 44
0.0000000001
 40
0.0
 40
0.0
 40
0.0
 40
0.0
 40
0.2307439998
 40
0.473651612
 40
0.7301995559
 40
1.0
 40
1.0
 40
1.0
 40
1.0
 10
16.0962833032
 20
13.1983165421
 30
0.0
 10
16.0918958739
 20
13.2019266514
 30
0.0
 10
16.0820716117
 20
13.2083830543
 30
0.0
 10
16.0653646294
 20
13.2152729689
 30
0.0
 10
16.046803495
 20
13.2194380067
 30
0.0
 10
16.0338198058
 20
13.2203223796
 30
0.0
 10
16.0271763307
 20
13.2203223796
 30
0.0
  0
SPLINE
  5
5DE
100
AcDbEntity
  8
0
100
AcDbSpline
 62
7
  6
CONTINUOUS
 70
0
 71
3
 72
12
 73
8
 74
0
 42
0.0000001
 43
0.0000001
 44
0.0000000001
 40
0.0
 40
0.0
 40
0.0
 40
0.0
 40
0.279915554
 40
0.5389435661
 40
0.7767115851
 40
0.8896824574
 40
1.0
 40
1.0
 40
1.0
 40
1.0
 10
16.0858118156
 20
13.0617811049
 30
0.0
 10
16.0934450496
 20
13.0695079075
 30
0.0
 10
16.106715142
 20
13.0859252608
 30
0.0
 10
16.1198360414
 20
13.1133916634
 30
0.0
 10
16.1237996028
 20
13.137142999
 30
0.0
 10
16.122223008
 20
13.1550400535
 30
0.0
 10
16.1199586365
 20
13.1634604889
 30
0.0
 10
16.1184737885
 20
13.167475288
 30
0.0
  0
SPLINE
  5
5DF
100
AcDbEntity
  8
0
100
AcDbSpline
 62
7
  6
CONTINUOUS
 70
0
 71
3
 72
11
 73
7
 74
0
 42
0.0000001
 43
0.0000001
 44
0.0000000001
 40
0.0
 40
0.0
 40
0.0
 40
0.0
 40
0.2427017075
 40
0.4955310213
 40
0.7506985425
 40
1.0
 40
1.0
 40
1.0
 40
1.0
 10
15.9618523848
 20
13.0089340134
 30
0.0
 10
15.9730106365
 20
13.0089340134
 30
0.0
 10
15.9958426711
 20
13.0115344093
 30
0.0
 10
16.0288957412
 20
13.022133438
 30
0.0
 10
16.0596779963
 20
13.0388135995
 30
0.0
 10
16.0777567068
 20
13.0536272564
 30
0.0
 10
16.0858118156
 20
13.0617811049
 30
0.0
  0
SPLINE
  5
5E0
100
AcDbEntity
  8
0
100
AcDbSpline
 62
7
  6
CONTINUOUS
 70
0
 71
3
 72
9
 73
5
 74
0
 42
0.0000001
 43
0.0000001
 44
0.0000000001
 40
0.0
 40
0.0
 40
0.0
 40
0.0
 40
0.2420499153
 40
1.0
 40
1.0
 40
1.0
 40
1.0
 10
15.9956106904
 20
12.9134942981
 30
0.0
 10
16.0019707666
 20
12.9134942981
 30
0.0
 10
16.0282368852
 20
12.9149771049
 30
0.0
 10
16.0540954294
 20
12.9220347954
 30
0.0
 10
16.0724158114
 20
12.9298452451
 30
0.0
  0
SPLINE
  5
5E1
100
AcDbEntity
  8
0
100
AcDbSpline
 62
7
  6
CONTINUOUS
 70
0
 71
3
 72
9
 73
5
 74
0
 42
0.0000001
 43
0.0000001
 44
0.0000000001
 40
0.0
 40
0.0
 40
0.0
 40
0.0
 40
0.4788349354
 40
1.0
 40
1.0
 40
1.0
 40
1.0
 10
15.928911219
 20
12.9298452451
 30
0.0
 10
15.9384789937
 20
12.924306985
 30
0.0
 10
15.9603870549
 20
12.9159415456
 30
0.0
 10
15.9835783231
 20
12.9134942981
 30
0.0
 10
15.9956106904
 20
12.9134942981
 30
0.0
  0
SPLINE
  5
5E2
100
AcDbEntity
  8
0
100
AcDbSpline
 62
7
  6
CONTINUOUS
 70
0
 71
3
 72
12
 73
8
 74
0
 42
0.0000001
 43
0.0000001
 44
0.0000000001
 40
0.0
 40
0.0
 40
0.0
 40
0.0
 40
0.2659306834
 40
0.3972374845
 40
0.5260030041
 40
0.7721605318
 40
1.0
 40
1.0
 40
1.0
 40
1.0
 10
16.0724158114
 20
12.9298452451
 30
0.0
 10
16.0848783482
 20
12.9351583449
 30
0.0
 10
16.1028098783
 20
12.9448790045
 30
0.0
 10
16.1243246372
 20
12.9609072821
 30
0.0
 10
16.1434108696
 20
12.9783072523
 30
0.0
 10
16.1628754908
 20
13.0023652353
 30
0.0
 10
16.1734030618
 20
13.0244495917
 30
0.0
 10
16.1768300805
 20
13.0355394282
 30
0.0
  0
SPLINE
  5
5E3
100
AcDbEntity
  8
0
100
AcDbSpline
 62
7
  6
CONTINUOUS
 70
0
 71
3
 72
11
 73
7
 74
0
 42
0.0000001
 43
0.0000001
 44
0.0000000001
 40
0.0
 40
0.0
 40
0.0
 40
0.0
 40
0.2643566105
 40
0.5171047622
 40
0.7609078978
 40
1.0
 40
1.0
 40
1.0
 40
1.0
 10
16.1768300805
 20
13.0355394282
 30
0.0
 10
16.178659606
 20
13.0414597749
 30
0.0
 10
16.1813380677
 20
13.0533492734
 30
0.0
 10
16.1821479364
 20
13.0712662464
 30
0.0
 10
16.1795987424
 20
13.0884314303
 30
0.0
 10
16.1756629188
 20
13.0991456727
 30
0.0
 10
16.173194841
 20
13.1041773379
 30
0.0
  0
SPLINE
  5
5E4
100
AcDbEntity
  8
0
100
AcDbSpline
 62
7
  6
CONTINUOUS
 70
0
 71
3
 72
11
 73
7
 74
0
 42
0.0000001
 43
0.0000001
 44
0.0000000001
 40
0.0
 40
0.0
 40
0.0
 40
0.0
 40
0.2678739358
 40
0.5240772669
 40
0.7677811898
 40
1.0
 40
1.0
 40
1.0
 40
1.0
 10
15.9999684313
 20
12.9046141557
 30
0.0
 10
15.9929725437
 20
12.9046141557
 30
0.0
 10
15.9792660796
 20
12.9054690571
 30
0.0
 10
15.9595458291
 20
12.9094609221
 30
0.0
 10
15.941524941
 20
12.9160795429
 30
0.0
 10
15.930675223
 20
12.9222997987
 30
0.0
 10
15.9257202189
 20
12.9257967395
 30
0.0
  0
SPLINE
  5
5E5
100
AcDbEntity
  8
0
100
AcDbSpline
 62
7
  6
CONTINUOUS
 70
0
 71
3
 72
9
 73
5
 74
0
 42
0.0000001
 43
0.0000001
 44
0.0000000001
 40
0.0
 40
0.0
 40
0.0
 40
0.0
 40
0.5075915278
 40
1.0
 40
1.0
 40
1.0
 40
1.0
 10
15.9257202189
 20
12.9257967395
 30
0.0
 10
15.9197803841
 20
12.9299887139
 30
0.0
 10
15.9089641889
 20
12.9396172342
 30
0.0
 10
15.9009200882
 20
12.9516896254
 30
0.0
 10
15.897813456
 20
12.9580211705
 30
0.0
  0
SPLINE
  5
5E6
100
AcDbEntity
  8
0
100
AcDbSpline
 62
7
  6
CONTINUOUS
 70
0
 71
3
 72
11
 73
7
 74
0
 42
0.0000001
 43
0.0000001
 44
0.0000000001
 40
0.0
 40
0.0
 40
0.0
 40
0.0
 40
0.2678739358
 40
0.5240772669
 40
0.7677811898
 40
1.0
 40
1.0
 40
1.0
 40
1.0
 10
15.8856593342
 20
12.5347097817
 30
0.0
 10
15.8786634465
 20
12.5347097817
 30
0.0
 10
15.8649569825
 20
12.5355646832
 30
0.0
 10
15.845236732
 20
12.5395565482
 30
0.0
 10
15.8272158439
 20
12.5461751689
 30
0.0
 10
15.8163661258
 20
12.5523954247
 30
0.0
 10
15.8114111217
 20
12.5558923655
 30
0.0
  0
SPLINE
  5
5E7
100
AcDbEntity
  8
0
100
AcDbSpline
 62
7
  6
CONTINUOUS
 70
0
 71
3
 72
9
 73
5
 74
0
 42
0.0000001
 43
0.0000001
 44
0.0000000001
 40
0.0
 40
0.0
 40
0.0
 40
0.0
 40
0.5075915278
 40
1.0
 40
1.0
 40
1.0
 40
1.0
 10
15.8114111217
 20
12.5558923655
 30
0.0
 10
15.805471287
 20
12.5600843399
 30
0.0
 10
15.7946550917
 20
12.5697128602
 30
0.0
 10
15.786610991
 20
12.5817852515
 30
0.0
 10
15.7835043588
 20
12.5881167965
 30
0.0
  0
SPLINE
  5
5E8
100
AcDbEntity
  8
0
100
AcDbSpline
 62
7
  6
CONTINUOUS
 70
0
 71
3
 72
9
 73
5
 74
0
 42
0.0000001
 43
0.0000001
 44
0.0000000001
 40
0.0
 40
0.0
 40
0.0
 40
0.0
 40
0.5177911635
 40
1.0
 40
1.0
 40
1.0
 40
1.0
 10
15.7614877328
 20
12.6770010552
 30
0.0
 10
15.7566208591
 20
12.6667679022
 30
0.0
 10
15.7492501557
 20
12.6459312775
 30
0.0
 10
15.7473434654
 20
12.623816839
 30
0.0
 10
15.7479961383
 20
12.6132841956
 30
0.0
  0
SPLINE
  5
5E9
100
AcDbEntity
  8
0
100
AcDbSpline
 62
7
  6
CONTINUOUS
 70
0
 71
3
 72
9
 73
5
 74
0
 42
0.0000001
 43
0.0000001
 44
0.0000000001
 40
0.0
 40
0.0
 40
0.0
 40
0.0
 40
0.5178038021
 40
1.0
 40
1.0
 40
1.0
 40
1.0
 10
15.8757955997
 20
13.0469028424
 30
0.0
 10
15.870924964
 20
13.0366613112
 30
0.0
 10
15.8635504445
 20
13.0158071856
 30
0.0
 10
15.8616500707
 20
12.9936740437
 30
0.0
 10
15.8623086474
 20
12.9831337358
 30
0.0
  0
SPLINE
  5
5EA
100
AcDbEntity
  8
0
100
AcDbSpline
 62
7
  6
CONTINUOUS
 70
0
 71
3
 72
11
 73
7
 74
0
 42
0.0000001
 43
0.0000001
 44
0.0000000001
 40
0.0
 40
0.0
 40
0.0
 40
0.0
 40
0.2678739358
 40
0.5240772669
 40
0.7677811898
 40
1.0
 40
1.0
 40
1.0
 40
1.0
 10
14.1359164197
 20
12.9046141557
 30
0.0
 10
14.128920532
 20
12.9046141557
 30
0.0
 10
14.1152140679
 20
12.9054690571
 30
0.0
 10
14.0954938175
 20
12.9094609221
 30
0.0
 10
14.0774729294
 20
12.9160795429
 30
0.0
 10
14.0666232113
 20
12.9222997987
 30
0.0
 10
14.0616682072
 20
12.9257967395
 30
0.0
  0
SPLINE
  5
5EB
100
AcDbEntity
  8
0
100
AcDbSpline
 62
7
  6
CONTINUOUS
 70
0
 71
3
 72
9
 73
5
 74
0
 42
0.0000001
 43
0.0000001
 44
0.0000000001
 40
0.0
 40
0.0
 40
0.0
 40
0.0
 40
0.5075915278
 40
1.0
 40
1.0
 40
1.0
 40
1.0
 10
14.0616682072
 20
12.9257967395
 30
0.0
 10
14.0557283725
 20
12.9299887139
 30
0.0
 10
14.0449121772
 20
12.9396172342
 30
0.0
 10
14.0368680765
 20
12.9516896254
 30
0.0
 10
14.0337614443
 20
12.9580211705
 30
0.0
  0
ENDSEC
  0
SECTION
  2
OBJECTS
  0
DICTIONARY
  5
C
100
AcDbDictionary
280
0
281
1
  3
ACAD_GROUP
350
D
  3
ACAD_MLINESTYLE
350
17
  3
ACAD_LAYOUT
350
1A
  3
ACAD_PLOTSETTINGS
350
19
  3
ACAD_PLOTSTYLENAME
350
E
  0
DICTIONARY
  5
D
102
{ACAD_REACTORS
330
C
102
}
100
AcDbDictionary
280
0
281
1
  0
ACDBDICTIONARYWDFLT
  5
E
102
{ACAD_REACTORS
330
C
102
}
100
AcDbDictionary
281
1
  3
Normal
350
F
100
AcDbDictionaryWithDefault
340
F
  0
DICTIONARY
  5
17
102
{ACAD_REACTORS
330
C
102
}
100
AcDbDictionary
280
0
281
1
  3
Standard
350
18
  0
DICTIONARY
  5
19
102
{ACAD_REACTORS
330
C
102
}
100
AcDbDictionary
281
1
  0
DICTIONARY
  5
1A
102
{ACAD_REACTORS
330
C
102
}
100
AcDbDictionary
281
1
  3
Model
350
5EC
  3
Layout1
350
5ED
  0
ACDBPLACEHOLDER
  5
F
102
{ACAD_REACTORS
330
E
102
}
  0
MLINESTYLE
  5
18
102
{ACAD_REACTORS
330
17
102
}
100
AcDbMlineStyle
  2
STANDARD
 70
0
  3

 62
256
 51
90.0
 52
90.0
 71
2
 49
0.5
 62
256
  6
BYLAYER
 49
-0.5
 62
256
  6
BYLAYER
  0
LAYOUT
  5
5EC
102
{ACAD_REACTORS
330
1A
102
}
100
AcDbPlotSettings
  1

  2
none_device
  4
ANSI_C_(22.00_x_17.00_Inches)
  6

 40
0.0
 41
0.0
 42
0.0
 43
0.0
 44
558.8
 45
431.8
 46
0.0
 47
0.0
 48
0.0
 49
0.0
140
0.0
141
0.0
142
1.0
143
1.0
 70
1024
 72
0
 73
0
 74
0
  7

 75
0
147
1.0
148
0.0
149
0.0
100
AcDbLayout
  1
Model
 70
0
 71
0
 10
0.0
 20
0.0
 11
22.0
 21
17.0
 12
0.0
 22
0.0
 32
0.0
 14
0.0
 24
0.0
 34
0.0
 15
0.0
 25
0.0
 35
0.0
146
0.0
 13
0.0
 23
0.0
 33
0.0
 16
1.0
 26
0.0
 36
0.0
 17
0.0
 27
1.0
 37
0.0
 76
0
330
228
345
0
346
0
  0
LAYOUT
  5
5ED
102
{ACAD_REACTORS
330
1A
102
}
100
AcDbPlotSettings
  1

  2
none_device
  4
ANSI_C_(22.00_x_17.00_Inches)
  6

 40
0.0
 41
0.0
 42
0.0
 43
0.0
 44
558.8
 45
431.8
 46
0.0
 47
0.0
 48
0.0
 49
0.0
140
0.0
141
0.0
142
1.0
143
1.0
 70
0
 72
0
 73
0
 74
0
  7

 75
0
147
1.0
148
0.0
149
0.0
100
AcDbLayout
  1
Layout1
 70
0
 71
1
 10
0.0
 20
0.0
 11
22.0
 21
17.0
 12
0.0
 22
0.0
 32
0.0
 14
0.0
 24
0.0
 34
0.0
 15
0.0
 25
0.0
 35
0.0
146
0.0
 13
0.0
 23
0.0
 33
0.0
 16
1.0
 26
0.0
 36
0.0
 17
0.0
 27
1.0
 37
0.0
 76
0
330
229
345
0
346
0
  0
ENDSEC
  0
EOF