999
DXF file: _cgs_temp_output.dxf
999
Pro/ENGINEER 2016360 by Parametric Technology Corporation
  0
SECTION
  2
HEADER
  9
$ACADVER
  1
AC1021
  9
$DWGCODEPAGE
  3
ANSI_1252
  9
$EXTMAX
 10
22.0
 20
17.0
 30
0.0
  9
$EXTMIN
 10
0.0
 20
0.0
 30
0.0
  9
$LIMMIN
 10
0.0
 20
0.0
  9
$LIMMAX
 10
22.0
 20
17.0
  9
$VIEWCTR
 10
11.0
 20
8.5
  9
$VIEWSIZE
 40
17.0
  9
$CLAYER
  8
0
  9
$LTSCALE
 40
1.21
  9
$CELTYPE
  6
BYLAYER
  9
$DIMSCALE
 40
1.0
  9
$DIMASZ
 40
0.1875
  9
$DIMEXO
 40
0.0625
  9
$DIMDLI
 40
0.836
  9
$DIMEXE
 40
0.125
  9
$DIMCEN
 40
0.198
  9
$DIMLFAC
 40
1.0
  9
$DIMBLK
  1
_CLOSED
  9
$DIMALT
 70
0
  9
$DIMALTF
 40
25.4
  9
$DIMTXT
 40
0.15625
  9
$DIMTOL
 70
0
  9
$DIMLIM
 70
0
  9
$DIMTFAC
 40
1.0
  9
$DIMGAP
 40
0.09
  9
$DIMDSEP
 70
46
  9
$AUNITS
 70
0
  9
$PDMODE
 70
3
  9
$PDSIZE
 40
0.3125
  9
$HANDSEED
  5
521
  9
$TILEMODE
 70
1
  9
$MEASUREMENT
 70
0
  9
$INSUNITS
 70
1
  0
ENDSEC
  0
SECTION
  2
CLASSES
  0
CLASS
  1
ACDBDICTIONARYWDFLT
  2
AcDbDictionaryWithDefault
  3
AutoCAD 2000
 90
0
 91
1
280
0
281
0
  0
CLASS
  1
ACDBPLACEHOLDER
  2
AcDbPlaceHolder
  3
AutoCAD 2000
 90
0
 91
1
280
0
281
0
  0
CLASS
  1
LAYOUT
  2
AcDbLayout
  3
AutoCAD 2000
 90
0
 91
0
280
0
281
0
  0
ENDSEC
  0
SECTION
  2
TABLES
  0
TABLE
  2
VPORT
  5
8
100
AcDbSymbolTable
 70
2
  0
VPORT
  5
1F4
100
AcDbSymbolTableRecord
100
AcDbViewportTableRecord
  2
*ACTIVE
 70
0
 10
0.0
 20
0.0
 11
1.0
 21
1.0
 12
11.0
 22
8.5
 13
0.0
 23
0.0
 14
1.0
 24
1.0
 15
0.0
 25
0.0
 16
0.0
 26
0.0
 36
1.0
 17
0.0
 27
0.0
 37
0.0
 40
17.0
 41
1.2941176471
 42
50.0
 43
0.0
 44
0.0
 50
0.0
 51
0.0
 71
0
 72
100
 73
1
 74
1
 75
0
 76
0
 77
0
 78
0
  0
ENDTAB
  0
TABLE
  2
LTYPE
  5
5
100
AcDbSymbolTable
 70
6
  0
LTYPE
  5
14
100
AcDbSymbolTableRecord
100
AcDbLinetypeTableRecord
  2
BYBLOCK
 70
0
  3

 72
65
 73
0
 40
0.0
  0
LTYPE
  5
15
100
AcDbSymbolTableRecord
100
AcDbLinetypeTableRecord
  2
BYLAYER
 70
0
  3

 72
65
 73
0
 40
0.0
  0
LTYPE
  5
16
100
AcDbSymbolTableRecord
100
AcDbLinetypeTableRecord
  2
CONTINUOUS
 70
64
  3
Solid line
 72
65
 73
0
 40
0.0
  0
LTYPE
  5
1F5
100
AcDbSymbolTableRecord
100
AcDbLinetypeTableRecord
  2
CENTER
 70
64
  3
____ _ ____ _ ____ _ ____ _ ____ _ ____ _ ____
 72
65
 73
4
 40
0.6
 49
0.375
 74
0
 49
-0.075
 74
0
 49
0.075
 74
0
 49
-0.075
 74
0
  0
LTYPE
  5
1F6
100
AcDbSymbolTableRecord
100
AcDbLinetypeTableRecord
  2
HIDDEN
 70
64
  3
- - - - - - - - - - - - - - - - - - - -
 72
65
 73
2
 40
0.2
 49
0.1
 74
0
 49
-0.1
 74
0
  0
LTYPE
  5
1F7
100
AcDbSymbolTableRecord
100
AcDbLinetypeTableRecord
  2
PHANTOM
 70
64
  3
_____ _ _ _____ _ _ _____ _ _ _____
 72
65
 73
6
 40
0.8
 49
0.45
 74
0
 49
-0.05
 74
0
 49
0.1
 74
0
 49
-0.05
 74
0
 49
0.1
 74
0
 49
-0.05
 74
0
  0
LTYPE
  5
1F8
100
AcDbSymbolTableRecord
100
AcDbLinetypeTableRecord
  2
DOT
 70
64
  3
. . . . . . . . . . . . . . . . . . . .
 72
65
 73
2
 40
0.2
 49
0.1
 74
0
 49
-0.1
 74
0
  0
LTYPE
  5
1F9
100
AcDbSymbolTableRecord
100
AcDbLinetypeTableRecord
  2
DASHED
 70
64
  3
- - - - - - - - - - - - - - - - - - - -
 72
65
 73
2
 40
0.2
 49
0.1
 74
0
 49
-0.1
 74
0
  0
ENDTAB
  0
TABLE
  2
LAYER
  5
2
100
AcDbSymbolTable
 70
36
  0
LAYER
  5
10
100
AcDbSymbolTableRecord
100
AcDbLayerTableRecord
  2
0
 70
0
 62
7
  6
CONTINUOUS
370
-3
390
F
  0
LAYER
  5
1FA
100
AcDbSymbolTableRecord
100
AcDbLayerTableRecord
  2
DEFAULT_1
 70
0
 62
7
  6
CENTER
370
-3
390
F
  0
LAYER
  5
1FB
100
AcDbSymbolTableRecord
100
AcDbLayerTableRecord
  2
DEFAULT_2
 70
0
 62
8
  6
HIDDEN
370
-3
390
F
  0
LAYER
  5
1FC
100
AcDbSymbolTableRecord
100
AcDbLayerTableRecord
  2
DEFAULT_3
 70
0
 62
7
  6
PHANTOM
370
-3
390
F
  0
LAYER
  5
1FD
100
AcDbSymbolTableRecord
100
AcDbLayerTableRecord
  2
01_ALL_DTM_PLN
 70
0
 62
7
  6
CONTINUOUS
370
-3
390
F
  0
LAYER
  5
1FE
100
AcDbSymbolTableRecord
100
AcDbLayerTableRecord
  2
01__ASM_ALL_DTM_PLN
 70
0
 62
7
  6
CONTINUOUS
370
-3
390
F
  0
LAYER
  5
1FF
100
AcDbSymbolTableRecord
100
AcDbLayerTableRecord
  2
01__ASM_DEF_DTM_PLN
 70
0
 62
7
  6
CONTINUOUS
370
-3
390
F
  0
LAYER
  5
200
100
AcDbSymbolTableRecord
100
AcDbLayerTableRecord
  2
01___PRT_ALL_DTM_PLN
 70
0
 62
7
  6
CONTINUOUS
370
-3
390
F
  0
LAYER
  5
201
100
AcDbSymbolTableRecord
100
AcDbLayerTableRecord
  2
01___PRT_DEF_DTM_PLN
 70
0
 62
7
  6
CONTINUOUS
370
-3
390
F
  0
LAYER
  5
202
100
AcDbSymbolTableRecord
100
AcDbLayerTableRecord
  2
02_ALL_AXES
 70
0
 62
7
  6
CONTINUOUS
370
-3
390
F
  0
LAYER
  5
203
100
AcDbSymbolTableRecord
100
AcDbLayerTableRecord
  2
02__ASM_ALL_AXES
 70
0
 62
7
  6
CONTINUOUS
370
-3
390
F
  0
LAYER
  5
204
100
AcDbSymbolTableRecord
100
AcDbLayerTableRecord
  2
02___PRT_ALL_AXES
 70
0
 62
7
  6
CONTINUOUS
370
-3
390
F
  0
LAYER
  5
205
100
AcDbSymbolTableRecord
100
AcDbLayerTableRecord
  2
03_ALL_CURVES
 70
0
 62
7
  6
CONTINUOUS
370
-3
390
F
  0
LAYER
  5
206
100
AcDbSymbolTableRecord
100
AcDbLayerTableRecord
  2
03__ASM_ALL_CURVES
 70
0
 62
7
  6
CONTINUOUS
370
-3
390
F
  0
LAYER
  5
207
100
AcDbSymbolTableRecord
100
AcDbLayerTableRecord
  2
03___PRT_ALL_CURVES
 70
0
 62
7
  6
CONTINUOUS
370
-3
390
F
  0
LAYER
  5
208
100
AcDbSymbolTableRecord
100
AcDbLayerTableRecord
  2
04_ALL_DTM_PNT
 70
0
 62
7
  6
CONTINUOUS
370
-3
390
F
  0
LAYER
  5
209
100
AcDbSymbolTableRecord
100
AcDbLayerTableRecord
  2
04__ASM_ALL_DTM_PNT
 70
0
 62
7
  6
CONTINUOUS
370
-3
390
F
  0
LAYER
  5
20A
100
AcDbSymbolTableRecord
100
AcDbLayerTableRecord
  2
04___PRT_ALL_DTM_PNT
 70
0
 62
7
  6
CONTINUOUS
370
-3
390
F
  0
LAYER
  5
20B
100
AcDbSymbolTableRecord
100
AcDbLayerTableRecord
  2
05_ALL_DTM_CSYS
 70
0
 62
7
  6
CONTINUOUS
370
-3
390
F
  0
LAYER
  5
20C
100
AcDbSymbolTableRecord
100
AcDbLayerTableRecord
  2
05__ASM_ALL_DTM_CSYS
 70
0
 62
7
  6
CONTINUOUS
370
-3
390
F
  0
LAYER
  5
20D
100
AcDbSymbolTableRecord
100
AcDbLayerTableRecord
  2
05__ASM_DEF_DTM_CSYS
 70
0
 62
7
  6
CONTINUOUS
370
-3
390
F
  0
LAYER
  5
20E
100
AcDbSymbolTableRecord
100
AcDbLayerTableRecord
  2
05___PRT_ALL_DTM_CSYS
 70
0
 62
7
  6
CONTINUOUS
370
-3
390
F
  0
LAYER
  5
20F
100
AcDbSymbolTableRecord
100
AcDbLayerTableRecord
  2
05___PRT_DEF_DTM_CSYS
 70
0
 62
7
  6
CONTINUOUS
370
-3
390
F
  0
LAYER
  5
210
100
AcDbSymbolTableRecord
100
AcDbLayerTableRecord
  2
06_ALL_SURFS
 70
0
 62
7
  6
CONTINUOUS
370
-3
390
F
  0
LAYER
  5
211
100
AcDbSymbolTableRecord
100
AcDbLayerTableRecord
  2
06__ASM_ALL_SURFS
 70
0
 62
7
  6
CONTINUOUS
370
-3
390
F
  0
LAYER
  5
212
100
AcDbSymbolTableRecord
100
AcDbLayerTableRecord
  2
06___PRT_ALL_SURFS
 70
0
 62
7
  6
CONTINUOUS
370
-3
390
F
  0
LAYER
  5
213
100
AcDbSymbolTableRecord
100
AcDbLayerTableRecord
  2
07__ASM_ALL_SKELETONS
 70
0
 62
7
  6
CONTINUOUS
370
-3
390
F
  0
LAYER
  5
214
100
AcDbSymbolTableRecord
100
AcDbLayerTableRecord
  2
INTFCLR_10035
 70
0
 62
7
  6
CONTINUOUS
370
-3
390
F
  0
LAYER
  5
215
100
AcDbSymbolTableRecord
100
AcDbLayerTableRecord
  2
INTFCLR_1681
 70
0
 62
7
  6
CONTINUOUS
370
-3
390
F
  0
LAYER
  5
216
100
AcDbSymbolTableRecord
100
AcDbLayerTableRecord
  2
INTFCLR_2564
 70
0
 62
7
  6
CONTINUOUS
370
-3
390
F
  0
LAYER
  5
217
100
AcDbSymbolTableRecord
100
AcDbLayerTableRecord
  2
INTFCLR_4130
 70
0
 62
7
  6
CONTINUOUS
370
-3
390
F
  0
LAYER
  5
218
100
AcDbSymbolTableRecord
100
AcDbLayerTableRecord
  2
INTFCLR_5173
 70
0
 62
7
  6
CONTINUOUS
370
-3
390
F
  0
LAYER
  5
219
100
AcDbSymbolTableRecord
100
AcDbLayerTableRecord
  2
INTFCLR_8166
 70
0
 62
7
  6
CONTINUOUS
370
-3
390
F
  0
LAYER
  5
21A
100
AcDbSymbolTableRecord
100
AcDbLayerTableRecord
  2
LAYER_27
 70
0
 62
7
  6
CONTINUOUS
370
-3
390
F
  0
LAYER
  5
21B
100
AcDbSymbolTableRecord
100
AcDbLayerTableRecord
  2
NONE
 70
0
 62
7
  6
CONTINUOUS
370
-3
390
F
  0
LAYER
  5
21C
100
AcDbSymbolTableRecord
100
AcDbLayerTableRecord
  2
_10943
 70
0
 62
7
  6
CONTINUOUS
370
-3
390
F
  0
LAYER
  5
21D
100
AcDbSymbolTableRecord
100
AcDbLayerTableRecord
  2
_11476
 70
0
 62
7
  6
CONTINUOUS
370
-3
390
F
  0
LAYER
  5
21E
100
AcDbSymbolTableRecord
100
AcDbLayerTableRecord
  2
_13460
 70
0
 62
7
  6
CONTINUOUS
370
-3
390
F
  0
LAYER
  5
21F
100
AcDbSymbolTableRecord
100
AcDbLayerTableRecord
  2
_15346
 70
0
 62
7
  6
CONTINUOUS
370
-3
390
F
  0
LAYER
  5
220
100
AcDbSymbolTableRecord
100
AcDbLayerTableRecord
  2
_17027
 70
0
 62
7
  6
CONTINUOUS
370
-3
390
F
  0
LAYER
  5
221
100
AcDbSymbolTableRecord
100
AcDbLayerTableRecord
  2
_17059
 70
0
 62
7
  6
CONTINUOUS
370
-3
390
F
  0
LAYER
  5
222
100
AcDbSymbolTableRecord
100
AcDbLayerTableRecord
  2
_2248
 70
0
 62
7
  6
CONTINUOUS
370
-3
390
F
  0
LAYER
  5
223
100
AcDbSymbolTableRecord
100
AcDbLayerTableRecord
  2
_536
 70
0
 62
7
  6
CONTINUOUS
370
-3
390
F
  0
LAYER
  5
224
100
AcDbSymbolTableRecord
100
AcDbLayerTableRecord
  2
_7312
 70
0
 62
7
  6
CONTINUOUS
370
-3
390
F
  0
LAYER
  5
225
100
AcDbSymbolTableRecord
100
AcDbLayerTableRecord
  2
_8939
 70
0
 62
7
  6
CONTINUOUS
370
-3
390
F
  0
LAYER
  5
226
100
AcDbSymbolTableRecord
100
AcDbLayerTableRecord
  2
_926
 70
0
 62
7
  6
CONTINUOUS
370
-3
390
F
  0
LAYER
  5
227
100
AcDbSymbolTableRecord
100
AcDbLayerTableRecord
  2
_9778
 70
0
 62
7
  6
CONTINUOUS
370
-3
390
F
  0
ENDTAB
  0
TABLE
  2
STYLE
  5
3
100
AcDbSymbolTable
 70
1
  0
STYLE
  5
11
100
AcDbSymbolTableRecord
100
AcDbTextStyleTableRecord
  2
STANDARD
 70
0
 40
0.0
 41
0.8
 50
0.0
 71
0
 42
0.2
  3
txt
  4

  0
STYLE
  5
228
100
AcDbSymbolTableRecord
100
AcDbTextStyleTableRecord
  2
TEXTSTYLE_1
 70
0
 40
0.0
 41
0.8
 50
0.0
 71
0
 42
0.2
  3
gdt
  4

  0
ENDTAB
  0
TABLE
  2
VIEW
  5
6
100
AcDbSymbolTable
 70
0
  0
ENDTAB
  0
TABLE
  2
UCS
  5
7
100
AcDbSymbolTable
 70
0
  0
ENDTAB
  0
TABLE
  2
APPID
  5
9
100
AcDbSymbolTable
 70
1
  0
APPID
  5
229
100
AcDbSymbolTableRecord
100
AcDbRegAppTableRecord
  2
ACAD
 70
0
  0
ENDTAB
  0
TABLE
  2
BLOCK_RECORD
  5
1
100
AcDbSymbolTable
 70
0
  0
BLOCK_RECORD
  5
22A
100
AcDbSymbolTableRecord
100
AcDbBlockTableRecord
  2
*Model_Space
  0
BLOCK_RECORD
  5
22B
100
AcDbSymbolTableRecord
100
AcDbBlockTableRecord
  2
*Paper_Space
  0
BLOCK_RECORD
  5
22C
100
AcDbSymbolTableRecord
100
AcDbBlockTableRecord
  2
_NONE
  0
ENDTAB
  0
TABLE
  2
DIMSTYLE
  5
A
100
AcDbSymbolTable
 70
1
100
AcDbDimStyleTable
 71
0
  0
DIMSTYLE
105
22D
100
AcDbSymbolTableRecord
100
AcDbDimStyleTableRecord
  2
STANDARD
 70
0
  3

  4

 40
1.0
 41
0.1875
 42
0.0625
 43
0.38
 44
0.125
 45
0.0
 46
0.0
 47
0.0001
 48
0.0001
140
0.15625
141
0.09
142
0.0
143
25.4
144
1.0
145
0.0
146
1.0
147
0.09
 71
0.0
 72
0.0
 73
1
 74
1
 75
0
 76
0
 77
0
 78
4
 79
1
170
0
171
3
172
0
173
0
174
0
175
0
176
0
177
0
178
0
270
2
179
4
271
4
272
4
273
2
274
2
275
0
280
0
281
0
282
0
283
1
284
4
285
0
286
0
287
3
288
0
340
11
278
46
  0
ENDTAB
  0
ENDSEC
  0
SECTION
  2
BLOCKS
  0
BLOCK
  5
20
100
AcDbEntity
  8
0
100
AcDbBlockBegin
  2
*Model_Space
 70
0
 10
0.0
 20
0.0
 30
0.0
  3
*Model_Space
  1

  0
ENDBLK
  5
21
100
AcDbEntity
  8
0
100
AcDbBlockEnd
  0
BLOCK
  5
1C
100
AcDbEntity
  8
0
100
AcDbBlockBegin
  2
*Paper_Space
 70
0
 10
0.0
 20
0.0
 30
0.0
  3
*Paper_Space
  1

  0
ENDBLK
  5
1D
100
AcDbEntity
  8
0
100
AcDbBlockEnd
  0
BLOCK
  5
22E
100
AcDbEntity
  8
0
100
AcDbBlockBegin
  2
_NONE
 70
64
 10
0.0
 20
0.0
  3
_NONE
  1

  0
ENDBLK
  5
22F
100
AcDbEntity
  8
0
  6
BYBLOCK
 62
0
100
AcDbBlockEnd
  0
ENDSEC
  0
SECTION
  2
ENTITIES
  0
MTEXT
  5
230
100
AcDbEntity
  8
0
100
AcDbMText
 62
7
  6
CONTINUOUS
  7
STANDARD
 71
1
 72
1
 10
15.9560215477
 20
0.9479130325
 30
0.0
 11
1.0
 21
0.0
 31
0.0
 44
0.9
  1
SCALE: 1:0.500
 40
0.3
 41
3.36
  0
LEADER
  5
231
100
AcDbEntity
  8
0
100
AcDbLeader
 62
2
  6
CONTINUOUS
  3
STANDARD
 71
1
 72
0
 73
0
 75
0
 40
0.15625
 41
1.5
 76
3
 10
4.0198818416
 20
4.609758529
 30
0.0
 10
8.4418964161
 20
3.4502950769
 30
0.0
 10
8.6918964161
 20
3.4502950769
 30
0.0
340
232
1001
ACAD
1000
DSTYLE
1002
{
1070
77
1070
0
1070
341
1005
22C
1002
}
  0
MTEXT
  5
232
102
{ACAD_REACTORS
330
231
102
}
100
AcDbEntity
  8
0
100
AcDbMText
 62
2
  6
CONTINUOUS
  7
STANDARD
 71
1
 72
1
 10
8.6918964161
 20
3.5284200769
 30
0.0
 11
1.0
 21
0.0
 31
0.0
 44
0.9
  1
 0.375 BOLTS
 40
0.15625
 41
1.5
  0
LEADER
  5
233
100
AcDbEntity
  8
0
100
AcDbLeader
 62
2
  6
CONTINUOUS
  3
STANDARD
 71
1
 72
0
 73
0
 75
0
 40
0.15625
 41
1.5
 76
3
 10
5.5257070558
 20
4.4894733087
 30
0.0
 10
5.0656660071
 20
3.8935913767
 30
0.0
 10
4.8156660071
 20
3.8935913767
 30
0.0
340
234
1001
ACAD
1000
DSTYLE
1002
{
1070
77
1070
0
1070
341
1005
22C
1002
}
  0
MTEXT
  5
234
102
{ACAD_REACTORS
330
233
102
}
100
AcDbEntity
  8
0
100
AcDbMText
 62
2
  6
CONTINUOUS
  7
STANDARD
 71
2
 72
1
 10
4.0656660071
 20
3.9717163767
 30
0.0
 11
1.0
 21
0.0
 31
0.0
 44
0.9
  1
 Drain Plug 
 40
0.15625
 41
1.5
  0
LINE
  5
235
100
AcDbEntity
  8
0
100
AcDbLine
 62
7
  6
CONTINUOUS
 10
0.0
 20
0.0
 11
0.0
 21
17.0
  0
LINE
  5
236
100
AcDbEntity
  8
0
100
AcDbLine
 62
7
  6
CONTINUOUS
 10
0.0
 20
0.0
 11
22.0
 21
0.0
  0
LINE
  5
237
100
AcDbEntity
  8
0
100
AcDbLine
 62
7
  6
CONTINUOUS
 10
0.0
 20
17.0
 11
22.0
 21
17.0
  0
LINE
  5
238
100
AcDbEntity
  8
0
100
AcDbLine
 62
7
  6
CONTINUOUS
 10
22.0
 20
0.0
 11
22.0
 21
17.0
  0
LINE
  5
239
100
AcDbEntity
  8
0
100
AcDbLine
 62
7
  6
CONTINUOUS
 10
3.7241172762
 20
4.559758529
 11
3.7241172762
 21
4.109758529
  0
LINE
  5
23A
100
AcDbEntity
  8
0
100
AcDbLine
 62
7
  6
CONTINUOUS
 10
4.6199506095
 20
5.969133529
 11
4.6199506095
 21
4.9189597216
  0
LINE
  5
23B
100
AcDbEntity
  8
0
100
AcDbLine
 62
7
  6
CONTINUOUS
 10
4.7282499528
 20
6.216008529
 11
4.6918256095
 21
6.1795841857
  0
LINE
  5
23C
100
AcDbEntity
  8
0
100
AcDbLine
 62
7
  6
CONTINUOUS
 10
4.6918256095
 20
5.994133529
 11
4.6918256095
 21
6.1795841857
  0
LINE
  5
23D
100
AcDbEntity
  8
0
100
AcDbLine
 62
7
  6
CONTINUOUS
 10
4.8277631095
 20
6.044133529
 11
4.8277631095
 21
6.1795841857
  0
LINE
  5
23E
100
AcDbEntity
  8
0
100
AcDbLine
 62
7
  6
CONTINUOUS
 10
8.5366172762
 20
4.109758529
 11
3.7241172762
 21
4.109758529
  0
LINE
  5
23F
100
AcDbEntity
  8
0
100
AcDbLine
 62
7
  6
CONTINUOUS
 10
5.0428672762
 20
4.159758529
 11
7.2178672762
 21
4.159758529
  0
LINE
  5
240
100
AcDbEntity
  8
0
100
AcDbLine
 62
7
  6
CONTINUOUS
 10
7.2178672762
 20
4.209758529
 11
5.0428672762
 21
4.209758529
  0
LINE
  5
241
100
AcDbEntity
  8
0
100
AcDbLine
 62
7
  6
CONTINUOUS
 10
4.9428672762
 20
5.484758529
 11
4.9428672762
 21
4.259758529
  0
LINE
  5
242
100
AcDbEntity
  8
0
100
AcDbLine
 62
7
  6
CONTINUOUS
 10
4.9928672762
 20
4.259758529
 11
4.9928672762
 21
5.484758529
  0
LINE
  5
243
100
AcDbEntity
  8
0
100
AcDbLine
 62
7
  6
CONTINUOUS
 10
5.5709922762
 20
4.442258529
 11
5.4784922762
 21
4.534758529
  0
LINE
  5
244
100
AcDbEntity
  8
0
100
AcDbLine
 62
7
  6
CONTINUOUS
 10
5.4804218355
 20
4.534758529
 11
5.5709922762
 21
4.4441880883
  0
LINE
  5
245
100
AcDbEntity
  8
0
100
AcDbLine
 62
7
  6
CONTINUOUS
 10
5.6634922762
 20
4.534758529
 11
5.6615627169
 21
4.534758529
  0
LINE
  5
246
100
AcDbEntity
  8
0
100
AcDbLine
 62
7
  6
CONTINUOUS
 10
5.4784922762
 20
4.534758529
 11
5.4804218355
 21
4.534758529
  0
LINE
  5
247
100
AcDbEntity
  8
0
100
AcDbLine
 62
7
  6
CONTINUOUS
 10
3.7741172762
 20
4.609758529
 11
4.1303672762
 21
4.609758529
  0
LINE
  5
248
100
AcDbEntity
  8
0
100
AcDbLine
 62
7
  6
CONTINUOUS
 10
8.1303672762
 20
4.609758529
 11
8.4866172762
 21
4.609758529
  0
LINE
  5
249
100
AcDbEntity
  8
0
100
AcDbLine
 62
7
  6
CONTINUOUS
 10
5.6615627169
 20
4.534758529
 11
5.5709922762
 21
4.6253289697
  0
LINE
  5
24A
100
AcDbEntity
  8
0
100
AcDbLine
 62
7
  6
CONTINUOUS
 10
5.5709922762
 20
4.627258529
 11
5.6634922762
 21
4.534758529
  0
LINE
  5
24B
100
AcDbEntity
  8
0
100
AcDbLine
 62
7
  6
CONTINUOUS
 10
5.3178672762
 20
4.752258529
 11
5.3178672762
 21
5.484758529
  0
LINE
  5
24C
100
AcDbEntity
  8
0
100
AcDbLine
 62
7
  6
CONTINUOUS
 10
6.8928672762
 20
4.702258529
 11
5.3678672762
 21
4.702258529
  0
LINE
  5
24D
100
AcDbEntity
  8
0
100
AcDbLine
 62
7
  6
CONTINUOUS
 10
5.5709922762
 20
4.627258529
 11
5.5709922762
 21
4.6253289697
  0
LINE
  5
24E
100
AcDbEntity
  8
0
100
AcDbLine
 62
7
  6
CONTINUOUS
 10
5.5709922762
 20
4.442258529
 11
5.5709922762
 21
4.4441880883
  0
LINE
  5
24F
100
AcDbEntity
  8
0
100
AcDbLine
 62
7
  6
CONTINUOUS
 10
7.3678644326
 20
5.484758529
 11
7.3178672762
 21
5.484758529
  0
LINE
  5
250
100
AcDbEntity
  8
0
100
AcDbLine
 62
7
  6
CONTINUOUS
 10
4.9428672762
 20
5.484758529
 11
4.8928699195
 21
5.484758529
  0
LINE
  5
251
100
AcDbEntity
  8
0
100
AcDbLine
 62
7
  6
CONTINUOUS
 10
5.3178672762
 20
5.484758529
 11
5.3678672762
 21
5.484758529
  0
LINE
  5
252
100
AcDbEntity
  8
0
100
AcDbLine
 62
7
  6
CONTINUOUS
 10
6.8928672762
 20
5.484758529
 11
6.9428672762
 21
5.484758529
  0
LINE
  5
253
100
AcDbEntity
  8
0
100
AcDbLine
 62
7
  6
CONTINUOUS
 10
5.6769310471
 20
6.7544130251
 11
5.6850191422
 21
6.724227843
  0
LINE
  5
254
100
AcDbEntity
  8
0
100
AcDbLine
 62
7
  6
CONTINUOUS
 10
5.6940746968
 20
6.7266542715
 11
5.6950621092
 21
6.7229691984
  0
LINE
  5
255
100
AcDbEntity
  8
0
100
AcDbLine
 62
7
  6
CONTINUOUS
 10
5.7673627735
 20
6.6154149671
 11
5.7518308854
 21
6.6733807617
  0
LINE
  5
256
100
AcDbEntity
  8
0
100
AcDbLine
 62
7
  6
CONTINUOUS
 10
5.8207925624
 20
6.6401068682
 11
5.8091923837
 21
6.683399324
  0
LINE
  5
257
100
AcDbEntity
  8
0
100
AcDbLine
 62
7
  6
CONTINUOUS
 10
5.7906672795
 20
6.752536176
 11
5.7825791843
 21
6.7827213581
  0
LINE
  5
258
100
AcDbEntity
  8
0
100
AcDbLine
 62
7
  6
CONTINUOUS
 10
5.8794084571
 20
6.6454430349
 11
5.8638782812
 21
6.7034037713
  0
LINE
  5
259
100
AcDbEntity
  8
0
100
AcDbLine
 62
7
  6
CONTINUOUS
 10
5.8872598621
 20
6.7784180805
 11
5.8882472745
 21
6.7747330074
  0
LINE
  5
25A
100
AcDbEntity
  8
0
100
AcDbLine
 62
7
  6
CONTINUOUS
 10
5.8963154167
 20
6.7808445091
 11
5.8882273216
 21
6.8110296912
  0
LINE
  5
25B
100
AcDbEntity
  8
0
100
AcDbLine
 62
7
  6
CONTINUOUS
 10
5.4784922762
 20
4.534758529
 11
5.5709922762
 21
4.627258529
  0
LINE
  5
25C
100
AcDbEntity
  8
0
100
AcDbLine
 62
7
  6
CONTINUOUS
 10
5.5709922762
 20
4.6253289697
 11
5.4804218355
 21
4.534758529
  0
LINE
  5
25D
100
AcDbEntity
  8
0
100
AcDbLine
 62
7
  6
CONTINUOUS
 10
5.5709922762
 20
4.4441880883
 11
5.6615627169
 21
4.534758529
  0
LINE
  5
25E
100
AcDbEntity
  8
0
100
AcDbLine
 62
7
  6
CONTINUOUS
 10
5.6634922762
 20
4.534758529
 11
5.5709922762
 21
4.442258529
  0
LINE
  5
25F
100
AcDbEntity
  8
0
100
AcDbLine
 62
7
  6
CONTINUOUS
 10
4.6449506095
 20
5.994133529
 11
4.9207419791
 21
5.994133529
  0
LINE
  5
260
100
AcDbEntity
  8
0
100
AcDbLine
 62
7
  6
CONTINUOUS
 10
7.3399925733
 20
5.994133529
 11
7.6157839428
 21
5.994133529
  0
LINE
  5
261
100
AcDbEntity
  8
0
100
AcDbLine
 62
7
  6
CONTINUOUS
 10
4.6918256095
 20
6.044133529
 11
4.9468994333
 21
6.044133529
  0
LINE
  5
262
100
AcDbEntity
  8
0
100
AcDbLine
 62
7
  6
CONTINUOUS
 10
7.3138350825
 20
6.044133529
 11
7.5689089428
 21
6.044133529
  0
LINE
  5
263
100
AcDbEntity
  8
0
100
AcDbLine
 62
7
  6
CONTINUOUS
 10
4.7282610428
 20
6.216008529
 11
5.0447194968
 21
6.216008529
  0
LINE
  5
264
100
AcDbEntity
  8
0
100
AcDbLine
 62
7
  6
CONTINUOUS
 10
7.2160150553
 20
6.216008529
 11
7.5324735095
 21
6.216008529
  0
LINE
  5
265
100
AcDbEntity
  8
0
100
AcDbLine
 62
7
  6
CONTINUOUS
 10
6.9428672762
 20
5.484758529
 11
6.9428672762
 21
4.752258529
  0
LINE
  5
266
100
AcDbEntity
  8
0
100
AcDbLine
 62
7
  6
CONTINUOUS
 10
7.2678672762
 20
5.484758529
 11
7.2678672762
 21
4.259758529
  0
LINE
  5
267
100
AcDbEntity
  8
0
100
AcDbLine
 62
7
  6
CONTINUOUS
 10
7.3178672762
 20
4.259758529
 11
7.3178672762
 21
5.484758529
  0
LINE
  5
268
100
AcDbEntity
  8
0
100
AcDbLine
 62
7
  6
CONTINUOUS
 10
7.4329714428
 20
6.044133529
 11
7.4329714428
 21
6.1795841857
  0
LINE
  5
269
100
AcDbEntity
  8
0
100
AcDbLine
 62
7
  6
CONTINUOUS
 10
5.6850191422
 20
6.724227843
 11
5.8963154167
 21
6.7808445091
  0
LINE
  5
26A
100
AcDbEntity
  8
0
100
AcDbLine
 62
7
  6
CONTINUOUS
 10
5.6769310471
 20
6.7544130251
 11
5.8882273216
 21
6.8110296912
  0
LINE
  5
26B
100
AcDbEntity
  8
0
100
AcDbLine
 62
7
  6
CONTINUOUS
 10
5.8768177596
 20
6.6551129303
 11
5.7647703639
 21
6.6250899206
  0
LINE
  5
26C
100
AcDbEntity
  8
0
100
AcDbLine
 62
7
  6
CONTINUOUS
 10
5.7518308854
 20
6.6733807617
 11
5.8638782841
 21
6.7034037721
  0
LINE
  5
26D
100
AcDbEntity
  8
0
100
AcDbLine
 62
7
  6
CONTINUOUS
 10
7.5689089428
 20
5.994133529
 11
7.5689089428
 21
6.1795841857
  0
LINE
  5
26E
100
AcDbEntity
  8
0
100
AcDbLine
 62
7
  6
CONTINUOUS
 10
7.6407839428
 20
4.9189597216
 11
7.6407839428
 21
5.969133529
  0
LINE
  5
26F
100
AcDbEntity
  8
0
100
AcDbLine
 62
7
  6
CONTINUOUS
 10
5.7063522395
 20
6.8360598377
 11
5.8219244152
 21
6.8670273088
  0
LINE
  5
270
100
AcDbEntity
  8
0
100
AcDbLine
 62
7
  6
CONTINUOUS
 10
5.7209669819
 20
6.9160686453
 11
5.7692632732
 21
6.9290095976
  0
LINE
  5
271
100
AcDbEntity
  8
0
100
AcDbLine
 62
7
  6
CONTINUOUS
 10
7.5324845995
 20
6.216008529
 11
7.5689089428
 21
6.1795841857
  0
LINE
  5
272
100
AcDbEntity
  8
0
100
AcDbLine
 62
7
  6
CONTINUOUS
 10
8.5366172762
 20
4.109758529
 11
8.5366172762
 21
4.559758529
  0
LINE
  5
273
100
AcDbEntity
  8
0
100
AcDbLine
 62
7
  6
CONTINUOUS
 10
3.6646220839
 20
13.1875477814
 11
3.6646220839
 21
12.0125477814
  0
LINE
  5
274
100
AcDbEntity
  8
0
100
AcDbLine
 62
7
  6
CONTINUOUS
 10
4.5604554172
 20
12.9875477814
 11
4.5604554172
 21
12.2125477814
  0
LINE
  5
275
100
AcDbEntity
  8
0
100
AcDbLine
 62
7
  6
CONTINUOUS
 10
4.8833720839
 20
13.4562977814
 11
4.9333720839
 21
13.5062977814
  0
LINE
  5
276
100
AcDbEntity
  8
0
100
AcDbLine
 62
7
  6
CONTINUOUS
 10
4.9333720839
 20
11.6937977814
 11
4.8833720839
 21
11.7437977814
  0
LINE
  5
277
100
AcDbEntity
  8
0
100
AcDbLine
 62
7
  6
CONTINUOUS
 10
4.7583720839
 20
11.9627004984
 11
4.7583720839
 21
11.9680333107
  0
LINE
  5
278
100
AcDbEntity
  8
0
100
AcDbLine
 62
7
  6
CONTINUOUS
 10
4.7583720839
 20
13.2320622521
 11
4.7583720839
 21
13.2373950643
  0
LINE
  5
279
100
AcDbEntity
  8
0
100
AcDbLine
 62
7
  6
CONTINUOUS
 10
4.8612467868
 20
13.2125477814
 11
4.8612467868
 21
12.9694831786
  0
LINE
  5
27A
100
AcDbEntity
  8
0
100
AcDbLine
 62
7
  6
CONTINUOUS
 10
4.8612467868
 20
12.2307123841
 11
4.8612467868
 21
11.9875477814
  0
LINE
  5
27B
100
AcDbEntity
  8
0
100
AcDbLine
 62
7
  6
CONTINUOUS
 10
4.6323304172
 20
12.6000977814
 11
4.7682679172
 21
12.835548438
  0
LINE
  5
27C
100
AcDbEntity
  8
0
100
AcDbLine
 62
7
  6
CONTINUOUS
 10
4.7682679172
 20
12.3646471247
 11
4.6323304172
 21
12.6000977814
  0
LINE
  5
27D
100
AcDbEntity
  8
0
100
AcDbLine
 62
7
  6
CONTINUOUS
 10
4.8833720839
 20
11.8629600263
 11
4.8833720839
 21
11.7437977814
  0
LINE
  5
27E
100
AcDbEntity
  8
0
100
AcDbLine
 62
7
  6
CONTINUOUS
 10
4.8833720839
 20
13.3370729405
 11
4.8833720839
 21
13.4562977814
  0
LINE
  5
27F
100
AcDbEntity
  8
0
100
AcDbLine
 62
7
  6
CONTINUOUS
 10
5.2583720839
 20
11.5687977814
 11
6.8833720839
 21
11.5687977814
  0
LINE
  5
280
100
AcDbEntity
  8
0
100
AcDbLine
 62
7
  6
CONTINUOUS
 10
7.2083720839
 20
11.6937977814
 11
4.9333720839
 21
11.6937977814
  0
LINE
  5
281
100
AcDbEntity
  8
0
100
AcDbLine
 62
7
  6
CONTINUOUS
 10
7.2583720839
 20
11.7437977814
 11
5.7711154532
 21
11.7437977814
  0
LINE
  5
282
100
AcDbEntity
  8
0
100
AcDbLine
 62
7
  6
CONTINUOUS
 10
5.7391444409
 20
11.7437977814
 11
4.8833720839
 21
11.7437977814
  0
LINE
  5
283
100
AcDbEntity
  8
0
100
AcDbLine
 62
7
  6
CONTINUOUS
 10
5.7612973701
 20
11.7379295102
 11
5.7496971914
 21
11.7379370661
  0
LINE
  5
284
100
AcDbEntity
  8
0
100
AcDbLine
 62
7
  6
CONTINUOUS
 10
5.2583720839
 20
11.5687977814
 11
5.2583720839
 21
11.6937977814
  0
LINE
  5
285
100
AcDbEntity
  8
0
100
AcDbLine
 62
7
  6
CONTINUOUS
 10
5.2583720839
 20
13.5062977814
 11
5.2583720839
 21
13.6312977814
  0
LINE
  5
286
100
AcDbEntity
  8
0
100
AcDbLine
 62
7
  6
CONTINUOUS
 10
5.1760804172
 20
12.6000977814
 11
5.0401429172
 21
12.3646471247
  0
LINE
  5
287
100
AcDbEntity
  8
0
100
AcDbLine
 62
7
  6
CONTINUOUS
 10
5.5614970855
 20
11.9129015699
 11
4.2402465764
 21
11.9125478078
  0
LINE
  5
288
100
AcDbEntity
  8
0
100
AcDbLine
 62
7
  6
CONTINUOUS
 10
8.3771220839
 20
11.9125390547
 11
7.3073813022
 21
11.9125477814
  0
LINE
  5
289
100
AcDbEntity
  8
0
100
AcDbLine
 62
7
  6
CONTINUOUS
 10
4.83436179
 20
11.9125477814
 11
3.7646220839
 21
11.9125390547
  0
LINE
  5
28A
100
AcDbEntity
  8
0
100
AcDbLine
 62
7
  6
CONTINUOUS
 10
5.8173225545
 20
11.7714157797
 11
5.8057223758
 21
11.7714233356
  0
LINE
  5
28B
100
AcDbEntity
  8
0
100
AcDbLine
 62
7
  6
CONTINUOUS
 10
5.805725349
 20
11.8383959659
 11
5.8173255277
 21
11.8383884099
  0
LINE
  5
28C
100
AcDbEntity
  8
0
100
AcDbLine
 62
7
  6
CONTINUOUS
 10
5.7613033164
 20
11.8718747707
 11
5.7497031377
 21
11.8718823267
  0
LINE
  5
28D
100
AcDbEntity
  8
0
100
AcDbLine
 62
7
  6
CONTINUOUS
 10
7.3333720832
 20
11.9127004977
 11
5.5614970855
 21
11.9129015699
  0
LINE
  5
28E
100
AcDbEntity
  8
0
100
AcDbLine
 62
7
  6
CONTINUOUS
 10
5.7613033164
 20
11.8718747707
 11
5.817325515
 21
11.8383884175
  0
LINE
  5
28F
100
AcDbEntity
  8
0
100
AcDbLine
 62
7
  6
CONTINUOUS
 10
5.0401429172
 20
12.835548438
 11
5.1760804172
 21
12.6000977814
  0
LINE
  5
290
100
AcDbEntity
  8
0
100
AcDbLine
 62
7
  6
CONTINUOUS
 10
4.8104554172
 20
11.9625477814
 11
4.8510214079
 21
11.9625477814
  0
LINE
  5
291
100
AcDbEntity
  8
0
100
AcDbLine
 62
7
  6
CONTINUOUS
 10
7.2907227598
 20
11.9625477814
 11
7.3312887505
 21
11.9625477814
  0
LINE
  5
292
100
AcDbEntity
  8
0
100
AcDbLine
 62
7
  6
CONTINUOUS
 10
5.6174358548
 20
12.6631954671
 11
5.6174358548
 21
12.5369000957
  0
LINE
  5
293
100
AcDbEntity
  8
0
100
AcDbLine
 62
7
  6
CONTINUOUS
 10
4.9239338646
 20
12.2287464599
 11
4.8612467868
 21
12.2307123841
  0
LINE
  5
294
100
AcDbEntity
  8
0
100
AcDbLine
 62
7
  6
CONTINUOUS
 10
5.817325515
 20
11.8383884175
 11
5.8173225673
 21
11.7714157873
  0
LINE
  5
295
100
AcDbEntity
  8
0
100
AcDbLine
 62
7
  6
CONTINUOUS
 10
5.8287321293
 20
12.5369000957
 11
5.8287321293
 21
12.6631954671
  0
LINE
  5
296
100
AcDbEntity
  8
0
100
AcDbLine
 62
7
  6
CONTINUOUS
 10
5.8368202244
 20
12.5369000957
 11
5.8368202244
 21
12.6631954671
  0
LINE
  5
297
100
AcDbEntity
  8
0
100
AcDbLine
 62
7
  6
CONTINUOUS
 10
5.723083992
 20
12.7263431528
 11
5.6174358548
 21
12.6631954671
  0
LINE
  5
298
100
AcDbEntity
  8
0
100
AcDbLine
 62
7
  6
CONTINUOUS
 10
4.0708720839
 20
12.297964448
 11
4.2583720839
 21
12.297964448
  0
LINE
  5
299
100
AcDbEntity
  8
0
100
AcDbLine
 62
7
  6
CONTINUOUS
 10
7.8833720839
 20
12.297964448
 11
8.0708720839
 21
12.297964448
  0
LINE
  5
29A
100
AcDbEntity
  8
0
100
AcDbLine
 62
7
  6
CONTINUOUS
 10
7.3734762505
 20
12.3646471247
 11
7.1016012505
 21
12.3646471247
  0
LINE
  5
29B
100
AcDbEntity
  8
0
100
AcDbLine
 62
7
  6
CONTINUOUS
 10
5.0401429172
 20
12.3646471247
 11
4.7682679172
 21
12.3646471247
  0
LINE
  5
29C
100
AcDbEntity
  8
0
100
AcDbLine
 62
7
  6
CONTINUOUS
 10
8.0708720839
 20
12.4437977814
 11
7.8833720839
 21
12.4437977814
  0
LINE
  5
29D
100
AcDbEntity
  8
0
100
AcDbLine
 62
7
  6
CONTINUOUS
 10
4.2583720839
 20
12.4437977814
 11
4.0708720839
 21
12.4437977814
  0
LINE
  5
29E
100
AcDbEntity
  8
0
100
AcDbLine
 62
7
  6
CONTINUOUS
 10
5.6174358548
 20
12.5369000957
 11
5.723083992
 21
12.47375241
  0
LINE
  5
29F
100
AcDbEntity
  8
0
100
AcDbLine
 62
7
  6
CONTINUOUS
 10
5.723083992
 20
12.47375241
 11
5.8287321293
 21
12.5369000957
  0
LINE
  5
2A0
100
AcDbEntity
  8
0
100
AcDbLine
 62
7
  6
CONTINUOUS
 10
5.7311720872
 20
12.47375241
 11
5.8368202244
 21
12.5369000957
  0
LINE
  5
2A1
100
AcDbEntity
  8
0
100
AcDbLine
 62
7
  6
CONTINUOUS
 10
5.7311720872
 20
12.47375241
 11
5.723083992
 21
12.47375241
  0
LINE
  5
2A2
100
AcDbEntity
  8
0
100
AcDbLine
 62
7
  6
CONTINUOUS
 10
5.8368202244
 20
12.5369000957
 11
5.8287321293
 21
12.5369000957
  0
LINE
  5
2A3
100
AcDbEntity
  8
0
100
AcDbLine
 62
7
  6
CONTINUOUS
 10
5.8287321293
 20
12.6631954671
 11
5.723083992
 21
12.7263431528
  0
LINE
  5
2A4
100
AcDbEntity
  8
0
100
AcDbLine
 62
7
  6
CONTINUOUS
 10
5.8368202244
 20
12.6631954671
 11
5.7311720872
 21
12.7263431528
  0
LINE
  5
2A5
100
AcDbEntity
  8
0
100
AcDbLine
 62
7
  6
CONTINUOUS
 10
5.8287321293
 20
12.6631954671
 11
5.8368202244
 21
12.6631954671
  0
LINE
  5
2A6
100
AcDbEntity
  8
0
100
AcDbLine
 62
7
  6
CONTINUOUS
 10
5.7311720872
 20
12.7263431528
 11
5.723083992
 21
12.7263431528
  0
LINE
  5
2A7
100
AcDbEntity
  8
0
100
AcDbLine
 62
7
  6
CONTINUOUS
 10
4.0708720839
 20
12.7562977814
 11
4.2583720839
 21
12.7562977814
  0
LINE
  5
2A8
100
AcDbEntity
  8
0
100
AcDbLine
 62
7
  6
CONTINUOUS
 10
7.8833720839
 20
12.7562977814
 11
8.0708720839
 21
12.7562977814
  0
LINE
  5
2A9
100
AcDbEntity
  8
0
100
AcDbLine
 62
7
  6
CONTINUOUS
 10
4.7682679172
 20
12.835548438
 11
5.0401429172
 21
12.835548438
  0
LINE
  5
2AA
100
AcDbEntity
  8
0
100
AcDbLine
 62
7
  6
CONTINUOUS
 10
7.1016012505
 20
12.835548438
 11
7.3734762505
 21
12.835548438
  0
LINE
  5
2AB
100
AcDbEntity
  8
0
100
AcDbLine
 62
7
  6
CONTINUOUS
 10
8.0708720839
 20
12.9021311147
 11
7.8833720839
 21
12.9021311147
  0
LINE
  5
2AC
100
AcDbEntity
  8
0
100
AcDbLine
 62
7
  6
CONTINUOUS
 10
4.2583720839
 20
12.9021311147
 11
4.0708720839
 21
12.9021311147
  0
LINE
  5
2AD
100
AcDbEntity
  8
0
100
AcDbLine
 62
7
  6
CONTINUOUS
 10
7.2178908792
 20
12.9714533748
 11
7.280497381
 21
12.9694831786
  0
LINE
  5
2AE
100
AcDbEntity
  8
0
100
AcDbLine
 62
7
  6
CONTINUOUS
 10
5.8173225673
 20
11.7714157873
 11
5.7612973701
 21
11.7379295102
  0
LINE
  5
2AF
100
AcDbEntity
  8
0
100
AcDbLine
 62
7
  6
CONTINUOUS
 10
7.3312887505
 20
13.2375477814
 11
7.2907227598
 21
13.2375477814
  0
LINE
  5
2B0
100
AcDbEntity
  8
0
100
AcDbLine
 62
7
  6
CONTINUOUS
 10
4.8510214079
 20
13.2375477814
 11
4.8104554172
 21
13.2375477814
  0
LINE
  5
2B1
100
AcDbEntity
  8
0
100
AcDbLine
 62
7
  6
CONTINUOUS
 10
6.5802470821
 20
13.2871988176
 11
7.9939931201
 21
13.2875538261
  0
LINE
  5
2B2
100
AcDbEntity
  8
0
100
AcDbLine
 62
7
  6
CONTINUOUS
 10
8.3771220839
 20
13.287556508
 11
7.3068279241
 21
13.2876350478
  0
LINE
  5
2B3
100
AcDbEntity
  8
0
100
AcDbLine
 62
7
  6
CONTINUOUS
 10
4.8349160516
 20
13.2876350478
 11
3.7646220839
 21
13.287556508
  0
LINE
  5
2B4
100
AcDbEntity
  8
0
100
AcDbLine
 62
7
  6
CONTINUOUS
 10
4.2402465489
 20
13.2875477549
 11
6.5802470822
 21
13.287193989
  0
LINE
  5
2B5
100
AcDbEntity
  8
0
100
AcDbLine
 62
7
  6
CONTINUOUS
 10
6.8833720839
 20
11.5687977814
 11
6.8833720839
 21
11.6937977814
  0
LINE
  5
2B6
100
AcDbEntity
  8
0
100
AcDbLine
 62
7
  6
CONTINUOUS
 10
6.8833720839
 20
13.5062977814
 11
6.8833720839
 21
13.6312977814
  0
LINE
  5
2B7
100
AcDbEntity
  8
0
100
AcDbLine
 62
7
  6
CONTINUOUS
 10
6.9656637505
 20
12.6000977814
 11
7.1016012505
 21
12.835548438
  0
LINE
  5
2B8
100
AcDbEntity
  8
0
100
AcDbLine
 62
7
  6
CONTINUOUS
 10
4.8833720839
 20
13.4562977814
 11
7.2583720839
 21
13.4562977814
  0
LINE
  5
2B9
100
AcDbEntity
  8
0
100
AcDbLine
 62
7
  6
CONTINUOUS
 10
7.1016012505
 20
12.3646471247
 11
6.9656637505
 21
12.6000977814
  0
LINE
  5
2BA
100
AcDbEntity
  8
0
100
AcDbLine
 62
7
  6
CONTINUOUS
 10
4.9333720839
 20
13.5062977814
 11
7.2083720839
 21
13.5062977814
  0
LINE
  5
2BB
100
AcDbEntity
  8
0
100
AcDbLine
 62
7
  6
CONTINUOUS
 10
5.2583720839
 20
13.6312977814
 11
6.8833720839
 21
13.6312977814
  0
LINE
  5
2BC
100
AcDbEntity
  8
0
100
AcDbLine
 62
7
  6
CONTINUOUS
 10
7.2583720839
 20
13.4562977814
 11
7.2583720839
 21
13.3371125214
  0
LINE
  5
2BD
100
AcDbEntity
  8
0
100
AcDbLine
 62
7
  6
CONTINUOUS
 10
7.2583720839
 20
11.8629697137
 11
7.2583720839
 21
11.7437977814
  0
LINE
  5
2BE
100
AcDbEntity
  8
0
100
AcDbLine
 62
7
  6
CONTINUOUS
 10
7.280497381
 20
11.9875477814
 11
7.280497381
 21
12.2307123841
  0
LINE
  5
2BF
100
AcDbEntity
  8
0
100
AcDbLine
 62
7
  6
CONTINUOUS
 10
7.280497381
 20
12.9694831786
 11
7.280497381
 21
13.2125477814
  0
LINE
  5
2C0
100
AcDbEntity
  8
0
100
AcDbLine
 62
7
  6
CONTINUOUS
 10
7.3833720839
 20
11.9627004984
 11
7.3833720839
 21
11.9680333107
  0
LINE
  5
2C1
100
AcDbEntity
  8
0
100
AcDbLine
 62
7
  6
CONTINUOUS
 10
7.3833720839
 20
13.2320622521
 11
7.3833720839
 21
13.2373950643
  0
LINE
  5
2C2
100
AcDbEntity
  8
0
100
AcDbLine
 62
7
  6
CONTINUOUS
 10
7.5094137505
 20
12.6000977814
 11
7.3734762505
 21
12.3646471247
  0
LINE
  5
2C3
100
AcDbEntity
  8
0
100
AcDbLine
 62
7
  6
CONTINUOUS
 10
7.3734762505
 20
12.835548438
 11
7.5094137505
 21
12.6000977814
  0
LINE
  5
2C4
100
AcDbEntity
  8
0
100
AcDbLine
 62
7
  6
CONTINUOUS
 10
7.5812887505
 20
12.2125477814
 11
7.5812887505
 21
12.9875477814
  0
LINE
  5
2C5
100
AcDbEntity
  8
0
100
AcDbLine
 62
7
  6
CONTINUOUS
 10
7.2083720839
 20
11.6937977814
 11
7.2583720839
 21
11.7437977814
  0
LINE
  5
2C6
100
AcDbEntity
  8
0
100
AcDbLine
 62
7
  6
CONTINUOUS
 10
7.2083720839
 20
13.5062977814
 11
7.2583720839
 21
13.4562977814
  0
LINE
  5
2C7
100
AcDbEntity
  8
0
100
AcDbLine
 62
7
  6
CONTINUOUS
 10
8.4771220839
 20
12.0125477814
 11
8.4771220839
 21
13.1875477814
  0
LINE
  5
2C8
100
AcDbEntity
  8
0
100
AcDbLine
 62
7
  6
CONTINUOUS
 10
14.6541052569
 20
4.1502633367
 11
14.7041052569
 21
4.1002633367
  0
LINE
  5
2C9
100
AcDbEntity
  8
0
100
AcDbLine
 62
7
  6
CONTINUOUS
 10
14.6541052569
 20
6.5627633367
 11
14.7041052569
 21
6.6127633367
  0
LINE
  5
2CA
100
AcDbEntity
  8
0
100
AcDbLine
 62
7
  6
CONTINUOUS
 10
16.2478552569
 20
4.0502633367
 11
14.8728552569
 21
4.0502633367
  0
LINE
  5
2CB
100
AcDbEntity
  8
0
100
AcDbLine
 62
7
  6
CONTINUOUS
 10
14.7041052569
 20
4.1002633367
 11
14.8728552569
 21
4.1002633367
  0
LINE
  5
2CC
100
AcDbEntity
  8
0
100
AcDbLine
 62
7
  6
CONTINUOUS
 10
16.2478552569
 20
4.1002633367
 11
16.4166052569
 21
4.1002633367
  0
LINE
  5
2CD
100
AcDbEntity
  8
0
100
AcDbLine
 62
7
  6
CONTINUOUS
 10
15.4664881002
 20
6.7377633367
 11
15.4972075712
 21
6.7515344989
  0
LINE
  5
2CE
100
AcDbEntity
  8
0
100
AcDbLine
 62
7
  6
CONTINUOUS
 10
16.4916052569
 20
4.3827633367
 11
16.5228552569
 21
4.384692896
  0
LINE
  5
2CF
100
AcDbEntity
  8
0
100
AcDbLine
 62
7
  6
CONTINUOUS
 10
16.4916052569
 20
4.3827633367
 11
16.4666052569
 21
4.3827633367
  0
LINE
  5
2D0
100
AcDbEntity
  8
0
100
AcDbLine
 62
7
  6
CONTINUOUS
 10
14.6291052569
 20
4.3827633367
 11
14.6541052569
 21
4.3827633367
  0
LINE
  5
2D1
100
AcDbEntity
  8
0
100
AcDbLine
 62
7
  6
CONTINUOUS
 10
14.6291052569
 20
4.3827633367
 11
14.5978552569
 21
4.384692896
  0
LINE
  5
2D2
100
AcDbEntity
  8
0
100
AcDbLine
 62
7
  6
CONTINUOUS
 10
14.5291052569
 20
4.6427633367
 11
14.5291052569
 21
6.1877632131
  0
LINE
  5
2D3
100
AcDbEntity
  8
0
100
AcDbLine
 62
7
  6
CONTINUOUS
 10
14.5978552569
 20
4.384692896
 11
14.5978552569
 21
4.5658337774
  0
LINE
  5
2D4
100
AcDbEntity
  8
0
100
AcDbLine
 62
7
  6
CONTINUOUS
 10
14.6291052569
 20
4.3827633367
 11
14.6291052569
 21
4.5677633367
  0
LINE
  5
2D5
100
AcDbEntity
  8
0
100
AcDbLine
 62
7
  6
CONTINUOUS
 10
14.6291052569
 20
4.4752633367
 11
14.5978552569
 21
4.4752633367
  0
LINE
  5
2D6
100
AcDbEntity
  8
0
100
AcDbLine
 62
7
  6
CONTINUOUS
 10
16.4916052569
 20
4.4752633367
 11
16.5228552569
 21
4.4752633367
  0
LINE
  5
2D7
100
AcDbEntity
  8
0
100
AcDbLine
 62
7
  6
CONTINUOUS
 10
14.6541052569
 20
4.1502633367
 11
14.6541052569
 21
6.5627630277
  0
LINE
  5
2D8
100
AcDbEntity
  8
0
100
AcDbLine
 62
7
  6
CONTINUOUS
 10
14.7041052569
 20
4.1002633367
 11
14.7041052569
 21
6.6127633367
  0
LINE
  5
2D9
100
AcDbEntity
  8
0
100
AcDbLine
 62
7
  6
CONTINUOUS
 10
14.6982415739
 20
6.6068996537
 11
14.6982445417
 21
6.6239041317
  0
LINE
  5
2DA
100
AcDbEntity
  8
0
100
AcDbLine
 62
7
  6
CONTINUOUS
 10
14.7317262477
 20
6.6127633367
 11
14.7317308112
 21
6.6389101904
  0
LINE
  5
2DB
100
AcDbEntity
  8
0
100
AcDbLine
 62
7
  6
CONTINUOUS
 10
14.6291052569
 20
4.5677633367
 11
14.5978552569
 21
4.5658337774
  0
LINE
  5
2DC
100
AcDbEntity
  8
0
100
AcDbLine
 62
7
  6
CONTINUOUS
 10
14.9228552569
 20
4.5502633367
 11
16.1978552569
 21
4.5502633367
  0
LINE
  5
2DD
100
AcDbEntity
  8
0
100
AcDbLine
 62
7
  6
CONTINUOUS
 10
16.4916052569
 20
4.5677633367
 11
16.4666052569
 21
4.5677633367
  0
LINE
  5
2DE
100
AcDbEntity
  8
0
100
AcDbLine
 62
7
  6
CONTINUOUS
 10
14.6291052569
 20
4.5677633367
 11
14.6541052569
 21
4.5677633367
  0
LINE
  5
2DF
100
AcDbEntity
  8
0
100
AcDbLine
 62
7
  6
CONTINUOUS
 10
14.5291052569
 20
4.6427633367
 11
14.6541052569
 21
4.6427633367
  0
LINE
  5
2E0
100
AcDbEntity
  8
0
100
AcDbLine
 62
7
  6
CONTINUOUS
 10
16.4666052569
 20
4.6427633367
 11
16.5916052569
 21
4.6427633367
  0
LINE
  5
2E1
100
AcDbEntity
  8
0
100
AcDbLine
 62
7
  6
CONTINUOUS
 10
16.4916052569
 20
4.5677633367
 11
16.5228552569
 21
4.5658337774
  0
LINE
  5
2E2
100
AcDbEntity
  8
0
100
AcDbLine
 62
7
  6
CONTINUOUS
 10
14.7987034415
 20
6.6388992981
 11
14.7986988799
 21
6.6127633367
  0
LINE
  5
2E3
100
AcDbEntity
  8
0
100
AcDbLine
 62
7
  6
CONTINUOUS
 10
14.8321881092
 20
6.6141821026
 11
14.8321898023
 21
6.6238823471
  0
LINE
  5
2E4
100
AcDbEntity
  8
0
100
AcDbLine
 62
7
  6
CONTINUOUS
 10
14.8727679905
 20
4.050263352
 11
14.8732283196
 21
6.6877546626
  0
LINE
  5
2E5
100
AcDbEntity
  8
0
100
AcDbLine
 62
7
  6
CONTINUOUS
 10
14.9228552569
 20
5.9096383367
 11
14.9228552569
 21
5.7913300961
  0
LINE
  5
2E6
100
AcDbEntity
  8
0
100
AcDbLine
 62
7
  6
CONTINUOUS
 10
15.9478552569
 20
4.8594645293
 11
15.1728552569
 21
4.8594645293
  0
LINE
  5
2E7
100
AcDbEntity
  8
0
100
AcDbLine
 62
7
  6
CONTINUOUS
 10
15.1910198597
 20
5.9346383367
 11
15.1885302875
 21
6.0264725488
  0
LINE
  5
2E8
100
AcDbEntity
  8
0
100
AcDbLine
 62
7
  6
CONTINUOUS
 10
15.2582719236
 20
4.6142741331
 11
15.2582719236
 21
4.5502633367
  0
LINE
  5
2E9
100
AcDbEntity
  8
0
100
AcDbLine
 62
7
  6
CONTINUOUS
 10
15.2885302569
 20
5.9346383367
 11
15.2885302569
 21
5.9846383367
  0
LINE
  5
2EA
100
AcDbEntity
  8
0
100
AcDbLine
 62
7
  6
CONTINUOUS
 10
15.3249546003
 20
5.9846383367
 11
15.3249546003
 21
6.1565133367
  0
LINE
  5
2EB
100
AcDbEntity
  8
0
100
AcDbLine
 62
7
  6
CONTINUOUS
 10
15.4972075712
 20
6.7377633367
 11
15.4972075712
 21
6.7515344989
  0
LINE
  5
2EC
100
AcDbEntity
  8
0
100
AcDbLine
 62
7
  6
CONTINUOUS
 10
15.5604052569
 20
5.9846383367
 11
15.5604052569
 21
6.1200889934
  0
LINE
  5
2ED
100
AcDbEntity
  8
0
100
AcDbLine
 62
7
  6
CONTINUOUS
 10
16.2971374526
 20
5.4252633367
 11
16.2476994918
 21
5.4252633367
  0
LINE
  5
2EE
100
AcDbEntity
  8
0
100
AcDbLine
 62
7
  6
CONTINUOUS
 10
14.8730110368
 20
5.4252633367
 11
14.8235464061
 21
5.4252633367
  0
LINE
  5
2EF
100
AcDbEntity
  8
0
100
AcDbLine
 62
7
  6
CONTINUOUS
 10
14.5791052569
 20
5.4252633367
 11
14.5291052569
 21
5.4252633367
  0
LINE
  5
2F0
100
AcDbEntity
  8
0
100
AcDbLine
 62
7
  6
CONTINUOUS
 10
16.5416052569
 20
5.4252633367
 11
16.5916052569
 21
5.4252633367
  0
LINE
  5
2F1
100
AcDbEntity
  8
0
100
AcDbLine
 62
7
  6
CONTINUOUS
 10
15.6235029426
 20
6.7515344989
 11
15.6235029426
 21
6.7377633367
  0
LINE
  5
2F2
100
AcDbEntity
  8
0
100
AcDbLine
 62
7
  6
CONTINUOUS
 10
15.7958559136
 20
5.9846383367
 11
15.7958559136
 21
6.1565133367
  0
LINE
  5
2F3
100
AcDbEntity
  8
0
100
AcDbLine
 62
7
  6
CONTINUOUS
 10
15.8322802569
 20
5.9346383367
 11
15.8322802569
 21
5.9846383367
  0
LINE
  5
2F4
100
AcDbEntity
  8
0
100
AcDbLine
 62
7
  6
CONTINUOUS
 10
15.8624385903
 20
4.5502633367
 11
15.8624385903
 21
4.6142741331
  0
LINE
  5
2F5
100
AcDbEntity
  8
0
100
AcDbLine
 62
7
  6
CONTINUOUS
 10
15.9322802291
 20
6.026476007
 11
15.9297906542
 21
5.9346383367
  0
LINE
  5
2F6
100
AcDbEntity
  8
0
100
AcDbLine
 62
7
  6
CONTINUOUS
 10
14.9478552569
 20
5.9346383367
 11
16.1728552569
 21
5.9346383367
  0
LINE
  5
2F7
100
AcDbEntity
  8
0
100
AcDbLine
 62
7
  6
CONTINUOUS
 10
15.2885302569
 20
5.9846383367
 11
15.8322802569
 21
5.9846383367
  0
LINE
  5
2F8
100
AcDbEntity
  8
0
100
AcDbLine
 62
7
  6
CONTINUOUS
 10
16.2479425234
 20
4.0502633367
 11
16.2474884161
 21
6.6877685695
  0
LINE
  5
2F9
100
AcDbEntity
  8
0
100
AcDbLine
 62
7
  6
CONTINUOUS
 10
16.1978552569
 20
5.7913300961
 11
16.1978552569
 21
5.9096383367
  0
LINE
  5
2FA
100
AcDbEntity
  8
0
100
AcDbLine
 62
7
  6
CONTINUOUS
 10
15.3249546003
 20
6.1565133367
 11
15.7958559136
 21
6.1565133367
  0
LINE
  5
2FB
100
AcDbEntity
  8
0
100
AcDbLine
 62
7
  6
CONTINUOUS
 10
16.5416052569
 20
6.2377633367
 11
16.4666052569
 21
6.2377633367
  0
LINE
  5
2FC
100
AcDbEntity
  8
0
100
AcDbLine
 62
7
  6
CONTINUOUS
 10
14.5791052569
 20
6.2377633367
 11
14.6541052569
 21
6.2377633367
  0
LINE
  5
2FD
100
AcDbEntity
  8
0
100
AcDbLine
 62
7
  6
CONTINUOUS
 10
16.4166052569
 20
6.6127633367
 11
16.4166052569
 21
4.1002633367
  0
LINE
  5
2FE
100
AcDbEntity
  8
0
100
AcDbLine
 62
7
  6
CONTINUOUS
 10
16.4666052569
 20
4.1502633367
 11
16.4666052569
 21
6.5627630277
  0
LINE
  5
2FF
100
AcDbEntity
  8
0
100
AcDbLine
 62
7
  6
CONTINUOUS
 10
16.4916052569
 20
4.5677633367
 11
16.4916052569
 21
4.3827633367
  0
LINE
  5
300
100
AcDbEntity
  8
0
100
AcDbLine
 62
7
  6
CONTINUOUS
 10
16.5228552569
 20
4.5658337774
 11
16.5228552569
 21
4.384692896
  0
LINE
  5
301
100
AcDbEntity
  8
0
100
AcDbLine
 62
7
  6
CONTINUOUS
 10
16.5916052569
 20
6.1877632131
 11
16.5916052569
 21
4.6427633367
  0
LINE
  5
302
100
AcDbEntity
  8
0
100
AcDbLine
 62
7
  6
CONTINUOUS
 10
14.7041052569
 20
6.6127633367
 11
14.823218066
 21
6.6127633367
  0
LINE
  5
303
100
AcDbEntity
  8
0
100
AcDbLine
 62
7
  6
CONTINUOUS
 10
16.2974936198
 20
6.6127633367
 11
16.4166052569
 21
6.6127633367
  0
LINE
  5
304
100
AcDbEntity
  8
0
100
AcDbLine
 62
7
  6
CONTINUOUS
 10
14.9232221644
 20
6.7377633367
 11
16.1974877666
 21
6.7377633367
  0
LINE
  5
305
100
AcDbEntity
  8
0
100
AcDbLine
 62
7
  6
CONTINUOUS
 10
15.4972075712
 20
6.7515344989
 11
15.6235029426
 21
6.7515344989
  0
LINE
  5
306
100
AcDbEntity
  8
0
100
AcDbLine
 62
7
  6
CONTINUOUS
 10
15.6235029426
 20
6.7515344989
 11
15.6542224137
 21
6.7377633367
  0
LINE
  5
307
100
AcDbEntity
  8
0
100
AcDbLine
 62
7
  6
CONTINUOUS
 10
16.4666052569
 20
6.5627633367
 11
16.4166052569
 21
6.6127633367
  0
LINE
  5
308
100
AcDbEntity
  8
0
100
AcDbLine
 62
7
  6
CONTINUOUS
 10
16.4166052569
 20
4.1002633367
 11
16.4666052569
 21
4.1502633367
  0
LINE
  5
309
100
AcDbEntity
  8
0
100
AcDbLine
 62
7
  6
CONTINUOUS
 10
13.1847550953
 20
11.194569117
 11
13.0474862553
 21
11.4742936027
  0
LINE
  5
30A
100
AcDbEntity
  8
0
100
AcDbLine
 62
7
  6
CONTINUOUS
 10
13.0434353287
 20
11.5331102422
 11
13.3278632587
 21
12.453519361
  0
LINE
  5
30B
100
AcDbEntity
  8
0
100
AcDbLine
 62
7
  6
CONTINUOUS
 10
13.4879063493
 20
12.5584759889
 11
13.6026263962
 21
12.9297101967
  0
LINE
  5
30C
100
AcDbEntity
  8
0
100
AcDbLine
 62
7
  6
CONTINUOUS
 10
13.6503272636
 20
13.0840702602
 11
13.67550775
 21
13.1655543438
  0
LINE
  5
30D
100
AcDbEntity
  8
0
100
AcDbLine
 62
7
  6
CONTINUOUS
 10
14.2340605746
 20
11.0736462285
 11
14.2060680388
 21
11.1042793717
  0
LINE
  5
30E
100
AcDbEntity
  8
0
100
AcDbLine
 62
7
  6
CONTINUOUS
 10
14.2281033768
 20
11.0821794307
 11
14.2340625394
 21
11.0736466438
  0
LINE
  5
30F
100
AcDbEntity
  8
0
100
AcDbLine
 62
7
  6
CONTINUOUS
 10
14.1941536432
 20
11.1213457762
 11
14.2060680388
 21
11.1042793717
  0
LINE
  5
310
100
AcDbEntity
  8
0
100
AcDbLine
 62
7
  6
CONTINUOUS
 10
13.4945976807
 20
12.4409591274
 11
13.7969368165
 21
11.8248567455
  0
LINE
  5
311
100
AcDbEntity
  8
0
100
AcDbLine
 62
7
  6
CONTINUOUS
 10
13.8204773566
 20
11.8828179873
 11
14.1941536432
 21
11.1213457762
  0
LINE
  5
312
100
AcDbEntity
  8
0
100
AcDbLine
 62
7
  6
CONTINUOUS
 10
14.2281033768
 20
11.0821794307
 11
13.8544270901
 21
11.8436516418
  0
LINE
  5
313
100
AcDbEntity
  8
0
100
AcDbLine
 62
7
  6
CONTINUOUS
 10
13.7595040398
 20
12.0322668486
 11
13.7595019358
 21
12.0322711367
  0
LINE
  5
314
100
AcDbEntity
  8
0
100
AcDbLine
 62
7
  6
CONTINUOUS
 10
13.5597640074
 20
11.9474192503
 11
13.5411666259
 21
11.8872381018
  0
LINE
  5
315
100
AcDbEntity
  8
0
100
AcDbLine
 62
7
  6
CONTINUOUS
 10
13.7132629777
 20
12.4418885413
 11
13.7775547095
 21
12.6499366617
  0
LINE
  5
316
100
AcDbEntity
  8
0
100
AcDbLine
 62
7
  6
CONTINUOUS
 10
13.9575029337
 20
13.2322493285
 11
14.0217547579
 21
13.4401683078
  0
LINE
  5
317
100
AcDbEntity
  8
0
100
AcDbLine
 62
7
  6
CONTINUOUS
 10
13.7796750344
 20
12.233424241
 11
13.8084822746
 21
12.3266445042
  0
LINE
  5
318
100
AcDbEntity
  8
0
100
AcDbLine
 62
7
  6
CONTINUOUS
 10
16.3057553634
 20
11.0525130079
 11
16.3461499545
 21
11.0620129306
  0
LINE
  5
319
100
AcDbEntity
  8
0
100
AcDbLine
 62
7
  6
CONTINUOUS
 10
16.2927161818
 20
11.0510989323
 11
16.3057549247
 21
11.0525134687
  0
LINE
  5
31A
100
AcDbEntity
  8
0
100
AcDbLine
 62
7
  6
CONTINUOUS
 10
14.5796681198
 20
11.2090600333
 11
14.6907167962
 21
11.1527605445
  0
LINE
  5
31B
100
AcDbEntity
  8
0
100
AcDbLine
 62
7
  6
CONTINUOUS
 10
14.74650992
 20
11.2090600333
 11
14.6473621881
 21
11.259325978
  0
LINE
  5
31C
100
AcDbEntity
  8
0
100
AcDbLine
 62
7
  6
CONTINUOUS
 10
14.3469567901
 20
11.2904064764
 11
14.1235136228
 21
11.7457357781
  0
LINE
  5
31D
100
AcDbEntity
  8
0
100
AcDbLine
 62
7
  6
CONTINUOUS
 10
13.6322439326
 20
12.7815213471
 11
13.6474960259
 21
12.7504408486
  0
LINE
  5
31E
100
AcDbEntity
  8
0
100
AcDbLine
 62
7
  6
CONTINUOUS
 10
13.6941133222
 20
12.7168590608
 11
13.6527952011
 21
12.8010565392
  0
LINE
  5
31F
100
AcDbEntity
  8
0
100
AcDbLine
 62
7
  6
CONTINUOUS
 10
14.3217356994
 20
13.3594994842
 11
14.301280447
 21
13.2933062632
  0
LINE
  5
320
100
AcDbEntity
  8
0
100
AcDbLine
 62
7
  6
CONTINUOUS
 10
14.4358113828
 20
13.4592988497
 11
14.4151151066
 21
13.4459480758
  0
LINE
  5
321
100
AcDbEntity
  8
0
100
AcDbLine
 62
7
  6
CONTINUOUS
 10
16.2927161818
 20
11.0510989323
 11
14.2894085198
 21
11.0510989323
  0
LINE
  5
322
100
AcDbEntity
  8
0
100
AcDbLine
 62
7
  6
CONTINUOUS
 10
17.4987154631
 20
11.1602906969
 11
16.4062682136
 21
11.1602906969
  0
LINE
  5
323
100
AcDbEntity
  8
0
100
AcDbLine
 62
7
  6
CONTINUOUS
 10
14.175042252
 20
11.1602906969
 11
13.2503216283
 21
11.1602906969
  0
LINE
  5
324
100
AcDbEntity
  8
0
100
AcDbLine
 62
7
  6
CONTINUOUS
 10
14.7049878648
 20
11.259325978
 11
14.7558517345
 21
11.2335389992
  0
LINE
  5
325
100
AcDbEntity
  8
0
100
AcDbLine
 62
7
  6
CONTINUOUS
 10
14.4157620395
 20
13.412773706
 11
14.4171793495
 21
13.4184882702
  0
LINE
  5
326
100
AcDbEntity
  8
0
100
AcDbLine
 62
7
  6
CONTINUOUS
 10
14.4786267501
 20
13.3284997472
 11
14.5091986063
 21
13.4274303102
  0
LINE
  5
327
100
AcDbEntity
  8
0
100
AcDbLine
 62
7
  6
CONTINUOUS
 10
14.4952841233
 20
13.3097363371
 11
14.5258559795
 21
13.4086669001
  0
LINE
  5
328
100
AcDbEntity
  8
0
100
AcDbLine
 62
7
  6
CONTINUOUS
 10
14.1076995606
 20
12.0247906129
 11
14.1258545349
 21
12.0835401312
  0
LINE
  5
329
100
AcDbEntity
  8
0
100
AcDbLine
 62
7
  6
CONTINUOUS
 10
14.3465988732
 20
12.6844105653
 11
14.3303810152
 21
12.6319558768
  0
LINE
  5
32A
100
AcDbEntity
  8
0
100
AcDbLine
 62
7
  6
CONTINUOUS
 10
14.3746676704
 20
13.2614377237
 11
14.4786267501
 21
13.3284997472
  0
LINE
  5
32B
100
AcDbEntity
  8
0
100
AcDbLine
 62
7
  6
CONTINUOUS
 10
14.3913250437
 20
13.2426743137
 11
14.4952841233
 21
13.3097363371
  0
LINE
  5
32C
100
AcDbEntity
  8
0
100
AcDbLine
 62
7
  6
CONTINUOUS
 10
15.812879949
 20
11.259325978
 11
14.4082619331
 21
11.259325978
  0
LINE
  5
32D
100
AcDbEntity
  8
0
100
AcDbLine
 62
7
  6
CONTINUOUS
 10
14.1324775557
 20
11.7747430759
 11
14.1235136228
 21
11.7457357781
  0
LINE
  5
32E
100
AcDbEntity
  8
0
100
AcDbLine
 62
7
  6
CONTINUOUS
 10
14.0398894839
 20
13.1236858444
 11
14.0171980084
 21
13.1699262097
  0
LINE
  5
32F
100
AcDbEntity
  8
0
100
AcDbLine
 62
7
  6
CONTINUOUS
 10
14.397311504
 20
11.9352937535
 11
14.3852081878
 21
11.896127408
  0
LINE
  5
330
100
AcDbEntity
  8
0
100
AcDbLine
 62
7
  6
CONTINUOUS
 10
14.1235136228
 20
11.7457357781
 11
14.1695666725
 21
11.7457357781
  0
LINE
  5
331
100
AcDbEntity
  8
0
100
AcDbLine
 62
7
  6
CONTINUOUS
 10
15.5741846883
 20
11.7457357781
 11
15.620237738
 21
11.7457357781
  0
LINE
  5
332
100
AcDbEntity
  8
0
100
AcDbLine
 62
7
  6
CONTINUOUS
 10
14.2124481593
 20
12.640210279
 11
14.236336814
 21
12.6132933381
  0
LINE
  5
333
100
AcDbEntity
  8
0
100
AcDbLine
 62
7
  6
CONTINUOUS
 10
14.2512093853
 20
12.6068356717
 11
14.2530560364
 21
12.6047549268
  0
LINE
  5
334
100
AcDbEntity
  8
0
100
AcDbLine
 62
7
  6
CONTINUOUS
 10
14.2752499686
 20
12.596397257
 11
14.251361314
 21
12.6233141979
  0
LINE
  5
335
100
AcDbEntity
  8
0
100
AcDbLine
 62
7
  6
CONTINUOUS
 10
14.3303810026
 20
12.6319558687
 11
14.306492348
 21
12.6588728096
  0
LINE
  5
336
100
AcDbEntity
  8
0
100
AcDbLine
 62
7
  6
CONTINUOUS
 10
14.5854554506
 20
11.2335389992
 11
14.5796681198
 21
11.2090600333
  0
LINE
  5
337
100
AcDbEntity
  8
0
100
AcDbLine
 62
7
  6
CONTINUOUS
 10
14.3303810152
 20
12.6319558768
 11
14.2752499686
 21
12.596397257
  0
LINE
  5
338
100
AcDbEntity
  8
0
100
AcDbLine
 62
7
  6
CONTINUOUS
 10
17.1927173347
 20
11.8872381018
 11
17.0200183983
 21
11.8872381018
  0
LINE
  5
339
100
AcDbEntity
  8
0
100
AcDbLine
 62
7
  6
CONTINUOUS
 10
13.681172295
 20
11.8872381018
 11
13.5084733587
 21
11.8872381018
  0
LINE
  5
33A
100
AcDbEntity
  8
0
100
AcDbLine
 62
7
  6
CONTINUOUS
 10
14.3227102274
 20
12.7113275023
 11
14.3465988821
 21
12.6844105615
  0
LINE
  5
33B
100
AcDbEntity
  8
0
100
AcDbLine
 62
7
  6
CONTINUOUS
 10
17.3446235274
 20
11.976625269
 11
17.171924591
 21
11.976625269
  0
LINE
  5
33C
100
AcDbEntity
  8
0
100
AcDbLine
 62
7
  6
CONTINUOUS
 10
13.6603795514
 20
11.976625269
 11
13.7224596426
 21
11.976625269
  0
LINE
  5
33D
100
AcDbEntity
  8
0
100
AcDbLine
 62
7
  6
CONTINUOUS
 10
13.5841190847
 20
12.1320277611
 11
13.6461991759
 21
12.1320277611
  0
LINE
  5
33E
100
AcDbEntity
  8
0
100
AcDbLine
 62
7
  6
CONTINUOUS
 10
17.0956641244
 20
12.1320277611
 11
17.2683630607
 21
12.1320277611
  0
LINE
  5
33F
100
AcDbEntity
  8
0
100
AcDbLine
 62
7
  6
CONTINUOUS
 10
14.2752499686
 20
12.596397257
 11
14.2363368228
 21
12.6132933343
  0
LINE
  5
340
100
AcDbEntity
  8
0
100
AcDbLine
 62
7
  6
CONTINUOUS
 10
14.301280447
 20
13.2933062632
 11
14.3179378202
 21
13.2745428531
  0
LINE
  5
341
100
AcDbEntity
  8
0
100
AcDbLine
 62
7
  6
CONTINUOUS
 10
14.7590300206
 20
11.2062286174
 11
14.7650816787
 21
11.2258117901
  0
LINE
  5
342
100
AcDbEntity
  8
0
100
AcDbLine
 62
7
  6
CONTINUOUS
 10
14.7558517345
 20
11.2335389992
 11
14.74650992
 21
11.2090600333
  0
LINE
  5
343
100
AcDbEntity
  8
0
100
AcDbLine
 62
7
  6
CONTINUOUS
 10
17.1309654632
 20
12.2462629354
 11
17.3036643996
 21
12.2462629354
  0
LINE
  5
344
100
AcDbEntity
  8
0
100
AcDbLine
 62
7
  6
CONTINUOUS
 10
14.3913250437
 20
13.2426743137
 11
14.3746676704
 21
13.2614377237
  0
LINE
  5
345
100
AcDbEntity
  8
0
100
AcDbLine
 62
7
  6
CONTINUOUS
 10
14.4952841233
 20
13.3097363371
 11
14.4786267501
 21
13.3284997472
  0
LINE
  5
346
100
AcDbEntity
  8
0
100
AcDbLine
 62
7
  6
CONTINUOUS
 10
15.620237738
 20
11.7457357781
 11
15.8436809053
 21
11.2904064764
  0
LINE
  5
347
100
AcDbEntity
  8
0
100
AcDbLine
 62
7
  6
CONTINUOUS
 10
17.6821845016
 20
12.5279233379
 11
17.4001095722
 21
12.5279233379
  0
LINE
  5
348
100
AcDbEntity
  8
0
100
AcDbLine
 62
7
  6
CONTINUOUS
 10
13.4821656764
 20
12.5279233379
 11
13.4337906668
 21
12.5279233379
  0
LINE
  5
349
100
AcDbEntity
  8
0
100
AcDbLine
 62
7
  6
CONTINUOUS
 10
14.5091986063
 20
13.4274303102
 11
14.5258559795
 21
13.4086669001
  0
LINE
  5
34A
100
AcDbEntity
  8
0
100
AcDbLine
 62
7
  6
CONTINUOUS
 10
15.6504960284
 20
11.8436516418
 11
15.8739391958
 21
11.3883223401
  0
LINE
  5
34B
100
AcDbEntity
  8
0
100
AcDbLine
 62
7
  6
CONTINUOUS
 10
15.3706464891
 20
11.6345104938
 11
15.3585431729
 21
11.5953441483
  0
LINE
  5
34C
100
AcDbEntity
  8
0
100
AcDbLine
 62
7
  6
CONTINUOUS
 10
16.0936690993
 20
12.7168590608
 11
15.8432556416
 21
12.7168590608
  0
LINE
  5
34D
100
AcDbEntity
  8
0
100
AcDbLine
 62
7
  6
CONTINUOUS
 10
13.8045564952
 20
12.7168590608
 11
13.6941133222
 21
12.7168590608
  0
LINE
  5
34E
100
AcDbEntity
  8
0
100
AcDbLine
 62
7
  6
CONTINUOUS
 10
15.9498408515
 20
11.8436516418
 11
16.3235171381
 21
11.0821794307
  0
LINE
  5
34F
100
AcDbEntity
  8
0
100
AcDbLine
 62
7
  6
CONTINUOUS
 10
16.381673504
 20
11.1213457762
 11
16.0079972174
 21
11.8828179873
  0
LINE
  5
350
100
AcDbEntity
  8
0
100
AcDbLine
 62
7
  6
CONTINUOUS
 10
15.6323410542
 20
11.7849021236
 11
15.620237738
 21
11.7457357781
  0
LINE
  5
351
100
AcDbEntity
  8
0
100
AcDbLine
 62
7
  6
CONTINUOUS
 10
16.275870503
 20
12.901293896
 11
16.0936690993
 21
12.7168590608
  0
LINE
  5
352
100
AcDbEntity
  8
0
100
AcDbLine
 62
7
  6
CONTINUOUS
 10
14.5854554506
 20
11.2335389992
 11
14.6110104978
 21
11.259325978
  0
LINE
  5
353
100
AcDbEntity
  8
0
100
AcDbLine
 62
7
  6
CONTINUOUS
 10
14.629481966
 20
11.259325978
 11
14.5796681198
 21
11.2090600333
  0
LINE
  5
354
100
AcDbEntity
  8
0
100
AcDbLine
 62
7
  6
CONTINUOUS
 10
14.6907167962
 20
11.1527605445
 11
14.74650992
 21
11.2090600333
  0
LINE
  5
355
100
AcDbEntity
  8
0
100
AcDbLine
 62
7
  6
CONTINUOUS
 10
17.3511170012
 20
12.5328196931
 11
17.3511136173
 21
12.5328203397
  0
LINE
  5
356
100
AcDbEntity
  8
0
100
AcDbLine
 62
7
  6
CONTINUOUS
 10
14.3179378202
 20
13.2745428531
 11
14.3913250437
 21
13.2426743137
  0
LINE
  5
357
100
AcDbEntity
  8
0
100
AcDbLine
 62
7
  6
CONTINUOUS
 10
14.301280447
 20
13.2933062632
 11
14.3746676704
 21
13.2614377237
  0
LINE
  5
358
100
AcDbEntity
  8
0
100
AcDbLine
 62
7
  6
CONTINUOUS
 10
15.781386252
 20
12.7815213471
 11
15.7966383453
 21
12.7504408486
  0
LINE
  5
359
100
AcDbEntity
  8
0
100
AcDbLine
 62
7
  6
CONTINUOUS
 10
16.4225074058
 20
11.2534843481
 11
16.0557686444
 21
12.0010872811
  0
LINE
  5
35A
100
AcDbEntity
  8
0
100
AcDbLine
 62
7
  6
CONTINUOUS
 10
15.931998931
 20
12.3903864991
 11
15.9908608924
 21
12.5808638759
  0
LINE
  5
35B
100
AcDbEntity
  8
0
100
AcDbLine
 62
7
  6
CONTINUOUS
 10
16.1703622333
 20
13.1617304279
 11
16.2285301772
 21
13.3499619634
  0
LINE
  5
35C
100
AcDbEntity
  8
0
100
AcDbLine
 62
7
  6
CONTINUOUS
 10
14.5091986063
 20
13.4274303102
 11
14.4358113828
 21
13.4592988497
  0
LINE
  5
35D
100
AcDbEntity
  8
0
100
AcDbLine
 62
7
  6
CONTINUOUS
 10
15.8432556416
 20
12.7168590608
 11
15.8019375204
 21
12.8010565392
  0
LINE
  5
35E
100
AcDbEntity
  8
0
100
AcDbLine
 62
7
  6
CONTINUOUS
 10
15.8453988978
 20
11.2756441078
 11
15.8756571883
 21
11.3735599715
  0
LINE
  5
35F
100
AcDbEntity
  8
0
100
AcDbLine
 62
7
  6
CONTINUOUS
 10
16.0936690993
 20
12.7168590608
 11
16.0523509782
 21
12.8010565392
  0
LINE
  5
360
100
AcDbEntity
  8
0
100
AcDbLine
 62
7
  6
CONTINUOUS
 10
13.9610969175
 20
13.3594217142
 11
13.9968021732
 21
13.3594217142
  0
LINE
  5
361
100
AcDbEntity
  8
0
100
AcDbLine
 62
7
  6
CONTINUOUS
 10
16.2397853041
 20
13.3594217142
 11
16.2829381732
 21
13.3594217142
  0
LINE
  5
362
100
AcDbEntity
  8
0
100
AcDbLine
 62
7
  6
CONTINUOUS
 10
16.275870503
 20
12.901293896
 11
16.2345523818
 21
12.9854913744
  0
LINE
  5
363
100
AcDbEntity
  8
0
100
AcDbLine
 62
7
  6
CONTINUOUS
 10
16.2076584489
 20
13.0857287313
 11
16.1663403278
 21
13.1699262097
  0
LINE
  5
364
100
AcDbEntity
  8
0
100
AcDbLine
 62
7
  6
CONTINUOUS
 10
16.2695278385
 20
13.021066445
 11
16.2847799319
 21
12.9899859466
  0
LINE
  5
365
100
AcDbEntity
  8
0
100
AcDbLine
 62
7
  6
CONTINUOUS
 10
16.2076584489
 20
13.0857287313
 11
16.275870503
 21
12.901293896
  0
LINE
  5
366
100
AcDbEntity
  8
0
100
AcDbLine
 62
7
  6
CONTINUOUS
 10
16.7790854775
 20
12.5053746524
 11
16.5914840768
 21
11.8982962974
  0
LINE
  5
367
100
AcDbEntity
  8
0
100
AcDbLine
 62
7
  6
CONTINUOUS
 10
16.385109489
 20
11.091821039
 11
16.4259413874
 21
11.2239531107
  0
LINE
  5
368
100
AcDbEntity
  8
0
100
AcDbLine
 62
7
  6
CONTINUOUS
 10
16.4529061638
 20
13.2683088368
 11
16.7552452996
 21
12.6522064549
  0
LINE
  5
369
100
AcDbEntity
  8
0
100
AcDbLine
 62
7
  6
CONTINUOUS
 10
17.0713075368
 20
11.9474143633
 11
17.0527116655
 21
11.8872381018
  0
LINE
  5
36A
100
AcDbEntity
  8
0
100
AcDbLine
 62
7
  6
CONTINUOUS
 10
17.8971231908
 20
12.2030867776
 11
17.7598543508
 21
12.4828112633
  0
LINE
  5
36B
100
AcDbEntity
  8
0
100
AcDbLine
 62
7
  6
CONTINUOUS
 10
17.8994561248
 20
12.1590325067
 11
17.6150281948
 21
11.2386233879
  0
ARC
  5
36C
100
AcDbEntity
  8
0
100
AcDbCircle
 62
7
  6
CONTINUOUS
 10
6.1303566184
 20
5.4847393848
 40
1.3125151157
100
AcDbArc
 50
14.5150920596
 51
16.195720578
  0
ARC
  5
36D
100
AcDbEntity
  8
0
100
AcDbCircle
 62
7
  6
CONTINUOUS
 10
6.1129904294
 20
5.4918940782
 40
1.2937158897
100
AcDbArc
 50
158.189891538
 51
158.3527945991
  0
ARC
  5
36E
100
AcDbEntity
  8
0
100
AcDbCircle
 62
7
  6
CONTINUOUS
 10
3.9101639859
 20
5.4847571785
 40
0.9077020309
100
AcDbArc
 50
286.8950673059
 51
0.0000852471
  0
ARC
  5
36F
100
AcDbEntity
  8
0
100
AcDbCircle
 62
7
  6
CONTINUOUS
 10
4.1303672762
 20
4.759758529
 40
0.15
100
AcDbArc
 50
270.0
 51
286.8950544958
  0
ARC
  5
370
100
AcDbEntity
  8
0
100
AcDbCircle
 62
7
  6
CONTINUOUS
 10
5.0428672762
 20
4.259758529
 40
0.1
100
AcDbArc
 50
180.0
 51
270.0
  0
CIRCLE
  5
371
100
AcDbEntity
  8
0
100
AcDbCircle
 62
7
  6
CONTINUOUS
 10
5.5709922762
 20
4.534758529
 40
0.0925
  0
ARC
  5
372
100
AcDbEntity
  8
0
100
AcDbCircle
 62
7
  6
CONTINUOUS
 10
3.7741172762
 20
4.559758529
 40
0.05
100
AcDbArc
 50
90.0
 51
180.0
  0
ARC
  5
373
100
AcDbEntity
  8
0
100
AcDbCircle
 62
7
  6
CONTINUOUS
 10
5.3678672762
 20
4.752258529
 40
0.05
100
AcDbArc
 50
180.0
 51
270.0
  0
ARC
  5
374
100
AcDbEntity
  8
0
100
AcDbCircle
 62
7
  6
CONTINUOUS
 10
5.0428672762
 20
4.259758529
 40
0.05
100
AcDbArc
 50
180.0
 51
270.0
  0
ARC
  5
375
100
AcDbEntity
  8
0
100
AcDbCircle
 62
7
  6
CONTINUOUS
 10
5.8840993711
 20
6.8733932224
 40
0.0625
100
AcDbArc
 50
185.8459776102
 51
273.7869829153
  0
ARC
  5
376
100
AcDbEntity
  8
0
100
AcDbCircle
 62
7
  6
CONTINUOUS
 10
5.6493241914
 20
6.8104854026
 40
0.0625
100
AcDbArc
 50
296.2130170847
 51
24.1540223898
  0
ARC
  5
377
100
AcDbEntity
  8
0
100
AcDbCircle
 62
7
  6
CONTINUOUS
 10
5.7809101302
 20
6.8855429354
 40
0.045
100
AcDbArc
 50
335.7035197608
 51
105.0
  0
ARC
  5
378
100
AcDbEntity
  8
0
100
AcDbCircle
 62
7
  6
CONTINUOUS
 10
5.7326138389
 20
6.8726019832
 40
0.045
100
AcDbArc
 50
105.0
 51
234.2964802392
  0
ARC
  5
379
100
AcDbEntity
  8
0
100
AcDbCircle
 62
7
  6
CONTINUOUS
 10
4.6449506095
 20
5.969133529
 40
0.025
100
AcDbArc
 50
90.0
 51
180.0
  0
ARC
  5
37A
100
AcDbEntity
  8
0
100
AcDbCircle
 62
7
  6
CONTINUOUS
 10
6.1303673898
 20
5.4847576417
 40
1.3124981824
100
AcDbArc
 50
0.0000387375
 51
14.5144383677
  0
ARC
  5
37B
100
AcDbEntity
  8
0
100
AcDbCircle
 62
7
  6
CONTINUOUS
 10
6.1303673897
 20
5.4847576426
 40
1.3124981819
100
AcDbArc
 50
21.8303100252
 51
158.1696593431
  0
ARC
  5
37C
100
AcDbEntity
  8
0
100
AcDbCircle
 62
7
  6
CONTINUOUS
 10
6.1303673897
 20
5.4847576792
 40
1.3124976589
100
AcDbArc
 50
16.1950848011
 51
21.6569392767
  0
ARC
  5
37D
100
AcDbEntity
  8
0
100
AcDbCircle
 62
7
  6
CONTINUOUS
 10
6.1303673897
 20
5.4847576792
 40
1.3124976589
100
AcDbArc
 50
158.3430643824
 51
179.9999612625
  0
ARC
  5
37E
100
AcDbEntity
  8
0
100
AcDbCircle
 62
7
  6
CONTINUOUS
 10
6.1467470218
 20
5.4914967057
 40
1.2947892551
100
AcDbArc
 50
21.6472729235
 51
21.8100409397
  0
ARC
  5
37F
100
AcDbEntity
  8
0
100
AcDbCircle
 62
7
  6
CONTINUOUS
 10
6.1303672762
 20
5.484758529
 40
1.1875
100
AcDbArc
 50
0.0
 51
180.0
  0
ARC
  5
380
100
AcDbEntity
  8
0
100
AcDbCircle
 62
7
  6
CONTINUOUS
 10
6.1303672762
 20
5.484758529
 40
1.1375
100
AcDbArc
 50
0.0
 51
180.0
  0
ARC
  5
381
100
AcDbEntity
  8
0
100
AcDbCircle
 62
7
  6
CONTINUOUS
 10
8.3505705664
 20
5.4847571785
 40
0.9077020309
100
AcDbArc
 50
179.9999147529
 51
253.1049326941
  0
ARC
  5
382
100
AcDbEntity
  8
0
100
AcDbCircle
 62
7
  6
CONTINUOUS
 10
6.1303672762
 20
5.484758529
 40
0.8125
100
AcDbArc
 50
0.0
 51
180.0
  0
CIRCLE
  5
383
100
AcDbEntity
  8
0
100
AcDbCircle
 62
7
  6
CONTINUOUS
 10
6.1303672762
 20
5.484758529
 40
0.559375
  0
CIRCLE
  5
384
100
AcDbEntity
  8
0
100
AcDbCircle
 62
7
  6
CONTINUOUS
 10
6.1303672762
 20
5.484758529
 40
0.509375
  0
CIRCLE
  5
385
100
AcDbEntity
  8
0
100
AcDbCircle
 62
7
  6
CONTINUOUS
 10
6.1303672762
 20
5.484758529
 40
0.359375
  0
ARC
  5
386
100
AcDbEntity
  8
0
100
AcDbCircle
 62
7
  6
CONTINUOUS
 10
8.1303672762
 20
4.759758529
 40
0.15
100
AcDbArc
 50
253.1049455042
 51
270.0
  0
ARC
  5
387
100
AcDbEntity
  8
0
100
AcDbCircle
 62
7
  6
CONTINUOUS
 10
7.2178672762
 20
4.259758529
 40
0.1
100
AcDbArc
 50
270.0
 51
360.0
  0
ARC
  5
388
100
AcDbEntity
  8
0
100
AcDbCircle
 62
7
  6
CONTINUOUS
 10
8.4866172762
 20
4.559758529
 40
0.05
100
AcDbArc
 50
0.0
 51
90.0
  0
ARC
  5
389
100
AcDbEntity
  8
0
100
AcDbCircle
 62
7
  6
CONTINUOUS
 10
6.8928672762
 20
4.752258529
 40
0.05
100
AcDbArc
 50
270.0
 51
360.0
  0
ARC
  5
38A
100
AcDbEntity
  8
0
100
AcDbCircle
 62
7
  6
CONTINUOUS
 10
7.2178672762
 20
4.259758529
 40
0.05
100
AcDbArc
 50
270.0
 51
360.0
  0
ARC
  5
38B
100
AcDbEntity
  8
0
100
AcDbCircle
 62
7
  6
CONTINUOUS
 10
7.6157839428
 20
5.969133529
 40
0.025
100
AcDbArc
 50
0.0
 51
90.0
  0
ARC
  5
38C
100
AcDbEntity
  8
0
100
AcDbCircle
 62
7
  6
CONTINUOUS
 10
4.8104554172
 20
12.2125477814
 40
0.25
100
AcDbArc
 50
180.0
 51
270.0
  0
ARC
  5
38D
100
AcDbEntity
  8
0
100
AcDbCircle
 62
7
  6
CONTINUOUS
 10
3.7646220839
 20
12.0125477814
 40
0.1
100
AcDbArc
 50
180.0
 51
270.0
  0
ARC
  5
38E
100
AcDbEntity
  8
0
100
AcDbCircle
 62
7
  6
CONTINUOUS
 10
5.7601609399
 20
11.8050324996
 40
0.059769838
100
AcDbArc
 50
343.6859054715
 51
359.7784324691
  0
ARC
  5
38F
100
AcDbEntity
  8
0
100
AcDbCircle
 62
7
  6
CONTINUOUS
 10
5.7625806934
 20
11.8062944449
 40
0.056823654
100
AcDbArc
 50
49.7848317232
 51
53.251725697
  0
ARC
  5
390
100
AcDbEntity
  8
0
100
AcDbCircle
 62
7
  6
CONTINUOUS
 10
5.7626340896
 20
11.8034446781
 40
0.0567419363
100
AcDbArc
 50
306.6205375904
 51
310.1903466578
  0
ARC
  5
391
100
AcDbEntity
  8
0
100
AcDbCircle
 62
7
  6
CONTINUOUS
 10
5.7629277522
 20
11.8067647524
 40
0.0562391645
100
AcDbArc
 50
53.2483669352
 51
69.5747216484
  0
ARC
  5
392
100
AcDbEntity
  8
0
100
AcDbCircle
 62
7
  6
CONTINUOUS
 10
5.7629911683
 20
11.8029227193
 40
0.0561100137
100
AcDbArc
 50
290.5230345621
 51
306.6458232015
  0
ARC
  5
393
100
AcDbEntity
  8
0
100
AcDbCircle
 62
7
  6
CONTINUOUS
 10
5.7633920367
 20
11.8019113707
 40
0.05502232
100
AcDbArc
 50
288.4142132314
 51
290.5013092063
  0
ARC
  5
394
100
AcDbEntity
  8
0
100
AcDbCircle
 62
7
  6
CONTINUOUS
 10
5.7634203407
 20
11.8079368783
 40
0.0549688512
100
AcDbArc
 50
69.6295102865
 51
71.4971704128
  0
ARC
  5
395
100
AcDbEntity
  8
0
100
AcDbCircle
 62
7
  6
CONTINUOUS
 10
5.3083720839
 20
11.6187977814
 40
0.05
100
AcDbArc
 50
180.0
 51
270.0
  0
ARC
  5
396
100
AcDbEntity
  8
0
100
AcDbCircle
 62
7
  6
CONTINUOUS
 10
4.808373879
 20
11.9627066115
 40
0.0499998639
100
AcDbArc
 50
179.9999937827
 51
269.9951833208
  0
ARC
  5
397
100
AcDbEntity
  8
0
100
AcDbCircle
 62
7
  6
CONTINUOUS
 10
4.9042054172
 20
12.6000977814
 40
0.371875
100
AcDbArc
 50
273.0410424626
 51
96.6335614273
  0
ARC
  5
398
100
AcDbEntity
  8
0
100
AcDbCircle
 62
7
  6
CONTINUOUS
 10
4.2583720839
 20
12.6000477814
 40
0.3020833333
100
AcDbArc
 50
270.0
 51
90.0
  0
CIRCLE
  5
399
100
AcDbEntity
  8
0
100
AcDbCircle
 62
7
  6
CONTINUOUS
 10
4.9042054172
 20
12.6000977814
 40
0.271875
  0
ARC
  5
39A
100
AcDbEntity
  8
0
100
AcDbCircle
 62
7
  6
CONTINUOUS
 10
4.8104554172
 20
12.9875477814
 40
0.25
100
AcDbArc
 50
90.0
 51
180.0
  0
CIRCLE
  5
39B
100
AcDbEntity
  8
0
100
AcDbCircle
 62
7
  6
CONTINUOUS
 10
4.9042054172
 20
12.6000977814
 40
0.2354506567
  0
ARC
  5
39C
100
AcDbEntity
  8
0
100
AcDbCircle
 62
7
  6
CONTINUOUS
 10
4.0708720839
 20
12.6000477814
 40
0.15625
100
AcDbArc
 50
90.0
 51
270.0
  0
ARC
  5
39D
100
AcDbEntity
  8
0
100
AcDbCircle
 62
7
  6
CONTINUOUS
 10
4.2583720839
 20
12.6000477814
 40
0.15625
100
AcDbArc
 50
270.0
 51
90.0
  0
ARC
  5
39E
100
AcDbEntity
  8
0
100
AcDbCircle
 62
7
  6
CONTINUOUS
 10
3.7646220839
 20
13.1875477814
 40
0.1
100
AcDbArc
 50
90.0
 51
180.0
  0
ARC
  5
39F
100
AcDbEntity
  8
0
100
AcDbCircle
 62
7
  6
CONTINUOUS
 10
4.8083745233
 20
13.2373881908
 40
0.0500006502
100
AcDbArc
 50
90.0027915342
 51
179.9921238738
  0
ARC
  5
3A0
100
AcDbEntity
  8
0
100
AcDbCircle
 62
7
  6
CONTINUOUS
 10
5.3083720839
 20
13.5812977814
 40
0.05
100
AcDbArc
 50
90.0
 51
180.0
  0
ARC
  5
3A1
100
AcDbEntity
  8
0
100
AcDbCircle
 62
7
  6
CONTINUOUS
 10
6.098621353
 20
11.2229697481
 40
0.7367012277
100
AcDbArc
 50
120.8950250171
 51
123.3444543611
  0
ARC
  5
3A2
100
AcDbEntity
  8
0
100
AcDbCircle
 62
7
  6
CONTINUOUS
 10
6.1507224696
 20
11.1287520003
 40
0.7293337496
100
AcDbArc
 50
120.8826514585
 51
123.3568279198
  0
ARC
  5
3A3
100
AcDbEntity
  8
0
100
AcDbCircle
 62
7
  6
CONTINUOUS
 10
7.3312887505
 20
12.2125477814
 40
0.25
100
AcDbArc
 50
270.0
 51
360.0
  0
ARC
  5
3A4
100
AcDbEntity
  8
0
100
AcDbCircle
 62
7
  6
CONTINUOUS
 10
8.3771220839
 20
12.0125477814
 40
0.1
100
AcDbArc
 50
270.0
 51
360.0
  0
ARC
  5
3A5
100
AcDbEntity
  8
0
100
AcDbCircle
 62
7
  6
CONTINUOUS
 10
6.8333720839
 20
11.6187977814
 40
0.05
100
AcDbArc
 50
270.0
 51
360.0
  0
ARC
  5
3A6
100
AcDbEntity
  8
0
100
AcDbCircle
 62
7
  6
CONTINUOUS
 10
7.3333705159
 20
11.9627063823
 40
0.0499998639
100
AcDbArc
 50
270.0017955835
 51
359.9999958155
  0
ARC
  5
3A7
100
AcDbEntity
  8
0
100
AcDbCircle
 62
7
  6
CONTINUOUS
 10
6.1554049198
 20
12.4885473719
 40
0.7381529069
100
AcDbArc
 50
236.6592216821
 51
239.103665189
  0
ARC
  5
3A8
100
AcDbEntity
  8
0
100
AcDbCircle
 62
7
  6
CONTINUOUS
 10
6.0954583211
 20
12.3818464336
 40
0.7307845785
100
AcDbArc
 50
236.6468964106
 51
239.1159904605
  0
ARC
  5
3A9
100
AcDbEntity
  8
0
100
AcDbCircle
 62
7
  6
CONTINUOUS
 10
7.2375387505
 20
12.6000977814
 40
0.371875
100
AcDbArc
 50
93.0286104581
 51
276.6335614273
  0
ARC
  5
3AA
100
AcDbEntity
  8
0
100
AcDbCircle
 62
7
  6
CONTINUOUS
 10
7.8833720839
 20
12.6000477814
 40
0.3020833333
100
AcDbArc
 50
90.0
 51
270.0
  0
CIRCLE
  5
3AB
100
AcDbEntity
  8
0
100
AcDbCircle
 62
7
  6
CONTINUOUS
 10
7.2375387505
 20
12.6000977814
 40
0.271875
  0
ARC
  5
3AC
100
AcDbEntity
  8
0
100
AcDbCircle
 62
7
  6
CONTINUOUS
 10
7.3312887505
 20
12.9875477814
 40
0.25
100
AcDbArc
 50
0.0
 51
90.0
  0
CIRCLE
  5
3AD
100
AcDbEntity
  8
0
100
AcDbCircle
 62
7
  6
CONTINUOUS
 10
7.2375387505
 20
12.6000977814
 40
0.2354506567
  0
ARC
  5
3AE
100
AcDbEntity
  8
0
100
AcDbCircle
 62
7
  6
CONTINUOUS
 10
7.8833720839
 20
12.6000477814
 40
0.15625
100
AcDbArc
 50
90.0
 51
270.0
  0
ARC
  5
3AF
100
AcDbEntity
  8
0
100
AcDbCircle
 62
7
  6
CONTINUOUS
 10
8.0708720839
 20
12.6000477814
 40
0.15625
100
AcDbArc
 50
270.0
 51
90.0
  0
ARC
  5
3B0
100
AcDbEntity
  8
0
100
AcDbCircle
 62
7
  6
CONTINUOUS
 10
8.3771220839
 20
13.1875477814
 40
0.1
100
AcDbArc
 50
0.0
 51
90.0
  0
ARC
  5
3B1
100
AcDbEntity
  8
0
100
AcDbCircle
 62
7
  6
CONTINUOUS
 10
7.3333696445
 20
13.2373881908
 40
0.0500006502
100
AcDbArc
 50
0.007876196
 51
89.9972084658
  0
ARC
  5
3B2
100
AcDbEntity
  8
0
100
AcDbCircle
 62
7
  6
CONTINUOUS
 10
6.8333720839
 20
13.5812977814
 40
0.05
100
AcDbArc
 50
0.0
 51
90.0
  0
ARC
  5
3B3
100
AcDbEntity
  8
0
100
AcDbCircle
 62
7
  6
CONTINUOUS
 10
12.572061139
 20
5.7930769018
 40
3.6257945387
100
AcDbArc
 50
359.3857466495
 51
359.9723965052
  0
ARC
  5
3B4
100
AcDbEntity
  8
0
100
AcDbCircle
 62
7
  6
CONTINUOUS
 10
18.3364039607
 20
5.7918880481
 40
3.4135487494
100
AcDbArc
 50
180.0093651215
 51
180.6324917239
  0
ARC
  5
3B5
100
AcDbEntity
  8
0
100
AcDbCircle
 62
7
  6
CONTINUOUS
 10
15.4469716499
 20
6.7824430116
 40
0.0543550314
100
AcDbArc
 50
0.0011684922
 51
6.4131068312
  0
ARC
  5
3B6
100
AcDbEntity
  8
0
100
AcDbCircle
 62
7
  6
CONTINUOUS
 10
15.447185431
 20
6.7824638164
 40
0.0541402644
100
AcDbArc
 50
6.4164975079
 51
9.4788538261
  0
ARC
  5
3B7
100
AcDbEntity
  8
0
100
AcDbCircle
 62
7
  6
CONTINUOUS
 10
15.673445533
 20
6.7824762048
 40
0.0540597604
100
AcDbArc
 50
170.5202120502
 51
179.9999759446
  0
ARC
  5
3B8
100
AcDbEntity
  8
0
100
AcDbCircle
 62
7
  6
CONTINUOUS
 10
16.2974936198
 20
6.6627629211
 40
0.050000965
100
AcDbArc
 50
180.01
 51
270.0
  0
ARC
  5
3B9
100
AcDbEntity
  8
0
100
AcDbCircle
 62
7
  6
CONTINUOUS
 10
16.1974877666
 20
6.6877603358
 40
0.0500006502
100
AcDbArc
 50
0.01
 51
90.0
  0
ARC
  5
3BA
100
AcDbEntity
  8
0
100
AcDbCircle
 62
7
  6
CONTINUOUS
 10
14.5791052569
 20
6.1877633367
 40
0.05
100
AcDbArc
 50
90.0
 51
180.0
  0
ARC
  5
3BB
100
AcDbEntity
  8
0
100
AcDbCircle
 62
7
  6
CONTINUOUS
 10
16.5416052569
 20
6.1877633367
 40
0.05
100
AcDbArc
 50
0.0
 51
90.0
  0
ARC
  5
3BC
100
AcDbEntity
  8
0
100
AcDbCircle
 62
7
  6
CONTINUOUS
 10
16.1978552569
 20
4.5002633367
 40
0.05
100
AcDbArc
 50
0.0
 51
90.0
  0
ARC
  5
3BD
100
AcDbEntity
  8
0
100
AcDbCircle
 62
7
  6
CONTINUOUS
 10
14.9228552569
 20
4.5002633367
 40
0.05
100
AcDbArc
 50
90.0
 51
180.0
  0
ARC
  5
3BE
100
AcDbEntity
  8
0
100
AcDbCircle
 62
7
  6
CONTINUOUS
 10
14.823218066
 20
6.6627620394
 40
0.0499999899
100
AcDbArc
 50
270.0
 51
359.99
  0
ARC
  5
3BF
100
AcDbEntity
  8
0
100
AcDbCircle
 62
7
  6
CONTINUOUS
 10
14.9232221644
 20
6.6877607505
 40
0.0499998639
100
AcDbArc
 50
90.0
 51
179.99
  0
ARC
  5
3C0
100
AcDbEntity
  8
0
100
AcDbCircle
 62
7
  6
CONTINUOUS
 10
15.5823126436
 20
6.8202717983
 40
0.0482235867
100
AcDbArc
 50
319.0294792136
 51
322.6465890975
  0
ARC
  5
3C1
100
AcDbEntity
  8
0
100
AcDbCircle
 62
7
  6
CONTINUOUS
 10
15.4536239423
 20
6.7791019539
 40
0.0468399462
100
AcDbArc
 50
316.41069022
 51
326.9692657893
  0
ARC
  5
3C2
100
AcDbEntity
  8
0
100
AcDbCircle
 62
7
  6
CONTINUOUS
 10
15.6668947398
 20
6.7789742287
 40
0.0466101136
100
AcDbArc
 50
215.3643391191
 51
223.819840152
  0
ARC
  5
3C3
100
AcDbEntity
  8
0
100
AcDbCircle
 62
7
  6
CONTINUOUS
 10
14.9478552569
 20
5.9096383367
 40
0.025
100
AcDbArc
 50
90.0
 51
180.0
  0
ARC
  5
3C4
100
AcDbEntity
  8
0
100
AcDbCircle
 62
7
  6
CONTINUOUS
 10
16.1728552569
 20
5.9096383367
 40
0.025
100
AcDbArc
 50
0.0
 51
90.0
  0
ARC
  5
3C5
100
AcDbEntity
  8
0
100
AcDbCircle
 62
7
  6
CONTINUOUS
 10
14.644234871
 20
11.0173551679
 40
1.8658994481
100
AcDbArc
 50
41.7082186054
 51
42.6577541521
  0
ARC
  5
3C6
100
AcDbEntity
  8
0
100
AcDbCircle
 62
7
  6
CONTINUOUS
 10
15.3086424172
 20
12.364529309
 40
1.3828589613
100
AcDbArc
 50
46.4757417388
 51
46.8513493449
  0
ARC
  5
3C7
100
AcDbEntity
  8
0
100
AcDbCircle
 62
7
  6
CONTINUOUS
 10
15.3200796232
 20
12.3765537926
 40
1.3662638494
100
AcDbArc
 50
46.0474147941
 51
46.4762500749
  0
ARC
  5
3C8
100
AcDbEntity
  8
0
100
AcDbCircle
 62
7
  6
CONTINUOUS
 10
15.0389194941
 20
11.3788307107
 40
1.3307014651
100
AcDbArc
 50
42.7271154517
 51
47.2036097823
  0
ARC
  5
3C9
100
AcDbEntity
  8
0
100
AcDbCircle
 62
7
  6
CONTINUOUS
 10
14.5041968754
 20
11.4715675295
 40
1.1461498032
100
AcDbArc
 50
101.5710810833
 51
102.4387770996
  0
ARC
  5
3CA
100
AcDbEntity
  8
0
100
AcDbCircle
 62
7
  6
CONTINUOUS
 10
14.4084460203
 20
12.1162552314
 40
0.6174542024
100
AcDbArc
 50
201.5667730271
 51
206.1993738409
  0
ARC
  5
3CB
100
AcDbEntity
  8
0
100
AcDbCircle
 62
7
  6
CONTINUOUS
 10
14.1902647608
 20
12.3008703324
 40
0.497968841
100
AcDbArc
 50
173.7145715735
 51
182.166366412
  0
ARC
  5
3CC
100
AcDbEntity
  8
0
100
AcDbCircle
 62
7
  6
CONTINUOUS
 10
14.5637508382
 20
11.9725720714
 40
0.4756827251
100
AcDbArc
 50
203.5434025572
 51
206.1571010072
  0
ARC
  5
3CD
100
AcDbEntity
  8
0
100
AcDbCircle
 62
7
  6
CONTINUOUS
 10
14.166787887
 20
12.3028256833
 40
0.4744194297
100
AcDbArc
 50
169.277398146
 51
173.6388863778
  0
ARC
  5
3CE
100
AcDbEntity
  8
0
100
AcDbCircle
 62
7
  6
CONTINUOUS
 10
14.1587573188
 20
12.3043011062
 40
0.4662545729
100
AcDbArc
 50
162.8382196584
 51
169.2719346931
  0
ARC
  5
3CF
100
AcDbEntity
  8
0
100
AcDbCircle
 62
7
  6
CONTINUOUS
 10
15.0032290045
 20
11.6025385466
 40
0.3950517406
100
AcDbArc
 50
34.8562944
 51
37.7584486818
  0
ARC
  5
3D0
100
AcDbEntity
  8
0
100
AcDbCircle
 62
7
  6
CONTINUOUS
 10
15.0050950905
 20
11.6042036466
 40
0.3928918928
100
AcDbArc
 50
34.8096741925
 51
37.4537327114
  0
ARC
  5
3D1
100
AcDbEntity
  8
0
100
AcDbCircle
 62
7
  6
CONTINUOUS
 10
15.0371539685
 20
11.5693003923
 40
0.3920453048
100
AcDbArc
 50
31.3934243254
 51
34.1304917375
  0
ARC
  5
3D2
100
AcDbEntity
  8
0
100
AcDbCircle
 62
7
  6
CONTINUOUS
 10
15.0996047585
 20
11.6603984594
 40
0.2824597895
100
AcDbArc
 50
22.1243954351
 51
26.1538934186
  0
ARC
  5
3D3
100
AcDbEntity
  8
0
100
AcDbCircle
 62
7
  6
CONTINUOUS
 10
15.0998953857
 20
11.6608703997
 40
0.2822721749
100
AcDbArc
 50
22.0533431792
 51
26.1544407875
  0
ARC
  5
3D4
100
AcDbEntity
  8
0
100
AcDbCircle
 62
7
  6
CONTINUOUS
 10
14.5834142523
 20
11.7903602683
 40
0.2815098478
100
AcDbArc
 50
124.2499561474
 51
126.0484345138
  0
ARC
  5
3D5
100
AcDbEntity
  8
0
100
AcDbCircle
 62
7
  6
CONTINUOUS
 10
14.632634734
 20
11.8086533893
 40
0.2766812712
100
AcDbArc
 50
120.0501373791
 51
123.5492175841
  0
ARC
  5
3D6
100
AcDbEntity
  8
0
100
AcDbCircle
 62
7
  6
CONTINUOUS
 10
14.6326129119
 20
11.8092782483
 40
0.2764084821
100
AcDbArc
 50
120.0487716281
 51
123.6225294125
  0
ARC
  5
3D7
100
AcDbEntity
  8
0
100
AcDbCircle
 62
7
  6
CONTINUOUS
 10
13.5351918073
 20
11.8647709476
 40
0.2661626787
100
AcDbArc
 50
342.8171683315
 51
351.2245948172
  0
ARC
  5
3D8
100
AcDbEntity
  8
0
100
AcDbCircle
 62
7
  6
CONTINUOUS
 10
15.2378387193
 20
11.6767214679
 40
0.1893954777
100
AcDbArc
 50
330.4716105471
 51
335.5689755155
  0
ARC
  5
3D9
100
AcDbEntity
  8
0
100
AcDbCircle
 62
7
  6
CONTINUOUS
 10
14.5290396104
 20
11.8954132814
 40
0.1876463079
100
AcDbArc
 50
168.6245120945
 51
175.1026632209
  0
ARC
  5
3DA
100
AcDbEntity
  8
0
100
AcDbCircle
 62
7
  6
CONTINUOUS
 10
14.5511767967
 20
11.8438364487
 40
0.1740805942
100
AcDbArc
 50
149.4227818003
 51
153.1929597626
  0
ARC
  5
3DB
100
AcDbEntity
  8
0
100
AcDbCircle
 62
7
  6
CONTINUOUS
 10
14.5623386132
 20
11.8835155738
 40
0.1730090734
100
AcDbArc
 50
149.5341620115
 51
153.4347455939
  0
ARC
  5
3DC
100
AcDbEntity
  8
0
100
AcDbCircle
 62
7
  6
CONTINUOUS
 10
14.5623964283
 20
11.8839403828
 40
0.172938076
100
AcDbArc
 50
149.6594515951
 51
153.4352143293
  0
ARC
  5
3DD
100
AcDbEntity
  8
0
100
AcDbCircle
 62
7
  6
CONTINUOUS
 10
15.2085162858
 20
11.6844865182
 40
0.1696547396
100
AcDbArc
 50
342.8682841204
 51
356.162497285
  0
ARC
  5
3DE
100
AcDbEntity
  8
0
100
AcDbCircle
 62
7
  6
CONTINUOUS
 10
15.1964277336
 20
11.645317678
 40
0.169639785
100
AcDbArc
 50
342.8676212349
 51
356.1617717498
  0
ARC
  5
3DF
100
AcDbEntity
  8
0
100
AcDbCircle
 62
7
  6
CONTINUOUS
 10
15.208682263
 20
11.6848673032
 40
0.1696088743
100
AcDbArc
 50
342.8673235272
 51
356.0373113705
  0
ARC
  5
3E0
100
AcDbEntity
  8
0
100
AcDbCircle
 62
7
  6
CONTINUOUS
 10
14.546455751
 20
11.8462258924
 40
0.1687893088
100
AcDbArc
 50
153.1941546031
 51
162.8041978911
  0
ARC
  5
3E1
100
AcDbEntity
  8
0
100
AcDbCircle
 62
7
  6
CONTINUOUS
 10
14.5579020984
 20
11.8856551582
 40
0.1680840977
100
AcDbArc
 50
153.4107531741
 51
162.8236075551
  0
ARC
  5
3E2
100
AcDbEntity
  8
0
100
AcDbCircle
 62
7
  6
CONTINUOUS
 10
14.558022778
 20
11.8860474936
 40
0.1680838505
100
AcDbArc
 50
153.4109179776
 51
162.8237907783
  0
ARC
  5
3E3
100
AcDbEntity
  8
0
100
AcDbCircle
 62
7
  6
CONTINUOUS
 10
13.629433494
 20
11.8007980976
 40
0.1605225106
100
AcDbArc
 50
144.3388016419
 51
146.7386877528
  0
ARC
  5
3E4
100
AcDbEntity
  8
0
100
AcDbCircle
 62
7
  6
CONTINUOUS
 10
14.7194130221
 20
11.2143480147
 40
0.0410866381
100
AcDbArc
 50
13.3799611873
 51
14.6726283691
  0
ARC
  5
3E5
100
AcDbEntity
  8
0
100
AcDbCircle
 62
7
  6
CONTINUOUS
 10
14.7298875541
 20
11.2152469019
 40
0.0305056926
100
AcDbArc
 50
334.5382387994
 51
342.8050491799
  0
ARC
  5
3E6
100
AcDbEntity
  8
0
100
AcDbCircle
 62
7
  6
CONTINUOUS
 10
14.7360665082
 20
11.2347754796
 40
0.0303679885
100
AcDbArc
 50
343.445504581
 51
344.9221157048
  0
ARC
  5
3E7
100
AcDbEntity
  8
0
100
AcDbCircle
 62
7
  6
CONTINUOUS
 10
15.4207748758
 20
12.6393116254
 40
1.1663817651
100
AcDbArc
 50
44.1929828649
 51
44.4985592012
  0
ARC
  5
3E8
100
AcDbEntity
  8
0
100
AcDbCircle
 62
7
  6
CONTINUOUS
 10
15.4428306318
 20
12.6606555441
 40
1.1356895176
100
AcDbArc
 50
42.4324733134
 51
44.1965679964
  0
ARC
  5
3E9
100
AcDbEntity
  8
0
100
AcDbCircle
 62
7
  6
CONTINUOUS
 10
14.9154578905
 20
12.8286898313
 40
1.1301373066
100
AcDbArc
 50
101.1809971247
 51
103.2276991858
  0
ARC
  5
3EA
100
AcDbEntity
  8
0
100
AcDbCircle
 62
7
  6
CONTINUOUS
 10
13.9859729653
 20
12.8162298887
 40
0.3450673542
100
AcDbArc
 50
78.7907761031
 51
83.8183074604
  0
ARC
  5
3EB
100
AcDbEntity
  8
0
100
AcDbCircle
 62
7
  6
CONTINUOUS
 10
13.9611078804
 20
13.0891842689
 40
0.2702374456
100
AcDbArc
 50
90.0023243607
 51
91.7605637318
  0
ARC
  5
3EC
100
AcDbEntity
  8
0
100
AcDbCircle
 62
7
  6
CONTINUOUS
 10
13.8695377358
 20
13.1054759502
 40
0.2031183123
100
AcDbArc
 50
158.9222730131
 51
162.7956670414
  0
ARC
  5
3ED
100
AcDbEntity
  8
0
100
AcDbCircle
 62
7
  6
CONTINUOUS
 10
14.4578497615
 20
13.3220277463
 40
0.1267943361
100
AcDbArc
 50
108.0048626739
 51
108.8825614401
  0
ARC
  5
3EE
100
AcDbEntity
  8
0
100
AcDbCircle
 62
7
  6
CONTINUOUS
 10
14.4362507377
 20
13.3039839342
 40
0.1258769326
100
AcDbArc
 50
154.2103658032
 51
155.83449468
  0
ARC
  5
3EF
100
AcDbEntity
  8
0
100
AcDbCircle
 62
7
  6
CONTINUOUS
 10
14.2565567338
 20
12.690985371
 40
0.0967392388
100
AcDbArc
 50
305.3207303632
 51
316.076751199
  0
ARC
  5
3F0
100
AcDbEntity
  8
0
100
AcDbCircle
 62
7
  6
CONTINUOUS
 10
14.3614114255
 20
13.4299238435
 40
0.0568017787
100
AcDbArc
 50
6.5617124533
 51
9.5233174957
  0
ARC
  5
3F1
100
AcDbEntity
  8
0
100
AcDbCircle
 62
7
  6
CONTINUOUS
 10
14.4411244441
 20
13.4020889086
 40
0.0566450829
100
AcDbArc
 50
5.0626635374
 51
6.3914420689
  0
ARC
  5
3F2
100
AcDbEntity
  8
0
100
AcDbCircle
 62
7
  6
CONTINUOUS
 10
14.3618392259
 20
13.4299911258
 40
0.0563687425
100
AcDbArc
 50
9.5278143531
 51
10.5567369377
  0
ARC
  5
3F3
100
AcDbEntity
  8
0
100
AcDbCircle
 62
7
  6
CONTINUOUS
 10
14.3524742225
 20
13.3135414897
 40
0.0388275816
100
AcDbArc
 50
222.4355937874
 51
226.1407519109
  0
ARC
  5
3F4
100
AcDbEntity
  8
0
100
AcDbCircle
 62
7
  6
CONTINUOUS
 10
17.3447237776
 20
11.8149765573
 40
0.1616487428
100
AcDbArc
 50
85.3493444416
 51
90.0355333018
  0
ARC
  5
3F5
100
AcDbEntity
  8
0
100
AcDbCircle
 62
7
  6
CONTINUOUS
 10
17.1412087319
 20
11.8006209917
 40
0.1608111632
100
AcDbArc
 50
144.3286841777
 51
146.7324570154
  0
ARC
  5
3F6
100
AcDbEntity
  8
0
100
AcDbCircle
 62
7
  6
CONTINUOUS
 10
17.4030912298
 20
13.3177063779
 40
1.5673295071
100
AcDbArc
 50
253.7760481455
 51
259.4189848982
  0
ARC
  5
3F7
100
AcDbEntity
  8
0
100
AcDbCircle
 62
7
  6
CONTINUOUS
 10
17.5469527164
 20
13.7809490823
 40
1.5570443186
100
AcDbArc
 50
253.7573954668
 51
259.4376375769
  0
SPLINE
  5
3F8
100
AcDbEntity
  8
0
100
AcDbSpline
 62
7
  6
CONTINUOUS
 70
0
 71
3
 72
12
 73
8
 74
0
 42
0.0000001
 43
0.0000001
 44
0.0000000001
 40
0.0
 40
0.0
 40
0.0
 40
0.0
 40
0.2759610637
 40
0.533779295
 40
0.7730304029
 40
0.8874930598
 40
1.0
 40
1.0
 40
1.0
 40
1.0
 10
7.5689089428
 20
6.1795841857
 30
0.0
 10
7.5637680564
 20
6.1847250721
 30
0.0
 10
7.5534106875
 20
6.1942814174
 30
0.0
 10
7.5367299964
 20
6.2060926236
 30
0.0
 10
7.5219025091
 20
6.212794877
 30
0.0
 10
7.509892599
 20
6.2155348192
 30
0.0
 10
7.5039042359
 20
6.216008529
 30
0.0
 10
7.5009401928
 20
6.216008529
 30
0.0
  0
SPLINE
  5
3F9
100
AcDbEntity
  8
0
100
AcDbSpline
 62
7
  6
CONTINUOUS
 70
0
 71
3
 72
14
 73
10
 74
0
 42
0.0000001
 43
0.0000001
 44
0.0000000001
 40
0.0
 40
0.0
 40
0.0
 40
0.0
 40
0.1124313605
 40
0.2267858
 40
0.3444190021
 40
0.4663208812
 40
0.5929496319
 40
0.7242853017
 40
1.0
 40
1.0
 40
1.0
 40
1.0
 10
7.5009401928
 20
6.216008529
 30
0.0
 10
7.4979760966
 20
6.216008529
 30
0.0
 10
7.4919886313
 20
6.2155445247
 30
0.0
 10
7.4831046157
 20
6.2135371548
 30
0.0
 10
7.4743357721
 20
6.2102783269
 30
0.0
 10
7.465721357
 20
6.2058827809
 30
0.0
 10
7.4572648604
 20
6.2004943098
 30
0.0
 10
7.4460242227
 20
6.1920146746
 30
0.0
 10
7.4381112847
 20
6.1847240276
 30
0.0
 10
7.4329714428
 20
6.1795841857
 30
0.0
  0
SPLINE
  5
3FA
100
AcDbEntity
  8
0
100
AcDbSpline
 62
7
  6
CONTINUOUS
 70
0
 71
3
 72
9
 73
5
 74
0
 42
0.0000001
 43
0.0000001
 44
0.0000000001
 40
0.0
 40
0.0
 40
0.0
 40
0.0
 40
0.4999709585
 40
1.0
 40
1.0
 40
1.0
 40
1.0
 10
7.2970339428
 20
6.216008529
 30
0.0
 10
7.2846858683
 20
6.216008529
 30
0.0
 10
7.2599522427
 20
6.214029774
 30
0.0
 10
7.2358116337
 20
6.2084413322
 30
0.0
 10
7.2239712336
 20
6.204932016
 30
0.0
  0
SPLINE
  5
3FB
100
AcDbEntity
  8
0
100
AcDbSpline
 62
7
  6
CONTINUOUS
 70
0
 71
3
 72
12
 73
8
 74
0
 42
0.0000001
 43
0.0000001
 44
0.0000000001
 40
0.0
 40
0.0
 40
0.0
 40
0.0
 40
0.2499409082
 40
0.4999388793
 40
0.6249777983
 40
0.7500547408
 40
1.0
 40
1.0
 40
1.0
 40
1.0
 10
7.4329714428
 20
6.1795841857
 30
0.0
 10
7.4223920284
 20
6.1848738929
 30
0.0
 10
7.4008528663
 20
6.1947275856
 30
0.0
 10
7.3728793691
 20
6.2045127493
 30
0.0
 10
7.3499237617
 20
6.2103384046
 30
0.0
 10
7.3266418549
 20
6.2146404531
 30
0.0
 10
7.3088622936
 20
6.216008529
 30
0.0
 10
7.2970339428
 20
6.216008529
 30
0.0
  0
SPLINE
  5
3FC
100
AcDbEntity
  8
0
100
AcDbSpline
 62
7
  6
CONTINUOUS
 70
0
 71
3
 72
13
 73
9
 74
0
 42
0.0000001
 43
0.0000001
 44
0.0000000001
 40
0.0
 40
0.0
 40
0.0
 40
0.0
 40
0.249998305
 40
0.4999963842
 40
0.6249973875
 40
0.7499984535
 40
0.8749991313
 40
1.0
 40
1.0
 40
1.0
 40
1.0
 10
8.0534883124
 20
4.5751247712
 30
0.0
 10
8.0456525082
 20
4.5776659212
 30
0.0
 10
8.0300317834
 20
4.5829081436
 30
0.0
 10
8.0106841378
 20
4.5899706425
 30
0.0
 10
7.9953117244
 20
4.5958976102
 30
0.0
 10
7.9838314327
 20
4.6004688139
 30
0.0
 10
7.9724153352
 20
4.6051973862
 30
0.0
 10
7.9647992814
 20
4.608336539
 30
0.0
 10
7.9609928112
 20
4.6099099329
 30
0.0
  0
SPLINE
  5
3FD
100
AcDbEntity
  8
0
100
AcDbSpline
 62
7
  6
CONTINUOUS
 70
0
 71
3
 72
12
 73
8
 74
0
 42
0.0000001
 43
0.0000001
 44
0.0000000001
 40
0.0
 40
0.0
 40
0.0
 40
0.0
 40
0.2499467656
 40
0.3750238149
 40
0.5000613646
 40
0.7500566658
 40
1.0
 40
1.0
 40
1.0
 40
1.0
 10
4.9637006095
 20
6.216008529
 30
0.0
 10
4.9518721167
 20
6.216008529
 30
0.0
 10
4.934092329
 20
6.2146421068
 30
0.0
 10
4.9108099368
 20
6.2103416027
 30
0.0
 10
4.8878543096
 20
6.2045161064
 30
0.0
 10
4.8598812509
 20
6.1947291598
 30
0.0
 10
4.8383426899
 20
6.1848739759
 30
0.0
 10
4.8277631095
 20
6.1795841857
 30
0.0
  0
SPLINE
  5
3FE
100
AcDbEntity
  8
0
100
AcDbSpline
 62
7
  6
CONTINUOUS
 70
0
 71
3
 72
9
 73
5
 74
0
 42
0.0000001
 43
0.0000001
 44
0.0000000001
 40
0.0
 40
0.0
 40
0.0
 40
0.0
 40
0.5000323472
 40
1.0
 40
1.0
 40
1.0
 40
1.0
 10
5.0367574306
 20
6.2049303835
 30
0.0
 10
5.024917727
 20
6.2084389975
 30
0.0
 10
5.0007792794
 20
6.2140275221
 30
0.0
 10
4.9760476536
 20
6.216008529
 30
0.0
 10
4.9637006095
 20
6.216008529
 30
0.0
  0
SPLINE
  5
3FF
100
AcDbEntity
  8
0
100
AcDbSpline
 62
7
  6
CONTINUOUS
 70
0
 71
3
 72
39
 73
35
 74
0
 42
0.0000001
 43
0.0000001
 44
0.0000000001
 40
0.0
 40
0.0
 40
0.0
 40
0.0
 40
0.0046962185
 40
0.0095874472
 40
0.0162287995
 40
0.0251964677
 40
0.036610309
 40
0.0504481143
 40
0.0666735873
 40
0.0852415869
 40
0.1061007308
 40
0.1291907057
 40
0.1817661879
 40
0.3100984259
 40
0.3842567869
 40
0.4638708252
 40
0.5054142249
 40
0.5479466412
 40
0.5913485742
 40
0.6354731047
 40
0.6577500366
 40
0.68014599
 40
0.7254250906
 40
0.7484706245
 40
0.771367348
 40
0.7940514335
 40
0.8169231932
 40
0.840062524
 40
0.8631001839
 40
0.8859331287
 40
0.9087385183
 40
0.9315611372
 40
0.9543843606
 40
1.0
 40
1.0
 40
1.0
 40
1.0
 10
8.0867011025
 20
4.6162549915
 30
0.0
 10
8.0866095535
 20
4.6162828486
 30
0.0
 10
8.0863980811
 20
4.6162957205
 30
0.0
 10
8.0861228399
 20
4.6160814538
 30
0.0
 10
8.0859031197
 20
4.6157254246
 30
0.0
 10
8.0856577285
 20
4.6152320277
 30
0.0
 10
8.0853668431
 20
4.6145983489
 30
0.0
 10
8.0850344703
 20
4.6138211474
 30
0.0
 10
8.0846641534
 20
4.6129019583
 30
0.0
 10
8.0842549473
 20
4.6118443201
 30
0.0
 10
8.0838049218
 20
4.6106525592
 30
0.0
 10
8.0831190841
 20
4.6088091486
 30
0.0
 10
8.0816924739
 20
4.6049048042
 30
0.0
 10
8.0799301089
 20
4.6000152677
 30
0.0
 10
8.0779304426
 20
4.5946258987
 30
0.0
 10
8.076519119
 20
4.5909045174
 30
0.0
 10
8.0752917183
 20
4.5878030131
 30
0.0
 10
8.0742982025
 20
4.5854027788
 30
0.0
 10
8.0732296397
 20
4.5829772655
 30
0.0
 10
8.0722613873
 20
4.58095951
 30
0.0
 10
8.0714187278
 20
4.5793578537
 30
0.0
 10
8.0705147415
 20
4.5777637768
 30
0.0
 10
8.0694547709
 20
4.576236292
 30
0.0
 10
8.068160096
 20
4.5748963777
 30
0.0
 10
8.0670483648
 20
4.574036597
 30
0.0
 10
8.0657847529
 20
4.5734186207
 30
0.0
 10
8.0644135349
 20
4.5730948132
 30
0.0
 10
8.063005585
 20
4.572996111
 30
0.0
 10
8.0615986724
 20
4.5730771209
 30
0.0
 10
8.0602147009
 20
4.5732944056
 30
0.0
 10
8.058853274
 20
4.5736007076
 30
0.0
 10
8.0575014825
 20
4.5739446173
 30
0.0
 10
8.0557039612
 20
4.5744208589
 30
0.0
 10
8.0543675582
 20
4.5748232909
 30
0.0
 10
8.0534883124
 20
4.5751247701
 30
0.0
  0
SPLINE
  5
400
100
AcDbEntity
  8
0
100
AcDbSpline
 62
7
  6
CONTINUOUS
 70
0
 71
3
 72
9
 73
5
 74
0
 42
0.0000001
 43
0.0000001
 44
0.0000000001
 40
0.0
 40
0.0
 40
0.0
 40
0.0
 40
0.490636551
 40
1.0
 40
1.0
 40
1.0
 40
1.0
 10
4.7597943595
 20
6.216008529
 30
0.0
 10
4.7551023293
 20
6.216008529
 30
0.0
 10
4.7455109031
 20
6.214826603
 30
0.0
 10
4.7364408901
 20
6.2115827286
 30
0.0
 10
4.7320147851
 20
6.2095486714
 30
0.0
  0
SPLINE
  5
401
100
AcDbEntity
  8
0
100
AcDbSpline
 62
7
  6
CONTINUOUS
 70
0
 71
3
 72
11
 73
7
 74
0
 42
0.0000001
 43
0.0000001
 44
0.0000000001
 40
0.0
 40
0.0
 40
0.0
 40
0.0
 40
0.2340632287
 40
0.4790636684
 40
0.7346857833
 40
1.0
 40
1.0
 40
1.0
 40
1.0
 10
4.7320147851
 20
6.2095486714
 30
0.0
 10
4.7284438775
 20
6.2079076279
 30
0.0
 10
4.7213639669
 20
6.2040396815
 30
0.0
 10
4.711224059
 20
6.1969856843
 30
0.0
 10
4.7013201034
 20
6.188763001
 30
0.0
 10
4.6949755179
 20
6.1827340941
 30
0.0
 10
4.6918256095
 20
6.1795841857
 30
0.0
  0
SPLINE
  5
402
100
AcDbEntity
  8
0
100
AcDbSpline
 62
7
  6
CONTINUOUS
 70
0
 71
3
 72
12
 73
8
 74
0
 42
0.0000001
 43
0.0000001
 44
0.0000000001
 40
0.0
 40
0.0
 40
0.0
 40
0.0
 40
0.2759610637
 40
0.533779295
 40
0.7730304029
 40
0.8874930598
 40
1.0
 40
1.0
 40
1.0
 40
1.0
 10
4.8277631095
 20
6.1795841857
 30
0.0
 10
4.822622223
 20
6.1847250721
 30
0.0
 10
4.8122648542
 20
6.1942814174
 30
0.0
 10
4.7955841631
 20
6.2060926236
 30
0.0
 10
4.7807566758
 20
6.212794877
 30
0.0
 10
4.7687467657
 20
6.2155348192
 30
0.0
 10
4.7627584026
 20
6.216008529
 30
0.0
 10
4.7597943595
 20
6.216008529
 30
0.0
  0
SPLINE
  5
403
100
AcDbEntity
  8
0
100
AcDbSpline
 62
7
  6
CONTINUOUS
 70
0
 71
3
 72
9
 73
5
 74
0
 42
0.0000001
 43
0.0000001
 44
0.0000000001
 40
0.0
 40
0.0
 40
0.0
 40
0.0
 40
0.5018395729
 40
1.0
 40
1.0
 40
1.0
 40
1.0
 10
5.8091923837
 20
6.683399324
 30
0.0
 10
5.8042570438
 20
6.6836951251
 30
0.0
 10
5.7943731485
 20
6.6837548936
 30
0.0
 10
5.7845810955
 20
6.6821654154
 30
0.0
 10
5.7798405045
 20
6.6808946833
 30
0.0
  0
SPLINE
  5
404
100
AcDbEntity
  8
0
100
AcDbSpline
 62
7
  6
CONTINUOUS
 70
0
 71
3
 72
9
 73
5
 74
0
 42
0.0000001
 43
0.0000001
 44
0.0000000001
 40
0.0
 40
0.0
 40
0.0
 40
0.0
 40
0.4981612225
 40
1.0
 40
1.0
 40
1.0
 40
1.0
 10
5.7798405045
 20
6.6808946833
 30
0.0
 10
5.7750999636
 20
6.6796239646
 30
0.0
 10
5.7658322401
 20
6.6760874991
 30
0.0
 10
5.7572958676
 20
6.6711068997
 30
0.0
 10
5.7531701724
 20
6.668382373
 30
0.0
  0
SPLINE
  5
405
100
AcDbEntity
  8
0
100
AcDbSpline
 62
7
  6
CONTINUOUS
 70
0
 71
3
 72
9
 73
5
 74
0
 42
0.0000001
 43
0.0000001
 44
0.0000000001
 40
0.0
 40
0.0
 40
0.0
 40
0.0
 40
0.5018469779
 40
1.0
 40
1.0
 40
1.0
 40
1.0
 10
5.8652175681
 20
6.6984053827
 30
0.0
 10
5.8602820388
 20
6.6987020616
 30
0.0
 10
5.8503978251
 20
6.6987636375
 30
0.0
 10
5.840605132
 20
6.6971760218
 30
0.0
 10
5.8358642024
 20
6.6959061881
 30
0.0
  0
SPLINE
  5
406
100
AcDbEntity
  8
0
100
AcDbSpline
 62
7
  6
CONTINUOUS
 70
0
 71
3
 72
37
 73
33
 74
0
 42
0.0000001
 43
0.0000001
 44
0.0000000001
 40
0.0
 40
0.0
 40
0.0
 40
0.0
 40
0.045614012
 40
0.0684379653
 40
0.0912640951
 40
0.1140729054
 40
0.1369034764
 40
0.1599331013
 40
0.1830796128
 40
0.2059666091
 40
0.228647371
 40
0.251527851
 40
0.2745736879
 40
0.3198728451
 40
0.3422644543
 40
0.3645380028
 40
0.4086623147
 40
0.4520655575
 40
0.536135958
 40
0.6157478711
 40
0.6899043996
 40
0.81823653
 40
0.8708128019
 40
0.914762396
 40
0.9333312031
 40
0.9495573157
 40
0.9633954777
 40
0.9748086034
 40
0.9837762093
 40
0.9904230523
 40
0.9953200762
 40
1.0
 40
1.0
 40
1.0
 40
1.0
 10
4.2072462399
 20
4.5751247701
 30
0.0
 10
4.2063671059
 20
4.5748230944
 30
0.0
 10
4.2050306644
 20
4.5744208488
 30
0.0
 10
4.2032330346
 20
4.573944889
 30
0.0
 10
4.2018811375
 20
4.5736008287
 30
0.0
 10
4.2005198536
 20
4.5732935716
 30
0.0
 10
4.1991361352
 20
4.5730755338
 30
0.0
 10
4.197729207
 20
4.5729951263
 30
0.0
 10
4.1963210794
 20
4.5730956843
 30
0.0
 10
4.1949498178
 20
4.5734200504
 30
0.0
 10
4.1936852926
 20
4.5740359231
 30
0.0
 10
4.1925741205
 20
4.5748960644
 30
0.0
 10
4.1912808788
 20
4.5762373437
 30
0.0
 10
4.1902198083
 20
4.5777642557
 30
0.0
 10
4.1893148878
 20
4.5793581191
 30
0.0
 10
4.1884730055
 20
4.5809599835
 30
0.0
 10
4.1875052201
 20
4.5829778765
 30
0.0
 10
4.186095671
 20
4.5861781658
 30
0.0
 10
4.1845227515
 20
4.5900946206
 30
0.0
 10
4.1828038345
 20
4.594625859
 30
0.0
 10
4.1808044021
 20
4.6000152154
 30
0.0
 10
4.1790425818
 20
4.6049048672
 30
0.0
 10
4.1774690945
 20
4.609208029
 30
0.0
 10
4.1766494394
 20
4.611405413
 30
0.0
 10
4.1760705557
 20
4.6129019249
 30
0.0
 10
4.1756998584
 20
4.6138209903
 30
0.0
 10
4.175367448
 20
4.6145981722
 30
0.0
 10
4.1750771554
 20
4.6152320859
 30
0.0
 10
4.1748322569
 20
4.6157258701
 30
0.0
 10
4.1746111237
 20
4.6160813654
 30
0.0
 10
4.1743358195
 20
4.6162949879
 30
0.0
 10
4.1741246377
 20
4.6162827387
 30
0.0
 10
4.1740334072
 20
4.6162549786
 30
0.0
  0
SPLINE
  5
407
100
AcDbEntity
  8
0
100
AcDbSpline
 62
7
  6
CONTINUOUS
 70
0
 71
3
 72
9
 73
5
 74
0
 42
0.0000001
 43
0.0000001
 44
0.0000000001
 40
0.0
 40
0.0
 40
0.0
 40
0.0
 40
0.4981685819
 40
1.0
 40
1.0
 40
1.0
 40
1.0
 10
5.8358642024
 20
6.6959061881
 30
0.0
 10
5.8311234976
 20
6.6946364146
 30
0.0
 10
5.8218553739
 20
6.6911018849
 30
0.0
 10
5.8133183629
 20
6.6861229986
 30
0.0
 10
5.8091923837
 20
6.683399324
 30
0.0
  0
SPLINE
  5
408
100
AcDbEntity
  8
0
100
AcDbSpline
 62
7
  6
CONTINUOUS
 70
0
 71
3
 72
13
 73
9
 74
0
 42
0.0000001
 43
0.0000001
 44
0.0000000001
 40
0.0
 40
0.0
 40
0.0
 40
0.0
 40
0.1250008686
 40
0.2500015476
 40
0.3750026122
 40
0.5000036153
 40
0.7500016942
 40
1.0
 40
1.0
 40
1.0
 40
1.0
 10
4.2997417687
 20
4.609909948
 30
0.0
 10
4.2959353091
 20
4.6083365251
 30
0.0
 10
4.2883192528
 20
4.6051973714
 30
0.0
 10
4.2769031361
 20
4.6004688354
 30
0.0
 10
4.2654228465
 20
4.5958976159
 30
0.0
 10
4.2500504263
 20
4.5899706516
 30
0.0
 10
4.2307027869
 20
4.5829081156
 30
0.0
 10
4.2150820428
 20
4.5776659338
 30
0.0
 10
4.2072462399
 20
4.5751247712
 30
0.0
  0
SPLINE
  5
409
100
AcDbEntity
  8
0
100
AcDbSpline
 62
7
  6
CONTINUOUS
 70
0
 71
3
 72
23
 73
19
 74
0
 42
0.0000001
 43
0.0000001
 44
0.0000000001
 40
0.0
 40
0.0
 40
0.0
 40
0.0
 40
0.0625802913
 40
0.1252537184
 40
0.1878130058
 40
0.2503248321
 40
0.3127952048
 40
0.375220689
 40
0.437609241
 40
0.4999833449
 40
0.5623593739
 40
0.6247512531
 40
0.6871822353
 40
0.7496590193
 40
0.8121763348
 40
0.8747415518
 40
0.9374189903
 40
1.0
 40
1.0
 40
1.0
 40
1.0
 10
5.6281186466
 20
12.6000477814
 30
0.0
 10
5.6281186466
 20
12.6045999736
 30
0.0
 10
5.629008476
 20
12.6137346035
 30
0.0
 10
5.6329282801
 20
12.6269068807
 30
0.0
 10
5.6393241436
 20
12.6390732722
 30
0.0
 10
5.6479499788
 20
12.6497537159
 30
0.0
 10
5.658481041
 20
12.6585488393
 30
0.0
 10
5.6705305247
 20
12.6650959564
 30
0.0
 10
5.683628325
 20
12.6691340429
 30
0.0
 10
5.6972632161
 20
12.6705041567
 30
0.0
 10
5.7108986112
 20
12.6691357178
 30
0.0
 10
5.7239972889
 20
12.6650979262
 30
0.0
 10
5.736048684
 20
12.6585519679
 30
0.0
 10
5.7465809184
 20
12.6497561754
 30
0.0
 10
5.755208273
 20
12.6390753152
 30
0.0
 10
5.7616048975
 20
12.6269079913
 30
0.0
 10
5.7655250067
 20
12.6137349976
 30
0.0
 10
5.7664149379
 20
12.6046000258
 30
0.0
 10
5.7664149379
 20
12.6000477814
 30
0.0
  0
SPLINE
  5
40A
100
AcDbEntity
  8
0
100
AcDbSpline
 62
7
  6
CONTINUOUS
 70
0
 71
3
 72
23
 73
19
 74
0
 42
0.0000001
 43
0.0000001
 44
0.0000000001
 40
0.0
 40
0.0
 40
0.0
 40
0.0
 40
0.0625802913
 40
0.1252537184
 40
0.1878130058
 40
0.2503248321
 40
0.3127952048
 40
0.375220689
 40
0.437609241
 40
0.4999833449
 40
0.5623593739
 40
0.6247512531
 40
0.6871822353
 40
0.7496590193
 40
0.8121763348
 40
0.8747415518
 40
0.9374189903
 40
1.0
 40
1.0
 40
1.0
 40
1.0
 10
5.7664149379
 20
12.6000477814
 30
0.0
 10
5.7664149379
 20
12.5954955892
 30
0.0
 10
5.7655251085
 20
12.5863609592
 30
0.0
 10
5.7616053044
 20
12.573188682
 30
0.0
 10
5.7552094409
 20
12.5610222905
 30
0.0
 10
5.7465836057
 20
12.5503418468
 30
0.0
 10
5.7360525435
 20
12.5415467234
 30
0.0
 10
5.7240030598
 20
12.5349996063
 30
0.0
 10
5.7109052595
 20
12.5309615198
 30
0.0
 10
5.6972703684
 20
12.529591406
 30
0.0
 10
5.6836349733
 20
12.5309598449
 30
0.0
 10
5.6705362956
 20
12.5349976365
 30
0.0
 10
5.6584849005
 20
12.5415435948
 30
0.0
 10
5.6479526661
 20
12.5503393873
 30
0.0
 10
5.6393253115
 20
12.5610202476
 30
0.0
 10
5.632928687
 20
12.5731875714
 30
0.0
 10
5.6290085778
 20
12.5863605651
 30
0.0
 10
5.6281186466
 20
12.5954955369
 30
0.0
 10
5.6281186466
 20
12.6000477814
 30
0.0
  0
SPLINE
  5
40B
100
AcDbEntity
  8
0
100
AcDbSpline
 62
7
  6
CONTINUOUS
 70
0
 71
3
 72
9
 73
5
 74
0
 42
0.0000001
 43
0.0000001
 44
0.0000000001
 40
0.0
 40
0.0
 40
0.0
 40
0.0
 40
0.2513739838
 40
1.0
 40
1.0
 40
1.0
 40
1.0
 10
5.7496971914
 20
11.7379370661
 30
0.0
 10
5.747214856
 20
11.7392993118
 30
0.0
 10
5.7373565876
 20
11.7447488099
 30
0.0
 10
5.7275835683
 20
11.7503545707
 30
0.0
 10
5.7203453122
 20
11.7546811199
 30
0.0
  0
SPLINE
  5
40C
100
AcDbEntity
  8
0
100
AcDbSpline
 62
7
  6
CONTINUOUS
 70
0
 71
3
 72
9
 73
5
 74
0
 42
0.0000001
 43
0.0000001
 44
0.0000000001
 40
0.0
 40
0.0
 40
0.0
 40
0.0
 40
0.2472265186
 40
1.0
 40
1.0
 40
1.0
 40
1.0
 10
5.7203497719
 20
11.8551400653
 30
0.0
 10
5.7227402142
 20
11.8565688333
 30
0.0
 10
5.7324441945
 20
11.862289599
 30
0.0
 10
5.742268891
 20
11.8678035956
 30
0.0
 10
5.7497031377
 20
11.8718823267
 30
0.0
  0
SPLINE
  5
40D
100
AcDbEntity
  8
0
100
AcDbSpline
 62
7
  6
CONTINUOUS
 70
0
 71
3
 72
9
 73
5
 74
0
 42
0.0000001
 43
0.0000001
 44
0.0000000001
 40
0.0
 40
0.0
 40
0.0
 40
0.0
 40
0.4949529066
 40
1.0
 40
1.0
 40
1.0
 40
1.0
 10
5.6936752227
 20
11.771419649
 30
0.0
 10
5.6932633968
 20
11.7769351785
 30
0.0
 10
5.6925846698
 20
11.7880912073
 30
0.0
 10
5.6923354433
 20
11.7992669343
 30
0.0
 10
5.6923356931
 20
11.8049106154
 30
0.0
  0
SPLINE
  5
40E
100
AcDbEntity
  8
0
100
AcDbSpline
 62
7
  6
CONTINUOUS
 70
0
 71
3
 72
9
 73
5
 74
0
 42
0.0000001
 43
0.0000001
 44
0.0000000001
 40
0.0
 40
0.0
 40
0.0
 40
0.0
 40
0.2533079301
 40
1.0
 40
1.0
 40
1.0
 40
1.0
 10
5.6923356931
 20
11.8049106154
 30
0.0
 10
5.6923358188
 20
11.8077403445
 30
0.0
 10
5.6924628613
 20
11.8189114908
 30
0.0
 10
5.6930558233
 20
11.8300741196
 30
0.0
 10
5.693677711
 20
11.8383922792
 30
0.0
  0
SPLINE
  5
40F
100
AcDbEntity
  8
0
100
AcDbSpline
 62
7
  6
CONTINUOUS
 70
0
 71
3
 72
15
 73
11
 74
0
 42
0.0000001
 43
0.0000001
 44
0.0000000001
 40
0.0
 40
0.0
 40
0.0
 40
0.0
 40
0.1249009515
 40
0.2500190041
 40
0.3749950698
 40
0.5000023893
 40
0.6249570425
 40
0.7499023672
 40
0.8751304154
 40
1.0
 40
1.0
 40
1.0
 40
1.0
 10
7.3083692403
 20
11.9127035612
 30
0.0
 10
7.3051266035
 20
11.9127038994
 30
0.0
 10
7.2986185928
 20
11.9120650984
 30
0.0
 10
7.2892379199
 20
11.9092482972
 30
0.0
 10
7.2805794019
 20
11.9046546625
 30
0.0
 10
7.2729805209
 20
11.8984740686
 30
0.0
 10
7.2667173115
 20
11.8909418795
 30
0.0
 10
7.2620486385
 20
11.8823244389
 30
0.0
 10
7.2590919455
 20
11.8729897873
 30
0.0
 10
7.2583720836
 20
11.8664807531
 30
0.0
 10
7.2583720839
 20
11.8632389306
 30
0.0
  0
SPLINE
  5
410
100
AcDbEntity
  8
0
100
AcDbSpline
 62
7
  6
CONTINUOUS
 70
0
 71
3
 72
15
 73
11
 74
0
 42
0.0000001
 43
0.0000001
 44
0.0000000001
 40
0.0
 40
0.0
 40
0.0
 40
0.0
 40
0.1248679762
 40
0.2501014273
 40
0.3750450704
 40
0.4999978695
 40
0.6250062826
 40
0.749982225
 40
0.8750990333
 40
1.0
 40
1.0
 40
1.0
 40
1.0
 10
7.2583720839
 20
13.336829977
 30
0.0
 10
7.2583720839
 20
13.3335892728
 30
0.0
 10
7.2590955949
 20
13.3270823733
 30
0.0
 10
7.2620574983
 20
13.317752978
 30
0.0
 10
7.2667270847
 20
13.3091398118
 30
0.0
 10
7.2729905171
 20
13.3016120856
 30
0.0
 10
7.2805883866
 20
13.2954355462
 30
0.0
 10
7.2892447212
 20
13.2908448439
 30
0.0
 10
7.2986225823
 20
13.2880301768
 30
0.0
 10
7.3051283529
 20
13.2873918757
 30
0.0
 10
7.3083699133
 20
13.2873920162
 30
0.0
  0
SPLINE
  5
411
100
AcDbEntity
  8
0
100
AcDbSpline
 62
7
  6
CONTINUOUS
 70
0
 71
3
 72
15
 73
11
 74
0
 42
0.0000001
 43
0.0000001
 44
0.0000000001
 40
0.0
 40
0.0
 40
0.0
 40
0.0
 40
0.1249010427
 40
0.2500180127
 40
0.3749940218
 40
0.5000024365
 40
0.6249552651
 40
0.7498988114
 40
0.8751320872
 40
1.0
 40
1.0
 40
1.0
 40
1.0
 10
4.8333742544
 20
13.2873920162
 30
0.0
 10
4.8366158167
 20
13.2873918757
 30
0.0
 10
4.8431215929
 20
13.2880301816
 30
0.0
 10
4.8524994622
 20
13.2908448482
 30
0.0
 10
4.8611557999
 20
13.2954355584
 30
0.0
 10
4.868753667
 20
13.3016121036
 30
0.0
 10
4.875017099
 20
13.3091398281
 30
0.0
 10
4.8796866734
 20
13.3177529941
 30
0.0
 10
4.8826485664
 20
13.3270823821
 30
0.0
 10
4.8833720839
 20
13.3335892745
 30
0.0
 10
4.8833720839
 20
13.336829977
 30
0.0
  0
SPLINE
  5
412
100
AcDbEntity
  8
0
100
AcDbSpline
 62
7
  6
CONTINUOUS
 70
0
 71
3
 72
15
 73
11
 74
0
 42
0.0000001
 43
0.0000001
 44
0.0000000001
 40
0.0
 40
0.0
 40
0.0
 40
0.0
 40
0.1248708368
 40
0.2500955167
 40
0.3750422102
 40
0.4999979863
 40
0.6250047881
 40
0.749981077
 40
0.875098966
 40
1.0
 40
1.0
 40
1.0
 40
1.0
 10
4.8833720839
 20
11.8632195558
 30
0.0
 10
4.8833720836
 20
11.8664622
 30
0.0
 10
4.8826547499
 20
11.8729728141
 30
0.0
 10
4.8797016118
 20
11.882311246
 30
0.0
 10
4.8750334916
 20
11.8909317652
 30
0.0
 10
4.8687703352
 20
11.8984671436
 30
0.0
 10
4.8611706483
 20
11.90465062
 30
0.0
 10
4.8525105563
 20
11.9092464346
 30
0.0
 10
4.8431277262
 20
11.9120644848
 30
0.0
 10
4.8366181557
 20
11.9127036195
 30
0.0
 10
4.8333747272
 20
11.9127034481
 30
0.0
  0
SPLINE
  5
413
100
AcDbEntity
  8
0
100
AcDbSpline
 62
7
  6
CONTINUOUS
 70
0
 71
3
 72
11
 73
7
 74
0
 42
0.0000001
 43
0.0000001
 44
0.0000000001
 40
0.0
 40
0.0
 40
0.0
 40
0.0
 40
0.2470998106
 40
0.496426151
 40
0.7476645011
 40
1.0
 40
1.0
 40
1.0
 40
1.0
 10
5.6702599234
 20
12.5053262528
 30
0.0
 10
5.6622645835
 20
12.5101052032
 30
0.0
 10
5.6474204781
 20
12.5219186811
 30
0.0
 10
5.6304899755
 20
12.5448318758
 30
0.0
 10
5.6198499764
 20
12.5714657241
 30
0.0
 10
5.6174358548
 20
12.5905357059
 30
0.0
 10
5.6174358548
 20
12.6000477814
 30
0.0
  0
SPLINE
  5
414
100
AcDbEntity
  8
0
100
AcDbSpline
 62
7
  6
CONTINUOUS
 70
0
 71
3
 72
25
 73
21
 74
0
 42
0.0000001
 43
0.0000001
 44
0.0000000001
 40
0.0
 40
0.0
 40
0.0
 40
0.0
 40
0.0785467379
 40
0.1562868731
 40
0.2323378213
 40
0.3058483805
 40
0.4421168888
 40
0.5035762902
 40
0.5598947874
 40
0.6108114863
 40
0.6563337694
 40
0.6972429668
 40
0.7359247119
 40
0.7560884636
 40
0.7795138097
 40
0.8093132571
 40
0.8460488219
 40
0.8857408027
 40
0.9243776958
 40
1.0
 40
1.0
 40
1.0
 40
1.0
 10
4.1145382575
 20
13.2375477814
 30
0.0
 10
4.1147460938
 20
13.2393942624
 30
0.0
 10
4.115083252
 20
13.2430765432
 30
0.0
 10
4.1155191261
 20
13.2485557455
 30
0.0
 10
4.1161470362
 20
13.2538976981
 30
0.0
 10
4.1171521837
 20
13.2605844631
 30
0.0
 10
4.1184716738
 20
13.2668758735
 30
0.0
 10
4.1201950549
 20
13.272636785
 30
0.0
 10
4.1215967083
 20
13.2763775021
 30
0.0
 10
4.1231578745
 20
13.2796429135
 30
0.0
 10
4.1248791332
 20
13.2824087434
 30
0.0
 10
4.1268261382
 20
13.2846616695
 30
0.0
 10
4.1287697626
 20
13.2860520414
 30
0.0
 10
4.1305660585
 20
13.286820511
 30
0.0
 10
4.1322621904
 20
13.2872247117
 30
0.0
 10
4.1343829417
 20
13.2874389314
 30
0.0
 10
4.1368951665
 20
13.2875203079
 30
0.0
 10
4.1396171864
 20
13.2875374159
 30
0.0
 10
4.1432591075
 20
13.2875478449
 30
0.0
 10
4.1459620884
 20
13.2875477814
 30
0.0
 10
4.1477510476
 20
13.2875477814
 30
0.0
  0
SPLINE
  5
415
100
AcDbEntity
  8
0
100
AcDbSpline
 62
7
  6
CONTINUOUS
 70
0
 71
3
 72
11
 73
7
 74
0
 42
0.0000001
 43
0.0000001
 44
0.0000000001
 40
0.0
 40
0.0
 40
0.0
 40
0.0
 40
0.2523354989
 40
0.503573849
 40
0.7529001894
 40
1.0
 40
1.0
 40
1.0
 40
1.0
 10
5.6174358548
 20
12.6000477814
 30
0.0
 10
5.6174358548
 20
12.6095598569
 30
0.0
 10
5.6198499764
 20
12.6286298386
 30
0.0
 10
5.6304899755
 20
12.655263687
 30
0.0
 10
5.6474204781
 20
12.6781768817
 30
0.0
 10
5.6622645835
 20
12.6899903595
 30
0.0
 10
5.6702599234
 20
12.6947693099
 30
0.0
  0
SPLINE
  5
416
100
AcDbEntity
  8
0
100
AcDbSpline
 62
7
  6
CONTINUOUS
 70
0
 71
3
 72
9
 73
5
 74
0
 42
0.0000001
 43
0.0000001
 44
0.0000000001
 40
0.0
 40
0.0
 40
0.0
 40
0.0
 40
0.4949421232
 40
1.0
 40
1.0
 40
1.0
 40
1.0
 10
5.805725106
 20
11.8383921879
 30
0.0
 10
5.8053128754
 20
11.8328783309
 30
0.0
 10
5.8046334149
 20
11.8217254165
 30
0.0
 10
5.8043833394
 20
11.8105527775
 30
0.0
 10
5.8043830889
 20
11.8049105241
 30
0.0
  0
SPLINE
  5
417
100
AcDbEntity
  8
0
100
AcDbSpline
 62
7
  6
CONTINUOUS
 70
0
 71
3
 72
11
 73
7
 74
0
 42
0.0000001
 43
0.0000001
 44
0.0000000001
 40
0.0
 40
0.0
 40
0.0
 40
0.0
 40
0.2505732233
 40
0.4999945903
 40
0.7494188661
 40
1.0
 40
1.0
 40
1.0
 40
1.0
 10
5.7203453122
 20
11.7546811199
 30
0.0
 10
5.7245516649
 20
11.7521668413
 30
0.0
 10
5.7336614766
 20
11.7482473202
 30
0.0
 10
5.7483568745
 20
11.7462441069
 30
0.0
 10
5.7630524198
 20
11.7482473401
 30
0.0
 10
5.7721624628
 20
11.7521668197
 30
0.0
 10
5.7763690101
 20
11.7546810742
 30
0.0
  0
SPLINE
  5
418
100
AcDbEntity
  8
0
100
AcDbSpline
 62
7
  6
CONTINUOUS
 70
0
 71
3
 72
9
 73
5
 74
0
 42
0.0000001
 43
0.0000001
 44
0.0000000001
 40
0.0
 40
0.0
 40
0.0
 40
0.0
 40
0.2532997508
 40
1.0
 40
1.0
 40
1.0
 40
1.0
 10
5.8043830889
 20
11.8049105241
 30
0.0
 10
5.8043829632
 20
11.8020801099
 30
0.0
 10
5.8045090723
 20
11.7909058857
 30
0.0
 10
5.8051013473
 20
11.7797401505
 30
0.0
 10
5.8057226176
 20
11.7714195576
 30
0.0
  0
SPLINE
  5
419
100
AcDbEntity
  8
0
100
AcDbSpline
 62
7
  6
CONTINUOUS
 70
0
 71
3
 72
11
 73
7
 74
0
 42
0.0000001
 43
0.0000001
 44
0.0000000001
 40
0.0
 40
0.0
 40
0.0
 40
0.0
 40
0.2471012018
 40
0.4964288517
 40
0.7476670599
 40
1.0
 40
1.0
 40
1.0
 40
1.0
 10
5.7763690101
 20
11.7546810742
 30
0.0
 10
5.7806089473
 20
11.757215286
 30
0.0
 10
5.7884808322
 20
11.763479795
 30
0.0
 10
5.7974593578
 20
11.7756302958
 30
0.0
 10
5.8031022265
 20
11.7897538138
 30
0.0
 10
5.8043828678
 20
11.7998663998
 30
0.0
 10
5.8043830918
 20
11.8049105469
 30
0.0
  0
SPLINE
  5
41A
100
AcDbEntity
  8
0
100
AcDbSpline
 62
7
  6
CONTINUOUS
 70
0
 71
3
 72
25
 73
21
 74
0
 42
0.0000001
 43
0.0000001
 44
0.0000000001
 40
0.0
 40
0.0
 40
0.0
 40
0.0
 40
0.0756239865
 40
0.1142578307
 40
0.15394768
 40
0.1906999707
 40
0.220475609
 40
0.2439179967
 40
0.2640803088
 40
0.302754193
 40
0.3436666988
 40
0.3891895404
 40
0.4401041147
 40
0.4964208062
 40
0.5578795035
 40
0.6941478524
 40
0.7676593241
 40
0.8437104899
 40
0.9214521938
 40
1.0
 40
1.0
 40
1.0
 40
1.0
 10
4.1477510476
 20
11.9125477814
 30
0.0
 10
4.1459620513
 20
11.9125477814
 30
0.0
 10
4.143259109
 20
11.9125477632
 30
0.0
 10
4.1396172694
 20
11.9125580258
 30
0.0
 10
4.1368950002
 20
11.9125754668
 30
0.0
 10
4.1343829363
 20
11.9126562203
 30
0.0
 10
4.1322620955
 20
11.9128714434
 30
0.0
 10
4.1305659913
 20
11.9132748632
 30
0.0
 10
4.1287695414
 20
11.9140435825
 30
0.0
 10
4.1268265194
 20
11.9154344417
 30
0.0
 10
4.1248791143
 20
11.917686812
 30
0.0
 10
4.1231576518
 20
11.9204526155
 30
0.0
 10
4.1215966956
 20
11.9237180284
 30
0.0
 10
4.1201951809
 20
11.9274586667
 30
0.0
 10
4.118471631
 20
11.9332194636
 30
0.0
 10
4.1171527803
 20
11.9395109725
 30
0.0
 10
4.1161464622
 20
11.9461975876
 30
0.0
 10
4.1155200083
 20
11.9515397609
 30
0.0
 10
4.1150826675
 20
11.9570188974
 30
0.0
 10
4.1147448241
 20
11.96070114
 30
0.0
 10
4.1145382149
 20
11.9625477814
 30
0.0
  0
SPLINE
  5
41B
100
AcDbEntity
  8
0
100
AcDbSpline
 62
7
  6
CONTINUOUS
 70
0
 71
3
 72
11
 73
7
 74
0
 42
0.0000001
 43
0.0000001
 44
0.0000000001
 40
0.0
 40
0.0
 40
0.0
 40
0.0
 40
0.2505771788
 40
0.5
 40
0.7494228212
 40
1.0
 40
1.0
 40
1.0
 40
1.0
 10
5.7759080606
 20
12.5053262528
 30
0.0
 10
5.7679756388
 20
12.5005849096
 30
0.0
 10
5.7507963577
 20
12.4931936103
 30
0.0
 10
5.723083992
 20
12.4894159803
 30
0.0
 10
5.6953716263
 20
12.4931936103
 30
0.0
 10
5.6781923452
 20
12.5005849096
 30
0.0
 10
5.6702599234
 20
12.5053262528
 30
0.0
  0
SPLINE
  5
41C
100
AcDbEntity
  8
0
100
AcDbSpline
 62
7
  6
CONTINUOUS
 70
0
 71
3
 72
11
 73
7
 74
0
 42
0.0000001
 43
0.0000001
 44
0.0000000001
 40
0.0
 40
0.0
 40
0.0
 40
0.0
 40
0.2523354989
 40
0.503573849
 40
0.7529001894
 40
1.0
 40
1.0
 40
1.0
 40
1.0
 10
5.8287321293
 20
12.6000477814
 30
0.0
 10
5.8287321293
 20
12.5905357059
 30
0.0
 10
5.8263180076
 20
12.5714657241
 30
0.0
 10
5.8156780085
 20
12.5448318758
 30
0.0
 10
5.798747506
 20
12.5219186811
 30
0.0
 10
5.7839034005
 20
12.5101052032
 30
0.0
 10
5.7759080606
 20
12.5053262528
 30
0.0
  0
SPLINE
  5
41D
100
AcDbEntity
  8
0
100
AcDbSpline
 62
7
  6
CONTINUOUS
 70
0
 71
3
 72
11
 73
7
 74
0
 42
0.0000001
 43
0.0000001
 44
0.0000000001
 40
0.0
 40
0.0
 40
0.0
 40
0.0
 40
0.2470998106
 40
0.496426151
 40
0.7476645011
 40
1.0
 40
1.0
 40
1.0
 40
1.0
 10
5.7759080606
 20
12.6947693099
 30
0.0
 10
5.7839034005
 20
12.6899903595
 30
0.0
 10
5.798747506
 20
12.6781768817
 30
0.0
 10
5.8156780085
 20
12.655263687
 30
0.0
 10
5.8263180076
 20
12.6286298386
 30
0.0
 10
5.8287321293
 20
12.6095598569
 30
0.0
 10
5.8287321293
 20
12.6000477814
 30
0.0
  0
SPLINE
  5
41E
100
AcDbEntity
  8
0
100
AcDbSpline
 62
7
  6
CONTINUOUS
 70
0
 71
3
 72
11
 73
7
 74
0
 42
0.0000001
 43
0.0000001
 44
0.0000000001
 40
0.0
 40
0.0
 40
0.0
 40
0.0
 40
0.2505771788
 40
0.5
 40
0.7494228212
 40
1.0
 40
1.0
 40
1.0
 40
1.0
 10
5.6702599234
 20
12.6947693099
 30
0.0
 10
5.6781923452
 20
12.6995106531
 30
0.0
 10
5.6953716263
 20
12.7069019525
 30
0.0
 10
5.723083992
 20
12.7106795824
 30
0.0
 10
5.7507963577
 20
12.7069019525
 30
0.0
 10
5.7679756388
 20
12.6995106531
 30
0.0
 10
5.7759080606
 20
12.6947693099
 30
0.0
  0
SPLINE
  5
41F
100
AcDbEntity
  8
0
100
AcDbSpline
 62
7
  6
CONTINUOUS
 70
0
 71
3
 72
25
 73
21
 74
0
 42
0.0000001
 43
0.0000001
 44
0.0000000001
 40
0.0
 40
0.0
 40
0.0
 40
0.0
 40
0.0756239865
 40
0.1142578307
 40
0.15394768
 40
0.1906999707
 40
0.220475609
 40
0.2439179967
 40
0.2640803088
 40
0.302754193
 40
0.3436666988
 40
0.3891895404
 40
0.4401041147
 40
0.4964208062
 40
0.5578795035
 40
0.6941478524
 40
0.7676593241
 40
0.8437104899
 40
0.9214521938
 40
1.0
 40
1.0
 40
1.0
 40
1.0
 10
7.9939931201
 20
13.2875477814
 30
0.0
 10
7.9957821165
 20
13.2875477814
 30
0.0
 10
7.9984850587
 20
13.2875477996
 30
0.0
 10
8.0021268983
 20
13.287537537
 30
0.0
 10
8.0048491675
 20
13.2875200959
 30
0.0
 10
8.0073612314
 20
13.2874393425
 30
0.0
 10
8.0094820722
 20
13.2872241194
 30
0.0
 10
8.0111781764
 20
13.2868206995
 30
0.0
 10
8.0129746263
 20
13.2860519803
 30
0.0
 10
8.0149176483
 20
13.284661121
 30
0.0
 10
8.0168650534
 20
13.2824087508
 30
0.0
 10
8.0185865159
 20
13.2796429472
 30
0.0
 10
8.0201474721
 20
13.2763775343
 30
0.0
 10
8.0215489868
 20
13.272636896
 30
0.0
 10
8.0232725367
 20
13.2668760992
 30
0.0
 10
8.0245913874
 20
13.2605845902
 30
0.0
 10
8.0255977055
 20
13.2538979751
 30
0.0
 10
8.0262241594
 20
13.2485558019
 30
0.0
 10
8.0266615003
 20
13.2430766654
 30
0.0
 10
8.0269993436
 20
13.2393944228
 30
0.0
 10
8.0272059528
 20
13.2375477814
 30
0.0
  0
SPLINE
  5
420
100
AcDbEntity
  8
0
100
AcDbSpline
 62
7
  6
CONTINUOUS
 70
0
 71
3
 72
11
 73
7
 74
0
 42
0.0000001
 43
0.0000001
 44
0.0000000001
 40
0.0
 40
0.0
 40
0.0
 40
0.0
 40
0.2523380583
 40
0.5035765492
 40
0.7529015794
 40
1.0
 40
1.0
 40
1.0
 40
1.0
 10
5.8043830918
 20
11.8049105469
 30
0.0
 10
5.8043833157
 20
11.8099546352
 30
0.0
 10
5.8031036002
 20
11.8200671259
 30
0.0
 10
5.7974619933
 20
11.8341907067
 30
0.0
 10
5.7884845107
 20
11.8463412853
 30
0.0
 10
5.7806131616
 20
11.8526058132
 30
0.0
 10
5.7763734698
 20
11.8551400196
 30
0.0
  0
SPLINE
  5
421
100
AcDbEntity
  8
0
100
AcDbSpline
 62
7
  6
CONTINUOUS
 70
0
 71
3
 72
11
 73
7
 74
0
 42
0.0000001
 43
0.0000001
 44
0.0000000001
 40
0.0
 40
0.0
 40
0.0
 40
0.0
 40
0.2505732233
 40
0.4999945903
 40
0.7494188661
 40
1.0
 40
1.0
 40
1.0
 40
1.0
 10
5.7763734698
 20
11.8551400196
 30
0.0
 10
5.7721671171
 20
11.8576542982
 30
0.0
 10
5.7630573054
 20
11.8615738193
 30
0.0
 10
5.7483619075
 20
11.8635770326
 30
0.0
 10
5.7336663622
 20
11.8615737995
 30
0.0
 10
5.7245563192
 20
11.8576543198
 30
0.0
 10
5.7203497719
 20
11.8551400653
 30
0.0
  0
SPLINE
  5
422
100
AcDbEntity
  8
0
100
AcDbSpline
 62
7
  6
CONTINUOUS
 70
0
 71
3
 72
11
 73
7
 74
0
 42
0.0000001
 43
0.0000001
 44
0.0000000001
 40
0.0
 40
0.0
 40
0.0
 40
0.0
 40
0.2471012017
 40
0.4964288523
 40
0.7476670612
 40
1.0
 40
1.0
 40
1.0
 40
1.0
 10
5.7203497719
 20
11.8551400653
 30
0.0
 10
5.7161098331
 20
11.8526058526
 30
0.0
 10
5.7082379454
 20
11.8463413408
 30
0.0
 10
5.6992594189
 20
11.834190834
 30
0.0
 10
5.6936165485
 20
11.8200673095
 30
0.0
 10
5.6923359171
 20
11.8099547187
 30
0.0
 10
5.6923356931
 20
11.8049105698
 30
0.0
  0
SPLINE
  5
423
100
AcDbEntity
  8
0
100
AcDbSpline
 62
7
  6
CONTINUOUS
 70
0
 71
3
 72
9
 73
5
 74
0
 42
0.0000001
 43
0.0000001
 44
0.0000000001
 40
0.0
 40
0.0
 40
0.0
 40
0.0
 40
0.2472219083
 40
1.0
 40
1.0
 40
1.0
 40
1.0
 10
5.7763734698
 20
11.8551400196
 30
0.0
 10
5.7787638035
 20
11.8537112368
 30
0.0
 10
5.7884674525
 20
11.8479901791
 30
0.0
 10
5.7982915699
 20
11.8424754443
 30
0.0
 10
5.805725349
 20
11.8383959659
 30
0.0
  0
LINE
  5
424
100
AcDbEntity
  8
0
100
AcDbLine
 62
7
  6
CONTINUOUS
 10
4.8523831511
 20
13.2373131718
 11
4.8510214079
 21
13.2375477814
  0
SPLINE
  5
425
100
AcDbEntity
  8
0
100
AcDbSpline
 62
7
  6
CONTINUOUS
 70
0
 71
3
 72
15
 73
11
 74
0
 42
0.0000001
 43
0.0000001
 44
0.0000000001
 40
0.0
 40
0.0
 40
0.0
 40
0.0
 40
0.1681052526
 40
0.3311291203
 40
0.48316909
 40
0.6206715287
 40
0.7411698568
 40
0.8438312639
 40
0.9291559234
 40
1.0
 40
1.0
 40
1.0
 40
1.0
 10
4.8612467868
 20
13.2125477814
 30
0.0
 10
4.8612467868
 20
13.2140849744
 30
0.0
 10
4.8611273292
 20
13.2171141061
 30
0.0
 10
4.8606122805
 20
13.2215068977
 30
0.0
 10
4.8597778987
 20
13.225565961
 30
0.0
 10
4.8586782978
 20
13.2291575261
 30
0.0
 10
4.8573588509
 20
13.2321891908
 30
0.0
 10
4.8558684334
 20
13.2346000018
 30
0.0
 10
4.8542468586
 20
13.2363483221
 30
0.0
 10
4.8529956537
 20
13.2371022117
 30
0.0
 10
4.8523831511
 20
13.2373131718
 30
0.0
  0
SPLINE
  5
426
100
AcDbEntity
  8
0
100
AcDbSpline
 62
7
  6
CONTINUOUS
 70
0
 71
3
 72
25
 73
21
 74
0
 42
0.0000001
 43
0.0000001
 44
0.0000000001
 40
0.0
 40
0.0
 40
0.0
 40
0.0
 40
0.0785467379
 40
0.1562868731
 40
0.2323378213
 40
0.3058483805
 40
0.4421168888
 40
0.5035762902
 40
0.5598947874
 40
0.6108114863
 40
0.6563337694
 40
0.6972429668
 40
0.7359247119
 40
0.7560884636
 40
0.7795138097
 40
0.8093132571
 40
0.8460488219
 40
0.8857408027
 40
0.9243776958
 40
1.0
 40
1.0
 40
1.0
 40
1.0
 10
8.0272059102
 20
11.9625477814
 30
0.0
 10
8.0269980739
 20
11.9607013003
 30
0.0
 10
8.0266609157
 20
11.9570190196
 30
0.0
 10
8.0262250416
 20
11.9515398173
 30
0.0
 10
8.0255971315
 20
11.9461978646
 30
0.0
 10
8.024591984
 20
11.9395110997
 30
0.0
 10
8.023272494
 20
11.9332196892
 30
0.0
 10
8.0215491128
 20
11.9274587778
 30
0.0
 10
8.0201474594
 20
11.9237180607
 30
0.0
 10
8.0185862932
 20
11.9204526492
 30
0.0
 10
8.0168650346
 20
11.9176868194
 30
0.0
 10
8.0149180295
 20
11.9154338932
 30
0.0
 10
8.0129744051
 20
11.9140435214
 30
0.0
 10
8.0111781093
 20
11.9132750517
 30
0.0
 10
8.0094819773
 20
11.912870851
 30
0.0
 10
8.007361226
 20
11.9126566314
 30
0.0
 10
8.0048490012
 20
11.9125752548
 30
0.0
 10
8.0021269813
 20
11.9125581468
 30
0.0
 10
7.9984850603
 20
11.9125477178
 30
0.0
 10
7.9957820793
 20
11.9125477814
 30
0.0
 10
7.9939931201
 20
11.9125477814
 30
0.0
  0
LINE
  5
427
100
AcDbEntity
  8
0
100
AcDbLine
 62
7
  6
CONTINUOUS
 10
7.2893610167
 20
11.9627823909
 11
7.2907227598
 21
11.9625477814
  0
SPLINE
  5
428
100
AcDbEntity
  8
0
100
AcDbSpline
 62
7
  6
CONTINUOUS
 70
0
 71
3
 72
15
 73
11
 74
0
 42
0.0000001
 43
0.0000001
 44
0.0000000001
 40
0.0
 40
0.0
 40
0.0
 40
0.0
 40
0.1681052589
 40
0.3311291329
 40
0.4831691101
 40
0.6206715484
 40
0.7411698646
 40
0.8438313155
 40
0.9291561017
 40
1.0
 40
1.0
 40
1.0
 40
1.0
 10
7.280497381
 20
11.9875477814
 30
0.0
 10
7.280497381
 20
11.9860105883
 30
0.0
 10
7.2806168384
 20
11.9829814566
 30
0.0
 10
7.2811318872
 20
11.978588665
 30
0.0
 10
7.2819662695
 20
11.9745296019
 30
0.0
 10
7.28306587
 20
11.9709380368
 30
0.0
 10
7.284385315
 20
11.9679063712
 30
0.0
 10
7.2858757346
 20
11.9654955593
 30
0.0
 10
7.2874973141
 20
11.9637472438
 30
0.0
 10
7.2887485163
 20
11.9629933526
 30
0.0
 10
7.2893610167
 20
11.9627823909
 30
0.0
  0
SPLINE
  5
429
100
AcDbEntity
  8
0
100
AcDbSpline
 62
7
  6
CONTINUOUS
 70
0
 71
3
 72
9
 73
5
 74
0
 42
0.0000001
 43
0.0000001
 44
0.0000000001
 40
0.0
 40
0.0
 40
0.0
 40
0.0
 40
0.2513698956
 40
1.0
 40
1.0
 40
1.0
 40
1.0
 10
5.8057223758
 20
11.7714233356
 30
0.0
 10
5.8032399095
 20
11.7700613533
 30
0.0
 10
5.7933809943
 20
11.7646127456
 30
0.0
 10
5.7836074992
 20
11.7590075214
 30
0.0
 10
5.7763690101
 20
11.7546810742
 30
0.0
  0
SPLINE
  5
42A
100
AcDbEntity
  8
0
100
AcDbSpline
 62
7
  6
CONTINUOUS
 70
0
 71
3
 72
11
 73
7
 74
0
 42
0.0000001
 43
0.0000001
 44
0.0000000001
 40
0.0
 40
0.0
 40
0.0
 40
0.0
 40
0.2523380575
 40
0.503576548
 40
0.7529015785
 40
1.0
 40
1.0
 40
1.0
 40
1.0
 10
5.6923356931
 20
11.8049105698
 30
0.0
 10
5.6923354731
 20
11.7998664834
 30
0.0
 10
5.6936151844
 20
11.7897539966
 30
0.0
 10
5.6992567954
 20
11.7756304229
 30
0.0
 10
5.7082342755
 20
11.7634798504
 30
0.0
 10
5.716105622
 20
11.7572153254
 30
0.0
 10
5.7203453122
 20
11.7546811199
 30
0.0
  0
LINE
  5
42B
100
AcDbEntity
  8
0
100
AcDbLine
 62
7
  6
CONTINUOUS
 10
4.8510214079
 20
11.9625477814
 11
4.8523831511
 21
11.9627823909
  0
SPLINE
  5
42C
100
AcDbEntity
  8
0
100
AcDbSpline
 62
7
  6
CONTINUOUS
 70
0
 71
3
 72
9
 73
5
 74
0
 42
0.0000001
 43
0.0000001
 44
0.0000000001
 40
0.0
 40
0.0
 40
0.0
 40
0.0
 40
0.4501586223
 40
1.0
 40
1.0
 40
1.0
 40
1.0
 10
4.8523831511
 20
11.9627823909
 30
0.0
 10
4.8530422452
 20
11.9630094004
 30
0.0
 10
4.8543897787
 20
11.963849181
 30
0.0
 10
4.8554203158
 20
11.9650235441
 30
0.0
 10
4.8559239809
 20
11.9657100567
 30
0.0
  0
SPLINE
  5
42D
100
AcDbEntity
  8
0
100
AcDbSpline
 62
7
  6
CONTINUOUS
 70
0
 71
3
 72
11
 73
7
 74
0
 42
0.0000001
 43
0.0000001
 44
0.0000000001
 40
0.0
 40
0.0
 40
0.0
 40
0.0
 40
0.1927276473
 40
0.4304300893
 40
0.7050052899
 40
1.0
 40
1.0
 40
1.0
 40
1.0
 10
4.8559239809
 20
11.9657100567
 30
0.0
 10
4.8567893799
 20
11.9668896248
 30
0.0
 10
4.8583217106
 20
11.9698134305
 30
0.0
 10
4.8599481963
 20
11.9749277172
 30
0.0
 10
4.8610044047
 20
11.980981021
 30
0.0
 10
4.8612467868
 20
11.9853085077
 30
0.0
 10
4.8612467868
 20
11.9875477814
 30
0.0
  0
SPLINE
  5
42E
100
AcDbEntity
  8
0
100
AcDbSpline
 62
7
  6
CONTINUOUS
 70
0
 71
3
 72
9
 73
5
 74
0
 42
0.0000001
 43
0.0000001
 44
0.0000000001
 40
0.0
 40
0.0
 40
0.0
 40
0.0
 40
0.4501595361
 40
1.0
 40
1.0
 40
1.0
 40
1.0
 10
7.2893610167
 20
13.2373131718
 30
0.0
 10
7.2887019202
 20
13.2370861641
 30
0.0
 10
7.2873543841
 20
13.236246385
 30
0.0
 10
7.2863238502
 20
13.2350720184
 30
0.0
 10
7.2858201868
 20
13.2343855061
 30
0.0
  0
SPLINE
  5
42F
100
AcDbEntity
  8
0
100
AcDbSpline
 62
7
  6
CONTINUOUS
 70
0
 71
3
 72
11
 73
7
 74
0
 42
0.0000001
 43
0.0000001
 44
0.0000000001
 40
0.0
 40
0.0
 40
0.0
 40
0.0
 40
0.1927276316
 40
0.430430089
 40
0.7050052885
 40
1.0
 40
1.0
 40
1.0
 40
1.0
 10
7.2858201868
 20
13.2343855061
 30
0.0
 10
7.2849547896
 20
13.2332059368
 30
0.0
 10
7.2834224577
 20
13.2302821323
 30
0.0
 10
7.2817959706
 20
13.2251678457
 30
0.0
 10
7.2807397634
 20
13.2191145417
 30
0.0
 10
7.280497381
 20
13.214787055
 30
0.0
 10
7.280497381
 20
13.2125477814
 30
0.0
  0
LINE
  5
430
100
AcDbEntity
  8
0
100
AcDbLine
 62
7
  6
CONTINUOUS
 10
7.2907227598
 20
13.2375477814
 11
7.2893610167
 21
13.2373131718
  0
SPLINE
  5
431
100
AcDbEntity
  8
0
100
AcDbSpline
 62
7
  6
CONTINUOUS
 70
0
 71
3
 72
9
 73
5
 74
0
 42
0.0000001
 43
0.0000001
 44
0.0000000001
 40
0.0
 40
0.0
 40
0.0
 40
0.0
 40
0.2498085136
 40
1.0
 40
1.0
 40
1.0
 40
1.0
 10
5.819930331
 20
11.8048013652
 30
0.0
 10
5.8199351353
 20
11.806224445
 30
0.0
 10
5.8197398295
 20
11.811920155
 30
0.0
 10
5.8187038578
 20
11.8175844424
 30
0.0
 10
5.817488994
 20
11.8216817579
 30
0.0
  0
SPLINE
  5
432
100
AcDbEntity
  8
0
100
AcDbSpline
 62
7
  6
CONTINUOUS
 70
0
 71
3
 72
22
 73
18
 74
0
 42
0.0000001
 43
0.0000001
 44
0.0000000001
 40
0.0
 40
0.0
 40
0.0
 40
0.0
 40
0.0633777778
 40
0.1269877896
 40
0.1907842104
 40
0.2546339165
 40
0.3184799289
 40
0.3822698503
 40
0.4458889447
 40
0.5091633246
 40
0.5717704761
 40
0.6333186322
 40
0.6934320581
 40
0.7525603146
 40
0.8727775569
 40
0.9358336018
 40
1.0
 40
1.0
 40
1.0
 40
1.0
 10
15.6206459698
 20
6.7910131173
 30
0.0
 10
15.6222889186
 20
6.7931656752
 30
0.0
 10
15.6252246884
 20
6.7977656265
 30
0.0
 10
15.6283748181
 20
6.8053262413
 30
0.0
 10
15.6301800537
 20
6.8133394386
 30
0.0
 10
15.6305515717
 20
6.8215548685
 30
0.0
 10
15.6294897252
 20
6.8297098467
 30
0.0
 10
15.627016879
 20
6.8375418179
 30
0.0
 10
15.6232506709
 20
6.8448122658
 30
0.0
 10
15.6183220644
 20
6.8512845302
 30
0.0
 10
15.6124710544
 20
6.8568040365
 30
0.0
 10
15.6059349615
 20
6.8612463955
 30
0.0
 10
15.5989848311
 20
6.8646690868
 30
0.0
 10
15.5892974703
 20
6.8680210926
 30
0.0
 10
15.5790672636
 20
6.8699543401
 30
0.0
 10
15.5685347986
 20
6.8708884828
 30
0.0
 10
15.5630968637
 20
6.8710477431
 30
0.0
 10
15.5603552569
 20
6.8710477431
 30
0.0
  0
SPLINE
  5
433
100
AcDbEntity
  8
0
100
AcDbSpline
 62
7
  6
CONTINUOUS
 70
0
 71
3
 72
22
 73
18
 74
0
 42
0.0000001
 43
0.0000001
 44
0.0000000001
 40
0.0
 40
0.0
 40
0.0
 40
0.0
 40
0.0641645683
 40
0.1272239425
 40
0.2474298353
 40
0.3065371398
 40
0.366651127
 40
0.4281586079
 40
0.4907483744
 40
0.5539691711
 40
0.6175300155
 40
0.6812708729
 40
0.7451167815
 40
0.8090047665
 40
0.8728524882
 40
0.936507225
 40
1.0
 40
1.0
 40
1.0
 40
1.0
 10
15.5603552569
 20
6.8710477431
 30
0.0
 10
15.5576137997
 20
6.8710477431
 30
0.0
 10
15.55217592
 20
6.8708887195
 30
0.0
 10
15.5416442549
 20
6.8699540688
 30
0.0
 10
15.5314150738
 20
6.8680225144
 30
0.0
 10
15.5217300762
 20
6.8646691426
 30
0.0
 10
15.514780674
 20
6.86125131
 30
0.0
 10
15.5082471918
 20
6.8568098393
 30
0.0
 10
15.5023977623
 20
6.8512959298
 30
0.0
 10
15.4974720855
 20
6.8448290172
 30
0.0
 10
15.4937018115
 20
6.8375684962
 30
0.0
 10
15.4912307584
 20
6.8297413045
 30
0.0
 10
15.4901569818
 20
6.8215883952
 30
0.0
 10
15.4905312746
 20
6.8133694913
 30
0.0
 10
15.4923252481
 20
6.8053482183
 30
0.0
 10
15.495480604
 20
6.797779693
 30
0.0
 10
15.4984174352
 20
6.7931727193
 30
0.0
 10
15.5000627992
 20
6.7910159127
 30
0.0
  0
SPLINE
  5
434
100
AcDbEntity
  8
0
100
AcDbSpline
 62
7
  6
CONTINUOUS
 70
0
 71
3
 72
10
 73
6
 74
0
 42
0.0000001
 43
0.0000001
 44
0.0000000001
 40
0.0
 40
0.0
 40
0.0
 40
0.0
 40
0.5169837633
 40
0.7662022707
 40
1.0
 40
1.0
 40
1.0
 40
1.0
 10
15.6193838326
 20
6.7824441202
 30
0.0
 10
15.6193838326
 20
6.7768751684
 30
0.0
 10
15.6206683094
 20
6.7685409992
 30
0.0
 10
15.6247604705
 20
6.7585484599
 30
0.0
 10
15.627427848
 20
6.75405182
 30
0.0
 10
15.628884743
 20
6.7519975196
 30
0.0
  0
SPLINE
  5
435
100
AcDbEntity
  8
0
100
AcDbSpline
 62
7
  6
CONTINUOUS
 70
0
 71
3
 72
10
 73
6
 74
0
 42
0.0000001
 43
0.0000001
 44
0.0000000001
 40
0.0
 40
0.0
 40
0.0
 40
0.0
 40
0.2365151966
 40
0.4857129123
 40
1.0
 40
1.0
 40
1.0
 40
1.0
 10
15.4928935366
 20
6.7535700223
 30
0.0
 10
15.4942013366
 20
6.7555812627
 30
0.0
 10
15.496585253
 20
6.7599166051
 30
0.0
 10
15.5001988381
 20
6.7694178651
 30
0.0
 10
15.5013266813
 20
6.7772275459
 30
0.0
 10
15.5013266813
 20
6.7824441202
 30
0.0
  0
SPLINE
  5
436
100
AcDbEntity
  8
0
100
AcDbSpline
 62
7
  6
CONTINUOUS
 70
0
 71
3
 72
9
 73
5
 74
0
 42
0.0000001
 43
0.0000001
 44
0.0000000001
 40
0.0
 40
0.0
 40
0.0
 40
0.0
 40
0.4720761591
 40
1.0
 40
1.0
 40
1.0
 40
1.0
 10
14.7149885498
 20
6.6364109958
 30
0.0
 10
14.7119753081
 20
6.6350606847
 30
0.0
 10
14.7060186251
 20
6.6312553489
 30
0.0
 10
14.7008481609
 20
6.6265226075
 30
0.0
 10
14.6982445417
 20
6.6239041317
 30
0.0
  0
SPLINE
  5
437
100
AcDbEntity
  8
0
100
AcDbSpline
 62
7
  6
CONTINUOUS
 70
0
 71
3
 72
9
 73
5
 74
0
 42
0.0000001
 43
0.0000001
 44
0.0000000001
 40
0.0
 40
0.0
 40
0.0
 40
0.0
 40
0.5281028469
 40
1.0
 40
1.0
 40
1.0
 40
1.0
 10
14.8321898023
 20
6.6238823471
 30
0.0
 10
14.8295855935
 20
6.6265027657
 30
0.0
 10
14.8244235533
 20
6.6312475301
 30
0.0
 10
14.8184596714
 20
6.6350438477
 30
0.0
 10
14.8154474952
 20
6.6363946574
 30
0.0
  0
SPLINE
  5
438
100
AcDbEntity
  8
0
100
AcDbSpline
 62
7
  6
CONTINUOUS
 70
0
 71
3
 72
12
 73
8
 74
0
 42
0.0000001
 43
0.0000001
 44
0.0000000001
 40
0.0
 40
0.0
 40
0.0
 40
0.0
 40
0.2468355734
 40
0.3709106599
 40
0.4955031979
 40
0.7464993432
 40
1.0
 40
1.0
 40
1.0
 40
1.0
 10
15.6781305853
 20
6.1565133367
 30
0.0
 10
15.6678771814
 20
6.1565133367
 30
0.0
 10
15.6524333321
 20
6.1551419295
 30
0.0
 10
15.6322911383
 20
6.1508438577
 30
0.0
 10
15.6123568423
 20
6.1449971328
 30
0.0
 10
15.5880742385
 20
6.1351657903
 30
0.0
 10
15.5695247361
 20
6.1253541271
 30
0.0
 10
15.5604052569
 20
6.1200889934
 30
0.0
  0
SPLINE
  5
439
100
AcDbEntity
  8
0
100
AcDbSpline
 62
7
  6
CONTINUOUS
 70
0
 71
3
 72
11
 73
7
 74
0
 42
0.0000001
 43
0.0000001
 44
0.0000000001
 40
0.0
 40
0.0
 40
0.0
 40
0.0
 40
0.253561734
 40
0.5045749809
 40
0.7531235869
 40
1.0
 40
1.0
 40
1.0
 40
1.0
 10
15.7958559136
 20
6.1200889934
 30
0.0
 10
15.7867361447
 20
6.1253542944
 30
0.0
 10
15.7681941227
 20
6.1351811922
 30
0.0
 10
15.7391270684
 20
6.1469279593
 30
0.0
 10
15.7089951275
 20
6.1546473987
 30
0.0
 10
15.6883835411
 20
6.1565133367
 30
0.0
 10
15.6781305853
 20
6.1565133367
 30
0.0
  0
SPLINE
  5
43A
100
AcDbEntity
  8
0
100
AcDbSpline
 62
7
  6
CONTINUOUS
 70
0
 71
3
 72
12
 73
8
 74
0
 42
0.0000001
 43
0.0000001
 44
0.0000000001
 40
0.0
 40
0.0
 40
0.0
 40
0.0
 40
0.2468355734
 40
0.3709106599
 40
0.4955031979
 40
0.7464993432
 40
1.0
 40
1.0
 40
1.0
 40
1.0
 10
15.4426799286
 20
6.1565133367
 30
0.0
 10
15.4324265247
 20
6.1565133367
 30
0.0
 10
15.4169826754
 20
6.1551419295
 30
0.0
 10
15.3968404816
 20
6.1508438577
 30
0.0
 10
15.3769061857
 20
6.1449971328
 30
0.0
 10
15.3526235819
 20
6.1351657903
 30
0.0
 10
15.3340740795
 20
6.1253541271
 30
0.0
 10
15.3249546003
 20
6.1200889934
 30
0.0
  0
SPLINE
  5
43B
100
AcDbEntity
  8
0
100
AcDbSpline
 62
7
  6
CONTINUOUS
 70
0
 71
3
 72
12
 73
8
 74
0
 42
0.0000001
 43
0.0000001
 44
0.0000000001
 40
0.0
 40
0.0
 40
0.0
 40
0.0
 40
0.2849535271
 40
0.5555672105
 40
0.7976093722
 40
0.9043683724
 40
1.0
 40
1.0
 40
1.0
 40
1.0
 10
15.5603552569
 20
6.8075321165
 30
0.0
 10
15.5650105337
 20
6.8075321165
 30
0.0
 10
15.5740897046
 20
6.8072603031
 30
0.0
 10
15.5870724
 20
6.8060557489
 30
0.0
 10
15.5970683668
 20
6.8043897948
 30
0.0
 10
15.6041218349
 20
6.8026552405
 30
0.0
 10
15.6072825853
 20
6.801673713
 30
0.0
 10
15.6087543429
 20
6.8011494923
 30
0.0
  0
SPLINE
  5
43C
100
AcDbEntity
  8
0
100
AcDbSpline
 62
7
  6
CONTINUOUS
 70
0
 71
3
 72
14
 73
10
 74
0
 42
0.0000001
 43
0.0000001
 44
0.0000000001
 40
0.0
 40
0.0
 40
0.0
 40
0.0
 40
0.3525801633
 40
0.499932658
 40
0.6282039494
 40
0.7386504601
 40
0.8340255619
 40
0.9189079468
 40
1.0
 40
1.0
 40
1.0
 40
1.0
 10
15.6087543429
 20
6.8011494923
 30
0.0
 10
15.6105281861
 20
6.8005176727
 30
0.0
 10
15.6130099679
 20
6.7995007964
 30
0.0
 10
15.6159253504
 20
6.7978312403
 30
0.0
 10
15.617595289
 20
6.7966123645
 30
0.0
 10
15.6188718088
 20
6.7953536097
 30
0.0
 10
15.6197468567
 20
6.7940543554
 30
0.0
 10
15.6201995788
 20
6.7927124941
 30
0.0
 10
15.6201953729
 20
6.7918069408
 30
0.0
 10
15.6201236714
 20
6.7913798333
 30
0.0
  0
SPLINE
  5
43D
100
AcDbEntity
  8
0
100
AcDbSpline
 62
7
  6
CONTINUOUS
 70
0
 71
3
 72
11
 73
7
 74
0
 42
0.0000001
 43
0.0000001
 44
0.0000000001
 40
0.0
 40
0.0
 40
0.0
 40
0.0
 40
0.253561734
 40
0.5045749809
 40
0.7531235869
 40
1.0
 40
1.0
 40
1.0
 40
1.0
 10
15.5604052569
 20
6.1200889934
 30
0.0
 10
15.5512854881
 20
6.1253542944
 30
0.0
 10
15.532743466
 20
6.1351811922
 30
0.0
 10
15.5036764117
 20
6.1469279593
 30
0.0
 10
15.4735444709
 20
6.1546473987
 30
0.0
 10
15.4529328844
 20
6.1565133367
 30
0.0
 10
15.4426799286
 20
6.1565133367
 30
0.0
  0
SPLINE
  5
43E
100
AcDbEntity
  8
0
100
AcDbSpline
 62
7
  6
CONTINUOUS
 70
0
 71
3
 72
39
 73
35
 74
0
 42
0.0000001
 43
0.0000001
 44
0.0000000001
 40
0.0
 40
0.0
 40
0.0
 40
0.0
 40
0.0320238202
 40
0.0634035757
 40
0.0941176753
 40
0.1241833689
 40
0.182542203
 40
0.2111577567
 40
0.2396835022
 40
0.2684607969
 40
0.2830702577
 40
0.2978934137
 40
0.3283367367
 40
0.3601150373
 40
0.3933593077
 40
0.4279902416
 40
0.4637008137
 40
0.4999991907
 40
0.5362975553
 40
0.5720081635
 40
0.6066392164
 40
0.6398835073
 40
0.6716618267
 40
0.7021053133
 40
0.7169284364
 40
0.7315379368
 40
0.7603154928
 40
0.7888413848
 40
0.8174571911
 40
0.8758162466
 40
0.9058820407
 40
0.9365962822
 40
0.9679761642
 40
1.0
 40
1.0
 40
1.0
 40
1.0
 10
15.1885277108
 20
6.0265497074
 30
0.0
 10
15.1885289335
 20
6.0407006688
 30
0.0
 10
15.1889553832
 20
6.06872129
 30
0.0
 10
15.1911852038
 20
6.110262105
 30
0.0
 10
15.1953482889
 20
6.1507981999
 30
0.0
 10
15.2038225133
 20
6.2027690029
 30
0.0
 10
15.2176412707
 20
6.252932516
 30
0.0
 10
15.2385886184
 20
6.2995777583
 30
0.0
 10
15.2581115447
 20
6.3322509862
 30
0.0
 10
15.2778522722
 20
6.3572829768
 30
0.0
 10
15.2957571426
 20
6.3757752266
 30
0.0
 10
15.315442635
 20
6.3934815729
 30
0.0
 10
15.3430740297
 20
6.4135672511
 30
0.0
 10
15.3803057752
 20
6.4336459904
 30
0.0
 10
15.4214606106
 20
6.4496074783
 30
0.0
 10
15.4658422678
 20
6.4611814374
 30
0.0
 10
15.5125244427
 20
6.4681926427
 30
0.0
 10
15.5604041879
 20
6.4705412246
 30
0.0
 10
15.6082839584
 20
6.4681928299
 30
0.0
 10
15.6549662241
 20
6.4611818286
 30
0.0
 10
15.6993480347
 20
6.4496081482
 30
0.0
 10
15.7405029996
 20
6.4336467764
 30
0.0
 10
15.7777348776
 20
6.4135681307
 30
0.0
 10
15.8053665944
 20
6.3934827731
 30
0.0
 10
15.8250521558
 20
6.375776382
 30
0.0
 10
15.8429571226
 20
6.3572840707
 30
0.0
 10
15.8626983184
 20
6.3322521916
 30
0.0
 10
15.8822213414
 20
6.2995786687
 30
0.0
 10
15.9031690557
 20
6.252933298
 30
0.0
 10
15.9169878478
 20
6.2027695134
 30
0.0
 10
15.9254622266
 20
6.1507985329
 30
0.0
 10
15.9296253687
 20
6.1102622772
 30
0.0
 10
15.9318551496
 20
6.0687213335
 30
0.0
 10
15.9322815459
 20
6.0407006491
 30
0.0
 10
15.9322827662
 20
6.0265496808
 30
0.0
  0
SPLINE
  5
43F
100
AcDbEntity
  8
0
100
AcDbSpline
 62
7
  6
CONTINUOUS
 70
0
 71
3
 72
23
 73
19
 74
0
 42
0.0000001
 43
0.0000001
 44
0.0000000001
 40
0.0
 40
0.0
 40
0.0
 40
0.0
 40
0.1312960915
 40
0.1965482639
 40
0.2613052602
 40
0.3254265957
 40
0.3887667478
 40
0.4511998703
 40
0.5126284391
 40
0.573032928
 40
0.6324984685
 40
0.691305133
 40
0.7500200243
 40
0.809522603
 40
0.8708245228
 40
0.9344766621
 40
0.9671353101
 40
1.0
 40
1.0
 40
1.0
 40
1.0
 10
14.9283407862
 20
5.4252633367
 30
0.0
 10
14.9283407862
 20
5.3952838542
 30
0.0
 10
14.9287880796
 20
5.350401956
 30
0.0
 10
14.9305602619
 20
5.2907612947
 30
0.0
 10
14.9326473142
 20
5.2464807837
 30
0.0
 10
14.9357064782
 20
5.2026923564
 30
0.0
 10
14.9400472426
 20
5.1595419187
 30
0.0
 10
14.9460328144
 20
5.1172030474
 30
0.0
 10
14.9541518388
 20
5.0758931251
 30
0.0
 10
14.9649635909
 20
5.0358880564
 30
0.0
 10
14.9791902671
 20
4.9975732523
 30
0.0
 10
14.9976698781
 20
4.9615013381
 30
0.0
 10
15.0213331314
 20
4.9285070629
 30
0.0
 10
15.0510189836
 20
4.8998601997
 30
0.0
 10
15.0869800243
 20
4.877322175
 30
0.0
 10
15.1212521943
 20
4.8652873809
 30
0.0
 10
15.1503747768
 20
4.8603201119
 30
0.0
 10
15.1653511006
 20
4.8594645293
 30
0.0
 10
15.1728552569
 20
4.8594645293
 30
0.0
  0
SPLINE
  5
440
100
AcDbEntity
  8
0
100
AcDbSpline
 62
7
  6
CONTINUOUS
 70
0
 71
3
 72
13
 73
9
 74
0
 42
0.0000001
 43
0.0000001
 44
0.0000000001
 40
0.0
 40
0.0
 40
0.0
 40
0.0
 40
0.2464624657
 40
0.3709031511
 40
0.4959624988
 40
0.6215264779
 40
0.7474823385
 40
1.0
 40
1.0
 40
1.0
 40
1.0
 10
14.9230631983
 20
5.7542064335
 30
0.0
 10
14.9233487497
 20
5.7271799405
 30
0.0
 10
14.924152848
 20
5.6865119964
 30
0.0
 10
14.9254173135
 20
5.6321378133
 30
0.0
 10
14.9263508065
 20
5.5910174303
 30
0.0
 10
14.9271871218
 20
5.5497287024
 30
0.0
 10
14.9280487201
 20
5.4944606558
 30
0.0
 10
14.9283407862
 20
5.4529553737
 30
0.0
 10
14.9283407862
 20
5.4252633367
 30
0.0
  0
SPLINE
  5
441
100
AcDbEntity
  8
0
100
AcDbSpline
 62
7
  6
CONTINUOUS
 70
0
 71
3
 72
13
 73
9
 74
0
 42
0.0000001
 43
0.0000001
 44
0.0000000001
 40
0.0
 40
0.0
 40
0.0
 40
0.0
 40
0.2525176109
 40
0.378473624
 40
0.5040378957
 40
0.6290974045
 40
0.7535379199
 40
1.0
 40
1.0
 40
1.0
 40
1.0
 10
16.1923697277
 20
5.4252633367
 30
0.0
 10
16.1923697277
 20
5.4529553682
 30
0.0
 10
16.1926617728
 20
5.4944606616
 30
0.0
 10
16.1935233972
 20
5.5497287511
 30
0.0
 10
16.1943597755
 20
5.5910175441
 30
0.0
 10
16.1952932647
 20
5.6321379583
 30
0.0
 10
16.1965575449
 20
5.6865121022
 30
0.0
 10
16.1973617646
 20
5.7271799828
 30
0.0
 10
16.1976473156
 20
5.7542064335
 30
0.0
  0
SPLINE
  5
442
100
AcDbEntity
  8
0
100
AcDbSpline
 62
7
  6
CONTINUOUS
 70
0
 71
3
 72
22
 73
18
 74
0
 42
0.0000001
 43
0.0000001
 44
0.0000000001
 40
0.0
 40
0.0
 40
0.0
 40
0.0
 40
0.0654231548
 40
0.1290821402
 40
0.1903905367
 40
0.24990049
 40
0.3086222108
 40
0.3674352232
 40
0.4269069234
 40
0.4873177013
 40
0.5487528098
 40
0.6111926903
 40
0.6745395556
 40
0.7386675706
 40
0.8034311847
 40
0.868690078
 40
1.0
 40
1.0
 40
1.0
 40
1.0
 10
15.9478552569
 20
4.8594645293
 30
0.0
 10
15.9627920924
 20
4.8594645293
 30
0.0
 10
15.9923746568
 20
4.8627958079
 30
0.0
 10
16.0337183102
 20
4.8773188005
 30
0.0
 10
16.0696930024
 20
4.899859916
 30
0.0
 10
16.0993760602
 20
4.9285060305
 30
0.0
 10
16.1230405369
 20
4.9615008876
 30
0.0
 10
16.1415200593
 20
4.9975729001
 30
0.0
 10
16.1557468278
 20
5.0358877582
 30
0.0
 10
16.1665585925
 20
5.0758928378
 30
0.0
 10
16.1746777296
 20
5.1172028355
 30
0.0
 10
16.1806632138
 20
5.1595418377
 30
0.0
 10
16.1850041145
 20
5.2026923481
 30
0.0
 10
16.1880631257
 20
5.2464807864
 30
0.0
 10
16.1901502046
 20
5.2907612495
 30
0.0
 10
16.191922485
 20
5.3504018994
 30
0.0
 10
16.1923697277
 20
5.3952838179
 30
0.0
 10
16.1923697277
 20
5.4252633367
 30
0.0
  0
SPLINE
  5
443
100
AcDbEntity
  8
0
100
AcDbSpline
 62
7
  6
CONTINUOUS
 70
0
 71
3
 72
14
 73
10
 74
0
 42
0.0000001
 43
0.0000001
 44
0.0000000001
 40
0.0
 40
0.0
 40
0.0
 40
0.0
 40
0.0810920532
 40
0.1659744381
 40
0.2613495399
 40
0.3717960506
 40
0.500067342
 40
0.6474198367
 40
1.0
 40
1.0
 40
1.0
 40
1.0
 10
15.5005868425
 20
6.7913798333
 30
0.0
 10
15.5005151409
 20
6.7918069408
 30
0.0
 10
15.5005109351
 20
6.7927124941
 30
0.0
 10
15.5009636572
 20
6.7940543554
 30
0.0
 10
15.5018387051
 20
6.7953536097
 30
0.0
 10
15.5031152249
 20
6.7966123645
 30
0.0
 10
15.5047851635
 20
6.7978312403
 30
0.0
 10
15.507700546
 20
6.7995007964
 30
0.0
 10
15.5101823278
 20
6.8005176727
 30
0.0
 10
15.511956171
 20
6.8011494923
 30
0.0
  0
SPLINE
  5
444
100
AcDbEntity
  8
0
100
AcDbSpline
 62
7
  6
CONTINUOUS
 70
0
 71
3
 72
12
 73
8
 74
0
 42
0.0000001
 43
0.0000001
 44
0.0000000001
 40
0.0
 40
0.0
 40
0.0
 40
0.0
 40
0.0956316276
 40
0.2023906278
 40
0.4444327895
 40
0.7150464729
 40
1.0
 40
1.0
 40
1.0
 40
1.0
 10
15.511956171
 20
6.8011494923
 30
0.0
 10
15.5134279286
 20
6.801673713
 30
0.0
 10
15.516588679
 20
6.8026552405
 30
0.0
 10
15.5236421471
 20
6.8043897948
 30
0.0
 10
15.5336381139
 20
6.8060557489
 30
0.0
 10
15.5466208092
 20
6.8072603031
 30
0.0
 10
15.5556999802
 20
6.8075321165
 30
0.0
 10
15.5603552569
 20
6.8075321165
 30
0.0
  0
SPLINE
  5
445
100
AcDbEntity
  8
0
100
AcDbSpline
 62
7
  6
CONTINUOUS
 70
0
 71
3
 72
11
 73
7
 74
0
 42
0.0000001
 43
0.0000001
 44
0.0000000001
 40
0.0
 40
0.0
 40
0.0
 40
0.0
 40
0.2404130095
 40
0.4843977309
 40
0.7360355262
 40
1.0
 40
1.0
 40
1.0
 40
1.0
 10
14.7317308112
 20
6.6389101904
 30
0.0
 10
14.7303665034
 20
6.6390596684
 30
0.0
 10
14.7275994377
 20
6.6392249987
 30
0.0
 10
14.7233940579
 20
6.6389469317
 30
0.0
 10
14.7191365628
 20
6.638049686
 30
0.0
 10
14.716363708
 20
6.6370272396
 30
0.0
 10
14.7149885498
 20
6.6364109958
 30
0.0
  0
SPLINE
  5
446
100
AcDbEntity
  8
0
100
AcDbSpline
 62
7
  6
CONTINUOUS
 70
0
 71
3
 72
9
 73
5
 74
0
 42
0.0000001
 43
0.0000001
 44
0.0000000001
 40
0.0
 40
0.0
 40
0.0
 40
0.0
 40
0.4997163403
 40
1.0
 40
1.0
 40
1.0
 40
1.0
 10
14.7986996635
 20
6.6389002047
 30
0.0
 10
14.7932550932
 20
6.6404193214
 30
0.0
 10
14.7822030466
 20
6.6429508737
 30
0.0
 10
14.7708769437
 20
6.6439076587
 30
0.0
 10
14.7652179997
 20
6.643908579
 30
0.0
  0
SPLINE
  5
447
100
AcDbEntity
  8
0
100
AcDbSpline
 62
7
  6
CONTINUOUS
 70
0
 71
3
 72
9
 73
5
 74
0
 42
0.0000001
 43
0.0000001
 44
0.0000000001
 40
0.0
 40
0.0
 40
0.0
 40
0.0
 40
0.500276407
 40
1.0
 40
1.0
 40
1.0
 40
1.0
 10
14.7652179997
 20
6.643908579
 30
0.0
 10
14.7595580071
 20
6.6439094996
 30
0.0
 10
14.7482311482
 20
6.642940041
 30
0.0
 10
14.7371732668
 20
6.6404269492
 30
0.0
 10
14.7317270332
 20
6.6389092878
 30
0.0
  0
SPLINE
  5
448
100
AcDbEntity
  8
0
100
AcDbSpline
 62
7
  6
CONTINUOUS
 70
0
 71
3
 72
30
 73
26
 74
0
 42
0.0000001
 43
0.0000001
 44
0.0000000001
 40
0.0
 40
0.0
 40
0.0
 40
0.0
 40
0.0211976271
 40
0.0294669314
 40
0.0328453168
 40
0.034262689
 40
0.0383790739
 40
0.0456778324
 40
0.0561712978
 40
0.0691080875
 40
0.0836700032
 40
0.1153874362
 40
0.1491113729
 40
0.1837794662
 40
0.219038508
 40
0.2546913341
 40
0.3268341134
 40
0.3997618148
 40
0.4732827303
 40
0.5473496956
 40
0.6219011212
 40
0.6968844533
 40
0.7722552289
 40
0.8479680178
 40
1.0
 40
1.0
 40
1.0
 40
1.0
 10
16.2478552569
 20
4.5156295778
 30
0.0
 10
16.2478552569
 20
4.5151779062
 30
0.0
 10
16.24785413
 20
4.5144327166
 30
0.0
 10
16.2478510327
 20
4.5139656616
 30
0.0
 10
16.2478437576
 20
4.5134457894
 30
0.0
 10
16.2478039922
 20
4.5137006633
 30
0.0
 10
16.2477825972
 20
4.5139320758
 30
0.0
 10
16.2477261548
 20
4.5144203092
 30
0.0
 10
16.2476532135
 20
4.5150597771
 30
0.0
 10
16.2475489228
 20
4.5158667356
 30
0.0
 10
16.2473653655
 20
4.5171134636
 30
0.0
 10
16.2470551012
 20
4.5187913022
 30
0.0
 10
16.2465722169
 20
4.5208694845
 30
0.0
 10
16.2459674733
 20
4.5229946601
 30
0.0
 10
16.2452461984
 20
4.5251265463
 30
0.0
 10
16.2441261123
 20
4.5279625745
 30
0.0
 10
16.2424459302
 20
4.5314351473
 30
0.0
 10
16.2400069026
 20
4.5354119955
 30
0.0
 10
16.2371602376
 20
4.5391598627
 30
0.0
 10
16.2339362805
 20
4.5426357002
 30
0.0
 10
16.2303650964
 20
4.5458009425
 30
0.0
 10
16.2264817363
 20
4.5486214424
 30
0.0
 10
16.2223225722
 20
4.5510671609
 30
0.0
 10
16.2164622353
 20
4.5537982341
 30
0.0
 10
16.2117773664
 20
4.5552051255
 30
0.0
 10
16.208601017
 20
4.5558413666
 30
0.0
  0
SPLINE
  5
449
100
AcDbEntity
  8
0
100
AcDbSpline
 62
7
  6
CONTINUOUS
 70
0
 71
3
 72
9
 73
5
 74
0
 42
0.0000001
 43
0.0000001
 44
0.0000000001
 40
0.0
 40
0.0
 40
0.0
 40
0.0
 40
0.5002781611
 40
1.0
 40
1.0
 40
1.0
 40
1.0
 10
16.208601017
 20
4.5558413666
 30
0.0
 10
16.2068345623
 20
4.5561951977
 30
0.0
 10
16.2032636572
 20
4.556719708
 30
0.0
 10
16.199653755
 20
4.5568210155
 30
0.0
 10
16.1978552569
 20
4.5567597863
 30
0.0
  0
SPLINE
  5
44A
100
AcDbEntity
  8
0
100
AcDbSpline
 62
7
  6
CONTINUOUS
 70
0
 71
3
 72
10
 73
6
 74
0
 42
0.0000001
 43
0.0000001
 44
0.0000000001
 40
0.0
 40
0.0
 40
0.0
 40
0.0
 40
0.2641547397
 40
0.5159706721
 40
1.0
 40
1.0
 40
1.0
 40
1.0
 10
14.8154474952
 20
6.6363946574
 30
0.0
 10
14.8140727454
 20
6.6370111636
 30
0.0
 10
14.8112988582
 20
6.6380314632
 30
0.0
 10
14.8057013879
 20
6.6392065056
 30
0.0
 10
14.8014478765
 20
6.6391990353
 30
0.0
 10
14.7987034415
 20
6.6388992981
 30
0.0
  0
SPLINE
  5
44B
100
AcDbEntity
  8
0
100
AcDbSpline
 62
7
  6
CONTINUOUS
 70
0
 71
3
 72
9
 73
5
 74
0
 42
0.0000001
 43
0.0000001
 44
0.0000000001
 40
0.0
 40
0.0
 40
0.0
 40
0.0
 40
0.4997038637
 40
1.0
 40
1.0
 40
1.0
 40
1.0
 10
14.9228552569
 20
4.5567597992
 30
0.0
 10
14.9210924978
 20
4.5568201735
 30
0.0
 10
14.9175543819
 20
4.5567252974
 30
0.0
 10
14.9140529397
 20
4.5562224331
 30
0.0
 10
14.912320002
 20
4.5558829176
 30
0.0
  0
SPLINE
  5
44C
100
AcDbEntity
  8
0
100
AcDbSpline
 62
7
  6
CONTINUOUS
 70
0
 71
3
 72
30
 73
26
 74
0
 42
0.0000001
 43
0.0000001
 44
0.0000000001
 40
0.0
 40
0.0
 40
0.0
 40
0.0
 40
0.1519606839
 40
0.2276411225
 40
0.3029808979
 40
0.377934586
 40
0.4524573386
 40
0.5264964414
 40
0.5999904246
 40
0.6728932106
 40
0.7450165442
 40
0.7806619368
 40
0.815910986
 40
0.8505750804
 40
0.8843167588
 40
0.916071149
 40
0.9306539931
 40
0.9436495501
 40
0.9542374074
 40
0.9616440656
 40
0.96582504
 40
0.9672794138
 40
0.9705938137
 40
0.9788180325
 40
1.0
 40
1.0
 40
1.0
 40
1.0
 10
14.912320002
 20
4.5558829176
 30
0.0
 10
14.9091319382
 20
4.555258315
 30
0.0
 10
14.9044279548
 20
4.5538657462
 30
0.0
 10
14.8985410523
 20
4.5511477186
 30
0.0
 10
14.894361653
 20
4.5487087097
 30
0.0
 10
14.8904582992
 20
4.5458918526
 30
0.0
 10
14.8868677027
 20
4.5427273854
 30
0.0
 10
14.8836252756
 20
4.5392496202
 30
0.0
 10
14.8807614985
 20
4.5354972389
 30
0.0
 10
14.878307002
 20
4.5315134644
 30
0.0
 10
14.8766156062
 20
4.5280332828
 30
0.0
 10
14.8754877326
 20
4.5251902951
 30
0.0
 10
14.8747610619
 20
4.5230528304
 30
0.0
 10
14.874151539
 20
4.5209212959
 30
0.0
 10
14.8736646677
 20
4.5188356562
 30
0.0
 10
14.8733514849
 20
4.5171509351
 30
0.0
 10
14.8731656251
 20
4.5158978369
 30
0.0
 10
14.8730602406
 20
4.5150844183
 30
0.0
 10
14.8729862838
 20
4.5144377026
 30
0.0
 10
14.872929229
 20
4.5139411023
 30
0.0
 10
14.8729070752
 20
4.5137064052
 30
0.0
 10
14.8728674586
 20
4.5134472882
 30
0.0
 10
14.8728590535
 20
4.5139623574
 30
0.0
 10
14.8728568353
 20
4.5144315976
 30
0.0
 10
14.8728552569
 20
4.5151767416
 30
0.0
 10
14.8728552569
 20
4.5156295778
 30
0.0
  0
SPLINE
  5
44D
100
AcDbEntity
  8
0
100
AcDbSpline
 62
7
  6
CONTINUOUS
 70
0
 71
3
 72
23
 73
19
 74
0
 42
0.0000001
 43
0.0000001
 44
0.0000000001
 40
0.0
 40
0.0
 40
0.0
 40
0.0
 40
0.0807375045
 40
0.160540576
 40
0.2387088357
 40
0.3148080967
 40
0.3885964583
 40
0.459915827
 40
0.5286252809
 40
0.5945694192
 40
0.6575652968
 40
0.7174037234
 40
0.7738592199
 40
0.8267064954
 40
0.8757531169
 40
0.9208909824
 40
0.9621869457
 40
1.0
 40
1.0
 40
1.0
 40
1.0
 10
15.5603552569
 20
4.8594645293
 30
0.0
 10
15.549129728
 20
4.8594645293
 30
0.0
 10
15.5267781201
 20
4.8578899111
 30
0.0
 10
15.4942033109
 20
4.8510850245
 30
0.0
 10
15.4633292955
 20
4.8405651598
 30
0.0
 10
15.4345274961
 20
4.8271818204
 30
0.0
 10
15.4079060222
 20
4.8117057024
 30
0.0
 10
15.3834493738
 20
4.7947560178
 30
0.0
 10
15.3611034095
 20
4.7768109997
 30
0.0
 10
15.3408228478
 20
4.7582399302
 30
0.0
 10
15.3225902085
 20
4.7393359018
 30
0.0
 10
15.3064216002
 20
4.7203409529
 30
0.0
 10
15.29236763
 20
4.7014628588
 30
0.0
 10
15.2805123373
 20
4.6828851207
 30
0.0
 10
15.2709696341
 20
4.6647753367
 30
0.0
 10
15.2638793453
 20
4.6472808865
 30
0.0
 10
15.2594091486
 20
4.6305426384
 30
0.0
 10
15.2582719236
 20
4.6195315601
 30
0.0
 10
15.2582719236
 20
4.6142741331
 30
0.0
  0
SPLINE
  5
44E
100
AcDbEntity
  8
0
100
AcDbSpline
 62
7
  6
CONTINUOUS
 70
0
 71
3
 72
23
 73
19
 74
0
 42
0.0000001
 43
0.0000001
 44
0.0000000001
 40
0.0
 40
0.0
 40
0.0
 40
0.0
 40
0.0378130518
 40
0.0791090175
 40
0.1242468841
 40
0.1732935043
 40
0.2261407785
 40
0.2825962727
 40
0.3424346999
 40
0.4054305787
 40
0.4713747182
 40
0.540084174
 40
0.6114035441
 40
0.6851919098
 40
0.7612911748
 40
0.8394594289
 40
0.9192624932
 40
1.0
 40
1.0
 40
1.0
 40
1.0
 10
15.8624385903
 20
4.6142741331
 30
0.0
 10
15.8624385903
 20
4.6195315598
 30
0.0
 10
15.8613013655
 20
4.6305426381
 30
0.0
 10
15.8568311685
 20
4.6472808863
 30
0.0
 10
15.8497408798
 20
4.6647753369
 30
0.0
 10
15.8401981766
 20
4.6828851205
 30
0.0
 10
15.8283428844
 20
4.7014628582
 30
0.0
 10
15.8142889143
 20
4.7203409519
 30
0.0
 10
15.7981203063
 20
4.7393359009
 30
0.0
 10
15.7798876667
 20
4.7582399296
 30
0.0
 10
15.7596071046
 20
4.7768109997
 30
0.0
 10
15.7372611398
 20
4.794756018
 30
0.0
 10
15.7128044906
 20
4.8117057032
 30
0.0
 10
15.6861830155
 20
4.8271818218
 30
0.0
 10
15.6573812156
 20
4.8405651609
 30
0.0
 10
15.6265072012
 20
4.851085025
 30
0.0
 10
15.5939323934
 20
4.8578899112
 30
0.0
 10
15.5715807862
 20
4.8594645293
 30
0.0
 10
15.5603552569
 20
4.8594645293
 30
0.0
  0
SPLINE
  5
44F
100
AcDbEntity
  8
0
100
AcDbSpline
 62
7
  6
CONTINUOUS
 70
0
 71
3
 72
11
 73
7
 74
0
 42
0.0000001
 43
0.0000001
 44
0.0000000001
 40
0.0
 40
0.0
 40
0.0
 40
0.0
 40
0.2641874848
 40
0.5178790941
 40
0.762465638
 40
1.0
 40
1.0
 40
1.0
 40
1.0
 10
15.3612665699
 20
11.7667781057
 30
0.0
 10
15.3644395956
 20
11.7589549343
 30
0.0
 10
15.369939574
 20
11.7433122451
 30
0.0
 10
15.3755748349
 20
11.7195587443
 30
0.0
 10
15.3783607984
 20
11.6961586888
 30
0.0
 10
15.3783078193
 20
11.6807048534
 30
0.0
 10
15.3777906382
 20
11.6731320367
 30
0.0
  0
SPLINE
  5
450
100
AcDbEntity
  8
0
100
AcDbSpline
 62
7
  6
CONTINUOUS
 70
0
 71
3
 72
11
 73
7
 74
0
 42
0.0000001
 43
0.0000001
 44
0.0000000001
 40
0.0
 40
0.0
 40
0.0
 40
0.0
 40
0.2335150423
 40
0.4749075692
 40
0.7293549571
 40
1.0
 40
1.0
 40
1.0
 40
1.0
 10
14.5818690986
 20
11.2594015295
 30
0.0
 10
14.5813560078
 20
11.2573928514
 30
0.0
 10
14.5807326409
 20
11.2531887555
 30
0.0
 10
14.5810607
 20
11.2466845389
 30
0.0
 10
14.5826234064
 20
11.2400287376
 30
0.0
 10
14.5843969064
 20
11.2356960854
 30
0.0
 10
14.5854554506
 20
11.2335389992
 30
0.0
  0
SPLINE
  5
451
100
AcDbEntity
  8
0
100
AcDbSpline
 62
7
  6
CONTINUOUS
 70
0
 71
3
 72
30
 73
26
 74
0
 42
0.0000001
 43
0.0000001
 44
0.0000000001
 40
0.0
 40
0.0
 40
0.0
 40
0.0
 40
0.0265220968
 40
0.0543784563
 40
0.083553487
 40
0.114017119
 40
0.1785685938
 40
0.247373942
 40
0.3194133259
 40
0.3934755689
 40
0.4682273627
 40
0.542299586
 40
0.6143609033
 40
0.6831952914
 40
0.7477865124
 40
0.7782709936
 40
0.8074578426
 40
0.8353233767
 40
0.8618824486
 40
0.8871855988
 40
0.9113333087
 40
0.9344703832
 40
0.9567935041
 40
0.9785445472
 40
1.0
 40
1.0
 40
1.0
 40
1.0
 10
14.4027102366
 20
11.7457357781
 30
0.0
 10
14.4070953199
 20
11.7367999179
 30
0.0
 10
14.4170205626
 20
11.7189263938
 30
0.0
 10
14.434641681
 20
11.6929455048
 30
0.0
 10
14.4552441278
 20
11.6673312728
 30
0.0
 10
14.4871006346
 20
11.6332599169
 30
0.0
 10
14.5336648943
 20
11.5928297532
 30
0.0
 10
14.5975077256
 20
11.5493638193
 30
0.0
 10
14.6687038418
 20
11.5111673973
 30
0.0
 10
14.7453399796
 20
11.4792603077
 30
0.0
 10
14.8253700126
 20
11.4544968833
 30
0.0
 10
14.9066450991
 20
11.4375409155
 30
0.0
 10
14.9869938069
 20
11.4288457386
 30
0.0
 10
15.0642621007
 20
11.4286455576
 30
0.0
 10
15.1255578243
 20
11.435701403
 30
0.0
 10
15.171119956
 20
11.4458171126
 30
0.0
 10
15.2026084457
 20
11.455303935
 30
0.0
 10
15.2318539025
 20
11.4667818051
 30
0.0
 10
15.258664338
 20
11.4801667205
 30
0.0
 10
15.2828500945
 20
11.4953891236
 30
0.0
 10
15.3042494496
 20
11.5123422302
 30
0.0
 10
15.3227043848
 20
11.5309264779
 30
0.0
 10
15.3380750708
 20
11.5510223245
 30
0.0
 10
15.3502431668
 20
11.5724836388
 30
0.0
 10
15.3561627225
 20
11.587651759
 30
0.0
 10
15.3585400407
 20
11.5953451203
 30
0.0
  0
SPLINE
  5
452
100
AcDbEntity
  8
0
100
AcDbSpline
 62
7
  6
CONTINUOUS
 70
0
 71
3
 72
12
 73
8
 74
0
 42
0.0000001
 43
0.0000001
 44
0.0000000001
 40
0.0
 40
0.0
 40
0.0
 40
0.0
 40
0.2713725663
 40
0.5253788093
 40
0.7660670494
 40
0.8834807287
 40
1.0
 40
1.0
 40
1.0
 40
1.0
 10
15.2028819751
 20
11.7457357781
 30
0.0
 10
15.2072389274
 20
11.7368572428
 30
0.0
 10
15.2144640938
 20
11.7190246114
 30
0.0
 10
15.2204671263
 20
11.6916115906
 30
0.0
 10
15.2209451546
 20
11.6691374182
 30
0.0
 10
15.2185606133
 20
11.6519781335
 30
0.0
 10
15.2164816965
 20
11.6436890642
 30
0.0
 10
15.2152275199
 20
11.6396320421
 30
0.0
  0
SPLINE
  5
453
100
AcDbEntity
  8
0
100
AcDbSpline
 62
7
  6
CONTINUOUS
 70
0
 71
3
 72
23
 73
19
 74
0
 42
0.0000001
 43
0.0000001
 44
0.0000000001
 40
0.0
 40
0.0
 40
0.0
 40
0.0
 40
0.0504420703
 40
0.101716593
 40
0.1545517033
 40
0.2095117447
 40
0.2669499481
 40
0.3270091683
 40
0.389635263
 40
0.4546016954
 40
0.5215443486
 40
0.5899934632
 40
0.6594049619
 40
0.7291751634
 40
0.7986830292
 40
0.8673687138
 40
0.9346882005
 40
1.0
 40
1.0
 40
1.0
 40
1.0
 10
17.3708093017
 20
12.0784670081
 30
0.0
 10
17.3730560754
 20
12.0738903232
 30
0.0
 10
17.3767183017
 20
12.0642071562
 30
0.0
 10
17.3794636571
 20
12.0487456891
 30
0.0
 10
17.3794448267
 20
12.0325882777
 30
0.0
 10
17.3766816861
 20
12.0160476362
 30
0.0
 10
17.371239133
 20
11.9994245263
 30
0.0
 10
17.3632353545
 20
11.9830137913
 30
0.0
 10
17.3528153375
 20
11.9671102694
 30
0.0
 10
17.340180792
 20
11.9519902111
 30
0.0
 10
17.3255532899
 20
11.9379303383
 30
0.0
 10
17.3092061054
 20
11.9251730685
 30
0.0
 10
17.2914265539
 20
11.9139598059
 30
0.0
 10
17.2725468437
 20
11.9044785866
 30
0.0
 10
17.2528996688
 20
11.8969128789
 30
0.0
 10
17.2328380489
 20
11.8913892991
 30
0.0
 10
17.212733997
 20
11.8880283188
 30
0.0
 10
17.199318728
 20
11.8872381018
 30
0.0
 10
17.1927173347
 20
11.8872381018
 30
0.0
  0
SPLINE
  5
454
100
AcDbEntity
  8
0
100
AcDbSpline
 62
7
  6
CONTINUOUS
 70
0
 71
3
 72
13
 73
9
 74
0
 42
0.0000001
 43
0.0000001
 44
0.0000000001
 40
0.0
 40
0.0
 40
0.0
 40
0.0
 40
0.2529366115
 40
0.5026510957
 40
0.6271868989
 40
0.7515026803
 40
0.8756838084
 40
1.0
 40
1.0
 40
1.0
 40
1.0
 10
17.6821845016
 20
12.5279233379
 30
0.0
 10
17.6901559844
 20
12.5279233379
 30
0.0
 10
17.7060697422
 20
12.5260957253
 30
0.0
 10
17.724724992
 20
12.5188126783
 30
0.0
 10
17.7378589155
 20
12.5101000936
 30
0.0
 10
17.7466423414
 20
12.5022176475
 30
0.0
 10
17.7541240919
 20
12.4931018452
 30
0.0
 10
17.7581283415
 20
12.4863285005
 30
0.0
 10
17.7598543508
 20
12.4828112633
 30
0.0
  0
SPLINE
  5
455
100
AcDbEntity
  8
0
100
AcDbSpline
 62
7
  6
CONTINUOUS
 70
0
 71
3
 72
11
 73
7
 74
0
 42
0.0000001
 43
0.0000001
 44
0.0000000001
 40
0.0
 40
0.0
 40
0.0
 40
0.0
 40
0.239040065
 40
0.4828737631
 40
0.7357657998
 40
1.0
 40
1.0
 40
1.0
 40
1.0
 10
17.8971217444
 20
12.2030860626
 30
0.0
 10
17.8987067418
 20
12.1998579252
 30
0.0
 10
17.9012324755
 20
12.1929813558
 30
0.0
 10
17.9028705561
 20
12.1819625188
 30
0.0
 10
17.9023459255
 20
12.1704623782
 30
0.0
 10
17.9006298205
 20
12.1628305872
 30
0.0
 10
17.8994561248
 20
12.1590325067
 30
0.0
  0
SPLINE
  5
456
100
AcDbEntity
  8
0
100
AcDbSpline
 62
7
  6
CONTINUOUS
 70
0
 71
3
 72
15
 73
11
 74
0
 42
0.0000001
 43
0.0000001
 44
0.0000000001
 40
0.0
 40
0.0
 40
0.0
 40
0.0
 40
0.1296053615
 40
0.260154804
 40
0.3904250881
 40
0.5193339798
 40
0.6457661665
 40
0.7686606556
 40
0.8870346707
 40
1.0
 40
1.0
 40
1.0
 40
1.0
 10
17.3511118233
 20
12.5328170859
 30
0.0
 10
17.317738395
 20
12.5390763463
 30
0.0
 10
17.2511403423
 20
12.5538325376
 30
0.0
 10
17.152812378
 20
12.5822493007
 30
0.0
 10
17.0566395996
 20
12.6167512348
 30
0.0
 10
16.9638510547
 20
12.6568858486
 30
0.0
 10
16.8756109679
 20
12.7021399112
 30
0.0
 10
16.7930394372
 20
12.7519187188
 30
0.0
 10
16.7171972724
 20
12.8055494685
 30
0.0
 10
16.6705623105
 20
12.8443909611
 30
0.0
 10
16.6486863712
 20
12.8643247183
 30
0.0
  0
SPLINE
  5
457
100
AcDbEntity
  8
0
100
AcDbSpline
 62
7
  6
CONTINUOUS
 70
0
 71
3
 72
11
 73
7
 74
0
 42
0.0000001
 43
0.0000001
 44
0.0000000001
 40
0.0
 40
0.0
 40
0.0
 40
0.0
 40
0.2605438967
 40
0.5122984054
 40
0.7577741863
 40
1.0
 40
1.0
 40
1.0
 40
1.0
 10
13.6203320994
 20
12.8786821549
 30
0.0
 10
13.6187731423
 20
12.8701838857
 30
0.0
 10
13.6168576665
 20
12.8532319147
 30
0.0
 10
13.6178718311
 20
12.828021617
 30
0.0
 10
13.6228142714
 20
12.8038931818
 30
0.0
 10
13.6287073431
 20
12.7887335207
 30
0.0
 10
13.6322447669
 20
12.7815217534
 30
0.0
  0
SPLINE
  5
458
100
AcDbEntity
  8
0
100
AcDbSpline
 62
7
  6
CONTINUOUS
 70
0
 71
3
 72
10
 73
6
 74
0
 42
0.0000001
 43
0.0000001
 44
0.0000000001
 40
0.0
 40
0.0
 40
0.0
 40
0.0
 40
0.324371753
 40
0.5956375745
 40
1.0
 40
1.0
 40
1.0
 40
1.0
 10
13.6075782244
 20
12.9159156917
 30
0.0
 10
13.604829117
 20
12.9233488526
 30
0.0
 10
13.5998708253
 20
12.937032421
 30
0.0
 10
13.5919829263
 20
12.960156419
 30
0.0
 10
13.5871373296
 20
12.9759476285
 30
0.0
 10
13.584583147
 20
12.9854913744
 30
0.0
  0
SPLINE
  5
459
100
AcDbEntity
  8
0
100
AcDbSpline
 62
7
  6
CONTINUOUS
 70
0
 71
3
 72
10
 73
6
 74
0
 42
0.0000001
 43
0.0000001
 44
0.0000000001
 40
0.0
 40
0.0
 40
0.0
 40
0.0
 40
0.5324567092
 40
0.7777831051
 40
1.0
 40
1.0
 40
1.0
 40
1.0
 10
13.6527952011
 20
12.8010565392
 30
0.0
 10
13.6445215443
 20
12.8213437575
 30
0.0
 10
13.6325365375
 20
12.8510201258
 30
0.0
 10
13.6175647425
 20
12.889348006
 30
0.0
 10
13.6107500088
 20
12.9073396775
 30
0.0
 10
13.6075782244
 20
12.9159156917
 30
0.0
  0
SPLINE
  5
45A
100
AcDbEntity
  8
0
100
AcDbSpline
 62
7
  6
CONTINUOUS
 70
0
 71
3
 72
12
 73
8
 74
0
 42
0.0000001
 43
0.0000001
 44
0.0000000001
 40
0.0
 40
0.0
 40
0.0
 40
0.0
 40
0.2668857373
 40
0.396042181
 40
0.522150991
 40
0.7659211458
 40
1.0
 40
1.0
 40
1.0
 40
1.0
 10
13.6645728992
 20
13.100350527
 30
0.0
 10
13.6723475571
 20
13.108220487
 30
0.0
 10
13.6844976581
 20
13.1193193376
 30
0.0
 10
13.7015953019
 20
13.1326017561
 30
0.0
 10
13.7185702678
 20
13.1444373726
 30
0.0
 10
13.7401080761
 20
13.1572697844
 30
0.0
 10
13.7579258252
 20
13.1659681369
 30
0.0
 10
13.7667845507
 20
13.1699262097
 30
0.0
  0
SPLINE
  5
45B
100
AcDbEntity
  8
0
100
AcDbSpline
 62
7
  6
CONTINUOUS
 70
0
 71
3
 72
10
 73
6
 74
0
 42
0.0000001
 43
0.0000001
 44
0.0000000001
 40
0.0
 40
0.0
 40
0.0
 40
0.0
 40
0.2526474782
 40
0.6305363923
 40
1.0
 40
1.0
 40
1.0
 40
1.0
 10
13.584583147
 20
12.9854913744
 30
0.0
 10
13.5900659426
 20
12.9959686379
 30
0.0
 10
13.6043049147
 20
13.0218319666
 30
0.0
 10
13.6298388372
 20
13.0611477807
 30
0.0
 10
13.6524198149
 20
13.0880484697
 30
0.0
 10
13.6645728992
 20
13.100350527
 30
0.0
  0
SPLINE
  5
45C
100
AcDbEntity
  8
0
100
AcDbSpline
 62
7
  6
CONTINUOUS
 70
0
 71
3
 72
11
 73
7
 74
0
 42
0.0000001
 43
0.0000001
 44
0.0000000001
 40
0.0
 40
0.0
 40
0.0
 40
0.0
 40
0.2412599462
 40
0.4906273694
 40
0.7444204566
 40
1.0
 40
1.0
 40
1.0
 40
1.0
 10
13.8808803299
 20
13.1925679446
 30
0.0
 10
13.8920274752
 20
13.1925679446
 30
0.0
 10
13.9147068276
 20
13.1913778935
 30
0.0
 10
13.9487986936
 20
13.1865836214
 30
0.0
 10
13.9831142427
 20
13.1793080869
 30
0.0
 10
14.0058550178
 20
13.1732100373
 30
0.0
 10
14.0171980084
 20
13.1699262097
 30
0.0
  0
SPLINE
  5
45D
100
AcDbEntity
  8
0
100
AcDbSpline
 62
7
  6
CONTINUOUS
 70
0
 71
3
 72
12
 73
8
 74
0
 42
0.0000001
 43
0.0000001
 44
0.0000000001
 40
0.0
 40
0.0
 40
0.0
 40
0.0
 40
0.2297968535
 40
0.4715933945
 40
0.5978474776
 40
0.7280463138
 40
1.0
 40
1.0
 40
1.0
 40
1.0
 10
13.7667845507
 20
13.1699262097
 30
0.0
 10
13.775095482
 20
13.1732872301
 30
0.0
 10
13.7924162979
 20
13.1795549763
 30
0.0
 10
13.8150018669
 20
13.1855226793
 30
0.0
 10
13.8341192962
 20
13.189081486
 30
0.0
 10
13.8545636604
 20
13.1917783737
 30
0.0
 10
13.8702708876
 20
13.1925679446
 30
0.0
 10
13.8808803299
 20
13.1925679446
 30
0.0
  0
SPLINE
  5
45E
100
AcDbEntity
  8
0
100
AcDbSpline
 62
7
  6
CONTINUOUS
 70
0
 71
3
 72
9
 73
5
 74
0
 42
0.0000001
 43
0.0000001
 44
0.0000000001
 40
0.0
 40
0.0
 40
0.0
 40
0.0
 40
0.2563881762
 40
1.0
 40
1.0
 40
1.0
 40
1.0
 10
14.7583189267
 20
11.2593869478
 30
0.0
 10
14.7586565123
 20
11.2588704205
 30
0.0
 10
14.7599445439
 20
11.2568373116
 30
0.0
 10
14.76111496
 20
11.2547288285
 30
0.0
 10
14.7619033925
 20
11.253122172
 30
0.0
  0
SPLINE
  5
45F
100
AcDbEntity
  8
0
100
AcDbSpline
 62
7
  6
CONTINUOUS
 70
0
 71
3
 72
11
 73
7
 74
0
 42
0.0000001
 43
0.0000001
 44
0.0000000001
 40
0.0
 40
0.0
 40
0.0
 40
0.0
 40
0.2605438967
 40
0.5122984054
 40
0.7577741863
 40
1.0
 40
1.0
 40
1.0
 40
1.0
 10
15.7694744187
 20
12.8786821549
 30
0.0
 10
15.7679154616
 20
12.8701838857
 30
0.0
 10
15.7659999859
 20
12.8532319147
 30
0.0
 10
15.7670141504
 20
12.828021617
 30
0.0
 10
15.7719565907
 20
12.8038931818
 30
0.0
 10
15.7778496624
 20
12.7887335207
 30
0.0
 10
15.7813870863
 20
12.7815217534
 30
0.0
  0
SPLINE
  5
460
100
AcDbEntity
  8
0
100
AcDbSpline
 62
7
  6
CONTINUOUS
 70
0
 71
3
 72
12
 73
8
 74
0
 42
0.0000001
 43
0.0000001
 44
0.0000000001
 40
0.0
 40
0.0
 40
0.0
 40
0.0
 40
0.2668857373
 40
0.396042181
 40
0.522150991
 40
0.7659211458
 40
1.0
 40
1.0
 40
1.0
 40
1.0
 10
15.8137152185
 20
13.100350527
 30
0.0
 10
15.8214898765
 20
13.108220487
 30
0.0
 10
15.8336399774
 20
13.1193193376
 30
0.0
 10
15.8507376213
 20
13.1326017561
 30
0.0
 10
15.8677125871
 20
13.1444373726
 30
0.0
 10
15.8892503955
 20
13.1572697844
 30
0.0
 10
15.9070681445
 20
13.1659681369
 30
0.0
 10
15.91592687
 20
13.1699262097
 30
0.0
  0
SPLINE
  5
461
100
AcDbEntity
  8
0
100
AcDbSpline
 62
7
  6
CONTINUOUS
 70
0
 71
3
 72
10
 73
6
 74
0
 42
0.0000001
 43
0.0000001
 44
0.0000000001
 40
0.0
 40
0.0
 40
0.0
 40
0.0
 40
0.2526474782
 40
0.6305363923
 40
1.0
 40
1.0
 40
1.0
 40
1.0
 10
15.7337254664
 20
12.9854913744
 30
0.0
 10
15.739208262
 20
12.9959686379
 30
0.0
 10
15.753447234
 20
13.0218319666
 30
0.0
 10
15.7789811565
 20
13.0611477807
 30
0.0
 10
15.8015621342
 20
13.0880484697
 30
0.0
 10
15.8137152185
 20
13.100350527
 30
0.0
  0
SPLINE
  5
462
100
AcDbEntity
  8
0
100
AcDbSpline
 62
7
  6
CONTINUOUS
 70
0
 71
3
 72
11
 73
7
 74
0
 42
0.0000001
 43
0.0000001
 44
0.0000000001
 40
0.0
 40
0.0
 40
0.0
 40
0.0
 40
0.2412599462
 40
0.4906273694
 40
0.7444204566
 40
1.0
 40
1.0
 40
1.0
 40
1.0
 10
16.0300226492
 20
13.1925679446
 30
0.0
 10
16.0411697945
 20
13.1925679446
 30
0.0
 10
16.0638491469
 20
13.1913778935
 30
0.0
 10
16.097941013
 20
13.1865836214
 30
0.0
 10
16.132256562
 20
13.1793080869
 30
0.0
 10
16.1549973371
 20
13.1732100373
 30
0.0
 10
16.1663403278
 20
13.1699262097
 30
0.0
  0
SPLINE
  5
463
100
AcDbEntity
  8
0
100
AcDbSpline
 62
7
  6
CONTINUOUS
 70
0
 71
3
 72
12
 73
8
 74
0
 42
0.0000001
 43
0.0000001
 44
0.0000000001
 40
0.0
 40
0.0
 40
0.0
 40
0.0
 40
0.2297968535
 40
0.4715933945
 40
0.5978474776
 40
0.7280463138
 40
1.0
 40
1.0
 40
1.0
 40
1.0
 10
15.91592687
 20
13.1699262097
 30
0.0
 10
15.9242378014
 20
13.1732872301
 30
0.0
 10
15.9415586173
 20
13.1795549763
 30
0.0
 10
15.9641441862
 20
13.1855226793
 30
0.0
 10
15.9832616155
 20
13.189081486
 30
0.0
 10
16.0037059797
 20
13.1917783737
 30
0.0
 10
16.0194132069
 20
13.1925679446
 30
0.0
 10
16.0300226492
 20
13.1925679446
 30
0.0
  0
SPLINE
  5
464
100
AcDbEntity
  8
0
100
AcDbSpline
 62
7
  6
CONTINUOUS
 70
0
 71
3
 72
10
 73
6
 74
0
 42
0.0000001
 43
0.0000001
 44
0.0000000001
 40
0.0
 40
0.0
 40
0.0
 40
0.0
 40
0.2564492661
 40
0.6342360988
 40
1.0
 40
1.0
 40
1.0
 40
1.0
 10
13.7405061577
 20
11.896998992
 30
0.0
 10
13.7356005512
 20
11.8954031477
 30
0.0
 10
13.7233198971
 20
11.8918987095
 30
0.0
 10
13.7034994901
 20
11.8882191811
 30
0.0
 10
13.6885298861
 20
11.8872381018
 30
0.0
 10
13.681172295
 20
11.8872381018
 30
0.0
  0
SPLINE
  5
465
100
AcDbEntity
  8
0
100
AcDbSpline
 62
7
  6
CONTINUOUS
 70
0
 71
3
 72
10
 73
6
 74
0
 42
0.0000001
 43
0.0000001
 44
0.0000000001
 40
0.0
 40
0.0
 40
0.0
 40
0.0
 40
0.324371753
 40
0.5956375745
 40
1.0
 40
1.0
 40
1.0
 40
1.0
 10
15.7567205437
 20
12.9159156917
 30
0.0
 10
15.7539714363
 20
12.9233488526
 30
0.0
 10
15.7490131446
 20
12.937032421
 30
0.0
 10
15.7411252456
 20
12.960156419
 30
0.0
 10
15.7362796489
 20
12.9759476285
 30
0.0
 10
15.7337254664
 20
12.9854913744
 30
0.0
  0
SPLINE
  5
466
100
AcDbEntity
  8
0
100
AcDbSpline
 62
7
  6
CONTINUOUS
 70
0
 71
3
 72
10
 73
6
 74
0
 42
0.0000001
 43
0.0000001
 44
0.0000000001
 40
0.0
 40
0.0
 40
0.0
 40
0.0
 40
0.5324567092
 40
0.7777831051
 40
1.0
 40
1.0
 40
1.0
 40
1.0
 10
15.8019375204
 20
12.8010565392
 30
0.0
 10
15.7936638637
 20
12.8213437575
 30
0.0
 10
15.7816788569
 20
12.8510201258
 30
0.0
 10
15.7667070619
 20
12.889348006
 30
0.0
 10
15.7598923282
 20
12.9073396775
 30
0.0
 10
15.7567205437
 20
12.9159156917
 30
0.0
  0
SPLINE
  5
467
100
AcDbEntity
  8
0
100
AcDbSpline
 62
7
  6
CONTINUOUS
 70
0
 71
3
 72
20
 73
16
 74
0
 42
0.0000001
 43
0.0000001
 44
0.0000000001
 40
0.0
 40
0.0
 40
0.0
 40
0.0
 40
0.1131611097
 40
0.2309894386
 40
0.291614291
 40
0.3533233403
 40
0.4160727403
 40
0.4797805515
 40
0.5443002267
 40
0.6094935765
 40
0.7409710563
 40
0.8067430818
 40
0.872069374
 40
0.9366142043
 40
1.0
 40
1.0
 40
1.0
 40
1.0
 10
15.9908608924
 20
12.5808638759
 30
0.0
 10
15.9731192602
 20
12.595546633
 30
0.0
 10
15.9365451346
 20
12.6250826618
 30
0.0
 10
15.8900451069
 20
12.6619561079
 30
0.0
 10
15.8518588796
 20
12.6924621267
 30
0.0
 10
15.8225908727
 20
12.7161718923
 30
0.0
 10
15.7930920782
 20
12.7405910574
 30
0.0
 10
15.7635224721
 20
12.7658160046
 30
0.0
 10
15.7340967002
 20
12.7919676287
 30
0.0
 10
15.6952692986
 20
12.8282722373
 30
0.0
 10
15.6579723531
 20
12.8665925224
 30
0.0
 10
15.6234278482
 20
12.907389316
 30
0.0
 10
15.5994153709
 20
12.9391805734
 30
0.0
 10
15.5778246382
 20
12.9720906929
 30
0.0
 10
15.5652635805
 20
12.9949383978
 30
0.0
 10
15.5595816743
 20
13.0065192055
 30
0.0
  0
SPLINE
  5
468
100
AcDbEntity
  8
0
100
AcDbSpline
 62
7
  6
CONTINUOUS
 70
0
 71
3
 72
14
 73
10
 74
0
 42
0.0000001
 43
0.0000001
 44
0.0000000001
 40
0.0
 40
0.0
 40
0.0
 40
0.0
 40
0.1219644118
 40
0.2453011343
 40
0.3700383848
 40
0.4961263192
 40
0.6229883202
 40
0.7498517386
 40
1.0
 40
1.0
 40
1.0
 40
1.0
 10
13.3278632587
 20
12.453519361
 30
0.0
 10
13.3295173226
 20
12.4588719137
 30
0.0
 10
13.3338871408
 20
12.4693394082
 30
0.0
 10
13.3431259664
 20
12.483698396
 30
0.0
 10
13.3547207871
 20
12.496485682
 30
0.0
 10
13.3682646166
 20
12.5074289745
 30
0.0
 10
13.3833642405
 20
12.5163056453
 30
0.0
 10
13.4048559504
 20
12.5250277905
 30
0.0
 10
13.4223003871
 20
12.5279233379
 30
0.0
 10
13.4337906668
 20
12.5279233379
 30
0.0
  0
SPLINE
  5
469
100
AcDbEntity
  8
0
100
AcDbSpline
 62
7
  6
CONTINUOUS
 70
0
 71
3
 72
11
 73
7
 74
0
 42
0.0000001
 43
0.0000001
 44
0.0000000001
 40
0.0
 40
0.0
 40
0.0
 40
0.0
 40
0.2495803693
 40
0.4991529675
 40
0.7491342524
 40
1.0
 40
1.0
 40
1.0
 40
1.0
 10
13.0474862553
 20
11.4742936027
 30
0.0
 10
13.0452760111
 20
11.4787976069
 30
0.0
 10
13.0417412101
 20
11.4882715405
 30
0.0
 10
13.0393309771
 20
11.5032290654
 30
0.0
 10
13.0397948853
 20
11.5183929564
 30
0.0
 10
13.041946416
 20
11.528292119
 30
0.0
 10
13.0434353287
 20
11.5331102422
 30
0.0
  0
SPLINE
  5
46A
100
AcDbEntity
  8
0
100
AcDbSpline
 62
7
  6
CONTINUOUS
 70
0
 71
3
 72
12
 73
8
 74
0
 42
0.0000001
 43
0.0000001
 44
0.0000000001
 40
0.0
 40
0.0
 40
0.0
 40
0.0
 40
0.1126205607
 40
0.2275479816
 40
0.4670800077
 40
0.7235608924
 40
1.0
 40
1.0
 40
1.0
 40
1.0
 10
13.7982387754
 20
11.8241647395
 30
0.0
 10
13.7994721433
 20
11.8321350572
 30
0.0
 10
13.8012422821
 20
11.8483601275
 30
0.0
 10
13.8019684585
 20
11.8818352268
 30
0.0
 10
13.7973195975
 20
11.9255537758
 30
0.0
 10
13.7830345925
 20
11.97918374
 30
0.0
 10
13.7682153388
 20
12.0144896943
 30
0.0
 10
13.7594964407
 20
12.0322631537
 30
0.0
  0
SPLINE
  5
46B
100
AcDbEntity
  8
0
100
AcDbSpline
 62
7
  6
CONTINUOUS
 70
0
 71
3
 72
15
 73
11
 74
0
 42
0.0000001
 43
0.0000001
 44
0.0000000001
 40
0.0
 40
0.0
 40
0.0
 40
0.0
 40
0.1109994984
 40
0.2297143248
 40
0.3547094026
 40
0.4840220849
 40
0.6154424385
 40
0.7467894111
 40
0.8758318155
 40
1.0
 40
1.0
 40
1.0
 40
1.0
 10
14.2340614454
 20
11.0736464115
 30
0.0
 10
14.235590249
 20
11.0719717792
 30
0.0
 10
14.2390112311
 20
11.0687362665
 30
0.0
 10
14.2448442955
 20
11.0644137142
 30
0.0
 10
14.2514281029
 20
11.0605502568
 30
0.0
 10
14.2585899406
 20
11.057236103
 30
0.0
 10
14.266152239
 20
11.0545630496
 30
0.0
 10
14.27392235
 20
11.0525941778
 30
0.0
 10
14.2816965223
 20
11.0513893345
 30
0.0
 10
14.2868719904
 20
11.0510989323
 30
0.0
 10
14.2894085198
 20
11.0510989323
 30
0.0
  0
SPLINE
  5
46C
100
AcDbEntity
  8
0
100
AcDbSpline
 62
7
  6
CONTINUOUS
 70
0
 71
3
 72
14
 73
10
 74
0
 42
0.0000001
 43
0.0000001
 44
0.0000000001
 40
0.0
 40
0.0
 40
0.0
 40
0.0
 40
0.2523250933
 40
0.3836080067
 40
0.5150723707
 40
0.644273147
 40
0.7691082179
 40
0.8882855777
 40
1.0
 40
1.0
 40
1.0
 40
1.0
 10
16.0949340491
 20
12.0151264298
 30
0.0
 10
16.0887158986
 20
12.0151269814
 30
0.0
 10
16.0792070093
 20
12.0135089917
 30
0.0
 10
16.0673891812
 20
12.0088177382
 30
0.0
 10
16.0589635061
 20
12.0040230169
 30
0.0
 10
16.0514254937
 20
11.9981877305
 30
0.0
 10
16.0450569299
 20
11.9914997001
 30
0.0
 10
16.0400665062
 20
11.9842487984
 30
0.0
 10
16.0377227201
 20
11.9790097504
 30
0.0
 10
16.0369098972
 20
11.9763794536
 30
0.0
  0
SPLINE
  5
46D
100
AcDbEntity
  8
0
100
AcDbSpline
 62
7
  6
CONTINUOUS
 70
0
 71
3
 72
14
 73
10
 74
0
 42
0.0000001
 43
0.0000001
 44
0.0000000001
 40
0.0
 40
0.0
 40
0.0
 40
0.0
 40
0.2892758036
 40
0.4224841871
 40
0.5484208539
 40
0.6678226812
 40
0.7818078886
 40
0.891925648
 40
1.0
 40
1.0
 40
1.0
 40
1.0
 10
16.3461501398
 20
11.0620127362
 30
0.0
 10
16.3509643181
 20
11.0631449474
 30
0.0
 10
16.3578986563
 20
11.0653635721
 30
0.0
 10
16.3662745365
 20
11.0696122093
 30
0.0
 10
16.3716801098
 20
11.0732012792
 30
0.0
 10
16.3763283112
 20
11.0772471301
 30
0.0
 10
16.3801659196
 20
11.0817226887
 30
0.0
 10
16.3831548443
 20
11.0865792172
 30
0.0
 10
16.3845640875
 20
11.0900557068
 30
0.0
 10
16.3851095857
 20
11.0918210092
 30
0.0
  0
SPLINE
  5
46E
100
AcDbEntity
  8
0
100
AcDbSpline
 62
7
  6
CONTINUOUS
 70
0
 71
3
 72
14
 73
10
 74
0
 42
0.0000001
 43
0.0000001
 44
0.0000000001
 40
0.0
 40
0.0
 40
0.0
 40
0.0
 40
0.1556949266
 40
0.3033531307
 40
0.5689019967
 40
0.6872270216
 40
0.7970121575
 40
0.9002982101
 40
1.0
 40
1.0
 40
1.0
 40
1.0
 10
15.812879949
 20
11.259325978
 30
0.0
 10
15.8148910798
 20
11.259325978
 30
0.0
 10
15.8188141954
 20
11.2595015739
 30
0.0
 10
15.8260906496
 20
11.2605517602
 30
0.0
 10
15.8327327274
 20
11.262639057
 30
0.0
 10
15.8382322284
 20
11.2659195304
 30
0.0
 10
15.8414790203
 20
11.2687502189
 30
0.0
 10
15.8439410057
 20
11.2719919113
 30
0.0
 10
15.845018387
 20
11.2744137406
 30
0.0
 10
15.8453986518
 20
11.2756441808
 30
0.0
  0
SPLINE
  5
46F
100
AcDbEntity
  8
0
100
AcDbSpline
 62
7
  6
CONTINUOUS
 70
0
 71
3
 72
15
 73
11
 74
0
 42
0.0000001
 43
0.0000001
 44
0.0000000001
 40
0.0
 40
0.0
 40
0.0
 40
0.0
 40
0.100189984
 40
0.211905691
 40
0.3337857792
 40
0.4637276801
 40
0.5987315565
 40
0.7354179983
 40
0.8704280347
 40
1.0
 40
1.0
 40
1.0
 40
1.0
 10
14.3469567901
 20
11.2904064764
 30
0.0
 10
14.3480116268
 20
11.2882569451
 30
0.0
 10
14.3508082483
 20
11.2839818268
 30
0.0
 10
14.3563398673
 20
11.2781896537
 30
0.0
 10
14.3632440753
 20
11.272867246
 30
0.0
 10
14.3712562853
 20
11.2682101016
 30
0.0
 10
14.3800797606
 20
11.2643794131
 30
0.0
 10
14.3893922467
 20
11.2615243754
 30
0.0
 10
14.3988373126
 20
11.2597566164
 30
0.0
 10
14.4051653413
 20
11.259325978
 30
0.0
 10
14.4082619331
 20
11.259325978
 30
0.0
  0
SPLINE
  5
470
100
AcDbEntity
  8
0
100
AcDbSpline
 62
7
  6
CONTINUOUS
 70
0
 71
3
 72
9
 73
5
 74
0
 42
0.0000001
 43
0.0000001
 44
0.0000000001
 40
0.0
 40
0.0
 40
0.0
 40
0.0
 40
0.2548839313
 40
1.0
 40
1.0
 40
1.0
 40
1.0
 10
15.3870941739
 20
11.7457357781
 30
0.0
 10
15.3883866815
 20
11.7431019245
 30
0.0
 10
15.3933163487
 20
11.7326999438
 30
0.0
 10
15.3976689898
 20
11.722022138
 30
0.0
 10
15.4005356599
 20
11.7139385659
 30
0.0
  0
SPLINE
  5
471
100
AcDbEntity
  8
0
100
AcDbSpline
 62
7
  6
CONTINUOUS
 70
0
 71
3
 72
11
 73
7
 74
0
 42
0.0000001
 43
0.0000001
 44
0.0000000001
 40
0.0
 40
0.0
 40
0.0
 40
0.0
 40
0.2655519186
 40
0.5181681769
 40
0.7614976572
 40
1.0
 40
1.0
 40
1.0
 40
1.0
 10
15.4005356599
 20
11.7139385659
 30
0.0
 10
15.4045501169
 20
11.7026184101
 30
0.0
 10
15.4109639917
 20
11.6799819671
 30
0.0
 10
15.4153229097
 20
11.6456769844
 30
0.0
 10
15.4140907335
 20
11.6123284527
 30
0.0
 10
15.4094963505
 20
11.5908892062
 30
0.0
 10
15.4063124008
 20
11.5805823356
 30
0.0
  0
SPLINE
  5
472
100
AcDbEntity
  8
0
100
AcDbSpline
 62
7
  6
CONTINUOUS
 70
0
 71
3
 72
11
 73
7
 74
0
 42
0.0000001
 43
0.0000001
 44
0.0000000001
 40
0.0
 40
0.0
 40
0.0
 40
0.0
 40
0.2641741111
 40
0.5178524702
 40
0.7624394712
 40
1.0
 40
1.0
 40
1.0
 40
1.0
 10
15.3615150291
 20
11.7668550351
 30
0.0
 10
15.3646792348
 20
11.7590250787
 30
0.0
 10
15.3701598826
 20
11.7433692739
 30
0.0
 10
15.3757594317
 20
11.7195978591
 30
0.0
 10
15.3785039563
 20
11.6961826987
 30
0.0
 10
15.3784193592
 20
11.680721749
 30
0.0
 10
15.3778856473
 20
11.67314617
 30
0.0
  0
SPLINE
  5
473
100
AcDbEntity
  8
0
100
AcDbSpline
 62
7
  6
CONTINUOUS
 70
0
 71
3
 72
9
 73
5
 74
0
 42
0.0000001
 43
0.0000001
 44
0.0000000001
 40
0.0
 40
0.0
 40
0.0
 40
0.0
 40
0.5127114733
 40
1.0
 40
1.0
 40
1.0
 40
1.0
 10
17.3511168641
 20
12.5328199601
 30
0.0
 10
17.3593876194
 20
12.5312190837
 30
0.0
 10
17.3756649612
 20
12.5288020377
 30
0.0
 10
17.3921030292
 20
12.5279233379
 30
0.0
 10
17.4001095722
 20
12.5279233379
 30
0.0
  0
SPLINE
  5
474
100
AcDbEntity
  8
0
100
AcDbSpline
 62
7
  6
CONTINUOUS
 70
0
 71
3
 72
15
 73
11
 74
0
 42
0.0000001
 43
0.0000001
 44
0.0000000001
 40
0.0
 40
0.0
 40
0.0
 40
0.0
 40
0.1232657378
 40
0.2474407065
 40
0.3721890848
 40
0.4973189273
 40
0.6227194145
 40
0.7483277357
 40
0.8740987385
 40
1.0
 40
1.0
 40
1.0
 40
1.0
 10
16.7106378649
 20
12.0314513415
 30
0.0
 10
16.7168801717
 20
12.0187314198
 30
0.0
 10
16.7308180921
 20
11.9938673597
 30
0.0
 10
16.755396054
 20
11.9587722052
 30
0.0
 10
16.7833724759
 20
11.9260345678
 30
0.0
 10
16.8144586207
 20
11.8960299769
 30
0.0
 10
16.8484194365
 20
11.8691550519
 30
0.0
 10
16.8850229596
 20
11.8458533727
 30
0.0
 10
16.923983173
 20
11.8266131662
 30
0.0
 10
16.9512949131
 20
11.8168344447
 30
0.0
 10
16.9651910867
 20
11.8127926766
 30
0.0
  0
SPLINE
  5
475
100
AcDbEntity
  8
0
100
AcDbSpline
 62
7
  6
CONTINUOUS
 70
0
 71
3
 72
19
 73
15
 74
0
 42
0.0000001
 43
0.0000001
 44
0.0000000001
 40
0.0
 40
0.0
 40
0.0
 40
0.0
 40
0.0329754145
 40
0.069660351
 40
0.1103447619
 40
0.1552538189
 40
0.2044838735
 40
0.2580620113
 40
0.3159813647
 40
0.3781367092
 40
0.5144527541
 40
0.6652584523
 40
0.8280871344
 40
1.0
 40
1.0
 40
1.0
 40
1.0
 10
14.0781269824
 20
13.334172728
 30
0.0
 10
14.079286203
 20
13.3318092732
 30
0.0
 10
14.0813784252
 20
13.3266378004
 30
0.0
 10
14.0837242558
 20
13.3181313471
 30
0.0
 10
14.0853796252
 20
13.3084967567
 30
0.0
 10
14.0862826753
 20
13.2977603266
 30
0.0
 10
14.086395017
 20
13.2859590722
 30
0.0
 10
14.085676715
 20
13.2731400593
 30
0.0
 10
14.0840861199
 20
13.2593616011
 30
0.0
 10
14.080679405
 20
13.2391715032
 30
0.0
 10
14.0740511118
 20
13.2120480718
 30
0.0
 10
14.0628633159
 20
13.1778862224
 30
0.0
 10
14.0484484815
 20
13.1418811689
 30
0.0
 10
14.0372126863
 20
13.1176226166
 30
0.0
 10
14.0311779009
 20
13.1052968237
 30
0.0
  0
SPLINE
  5
476
100
AcDbEntity
  8
0
100
AcDbSpline
 62
7
  6
CONTINUOUS
 70
0
 71
3
 72
16
 73
12
 74
0
 42
0.0000001
 43
0.0000001
 44
0.0000000001
 40
0.0
 40
0.0
 40
0.0
 40
0.0
 40
0.1493303019
 40
0.29922024
 40
0.4429817316
 40
0.5765554264
 40
0.6983453409
 40
0.7548255851
 40
0.8085407561
 40
0.9084365681
 40
1.0
 40
1.0
 40
1.0
 40
1.0
 10
14.0311779009
 20
13.1052968237
 30
0.0
 10
14.0197451937
 20
13.0819460042
 30
0.0
 10
13.9949610022
 20
13.0360713138
 30
0.0
 10
13.954961633
 20
12.9701148828
 30
0.0
 10
13.9148432944
 20
12.9074759841
 30
0.0
 10
13.877320285
 20
12.8489886391
 30
0.0
 10
13.8489899967
 20
12.802657741
 30
0.0
 10
13.829106879
 20
12.7674951887
 30
0.0
 10
13.8119752158
 20
12.7351727264
 30
0.0
 10
13.793814248
 20
12.6964997402
 30
0.0
 10
13.7822609669
 20
12.6651676704
 30
0.0
 10
13.777554699
 20
12.6499363977
 30
0.0
  0
SPLINE
  5
477
100
AcDbEntity
  8
0
100
AcDbSpline
 62
7
  6
CONTINUOUS
 70
0
 71
3
 72
11
 73
7
 74
0
 42
0.0000001
 43
0.0000001
 44
0.0000000001
 40
0.0
 40
0.0
 40
0.0
 40
0.0
 40
0.2595124782
 40
0.5111586361
 40
0.7570125661
 40
1.0
 40
1.0
 40
1.0
 40
1.0
 10
13.4879063493
 20
12.5584759889
 30
0.0
 10
13.4848307699
 20
12.5485234102
 30
0.0
 10
13.480320387
 20
12.5283899582
 30
0.0
 10
13.4790143528
 20
12.4978608634
 30
0.0
 10
13.4834662193
 20
12.4682831571
 30
0.0
 10
13.4903007882
 20
12.4497152738
 30
0.0
 10
13.4945976807
 20
12.4409591274
 30
0.0
  0
SPLINE
  5
478
100
AcDbEntity
  8
0
100
AcDbSpline
 62
7
  6
CONTINUOUS
 70
0
 71
3
 72
11
 73
7
 74
0
 42
0.0000001
 43
0.0000001
 44
0.0000000001
 40
0.0
 40
0.0
 40
0.0
 40
0.0
 40
0.2437972776
 40
0.4901534742
 40
0.7414820532
 40
1.0
 40
1.0
 40
1.0
 40
1.0
 10
13.779675319
 20
12.233424153
 30
0.0
 10
13.77485016
 20
12.2178122343
 30
0.0
 10
13.767129832
 20
12.185774346
 30
0.0
 10
13.7615848821
 20
12.1362651687
 30
0.0
 10
13.7620665415
 20
12.0854673674
 30
0.0
 10
13.7663311455
 20
12.0514783547
 30
0.0
 10
13.7693967039
 20
12.0344244679
 30
0.0
  0
SPLINE
  5
479
100
AcDbEntity
  8
0
100
AcDbSpline
 62
7
  6
CONTINUOUS
 70
0
 71
3
 72
9
 73
5
 74
0
 42
0.0000001
 43
0.0000001
 44
0.0000000001
 40
0.0
 40
0.0
 40
0.0
 40
0.0
 40
0.4857704314
 40
1.0
 40
1.0
 40
1.0
 40
1.0
 10
13.7693967039
 20
12.0344244679
 30
0.0
 10
13.7739908718
 20
12.0088668333
 30
0.0
 10
13.7876617371
 20
11.9569570286
 30
0.0
 10
13.8083674647
 20
11.9074953525
 30
0.0
 10
13.8204773566
 20
11.8828179873
 30
0.0
  0
SPLINE
  5
47A
100
AcDbEntity
  8
0
100
AcDbSpline
 62
7
  6
CONTINUOUS
 70
0
 71
3
 72
15
 73
11
 74
0
 42
0.0000001
 43
0.0000001
 44
0.0000000001
 40
0.0
 40
0.0
 40
0.0
 40
0.0
 40
0.1166842474
 40
0.2342627797
 40
0.3536890271
 40
0.4757321326
 40
0.6010407411
 40
0.7300796583
 40
0.8631459004
 40
1.0
 40
1.0
 40
1.0
 40
1.0
 10
16.4529061638
 20
13.2683088368
 30
0.0
 10
16.4494248693
 20
13.2754029691
 30
0.0
 10
16.441223635
 20
13.2890854502
 30
0.0
 10
16.4256304605
 20
13.3074002725
 30
0.0
 10
16.4070541071
 20
13.3232443582
 30
0.0
 10
16.3858711041
 20
13.3363840138
 30
0.0
 10
16.3624702835
 20
13.3466863507
 30
0.0
 10
16.337219716
 20
13.3540651982
 30
0.0
 10
16.3105035943
 20
13.3584725644
 30
0.0
 10
16.2922064358
 20
13.3594217142
 30
0.0
 10
16.2829381732
 20
13.3594217142
 30
0.0
  0
SPLINE
  5
47B
100
AcDbEntity
  8
0
100
AcDbSpline
 62
7
  6
CONTINUOUS
 70
0
 71
3
 72
11
 73
7
 74
0
 42
0.0000001
 43
0.0000001
 44
0.0000000001
 40
0.0
 40
0.0
 40
0.0
 40
0.0
 40
0.2621621133
 40
0.5154672974
 40
0.7609301982
 40
1.0
 40
1.0
 40
1.0
 40
1.0
 10
13.7595019358
 20
12.0322711367
 30
0.0
 10
13.7494816868
 20
12.0526969962
 30
0.0
 10
13.7315199982
 20
12.0937477769
 30
0.0
 10
13.710976337
 20
12.1566220391
 30
0.0
 10
13.6975455064
 20
12.2193529025
 30
0.0
 10
13.6934258914
 20
12.2613136864
 30
0.0
 10
13.6926518288
 20
12.2820465035
 30
0.0
  0
SPLINE
  5
47C
100
AcDbEntity
  8
0
100
AcDbSpline
 62
7
  6
CONTINUOUS
 70
0
 71
3
 72
14
 73
10
 74
0
 42
0.0000001
 43
0.0000001
 44
0.0000000001
 40
0.0
 40
0.0
 40
0.0
 40
0.0
 40
0.1203955845
 40
0.2410453405
 40
0.3625762893
 40
0.485553894
 40
0.6104414462
 40
0.737607802
 40
1.0
 40
1.0
 40
1.0
 40
1.0
 10
14.1076995606
 20
12.0247906129
 30
0.0
 10
14.1047585539
 20
12.0152735118
 30
0.0
 10
14.0998200808
 20
11.9959110061
 30
0.0
 10
14.0953073481
 20
11.9662077357
 30
0.0
 10
14.0936849281
 20
11.9359919354
 30
0.0
 10
14.0949351136
 20
11.9054119911
 30
0.0
 10
14.0989935532
 20
11.8746069972
 30
0.0
 10
14.1081657965
 20
11.8330036097
 30
0.0
 10
14.1189954556
 20
11.8024669539
 30
0.0
 10
14.1276650126
 20
11.7825636305
 30
0.0
  0
SPLINE
  5
47D
100
AcDbEntity
  8
0
100
AcDbSpline
 62
7
  6
CONTINUOUS
 70
0
 71
3
 72
12
 73
8
 74
0
 42
0.0000001
 43
0.0000001
 44
0.0000000001
 40
0.0
 40
0.0
 40
0.0
 40
0.0
 40
0.2267394657
 40
0.3456350707
 40
0.4684281704
 40
0.7260346783
 40
1.0
 40
1.0
 40
1.0
 40
1.0
 10
14.3218443539
 20
13.7676673915
 30
0.0
 10
14.3430155461
 20
13.7865529719
 30
0.0
 10
14.3776798089
 20
13.812759754
 30
0.0
 10
14.4278502107
 20
13.8431086633
 30
0.0
 10
14.4833424898
 20
13.8719019621
 30
0.0
 10
14.5593982331
 20
13.9027406811
 30
0.0
 10
14.6234888579
 20
13.9209956247
 30
0.0
 10
14.6568581628
 20
13.9288427809
 30
0.0
  0
SPLINE
  5
47E
100
AcDbEntity
  8
0
100
AcDbSpline
 62
7
  6
CONTINUOUS
 70
0
 71
3
 72
23
 73
19
 74
0
 42
0.0000001
 43
0.0000001
 44
0.0000000001
 40
0.0
 40
0.0
 40
0.0
 40
0.0
 40
0.0555749964
 40
0.11374611
 40
0.174269053
 40
0.236838985
 40
0.3011009961
 40
0.3666644052
 40
0.4331101553
 40
0.5000014356
 40
0.5668929652
 40
0.6333386747
 40
0.6989025571
 40
0.7631651558
 40
0.8257340432
 40
0.8862564649
 40
0.9444277406
 40
1.0
 40
1.0
 40
1.0
 40
1.0
 10
14.6972527242
 20
13.9383427347
 30
0.0
 10
14.7277934783
 20
13.9455248153
 30
0.0
 10
14.7909794622
 20
13.9574482526
 30
0.0
 10
14.8888750579
 20
13.968041281
 30
0.0
 10
14.9912241177
 20
13.9716799631
 30
0.0
 10
15.0970130337
 20
13.9683226953
 30
0.0
 10
15.2052053379
 20
13.95801191
 30
0.0
 10
15.3147347998
 20
13.9408457118
 30
0.0
 10
15.4245214343
 20
13.9169915734
 30
0.0
 10
15.5334834978
 20
13.8866906788
 30
0.0
 10
15.6405441489
 20
13.8502364859
 30
0.0
 10
15.7446472791
 20
13.8079902761
 30
0.0
 10
15.8447673477
 20
13.7603723191
 30
0.0
 10
15.9399137738
 20
13.7078454359
 30
0.0
 10
16.0291514703
 20
13.6509327657
 30
0.0
 10
16.1116055884
 20
13.5901894678
 30
0.0
 10
16.1864529005
 20
13.5262106675
 30
0.0
 10
16.2318971157
 20
13.4807214603
 30
0.0
 10
16.2530599225
 20
13.4575620433
 30
0.0
  0
SPLINE
  5
47F
100
AcDbEntity
  8
0
100
AcDbSpline
 62
7
  6
CONTINUOUS
 70
0
 71
3
 72
9
 73
5
 74
0
 42
0.0000001
 43
0.0000001
 44
0.0000000001
 40
0.0
 40
0.0
 40
0.0
 40
0.0
 40
0.2553064744
 40
1.0
 40
1.0
 40
1.0
 40
1.0
 10
16.2810524582
 20
13.4269288963
 30
0.0
 10
16.2867100059
 20
13.4207375842
 30
0.0
 10
16.3085915157
 20
13.3962350803
 30
0.0
 10
16.3293356283
 20
13.3707100503
 30
0.0
 10
16.3440039169
 20
13.3511319707
 30
0.0
  0
SPLINE
  5
480
100
AcDbEntity
  8
0
100
AcDbSpline
 62
7
  6
CONTINUOUS
 70
0
 71
3
 72
9
 73
5
 74
0
 42
0.0000001
 43
0.0000001
 44
0.0000000001
 40
0.0
 40
0.0
 40
0.0
 40
0.0
 40
0.4940631597
 40
1.0
 40
1.0
 40
1.0
 40
1.0
 10
14.4131442488
 20
11.9712980675
 30
0.0
 10
14.4164243911
 20
11.9769053676
 30
0.0
 10
14.4236978826
 20
11.9878937588
 30
0.0
 10
14.4320846395
 20
11.9980535532
 30
0.0
 10
14.4365668877
 20
12.0029691804
 30
0.0
  0
SPLINE
  5
481
100
AcDbEntity
  8
0
100
AcDbSpline
 62
7
  6
CONTINUOUS
 70
0
 71
3
 72
9
 73
5
 74
0
 42
0.0000001
 43
0.0000001
 44
0.0000000001
 40
0.0
 40
0.0
 40
0.0
 40
0.0
 40
0.488475222
 40
1.0
 40
1.0
 40
1.0
 40
1.0
 10
14.4365668877
 20
12.0029691804
 30
0.0
 10
14.4427640021
 20
12.0097654805
 30
0.0
 10
14.4564124321
 20
12.0228227569
 30
0.0
 10
14.4715412559
 20
12.0341096952
 30
0.0
 10
14.4795602776
 20
12.0394445797
 30
0.0
  0
SPLINE
  5
482
100
AcDbEntity
  8
0
100
AcDbSpline
 62
7
  6
CONTINUOUS
 70
0
 71
3
 72
9
 73
5
 74
0
 42
0.0000001
 43
0.0000001
 44
0.0000000001
 40
0.0
 40
0.0
 40
0.0
 40
0.0
 40
0.4828664193
 40
1.0
 40
1.0
 40
1.0
 40
1.0
 10
14.4942049573
 20
12.0485372859
 30
0.0
 10
14.5067016571
 20
12.0557771597
 30
0.0
 10
14.5337156684
 20
12.0688572208
 30
0.0
 10
14.5621132173
 20
12.0784743876
 30
0.0
 10
14.5770044796
 20
12.0826563422
 30
0.0
  0
SPLINE
  5
483
100
AcDbEntity
  8
0
100
AcDbSpline
 62
7
  6
CONTINUOUS
 70
0
 71
3
 72
9
 73
5
 74
0
 42
0.0000001
 43
0.0000001
 44
0.0000000001
 40
0.0
 40
0.0
 40
0.0
 40
0.0
 40
0.2577700434
 40
1.0
 40
1.0
 40
1.0
 40
1.0
 10
15.3276800928
 20
11.828486851
 30
0.0
 10
15.3301422195
 20
11.8249422911
 30
0.0
 10
15.3394557319
 20
11.8110289417
 30
0.0
 10
15.3477908592
 20
11.7964498782
 30
0.0
 10
15.3532654735
 20
11.7852937871
 30
0.0
  0
SPLINE
  5
484
100
AcDbEntity
  8
0
100
AcDbSpline
 62
7
  6
CONTINUOUS
 70
0
 71
3
 72
12
 73
8
 74
0
 42
0.0000001
 43
0.0000001
 44
0.0000000001
 40
0.0
 40
0.0
 40
0.0
 40
0.0
 40
0.1190176351
 40
0.2386528704
 40
0.4819484314
 40
0.7345332587
 40
1.0
 40
1.0
 40
1.0
 40
1.0
 10
14.3374389599
 20
11.9108892207
 30
0.0
 10
14.3390326911
 20
11.9160483416
 30
0.0
 10
14.34268816
 20
11.9262583878
 30
0.0
 10
14.3518518684
 20
11.9461356474
 30
0.0
 10
14.3668341863
 20
11.9698773282
 30
0.0
 10
14.3898828149
 20
11.9957818481
 30
0.0
 10
14.4080170921
 20
12.0108786157
 30
0.0
 10
14.4177544512
 20
12.0179665615
 30
0.0
  0
SPLINE
  5
485
100
AcDbEntity
  8
0
100
AcDbSpline
 62
7
  6
CONTINUOUS
 70
0
 71
3
 72
9
 73
5
 74
0
 42
0.0000001
 43
0.0000001
 44
0.0000000001
 40
0.0
 40
0.0
 40
0.0
 40
0.0
 40
0.2422279077
 40
1.0
 40
1.0
 40
1.0
 40
1.0
 10
14.4249793009
 20
12.023053544
 30
0.0
 10
14.4287399727
 20
12.0256149242
 30
0.0
 10
14.4445150728
 20
12.0358206814
 30
0.0
 10
14.4612131324
 20
12.0445751009
 30
0.0
 10
14.4741763611
 20
12.050454593
 30
0.0
  0
SPLINE
  5
486
100
AcDbEntity
  8
0
100
AcDbSpline
 62
7
  6
CONTINUOUS
 70
0
 71
3
 72
23
 73
19
 74
0
 42
0.0000001
 43
0.0000001
 44
0.0000000001
 40
0.0
 40
0.0
 40
0.0
 40
0.0
 40
0.0512647242
 40
0.1058452042
 40
0.163611212
 40
0.2242963387
 40
0.2875334009
 40
0.3528715134
 40
0.4197973508
 40
0.4877554946
 40
0.5561607807
 40
0.6244186041
 40
0.691936258
 40
0.7581408862
 40
0.8224956772
 40
0.884518413
 40
0.9437943613
 40
1.0
 40
1.0
 40
1.0
 40
1.0
 10
14.4741763611
 20
12.050454593
 30
0.0
 10
14.4886688343
 20
12.0570276762
 30
0.0
 10
14.5194804146
 20
12.0686901543
 30
0.0
 10
14.5687238292
 20
12.0814461639
 30
0.0
 10
14.6218487638
 20
12.0898660168
 30
0.0
 10
14.6781700048
 20
12.0938555551
 30
0.0
 10
14.7369743743
 20
12.0933648235
 30
0.0
 10
14.7975091465
 20
12.0883993796
 30
0.0
 10
14.8589995503
 20
12.0790299489
 30
0.0
 10
14.9206546275
 20
12.0653698949
 30
0.0
 10
14.9816825365
 20
12.0475990665
 30
0.0
 10
15.0412987048
 20
12.0259470169
 30
0.0
 10
15.0987338485
 20
12.0006865825
 30
0.0
 10
15.153252819
 20
11.9721498554
 30
0.0
 10
15.2041539669
 20
11.94069822
 30
0.0
 10
15.2507848154
 20
11.9067300269
 30
0.0
 10
15.2925491934
 20
11.8706911276
 30
0.0
 10
15.3174912979
 20
11.8448506624
 30
0.0
 10
15.3289334549
 20
11.8316794508
 30
0.0
  0
SPLINE
  5
487
100
AcDbEntity
  8
0
100
AcDbSpline
 62
7
  6
CONTINUOUS
 70
0
 71
3
 72
9
 73
5
 74
0
 42
0.0000001
 43
0.0000001
 44
0.0000000001
 40
0.0
 40
0.0
 40
0.0
 40
0.0
 40
0.256429005
 40
1.0
 40
1.0
 40
1.0
 40
1.0
 10
15.3289334549
 20
11.8316794508
 30
0.0
 10
15.3319378578
 20
11.8282210446
 30
0.0
 10
15.3434666726
 20
11.8145733157
 30
0.0
 10
15.3542224004
 20
11.8002661921
 30
0.0
 10
15.3616741176
 20
11.7892690125
 30
0.0
  0
SPLINE
  5
488
100
AcDbEntity
  8
0
100
AcDbSpline
 62
7
  6
CONTINUOUS
 70
0
 71
3
 72
9
 73
5
 74
0
 42
0.0000001
 43
0.0000001
 44
0.0000000001
 40
0.0
 40
0.0
 40
0.0
 40
0.0
 40
0.2545827875
 40
1.0
 40
1.0
 40
1.0
 40
1.0
 10
15.3718079911
 20
11.7735213662
 30
0.0
 10
15.3732090374
 20
11.7712230348
 30
0.0
 10
15.3786147236
 20
11.7621362381
 30
0.0
 10
15.383622129
 20
11.7528110618
 30
0.0
 10
15.3870941739
 20
11.7457357781
 30
0.0
  0
SPLINE
  5
489
100
AcDbEntity
  8
0
100
AcDbSpline
 62
7
  6
CONTINUOUS
 70
0
 71
3
 72
33
 73
29
 74
0
 42
0.0000001
 43
0.0000001
 44
0.0000000001
 40
0.0
 40
0.0
 40
0.0
 40
0.0
 40
0.0641816202
 40
0.0975529605
 40
0.1316687282
 40
0.1664399535
 40
0.2017670971
 40
0.237545
 40
0.2736614999
 40
0.3100014218
 40
0.3464462395
 40
0.4191570924
 40
0.4908627454
 40
0.5606652474
 40
0.6277633348
 40
0.6915039495
 40
0.7219793781
 40
0.7514677884
 40
0.7799566543
 40
0.8074530376
 40
0.8339860022
 40
0.8596089692
 40
0.8843985682
 40
0.9084561266
 40
0.9319035638
 40
0.9548690902
 40
0.977507925
 40
1.0
 40
1.0
 40
1.0
 40
1.0
 10
16.2543706977
 20
13.373438089
 30
0.0
 10
16.2148517588
 20
13.4104829232
 30
0.0
 10
16.1514628009
 20
13.4633429589
 30
0.0
 10
16.0610437332
 20
13.5279811083
 30
0.0
 10
15.9884805262
 20
13.574767075
 30
0.0
 10
15.9124237827
 20
13.6189952402
 30
0.0
 10
15.8332421055
 20
13.6604663267
 30
0.0
 10
15.751322139
 20
13.6989722156
 30
0.0
 10
15.6670715804
 20
13.7343373914
 30
0.0
 10
15.5809000512
 20
13.7663796525
 30
0.0
 10
15.4641249913
 20
13.8044393046
 30
0.0
 10
15.3161976763
 20
13.842827536
 30
0.0
 10
15.1378454721
 20
13.8736776707
 30
0.0
 10
14.9621901359
 20
13.8886588212
 30
0.0
 10
14.7926101063
 20
13.8874306356
 30
0.0
 10
14.6569764828
 20
13.8726157045
 30
0.0
 10
14.5545232635
 20
13.8522520129
 30
0.0
 10
14.4822927367
 20
13.8331911
 30
0.0
 10
14.4138657892
 20
13.8101761366
 30
0.0
 10
14.3495625592
 20
13.7832646561
 30
0.0
 10
14.2896937216
 20
13.7525291768
 30
0.0
 10
14.2345639159
 20
13.7180511909
 30
0.0
 10
14.1844784915
 20
13.6799254432
 30
0.0
 10
14.1397489874
 20
13.6382700224
 30
0.0
 10
14.1007039548
 20
13.5932495412
 30
0.0
 10
14.0676402501
 20
13.5450989601
 30
0.0
 10
14.0408830079
 20
13.4940874443
 30
0.0
 10
14.0273762313
 20
13.4583531257
 30
0.0
 10
14.0217718826
 20
13.4402167743
 30
0.0
  0
SPLINE
  5
48A
100
AcDbEntity
  8
0
100
AcDbSpline
 62
7
  6
CONTINUOUS
 70
0
 71
3
 72
16
 73
12
 74
0
 42
0.0000001
 43
0.0000001
 44
0.0000000001
 40
0.0
 40
0.0
 40
0.0
 40
0.0
 40
0.1244167632
 40
0.2522089142
 40
0.3169302387
 40
0.3819085042
 40
0.5116308884
 40
0.6396605999
 40
0.7644155931
 40
0.8847109926
 40
1.0
 40
1.0
 40
1.0
 40
1.0
 10
13.9528054298
 20
13.3592941471
 30
0.0
 10
13.9385164168
 20
13.3588566281
 30
0.0
 10
13.9095845536
 20
13.3557238887
 30
0.0
 10
13.8741808182
 20
13.3467116486
 30
0.0
 10
13.8463697826
 20
13.3365604015
 30
0.0
 10
13.8190955216
 20
13.3244875562
 30
0.0
 10
13.7867382493
 20
13.3061312274
 30
0.0
 10
13.7516517458
 20
13.2794413524
 30
0.0
 10
13.721389449
 20
13.2488627611
 30
0.0
 10
13.6969226398
 20
13.2152620407
 30
0.0
 10
13.6847711988
 20
13.1908856871
 30
0.0
 10
13.6800093774
 20
13.1785242231
 30
0.0
  0
SPLINE
  5
48B
100
AcDbEntity
  8
0
100
AcDbSpline
 62
7
  6
CONTINUOUS
 70
0
 71
3
 72
9
 73
5
 74
0
 42
0.0000001
 43
0.0000001
 44
0.0000000001
 40
0.0
 40
0.0
 40
0.0
 40
0.0
 40
0.2479113019
 40
1.0
 40
1.0
 40
1.0
 40
1.0
 10
14.2888071043
 20
13.4295251109
 30
0.0
 10
14.2893847007
 20
13.4313942137
 30
0.0
 10
14.292041004
 20
13.4388308914
 30
0.0
 10
14.2959261544
 20
13.4458118894
 30
0.0
 10
14.2993575661
 20
13.4506542128
 30
0.0
  0
SPLINE
  5
48C
100
AcDbEntity
  8
0
100
AcDbSpline
 62
7
  6
CONTINUOUS
 70
0
 71
3
 72
15
 73
11
 74
0
 42
0.0000001
 43
0.0000001
 44
0.0000000001
 40
0.0
 40
0.0
 40
0.0
 40
0.0
 40
0.1272416532
 40
0.2544784718
 40
0.3798787423
 40
0.5037721102
 40
0.627462408
 40
0.7515549265
 40
0.8758498216
 40
1.0
 40
1.0
 40
1.0
 40
1.0
 10
14.2993575661
 20
13.4506542128
 30
0.0
 10
14.3030633065
 20
13.4558836621
 30
0.0
 10
14.311731749
 20
13.4655005061
 30
0.0
 10
14.3274505368
 20
13.4766701507
 30
0.0
 10
14.3451964032
 20
13.4838958408
 30
0.0
 10
14.3641029412
 20
13.4861841815
 30
0.0
 10
14.3828267601
 20
13.4826739665
 30
0.0
 10
14.3994034787
 20
13.4731429351
 30
0.0
 10
14.4117326772
 20
13.4584972074
 30
0.0
 10
14.4161081605
 20
13.4464661646
 30
0.0
 10
14.4172538692
 20
13.4403183924
 30
0.0
  0
SPLINE
  5
48D
100
AcDbEntity
  8
0
100
AcDbSpline
 62
7
  6
CONTINUOUS
 70
0
 71
3
 72
9
 73
5
 74
0
 42
0.0000001
 43
0.0000001
 44
0.0000000001
 40
0.0
 40
0.0
 40
0.0
 40
0.0
 40
0.4991787591
 40
1.0
 40
1.0
 40
1.0
 40
1.0
 10
14.4178411156
 20
13.4364147708
 30
0.0
 10
14.4181833527
 20
13.4334412623
 30
0.0
 10
14.4184013107
 20
13.427422434
 30
0.0
 10
14.417725425
 20
13.4214411897
 30
0.0
 10
14.4171793495
 20
13.4184882702
 30
0.0
  0
SPLINE
  5
48E
100
AcDbEntity
  8
0
100
AcDbSpline
 62
7
  6
CONTINUOUS
 70
0
 71
3
 72
9
 73
5
 74
0
 42
0.0000001
 43
0.0000001
 44
0.0000000001
 40
0.0
 40
0.0
 40
0.0
 40
0.0
 40
0.5005198539
 40
1.0
 40
1.0
 40
1.0
 40
1.0
 10
14.3461142025
 20
13.3553995952
 30
0.0
 10
14.3430296617
 20
13.3552016482
 30
0.0
 10
14.33682919
 20
13.3552526449
 30
0.0
 10
14.3307055461
 20
13.3562526808
 30
0.0
 10
14.3277117122
 20
13.3569948967
 30
0.0
  0
SPLINE
  5
48F
100
AcDbEntity
  8
0
100
AcDbSpline
 62
7
  6
CONTINUOUS
 70
0
 71
3
 72
17
 73
13
 74
0
 42
0.0000001
 43
0.0000001
 44
0.0000000001
 40
0.0
 40
0.0
 40
0.0
 40
0.0
 40
0.1248167817
 40
0.1874256416
 40
0.2500939864
 40
0.3753373872
 40
0.5005786749
 40
0.563243468
 40
0.6258402122
 40
0.7506930468
 40
0.875150089
 40
1.0
 40
1.0
 40
1.0
 40
1.0
 10
14.3277117122
 20
13.3569948967
 30
0.0
 10
14.3239794848
 20
13.3579201712
 30
0.0
 10
14.3184936139
 20
13.3598838495
 30
0.0
 10
14.3117201114
 20
13.3635780976
 30
0.0
 10
14.3053680266
 20
13.3679846456
 30
0.0
 10
14.2983567374
 20
13.3747261567
 30
0.0
 10
14.2929637609
 20
13.382820213
 30
0.0
 10
14.2897460303
 20
13.3898483677
 30
0.0
 10
14.2872992593
 20
13.397168013
 30
0.0
 10
14.2856772398
 20
13.4067122534
 30
0.0
 10
14.2860212643
 20
13.4183005891
 30
0.0
 10
14.2876715143
 20
13.4258503403
 30
0.0
 10
14.2888071043
 20
13.4295251109
 30
0.0
  0
SPLINE
  5
490
100
AcDbEntity
  8
0
100
AcDbSpline
 62
7
  6
CONTINUOUS
 70
0
 71
3
 72
29
 73
25
 74
0
 42
0.0000001
 43
0.0000001
 44
0.0000000001
 40
0.0
 40
0.0
 40
0.0
 40
0.0
 40
0.0405491645
 40
0.0762338466
 40
0.1070935725
 40
0.13316073
 40
0.1544605415
 40
0.1710111237
 40
0.1828237975
 40
0.1899045815
 40
0.1922855917
 40
0.1945499986
 40
0.2011286322
 40
0.2118148027
 40
0.2263886414
 40
0.244633117
 40
0.2663359865
 40
0.291290721
 40
0.3501590101
 40
0.4197321711
 40
0.4986708759
 40
0.5859338421
 40
0.7816792087
 40
1.0
 40
1.0
 40
1.0
 40
1.0
 10
14.4217020204
 20
13.4318545953
 30
0.0
 10
14.4218232549
 20
13.4318512199
 30
0.0
 10
14.4220511432
 20
13.4318425928
 30
0.0
 10
14.4223708555
 20
13.431823752
 30
0.0
 10
14.4226472006
 20
13.4318017184
 30
0.0
 10
14.4228794409
 20
13.4317784879
 30
0.0
 10
14.4230709029
 20
13.431755704
 30
0.0
 10
14.4232139288
 20
13.4317359331
 30
0.0
 10
14.4233281411
 20
13.4317193756
 30
0.0
 10
14.4233745849
 20
13.4317110735
 30
0.0
 10
14.4234305599
 20
13.431704819
 30
0.0
 10
14.4233810855
 20
13.4317237102
 30
0.0
 10
14.423338736
 20
13.431736036
 30
0.0
 10
14.4232407846
 20
13.4317683606
 30
0.0
 10
14.423120438
 20
13.4318081086
 30
0.0
 10
14.4229652726
 20
13.4318622825
 30
0.0
 10
14.4227834888
 20
13.4319291482
 30
0.0
 10
14.4224892646
 20
13.4320439584
 30
0.0
 10
14.4220676636
 20
13.4322250908
 30
0.0
 10
14.4215101856
 20
13.4324978139
 30
0.0
 10
14.4208951708
 20
13.4328436273
 30
0.0
 10
14.4199807788
 20
13.4334239545
 30
0.0
 10
14.418777873
 20
13.4343233192
 30
0.0
 10
14.417860896
 20
13.4351594156
 30
0.0
 10
14.4174015203
 20
13.4356234975
 30
0.0
  0
SPLINE
  5
491
100
AcDbEntity
  8
0
100
AcDbSpline
 62
7
  6
CONTINUOUS
 70
0
 71
3
 72
9
 73
5
 74
0
 42
0.0000001
 43
0.0000001
 44
0.0000000001
 40
0.0
 40
0.0
 40
0.0
 40
0.0
 40
0.541606285
 40
1.0
 40
1.0
 40
1.0
 40
1.0
 10
14.3293721418
 20
13.3568242362
 30
0.0
 10
14.3298502463
 20
13.3561908562
 30
0.0
 10
14.3306618709
 20
13.3549660937
 30
0.0
 10
14.331321285
 20
13.3536523564
 30
0.0
 10
14.33157505
 20
13.3530304949
 30
0.0
  0
LINE
  5
492
100
AcDbEntity
  8
0
100
AcDbLine
 62
7
  6
CONTINUOUS
 10
14.33157505
 20
13.3530304949
 11
14.3321636026
 21
13.3511769923
  0
SPLINE
  5
493
100
AcDbEntity
  8
0
100
AcDbSpline
 62
7
  6
CONTINUOUS
 70
0
 71
3
 72
11
 73
7
 74
0
 42
0.0000001
 43
0.0000001
 44
0.0000000001
 40
0.0
 40
0.0
 40
0.0
 40
0.0
 40
0.2433456731
 40
0.489517429
 40
0.7411652189
 40
1.0
 40
1.0
 40
1.0
 40
1.0
 10
16.2695270042
 20
13.0210660387
 30
0.0
 10
16.2662856906
 20
13.0276741241
 30
0.0
 10
16.2587072578
 20
13.0404758052
 30
0.0
 10
16.2443969547
 20
13.0578400343
 30
0.0
 10
16.2273079111
 20
13.0731811761
 30
0.0
 10
16.2144339186
 20
13.0818067835
 30
0.0
 10
16.2076584489
 20
13.0857287313
 30
0.0
  0
SPLINE
  5
494
100
AcDbEntity
  8
0
100
AcDbSpline
 62
7
  6
CONTINUOUS
 70
0
 71
3
 72
9
 73
5
 74
0
 42
0.0000001
 43
0.0000001
 44
0.0000000001
 40
0.0
 40
0.0
 40
0.0
 40
0.0
 40
0.25586222
 40
1.0
 40
1.0
 40
1.0
 40
1.0
 10
13.9460912248
 20
13.1869182253
 30
0.0
 10
13.9468706402
 20
13.1908291345
 30
0.0
 10
13.9501018331
 20
13.2060765177
 30
0.0
 10
13.954079248
 20
13.2211688006
 30
0.0
 10
13.9575031572
 20
13.232249872
 30
0.0
  0
SPLINE
  5
495
100
AcDbEntity
  8
0
100
AcDbSpline
 62
7
  6
CONTINUOUS
 70
0
 71
3
 72
14
 73
10
 74
0
 42
0.0000001
 43
0.0000001
 44
0.0000000001
 40
0.0
 40
0.0
 40
0.0
 40
0.0
 40
0.2294213061
 40
0.3542447634
 40
0.4835427168
 40
0.6151317163
 40
0.7465888134
 40
0.875646372
 40
1.0
 40
1.0
 40
1.0
 40
1.0
 10
17.6150281948
 20
11.2386233879
 30
0.0
 10
17.6116709756
 20
11.2277594223
 30
0.0
 10
17.6027041585
 20
11.2120535261
 30
0.0
 10
17.5862169937
 20
11.1946128458
 30
0.0
 10
17.5710964473
 20
11.1827824335
 30
0.0
 10
17.5541715909
 20
11.1730836501
 30
0.0
 10
17.5360629312
 20
11.1658475625
 30
0.0
 10
17.517456087
 20
11.161364022
 30
0.0
 10
17.5048788351
 20
11.1602906969
 30
0.0
 10
17.4987154631
 20
11.1602906969
 30
0.0
  0
SPLINE
  5
496
100
AcDbEntity
  8
0
100
AcDbSpline
 62
7
  6
CONTINUOUS
 70
0
 71
3
 72
14
 73
10
 74
0
 42
0.0000001
 43
0.0000001
 44
0.0000000001
 40
0.0
 40
0.0
 40
0.0
 40
0.0
 40
0.2773752534
 40
0.4085323104
 40
0.5344360062
 40
0.6555923552
 40
0.7728084463
 40
0.8871577783
 40
1.0
 40
1.0
 40
1.0
 40
1.0
 10
13.2503216283
 20
11.1602906969
 30
0.0
 10
13.2431200074
 20
11.1602906969
 30
0.0
 10
13.2324483528
 20
11.1613513412
 30
0.0
 10
13.2190884091
 20
11.1652034132
 30
0.0
 10
13.2100542512
 20
11.1691312062
 30
0.0
 10
13.2019672527
 20
11.1740988671
 30
0.0
 10
13.1949437636
 20
11.1800343505
 30
0.0
 10
13.1891013087
 20
11.1868546479
 30
0.0
 10
13.1860477955
 20
11.1919399572
 30
0.0
 10
13.1847565417
 20
11.194569832
 30
0.0
  0
SPLINE
  5
497
100
AcDbEntity
  8
0
100
AcDbSpline
 62
7
  6
CONTINUOUS
 70
0
 71
3
 72
9
 73
5
 74
0
 42
0.0000001
 43
0.0000001
 44
0.0000000001
 40
0.0
 40
0.0
 40
0.0
 40
0.0
 40
0.2561486699
 40
1.0
 40
1.0
 40
1.0
 40
1.0
 10
17.1152893368
 20
11.7770273542
 30
0.0
 10
17.1188442784
 20
11.7763652559
 30
0.0
 10
17.1327756287
 20
11.7740804536
 30
0.0
 10
17.1469149818
 20
11.7730029275
 30
0.0
 10
17.1574159959
 20
11.7730029275
 30
0.0
  0
SPLINE
  5
498
100
AcDbEntity
  8
0
100
AcDbSpline
 62
7
  6
CONTINUOUS
 70
0
 71
3
 72
15
 73
11
 74
0
 42
0.0000001
 43
0.0000001
 44
0.0000000001
 40
0.0
 40
0.0
 40
0.0
 40
0.0
 40
0.1412329818
 40
0.2776837483
 40
0.408787668
 40
0.5346409846
 40
0.6557486507
 40
0.7729160399
 40
0.8872117162
 40
1.0
 40
1.0
 40
1.0
 40
1.0
 10
17.0200183983
 20
11.8872381018
 30
0.0
 10
17.0142864284
 20
11.8872381018
 30
0.0
 10
17.0030064673
 20
11.8878165194
 30
0.0
 10
16.9865954887
 20
11.8904793297
 30
0.0
 10
16.9712140638
 20
11.8949148189
 30
0.0
 10
16.9570999589
 20
11.9010513333
 30
0.0
 10
16.9444634304
 20
11.9088140618
 30
0.0
 10
16.9334898084
 20
11.9180886157
 30
0.0
 10
16.9243605526
 20
11.9287444291
 30
0.0
 10
16.9195893819
 20
11.9366897625
 30
0.0
 10
16.9175721574
 20
11.9407988548
 30
0.0
  0
SPLINE
  5
499
100
AcDbEntity
  8
0
100
AcDbSpline
 62
7
  6
CONTINUOUS
 70
0
 71
3
 72
27
 73
23
 74
0
 42
0.0000001
 43
0.0000001
 44
0.0000000001
 40
0.0
 40
0.0
 40
0.0
 40
0.0
 40
0.0214583142
 40
0.0432122517
 40
0.0655388872
 40
0.0886783625
 40
0.1128292838
 40
0.1381365861
 40
0.1925148221
 40
0.25215276
 40
0.3167523842
 40
0.3855962218
 40
0.457667066
 40
0.5317479643
 40
0.6065084516
 40
0.6805795869
 40
0.7526291476
 40
0.8214454937
 40
0.8860048207
 40
0.9456165875
 40
0.9734776716
 40
1.0
 40
1.0
 40
1.0
 40
1.0
 10
14.5285238409
 20
11.8518395142
 30
0.0
 10
14.5302017167
 20
11.8572671225
 30
0.0
 10
14.5343791894
 20
11.8679678269
 30
0.0
 10
14.5429604574
 20
11.883111481
 30
0.0
 10
14.5538080607
 20
11.8972869951
 30
0.0
 10
14.5668255392
 20
11.9104007896
 30
0.0
 10
14.5819249249
 20
11.9223607295
 30
0.0
 10
14.6052305836
 20
11.9370257547
 30
0.0
 10
14.6392485952
 20
11.9518508137
 30
0.0
 10
14.6852215466
 20
11.9635848608
 30
0.0
 10
14.7361393796
 20
11.9694509474
 30
0.0
 10
14.7906585958
 20
11.9693090846
 30
0.0
 10
14.847344214
 20
11.9631734689
 30
0.0
 10
14.9046848836
 20
11.9512102553
 30
0.0
 10
14.9611464135
 20
11.9337398815
 30
0.0
 10
15.015215442
 20
11.9112303687
 30
0.0
 10
15.0654442971
 20
11.88428372
 30
0.0
 10
15.1104927646
 20
11.8536113979
 30
0.0
 10
15.1491678134
 20
11.8200324198
 30
0.0
 10
15.1758267281
 20
11.7896510198
 30
0.0
 10
15.1927858891
 20
11.7646491166
 30
0.0
 10
15.1997886056
 20
11.7520394025
 30
0.0
 10
15.2028819751
 20
11.7457357781
 30
0.0
  0
SPLINE
  5
49A
100
AcDbEntity
  8
0
100
AcDbSpline
 62
7
  6
CONTINUOUS
 70
0
 71
3
 72
14
 73
10
 74
0
 42
0.0000001
 43
0.0000001
 44
0.0000000001
 40
0.0
 40
0.0
 40
0.0
 40
0.0
 40
0.1164568645
 40
0.2338080607
 40
0.352933372
 40
0.4746568699
 40
0.5997244335
 40
0.72875325
 40
1.0
 40
1.0
 40
1.0
 40
1.0
 10
14.3852113201
 20
11.896126436
 30
0.0
 10
14.3834342732
 20
11.8903756437
 30
0.0
 10
14.3804885939
 20
11.8786271497
 30
0.0
 10
14.3779734362
 20
11.8605267434
 30
0.0
 10
14.3773643995
 20
11.8419896443
 30
0.0
 10
14.3786558702
 20
11.823090987
 30
0.0
 10
14.3818456729
 20
11.8038999554
 30
0.0
 10
14.3887228452
 20
11.7776043904
 30
0.0
 10
14.3965340745
 20
11.7583214733
 30
0.0
 10
14.4027102366
 20
11.7457357781
 30
0.0
  0
SPLINE
  5
49B
100
AcDbEntity
  8
0
100
AcDbSpline
 62
7
  6
CONTINUOUS
 70
0
 71
3
 72
9
 73
5
 74
0
 42
0.0000001
 43
0.0000001
 44
0.0000000001
 40
0.0
 40
0.0
 40
0.0
 40
0.0
 40
0.4940323333
 40
1.0
 40
1.0
 40
1.0
 40
1.0
 10
14.4132166219
 20
11.9712354188
 30
0.0
 10
14.4165102002
 20
11.976837767
 30
0.0
 10
14.423810346
 20
11.987815549
 30
0.0
 10
14.4322214483
 20
11.9979628473
 30
0.0
 10
14.4367156785
 20
12.0028721414
 30
0.0
  0
SPLINE
  5
49C
100
AcDbEntity
  8
0
100
AcDbSpline
 62
7
  6
CONTINUOUS
 70
0
 71
3
 72
9
 73
5
 74
0
 42
0.0000001
 43
0.0000001
 44
0.0000000001
 40
0.0
 40
0.0
 40
0.0
 40
0.0
 40
0.4884765107
 40
1.0
 40
1.0
 40
1.0
 40
1.0
 10
14.4367156785
 20
12.0028721414
 30
0.0
 10
14.4429200876
 20
12.0096495577
 30
0.0
 10
14.456578143
 20
12.0226693722
 30
0.0
 10
14.4717079974
 20
12.033923415
 30
0.0
 10
14.4797259726
 20
12.0392427137
 30
0.0
  0
SPLINE
  5
49D
100
AcDbEntity
  8
0
100
AcDbSpline
 62
7
  6
CONTINUOUS
 70
0
 71
3
 72
9
 73
5
 74
0
 42
0.0000001
 43
0.0000001
 44
0.0000000001
 40
0.0
 40
0.0
 40
0.0
 40
0.0
 40
0.4821856019
 40
1.0
 40
1.0
 40
1.0
 40
1.0
 10
14.4940844751
 20
12.0481452505
 30
0.0
 10
14.5071244297
 20
12.055699817
 30
0.0
 10
14.5354037654
 20
12.0692818096
 30
0.0
 10
14.5651581427
 20
12.0791056659
 30
0.0
 10
14.5807785326
 20
12.0833386292
 30
0.0
  0
SPLINE
  5
49E
100
AcDbEntity
  8
0
100
AcDbSpline
 62
7
  6
CONTINUOUS
 70
0
 71
3
 72
9
 73
5
 74
0
 42
0.0000001
 43
0.0000001
 44
0.0000000001
 40
0.0
 40
0.0
 40
0.0
 40
0.0
 40
0.2578091673
 40
1.0
 40
1.0
 40
1.0
 40
1.0
 10
15.3274037514
 20
11.8283185528
 30
0.0
 10
15.3298821541
 20
11.8247560704
 30
0.0
 10
15.3392551199
 20
11.8107735341
 30
0.0
 10
15.3476404993
 20
11.7961179762
 30
0.0
 10
15.3531444404
 20
11.7849021236
 30
0.0
  0
SPLINE
  5
49F
100
AcDbEntity
  8
0
100
AcDbSpline
 62
7
  6
CONTINUOUS
 70
0
 71
3
 72
9
 73
5
 74
0
 42
0.0000001
 43
0.0000001
 44
0.0000000001
 40
0.0
 40
0.0
 40
0.0
 40
0.0
 40
0.5183493869
 40
1.0
 40
1.0
 40
1.0
 40
1.0
 10
14.7619033925
 20
11.253122172
 30
0.0
 10
14.7631937399
 20
11.2504927206
 30
0.0
 10
14.7652707476
 20
11.2452006198
 30
0.0
 10
14.7662568015
 20
11.2395846379
 30
0.0
 10
14.7664047096
 20
11.2368670359
 30
0.0
  0
SPLINE
  5
4A0
100
AcDbEntity
  8
0
100
AcDbSpline
 62
7
  6
CONTINUOUS
 70
0
 71
3
 72
9
 73
5
 74
0
 42
0.0000001
 43
0.0000001
 44
0.0000000001
 40
0.0
 40
0.0
 40
0.0
 40
0.0
 40
0.5055036704
 40
1.0
 40
1.0
 40
1.0
 40
1.0
 10
14.7664047096
 20
11.2368670359
 30
0.0
 10
14.7665070718
 20
11.2349862772
 30
0.0
 10
14.7663999956
 20
11.2312406608
 30
0.0
 10
14.7656253469
 20
11.2275722716
 30
0.0
 10
14.7650814662
 20
11.2258118445
 30
0.0
  0
SPLINE
  5
4A1
100
AcDbEntity
  8
0
100
AcDbSpline
 62
7
  6
CONTINUOUS
 70
0
 71
3
 72
15
 73
11
 74
0
 42
0.0000001
 43
0.0000001
 44
0.0000000001
 40
0.0
 40
0.0
 40
0.0
 40
0.0
 40
0.141232017
 40
0.2776815372
 40
0.4087830034
 40
0.534633335
 40
0.6557383321
 40
0.7729047412
 40
0.8872056064
 40
1.0
 40
1.0
 40
1.0
 40
1.0
 10
13.5084733587
 20
11.8872381018
 30
0.0
 10
13.5027414424
 20
11.8872381018
 30
0.0
 10
13.4914615995
 20
11.8878165355
 30
0.0
 10
13.4750508561
 20
11.8904793554
 30
0.0
 10
13.4596697531
 20
11.8949148431
 30
0.0
 10
13.4455560116
 20
11.9010512403
 30
0.0
 10
13.4329195376
 20
11.9088134077
 30
0.0
 10
13.4219454733
 20
11.9180875502
 30
0.0
 10
13.4128166014
 20
11.928744278
 30
0.0
 10
13.408045495
 20
11.936690071
 30
0.0
 10
13.4060279109
 20
11.9407992503
 30
0.0
  0
SPLINE
  5
4A2
100
AcDbEntity
  8
0
100
AcDbSpline
 62
7
  6
CONTINUOUS
 70
0
 71
3
 72
11
 73
7
 74
0
 42
0.0000001
 43
0.0000001
 44
0.0000000001
 40
0.0
 40
0.0
 40
0.0
 40
0.0
 40
0.2308349112
 40
0.4749907738
 40
0.731712014
 40
1.0
 40
1.0
 40
1.0
 40
1.0
 10
13.6263449834
 20
11.8127926766
 30
0.0
 10
13.6379958864
 20
11.8175352074
 30
0.0
 10
13.6611480725
 20
11.8293855016
 30
0.0
 10
13.693823363
 20
11.8524138924
 30
0.0
 10
13.725063502
 20
11.8804818852
 30
0.0
 10
13.7443591731
 20
11.9016684964
 30
0.0
 10
13.7537426537
 20
11.9128800288
 30
0.0
  0
SPLINE
  5
4A3
100
AcDbEntity
  8
0
100
AcDbSpline
 62
7
  6
CONTINUOUS
 70
0
 71
3
 72
13
 73
9
 74
0
 42
0.0000001
 43
0.0000001
 44
0.0000000001
 40
0.0
 40
0.0
 40
0.0
 40
0.0
 40
0.2915328227
 40
0.5527705723
 40
0.6727706774
 40
0.7864683009
 40
0.8950186589
 40
1.0
 40
1.0
 40
1.0
 40
1.0
 10
14.7155706844
 20
11.1772373752
 30
0.0
 10
14.7204318665
 20
11.1779661917
 30
0.0
 10
14.7295695964
 20
11.1800306882
 30
0.0
 10
14.7400564858
 20
11.1846015843
 30
0.0
 10
14.7469860284
 20
11.1892893427
 30
0.0
 10
14.7513053141
 20
11.1931460957
 30
0.0
 10
14.7548391442
 20
11.1974108257
 30
0.0
 10
14.7566696741
 20
11.2005339186
 30
0.0
 10
14.7574303022
 20
11.2021322417
 30
0.0
  0
SPLINE
  5
4A4
100
AcDbEntity
  8
0
100
AcDbSpline
 62
7
  6
CONTINUOUS
 70
0
 71
3
 72
9
 73
5
 74
0
 42
0.0000001
 43
0.0000001
 44
0.0000000001
 40
0.0
 40
0.0
 40
0.0
 40
0.0
 40
0.511690814
 40
1.0
 40
1.0
 40
1.0
 40
1.0
 10
13.5113488754
 20
11.7770273542
 30
0.0
 10
13.5313926877
 20
11.7815954863
 30
0.0
 10
13.5702588324
 20
11.7919414247
 30
0.0
 10
13.6081742871
 20
11.8053962468
 30
0.0
 10
13.6263449834
 20
11.8127926766
 30
0.0
  0
SPLINE
  5
4A5
100
AcDbEntity
  8
0
100
AcDbSpline
 62
7
  6
CONTINUOUS
 70
0
 71
3
 72
9
 73
5
 74
0
 42
0.0000001
 43
0.0000001
 44
0.0000000001
 40
0.0
 40
0.0
 40
0.0
 40
0.0
 40
0.5156441113
 40
1.0
 40
1.0
 40
1.0
 40
1.0
 10
13.4731720198
 20
11.7730029275
 30
0.0
 10
13.479780517
 20
11.7730029275
 30
0.0
 10
13.4926065492
 20
11.7736201052
 30
0.0
 10
13.5052965624
 20
11.7756479876
 30
0.0
 10
13.5113488754
 20
11.7770273542
 30
0.0
  0
SPLINE
  5
4A6
100
AcDbEntity
  8
0
100
AcDbSpline
 62
7
  6
CONTINUOUS
 70
0
 71
3
 72
13
 73
9
 74
0
 42
0.0000001
 43
0.0000001
 44
0.0000000001
 40
0.0
 40
0.0
 40
0.0
 40
0.0
 40
0.1208761031
 40
0.2457805255
 40
0.3732292113
 40
0.5019242339
 40
0.7569057662
 40
1.0
 40
1.0
 40
1.0
 40
1.0
 10
13.6603795514
 20
11.976625269
 30
0.0
 10
13.6528324823
 20
11.976625269
 30
0.0
 10
13.6374727958
 20
11.9755934071
 30
0.0
 10
13.61453126
 20
11.9712269311
 30
0.0
 10
13.5917787586
 20
11.9640896985
 30
0.0
 10
13.5625369723
 20
11.9511719692
 30
0.0
 10
13.5295337985
 20
11.9295355346
 30
0.0
 10
13.5078600635
 20
11.9067137096
 30
0.0
 10
13.4990124015
 20
11.894381296
 30
0.0
  0
SPLINE
  5
4A7
100
AcDbEntity
  8
0
100
AcDbSpline
 62
7
  6
CONTINUOUS
 70
0
 71
3
 72
14
 73
10
 74
0
 42
0.0000001
 43
0.0000001
 44
0.0000000001
 40
0.0
 40
0.0
 40
0.0
 40
0.0
 40
0.1208234245
 40
0.2456737093
 40
0.3730686583
 40
0.5017106098
 40
0.6301767391
 40
0.7569848737
 40
1.0
 40
1.0
 40
1.0
 40
1.0
 10
17.171924591
 20
11.976625269
 30
0.0
 10
17.1643784644
 20
11.976625269
 30
0.0
 10
17.1490207667
 20
11.9755937218
 30
0.0
 10
17.1260814619
 20
11.9712282916
 30
0.0
 10
17.10333273
 20
11.9640931254
 30
0.0
 10
17.0813221315
 20
11.9543720328
 30
0.0
 10
17.0605448396
 20
11.942290833
 30
0.0
 10
17.0355426246
 20
11.9237004883
 30
0.0
 10
17.0194193731
 20
11.9067262225
 30
0.0
 10
17.0105696723
 20
11.8943955421
 30
0.0
  0
SPLINE
  5
4A8
100
AcDbEntity
  8
0
100
AcDbSpline
 62
7
  6
CONTINUOUS
 70
0
 71
3
 72
9
 73
5
 74
0
 42
0.0000001
 43
0.0000001
 44
0.0000000001
 40
0.0
 40
0.0
 40
0.0
 40
0.0
 40
0.4466498221
 40
1.0
 40
1.0
 40
1.0
 40
1.0
 10
14.2837970728
 20
12.7282235834
 30
0.0
 10
14.2863674607
 20
12.7277487226
 30
0.0
 10
14.2920535912
 20
12.726294539
 30
0.0
 10
14.2975221537
 20
12.7241764051
 30
0.0
 10
14.3004925483
 20
12.7228866606
 30
0.0
  0
SPLINE
  5
4A9
100
AcDbEntity
  8
0
100
AcDbSpline
 62
7
  6
CONTINUOUS
 70
0
 71
3
 72
9
 73
5
 74
0
 42
0.0000001
 43
0.0000001
 44
0.0000000001
 40
0.0
 40
0.0
 40
0.0
 40
0.0
 40
0.4691075856
 40
1.0
 40
1.0
 40
1.0
 40
1.0
 10
14.3004925483
 20
12.7228866606
 30
0.0
 10
14.3040861576
 20
12.7213263164
 30
0.0
 10
14.3115840896
 20
12.7176279797
 30
0.0
 10
14.3188735764
 20
12.7135496924
 30
0.0
 10
14.3227102274
 20
12.7113275023
 30
0.0
  0
SPLINE
  5
4AA
100
AcDbEntity
  8
0
100
AcDbSpline
 62
7
  6
CONTINUOUS
 70
0
 71
3
 72
9
 73
5
 74
0
 42
0.0000001
 43
0.0000001
 44
0.0000000001
 40
0.0
 40
0.0
 40
0.0
 40
0.0
 40
0.4938080349
 40
1.0
 40
1.0
 40
1.0
 40
1.0
 10
14.2286660388
 20
12.6926649718
 30
0.0
 10
14.2323499417
 20
12.6965414258
 30
0.0
 10
14.2401633417
 20
12.7040709119
 30
0.0
 10
14.2488637215
 20
12.7105841285
 30
0.0
 10
14.2534704539
 20
12.7135553953
 30
0.0
  0
SPLINE
  5
4AB
100
AcDbEntity
  8
0
100
AcDbSpline
 62
7
  6
CONTINUOUS
 70
0
 71
3
 72
9
 73
5
 74
0
 42
0.0000001
 43
0.0000001
 44
0.0000000001
 40
0.0
 40
0.0
 40
0.0
 40
0.0
 40
0.4975403239
 40
1.0
 40
1.0
 40
1.0
 40
1.0
 10
14.2534704539
 20
12.7135553953
 30
0.0
 10
14.2581728211
 20
12.7165883449
 30
0.0
 10
14.2680704454
 20
12.7220060578
 30
0.0
 10
14.2784903409
 20
12.7262814549
 30
0.0
 10
14.2837970728
 20
12.7282235834
 30
0.0
  0
SPLINE
  5
4AC
100
AcDbEntity
  8
0
100
AcDbSpline
 62
7
  6
CONTINUOUS
 70
0
 71
3
 72
9
 73
5
 74
0
 42
0.0000001
 43
0.0000001
 44
0.0000000001
 40
0.0
 40
0.0
 40
0.0
 40
0.0
 40
0.5148017205
 40
1.0
 40
1.0
 40
1.0
 40
1.0
 10
14.2124477444
 20
12.6402067568
 30
0.0
 10
14.2129187763
 20
12.6453099782
 30
0.0
 10
14.2141375662
 20
12.6552003093
 30
0.0
 10
14.216369238
 20
12.6649340637
 30
0.0
 10
14.2177959972
 20
12.6695487431
 30
0.0
  0
SPLINE
  5
4AD
100
AcDbEntity
  8
0
100
AcDbSpline
 62
7
  6
CONTINUOUS
 70
0
 71
3
 72
9
 73
5
 74
0
 42
0.0000001
 43
0.0000001
 44
0.0000000001
 40
0.0
 40
0.0
 40
0.0
 40
0.0
 40
0.5203184427
 40
1.0
 40
1.0
 40
1.0
 40
1.0
 10
14.2177959972
 20
12.6695487431
 30
0.0
 10
14.2191077342
 20
12.6737913917
 30
0.0
 10
14.2222155575
 20
12.6817793396
 30
0.0
 10
14.2264349962
 20
12.6892290067
 30
0.0
 10
14.2286646255
 20
12.6926625742
 30
0.0
  0
SPLINE
  5
4AE
100
AcDbEntity
  8
0
100
AcDbSpline
 62
7
  6
CONTINUOUS
 70
0
 71
3
 72
9
 73
5
 74
0
 42
0.0000001
 43
0.0000001
 44
0.0000000001
 40
0.0
 40
0.0
 40
0.0
 40
0.0
 40
0.4872976247
 40
1.0
 40
1.0
 40
1.0
 40
1.0
 10
14.7590297771
 20
11.2062286912
 30
0.0
 10
14.7598830305
 20
11.2089897959
 30
0.0
 10
14.7608118694
 20
11.2149392033
 30
0.0
 10
14.7600879178
 20
11.2208976739
 30
0.0
 10
14.7593844403
 20
11.2238557778
 30
0.0
  0
SPLINE
  5
4AF
100
AcDbEntity
  8
0
100
AcDbSpline
 62
7
  6
CONTINUOUS
 70
0
 71
3
 72
9
 73
5
 74
0
 42
0.0000001
 43
0.0000001
 44
0.0000000001
 40
0.0
 40
0.0
 40
0.0
 40
0.0
 40
0.2424550244
 40
1.0
 40
1.0
 40
1.0
 40
1.0
 10
14.7591597785
 20
11.2247550887
 30
0.0
 10
14.7589674853
 20
11.2254896366
 30
0.0
 10
14.7580915567
 20
11.2284973362
 30
0.0
 10
14.7568968853
 20
11.2314092057
 30
0.0
 10
14.7558517345
 20
11.2335389992
 30
0.0
  0
SPLINE
  5
4B0
100
AcDbEntity
  8
0
100
AcDbSpline
 62
7
  6
CONTINUOUS
 70
0
 71
3
 72
9
 73
5
 74
0
 42
0.0000001
 43
0.0000001
 44
0.0000000001
 40
0.0
 40
0.0
 40
0.0
 40
0.0
 40
0.4171242806
 40
1.0
 40
1.0
 40
1.0
 40
1.0
 10
14.0171980084
 20
13.1699262097
 30
0.0
 10
14.0192767201
 20
13.1621590688
 30
0.0
 10
14.0248169116
 20
13.1436876118
 30
0.0
 10
14.031109427
 20
13.1254635906
 30
0.0
 10
14.034898559
 20
13.1148862861
 30
0.0
  0
SPLINE
  5
4B1
100
AcDbEntity
  8
0
100
AcDbSpline
 62
7
  6
CONTINUOUS
 70
0
 71
3
 72
15
 73
11
 74
0
 42
0.0000001
 43
0.0000001
 44
0.0000000001
 40
0.0
 40
0.0
 40
0.0
 40
0.0
 40
0.1133561023
 40
0.2275816101
 40
0.3442067196
 40
0.4647225938
 40
0.5901546602
 40
0.7211133369
 40
0.8578649508
 40
1.0
 40
1.0
 40
1.0
 40
1.0
 10
13.6075782244
 20
12.9159156917
 30
0.0
 10
13.6101466715
 20
12.9089710083
 30
0.0
 10
13.616586215
 20
12.8954652133
 30
0.0
 10
13.6298370568
 20
12.877158236
 30
0.0
 10
13.6464398979
 20
12.8611449891
 30
0.0
 10
13.6660665008
 20
12.8477093348
 30
0.0
 10
13.6883583069
 20
12.8370496161
 30
0.0
 10
13.7129371626
 20
12.8293388651
 30
0.0
 10
13.7393700712
 20
12.8246965869
 30
0.0
 10
13.75760671
 20
12.8236982741
 30
0.0
 10
13.7668909803
 20
12.8236982741
 30
0.0
  0
SPLINE
  5
4B2
100
AcDbEntity
  8
0
100
AcDbSpline
 62
7
  6
CONTINUOUS
 70
0
 71
3
 72
14
 73
10
 74
0
 42
0.0000001
 43
0.0000001
 44
0.0000000001
 40
0.0
 40
0.0
 40
0.0
 40
0.0
 40
0.1423036394
 40
0.2800271632
 40
0.5387645294
 40
0.66028788
 40
0.7769621289
 40
0.8898062407
 40
1.0
 40
1.0
 40
1.0
 40
1.0
 10
13.6645728992
 20
13.100350527
 30
0.0
 10
13.6577937217
 20
13.0934882501
 30
0.0
 10
13.6451314122
 20
13.0792820621
 30
0.0
 10
13.6239295682
 20
13.0494977768
 30
0.0
 10
13.6086184469
 20
13.0173774675
 30
0.0
 10
13.6008766082
 20
12.9844858088
 30
0.0
 10
13.5990111749
 20
12.9606578177
 30
0.0
 10
13.6010346182
 20
12.9376132841
 30
0.0
 10
13.6049871859
 20
12.9229214586
 30
0.0
 10
13.6075782244
 20
12.9159156917
 30
0.0
  0
SPLINE
  5
4B3
100
AcDbEntity
  8
0
100
AcDbSpline
 62
7
  6
CONTINUOUS
 70
0
 71
3
 72
13
 73
9
 74
0
 42
0.0000001
 43
0.0000001
 44
0.0000000001
 40
0.0
 40
0.0
 40
0.0
 40
0.0
 40
0.1196980358
 40
0.2428785337
 40
0.495546694
 40
0.7505515712
 40
0.8765483809
 40
1.0
 40
1.0
 40
1.0
 40
1.0
 10
13.8808803299
 20
13.1925679446
 30
0.0
 10
13.8712713094
 20
13.1925679446
 30
0.0
 10
13.8517588887
 20
13.1914627765
 30
0.0
 10
13.8124337048
 20
13.1850961647
 30
0.0
 10
13.7638865833
 20
13.1695393291
 30
0.0
 10
13.7188845987
 20
13.1451431482
 30
0.0
 10
13.6863715663
 20
13.1209152863
 30
0.0
 10
13.6715377554
 20
13.1074007586
 30
0.0
 10
13.6645728992
 20
13.100350527
 30
0.0
  0
SPLINE
  5
4B4
100
AcDbEntity
  8
0
100
AcDbSpline
 62
7
  6
CONTINUOUS
 70
0
 71
3
 72
11
 73
7
 74
0
 42
0.0000001
 43
0.0000001
 44
0.0000000001
 40
0.0
 40
0.0
 40
0.0
 40
0.0
 40
0.2322461544
 40
0.4664068574
 40
0.718870356
 40
1.0
 40
1.0
 40
1.0
 40
1.0
 10
16.239785341
 20
13.3594216557
 30
0.0
 10
16.2385655103
 20
13.3594215962
 30
0.0
 10
16.2360901132
 20
13.3590289215
 30
0.0
 10
16.2327439273
 20
13.3571113555
 30
0.0
 10
16.2300999194
 20
13.3539755431
 30
0.0
 10
16.2289661342
 20
13.3513727209
 30
0.0
 10
16.2285301772
 20
13.3499619634
 30
0.0
  0
SPLINE
  5
4B5
100
AcDbEntity
  8
0
100
AcDbSpline
 62
7
  6
CONTINUOUS
 70
0
 71
3
 72
15
 73
11
 74
0
 42
0.0000001
 43
0.0000001
 44
0.0000000001
 40
0.0
 40
0.0
 40
0.0
 40
0.0
 40
0.1128221301
 40
0.2271399621
 40
0.3443032235
 40
0.4654538109
 40
0.591322801
 40
0.7223610933
 40
0.8587306364
 40
1.0
 40
1.0
 40
1.0
 40
1.0
 10
14.0350320743
 20
13.1123103857
 30
0.0
 10
14.0319742595
 20
13.1184746634
 30
0.0
 10
14.0247577813
 20
13.1303900683
 30
0.0
 10
14.0109838729
 20
13.1463593369
 30
0.0
 10
13.9944551974
 20
13.1602570183
 30
0.0
 10
13.9754346723
 20
13.1718774265
 30
0.0
 10
13.9542141564
 20
13.1810720718
 30
0.0
 10
13.9311010942
 20
13.1877126971
 30
0.0
 10
13.9064450337
 20
13.1917059555
 30
0.0
 10
13.8894963567
 20
13.1925679446
 30
0.0
 10
13.8808803299
 20
13.1925679446
 30
0.0
  0
SPLINE
  5
4B6
100
AcDbEntity
  8
0
100
AcDbSpline
 62
7
  6
CONTINUOUS
 70
0
 71
3
 72
10
 73
6
 74
0
 42
0.0000001
 43
0.0000001
 44
0.0000000001
 40
0.0
 40
0.0
 40
0.0
 40
0.0
 40
0.2417417107
 40
0.4902506545
 40
1.0
 40
1.0
 40
1.0
 40
1.0
 10
13.7668909803
 20
12.8236982741
 30
0.0
 10
13.775968693
 20
12.8236982741
 30
0.0
 10
13.7943922812
 20
12.8246852079
 30
0.0
 10
13.8315488536
 20
12.8303762253
 30
0.0
 10
13.8590021522
 20
12.8387005847
 30
0.0
 10
13.8767614858
 20
12.8458428857
 30
0.0
  0
SPLINE
  5
4B7
100
AcDbEntity
  8
0
100
AcDbSpline
 62
7
  6
CONTINUOUS
 70
0
 71
3
 72
11
 73
7
 74
0
 42
0.0000001
 43
0.0000001
 44
0.0000000001
 40
0.0
 40
0.0
 40
0.0
 40
0.0
 40
0.2336874905
 40
0.474723893
 40
0.7289546513
 40
1.0
 40
1.0
 40
1.0
 40
1.0
 10
15.8453986518
 20
11.2756441808
 30
0.0
 10
15.8457483874
 20
11.2767758363
 30
0.0
 10
15.8462090628
 20
11.2791600861
 30
0.0
 10
15.8461244366
 20
11.2828786058
 30
0.0
 10
15.845288993
 20
11.2866929843
 30
0.0
 10
15.8442861305
 20
11.2891731571
 30
0.0
 10
15.8436809053
 20
11.2904064764
 30
0.0
  0
SPLINE
  5
4B8
100
AcDbEntity
  8
0
100
AcDbSpline
 62
7
  6
CONTINUOUS
 70
0
 71
3
 72
23
 73
19
 74
0
 42
0.0000001
 43
0.0000001
 44
0.0000000001
 40
0.0
 40
0.0
 40
0.0
 40
0.0
 40
0.0504420703
 40
0.101716593
 40
0.1545517033
 40
0.2095117447
 40
0.2669499481
 40
0.3270091683
 40
0.389635263
 40
0.4546016954
 40
0.5215443486
 40
0.5899934632
 40
0.6594049619
 40
0.7291751634
 40
0.7986830292
 40
0.8673687138
 40
0.9346882005
 40
1.0
 40
1.0
 40
1.0
 40
1.0
 10
16.9175721574
 20
11.9407988548
 30
0.0
 10
16.9153253836
 20
11.9453755397
 30
0.0
 10
16.9116631574
 20
11.9550587067
 30
0.0
 10
16.908917802
 20
11.9705201738
 30
0.0
 10
16.9089366324
 20
11.9866775852
 30
0.0
 10
16.911699773
 20
12.0032182267
 30
0.0
 10
16.917142326
 20
12.0198413366
 30
0.0
 10
16.9251461045
 20
12.0362520716
 30
0.0
 10
16.9355661215
 20
12.0521555935
 30
0.0
 10
16.9482006671
 20
12.0672756518
 30
0.0
 10
16.9628281691
 20
12.0813355246
 30
0.0
 10
16.9791753537
 20
12.0940927944
 30
0.0
 10
16.9969549052
 20
12.105306057
 30
0.0
 10
17.0158346153
 20
12.1147872763
 30
0.0
 10
17.0354817902
 20
12.122352984
 30
0.0
 10
17.0555434101
 20
12.1278765638
 30
0.0
 10
17.0756474621
 20
12.1312375442
 30
0.0
 10
17.0890627311
 20
12.1320277611
 30
0.0
 10
17.0956641244
 20
12.1320277611
 30
0.0
  0
SPLINE
  5
4B9
100
AcDbEntity
  8
0
100
AcDbSpline
 62
7
  6
CONTINUOUS
 70
0
 71
3
 72
13
 73
9
 74
0
 42
0.0000001
 43
0.0000001
 44
0.0000000001
 40
0.0
 40
0.0
 40
0.0
 40
0.0
 40
0.112889649
 40
0.2273101197
 40
0.3445647541
 40
0.4657765407
 40
0.7225683104
 40
1.0
 40
1.0
 40
1.0
 40
1.0
 10
14.1367832186
 20
11.7628748942
 30
0.0
 10
14.1374285778
 20
11.7615600394
 30
0.0
 10
14.1389578739
 20
11.7590188661
 30
0.0
 10
14.1418786141
 20
11.7556094692
 30
0.0
 10
14.1453877758
 20
11.7526387527
 30
0.0
 10
14.1508824019
 20
11.7492660051
 30
0.0
 10
14.1590082167
 20
11.7464256137
 30
0.0
 10
14.1659671145
 20
11.7457357781
 30
0.0
 10
14.1695666725
 20
11.7457357781
 30
0.0
  0
SPLINE
  5
4BA
100
AcDbEntity
  8
0
100
AcDbSpline
 62
7
  6
CONTINUOUS
 70
0
 71
3
 72
28
 73
24
 74
0
 42
0.0000001
 43
0.0000001
 44
0.0000000001
 40
0.0
 40
0.0
 40
0.0
 40
0.0
 40
0.0260534692
 40
0.0533522642
 40
0.1115857968
 40
0.1744887991
 40
0.2414881641
 40
0.3117183089
 40
0.3841405598
 40
0.4575952373
 40
0.5308729953
 40
0.6027744368
 40
0.6378616173
 40
0.6721907235
 40
0.7056404542
 40
0.7381059559
 40
0.799700175
 40
0.8565014733
 40
0.9084095597
 40
0.9326677232
 40
0.9559118241
 40
0.9782912799
 40
1.0
 40
1.0
 40
1.0
 40
1.0
 10
15.3410411242
 20
11.7457357781
 30
0.0
 10
15.3368857614
 20
11.7542035172
 30
0.0
 10
15.3275381437
 20
11.7711424148
 30
0.0
 10
15.3050656593
 20
11.8047592337
 30
0.0
 10
15.2699735978
 20
11.8457340652
 30
0.0
 10
15.2191768769
 20
11.8913454348
 30
0.0
 10
15.1600107551
 20
11.9334137417
 30
0.0
 10
15.0938893097
 20
11.9709283688
 30
0.0
 10
15.0224028031
 20
12.0029960052
 30
0.0
 10
14.9472753461
 20
12.028843233
 30
0.0
 10
14.8703294835
 20
12.0478435636
 30
0.0
 10
14.8057038908
 20
12.0576748291
 30
0.0
 10
14.75467886
 20
12.0616598974
 30
0.0
 10
14.7174350698
 20
12.0626920091
 30
0.0
 10
14.6811348683
 20
12.0617758436
 30
0.0
 10
14.6351053948
 20
12.058040896
 30
0.0
 10
14.5811025457
 20
12.0488644075
 30
0.0
 10
14.5220940852
 20
12.0302774727
 30
0.0
 10
14.4788730173
 20
12.0084175021
 30
0.0
 10
14.4495190339
 20
11.9874918824
 30
0.0
 10
14.4305752515
 20
11.9706389937
 30
0.0
 10
14.4143501802
 20
11.9523703051
 30
0.0
 10
14.4053005871
 20
11.9391579443
 30
0.0
 10
14.4013030905
 20
11.9323910954
 30
0.0
  0
SPLINE
  5
4BB
100
AcDbEntity
  8
0
100
AcDbSpline
 62
7
  6
CONTINUOUS
 70
0
 71
3
 72
11
 73
7
 74
0
 42
0.0000001
 43
0.0000001
 44
0.0000000001
 40
0.0
 40
0.0
 40
0.0
 40
0.0
 40
0.2414618042
 40
0.4898069876
 40
0.7433130858
 40
1.0
 40
1.0
 40
1.0
 40
1.0
 10
15.9596452636
 20
12.6883268925
 30
0.0
 10
15.9707434633
 20
12.6883268925
 30
0.0
 10
15.9932718431
 20
12.6896009433
 30
0.0
 10
16.0270523022
 20
12.6950711294
 30
0.0
 10
16.0607967304
 20
12.7040480341
 30
0.0
 10
16.0828162354
 20
12.7122322059
 30
0.0
 10
16.0936690993
 20
12.7168590608
 30
0.0
  0
SPLINE
  5
4BC
100
AcDbEntity
  8
0
100
AcDbSpline
 62
7
  6
CONTINUOUS
 70
0
 71
3
 72
11
 73
7
 74
0
 42
0.0000001
 43
0.0000001
 44
0.0000000001
 40
0.0
 40
0.0
 40
0.0
 40
0.0
 40
0.2343146264
 40
0.4790146421
 40
0.7343993425
 40
1.0
 40
1.0
 40
1.0
 40
1.0
 10
15.8432556416
 20
12.7168590608
 30
0.0
 10
15.8514430671
 20
12.7121198091
 30
0.0
 10
15.8689684966
 20
12.7037441558
 30
0.0
 10
15.8973408451
 20
12.6948406241
 30
0.0
 10
15.9278653048
 20
12.6894774159
 30
0.0
 10
15.9489219802
 20
12.6883268925
 30
0.0
 10
15.9596452636
 20
12.6883268925
 30
0.0
  0
SPLINE
  5
4BD
100
AcDbEntity
  8
0
100
AcDbSpline
 62
7
  6
CONTINUOUS
 70
0
 71
3
 72
23
 73
19
 74
0
 42
0.0000001
 43
0.0000001
 44
0.0000000001
 40
0.0
 40
0.0
 40
0.0
 40
0.0
 40
0.0562284778
 40
0.1148248943
 40
0.1755501125
 40
0.2381195885
 40
0.3022082829
 40
0.3674623956
 40
0.4335061531
 40
0.4999489068
 40
0.5663936177
 40
0.6324423647
 40
0.6977053861
 40
0.7618058345
 40
0.8243899865
 40
0.8851329808
 40
0.9437495326
 40
1.0
 40
1.0
 40
1.0
 40
1.0
 10
14.696314102
 20
13.9373765912
 30
0.0
 10
14.7273228544
 20
13.9435149676
 30
0.0
 10
14.7911721207
 20
13.9535024273
 30
0.0
 10
14.889597987
 20
13.9616759142
 30
0.0
 10
14.991912778
 20
13.9633167697
 30
0.0
 10
15.0972059387
 20
13.9584011049
 30
0.0
 10
15.204549575
 20
13.9469778014
 30
0.0
 10
15.3129937118
 20
13.9291502352
 30
0.0
 10
15.4215766151
 20
13.9050693276
 30
0.0
 10
15.5293379967
 20
13.8749574499
 30
0.0
 10
15.6353205338
 20
13.8390744025
 30
0.0
 10
15.738585513
 20
13.7977410626
 30
0.0
 10
15.8382188577
 20
13.751326461
 30
0.0
 10
15.9333347664
 20
13.7002342744
 30
0.0
 10
16.0230954043
 20
13.6449256824
 30
0.0
 10
16.1067058377
 20
13.585880128
 30
0.0
 10
16.1834214307
 20
13.5236242475
 30
0.0
 10
16.2305536749
 20
13.47937415
 30
0.0
 10
16.2527177514
 20
13.4568184899
 30
0.0
  0
SPLINE
  5
4BE
100
AcDbEntity
  8
0
100
AcDbSpline
 62
7
  6
CONTINUOUS
 70
0
 71
3
 72
11
 73
7
 74
0
 42
0.0000001
 43
0.0000001
 44
0.0000000001
 40
0.0
 40
0.0
 40
0.0
 40
0.0
 40
0.2643564617
 40
0.5171071842
 40
0.7609094901
 40
1.0
 40
1.0
 40
1.0
 40
1.0
 10
16.275870503
 20
12.901293896
 30
0.0
 10
16.2790629969
 20
12.9116248102
 30
0.0
 10
16.283736782
 20
12.9323719342
 30
0.0
 10
16.2851501062
 20
12.9636368418
 30
0.0
 10
16.2807018311
 20
12.9935898775
 30
0.0
 10
16.2738337221
 20
13.012285907
 30
0.0
 10
16.2695270042
 20
13.0210660387
 30
0.0
  0
SPLINE
  5
4BF
100
AcDbEntity
  8
0
100
AcDbSpline
 62
7
  6
CONTINUOUS
 70
0
 71
3
 72
13
 73
9
 74
0
 42
0.0000001
 43
0.0000001
 44
0.0000000001
 40
0.0
 40
0.0
 40
0.0
 40
0.0
 40
0.1332484904
 40
0.2661299338
 40
0.5257905855
 40
0.6510884076
 40
0.7722388334
 40
1.0
 40
1.0
 40
1.0
 40
1.0
 10
16.0936690993
 20
12.7168590608
 30
0.0
 10
16.1045695789
 20
12.7215062154
 30
0.0
 10
16.1259163794
 20
12.7318297112
 30
0.0
 10
16.1659536456
 20
12.7560680058
 30
0.0
 10
16.2018541187
 20
12.7854815851
 30
0.0
 10
16.2318664318
 20
12.8191326967
 30
0.0
 10
16.2563439559
 20
12.8535291888
 30
0.0
 10
16.2698903472
 20
12.8819421049
 30
0.0
 10
16.275870503
 20
12.901293896
 30
0.0
  0
SPLINE
  5
4C0
100
AcDbEntity
  8
0
100
AcDbSpline
 62
7
  6
CONTINUOUS
 70
0
 71
3
 72
11
 73
7
 74
0
 42
0.0000001
 43
0.0000001
 44
0.0000000001
 40
0.0
 40
0.0
 40
0.0
 40
0.0
 40
0.2655916626
 40
0.5211331702
 40
0.7657676947
 40
1.0
 40
1.0
 40
1.0
 40
1.0
 10
15.9748973569
 20
12.6572463941
 30
0.0
 10
15.9641230536
 20
12.6572463941
 30
0.0
 10
15.9429594969
 20
12.6584120818
 30
0.0
 10
15.9122891382
 20
12.6638264721
 30
0.0
 10
15.883794081
 20
12.6728208081
 30
0.0
 10
15.8662132796
 20
12.6812851797
 30
0.0
 10
15.8580054111
 20
12.6860728316
 30
0.0
  0
SPLINE
  5
4C1
100
AcDbEntity
  8
0
100
AcDbSpline
 62
7
  6
CONTINUOUS
 70
0
 71
3
 72
9
 73
5
 74
0
 42
0.0000001
 43
0.0000001
 44
0.0000000001
 40
0.0
 40
0.0
 40
0.0
 40
0.0
 40
0.5023278731
 40
1.0
 40
1.0
 40
1.0
 40
1.0
 10
15.8190690952
 20
12.7174033759
 30
0.0
 10
15.8145792262
 20
12.7223799802
 30
0.0
 10
15.8062959903
 20
12.7329012118
 30
0.0
 10
15.7995645945
 20
12.7444798305
 30
0.0
 10
15.7966397373
 20
12.750441526
 30
0.0
  0
SPLINE
  5
4C2
100
AcDbEntity
  8
0
100
AcDbSpline
 62
7
  6
CONTINUOUS
 70
0
 71
3
 72
11
 73
7
 74
0
 42
0.0000001
 43
0.0000001
 44
0.0000000001
 40
0.0
 40
0.0
 40
0.0
 40
0.0
 40
0.239040065
 40
0.4828737631
 40
0.7357657998
 40
1.0
 40
1.0
 40
1.0
 40
1.0
 10
13.4060279109
 20
11.9407992503
 30
0.0
 10
13.4035513524
 20
11.9458432151
 30
0.0
 10
13.3996048935
 20
11.9565878548
 30
0.0
 10
13.3970453925
 20
11.9738047876
 30
0.0
 10
13.3978651278
 20
11.9917737573
 30
0.0
 10
13.400546542
 20
12.0036984307
 30
0.0
 10
13.4023804414
 20
12.0096329315
 30
0.0
  0
SPLINE
  5
4C3
100
AcDbEntity
  8
0
100
AcDbSpline
 62
7
  6
CONTINUOUS
 70
0
 71
3
 72
10
 73
6
 74
0
 42
0.0000001
 43
0.0000001
 44
0.0000000001
 40
0.0
 40
0.0
 40
0.0
 40
0.0
 40
0.2220973413
 40
0.4674813212
 40
1.0
 40
1.0
 40
1.0
 40
1.0
 10
16.1893354051
 20
13.100350527
 30
0.0
 10
16.1925054837
 20
13.0917791251
 30
0.0
 10
16.1993166549
 20
13.0737888271
 30
0.0
 10
16.2142916935
 20
13.0354621851
 30
0.0
 10
16.2262777606
 20
13.0057809577
 30
0.0
 10
16.2345523818
 20
12.9854913744
 30
0.0
  0
SPLINE
  5
4C4
100
AcDbEntity
  8
0
100
AcDbSpline
 62
7
  6
CONTINUOUS
 70
0
 71
3
 72
11
 73
7
 74
0
 42
0.0000001
 43
0.0000001
 44
0.0000000001
 40
0.0
 40
0.0
 40
0.0
 40
0.0
 40
0.2343316479
 40
0.4773841691
 40
0.732026741
 40
1.0
 40
1.0
 40
1.0
 40
1.0
 10
14.3420783494
 20
11.9114327614
 30
0.0
 10
14.3412036897
 20
11.9012804602
 30
0.0
 10
14.341079701
 20
11.8804250228
 30
0.0
 10
14.345621937
 20
11.8488145872
 30
0.0
 10
14.3548289643
 20
11.8167223534
 30
0.0
 10
14.3637479738
 20
11.7957548873
 30
0.0
 10
14.3688815362
 20
11.7852937871
 30
0.0
  0
SPLINE
  5
4C5
100
AcDbEntity
  8
0
100
AcDbSpline
 62
7
  6
CONTINUOUS
 70
0
 71
3
 72
10
 73
6
 74
0
 42
0.0000001
 43
0.0000001
 44
0.0000000001
 40
0.0
 40
0.0
 40
0.0
 40
0.0
 40
0.4044534514
 40
0.6759103925
 40
1.0
 40
1.0
 40
1.0
 40
1.0
 10
16.1663403278
 20
13.1699262097
 30
0.0
 10
16.1688950826
 20
13.1603803255
 30
0.0
 10
16.1737430838
 20
13.1445826072
 30
0.0
 10
16.1816343255
 20
13.1214598102
 30
0.0
 10
16.1865886919
 20
13.1077772144
 30
0.0
 10
16.1893354051
 20
13.100350527
 30
0.0
  0
SPLINE
  5
4C6
100
AcDbEntity
  8
0
100
AcDbSpline
 62
7
  6
CONTINUOUS
 70
0
 71
3
 72
34
 73
30
 74
0
 42
0.0000001
 43
0.0000001
 44
0.0000000001
 40
0.0
 40
0.0
 40
0.0
 40
0.0
 40
0.0214523797
 40
0.0432004767
 40
0.0655214965
 40
0.0886568065
 40
0.1128015374
 40
0.1381029231
 40
0.1646582673
 40
0.1925219433
 40
0.2217051311
 40
0.2521868181
 40
0.2839120951
 40
0.3168034149
 40
0.3856299726
 40
0.4576825549
 40
0.5317450867
 40
0.6064865845
 40
0.6805390534
 40
0.7168990157
 40
0.7525946515
 40
0.7874789356
 40
0.8214179333
 40
0.854291654
 40
0.885997297
 40
0.9164558809
 40
0.9456234807
 40
0.97347571
 40
1.0
 40
1.0
 40
1.0
 40
1.0
 10
14.125855477
 20
12.0835398442
 30
0.0
 10
14.129646347
 20
12.0958114728
 30
0.0
 10
14.1390962092
 20
12.1200024029
 30
0.0
 10
14.158498808
 20
12.1542381073
 30
0.0
 10
14.1830200818
 20
12.1862914535
 30
0.0
 10
14.2124572587
 20
12.2159356294
 30
0.0
 10
14.246589472
 20
12.2429820733
 30
0.0
 10
14.2851724359
 20
12.2672563824
 30
0.0
 10
14.3279345624
 20
12.2886149216
 30
0.0
 10
14.374587557
 20
12.3069155292
 30
0.0
 10
14.4248126671
 20
12.3220540191
 30
0.0
 10
14.4782737497
 20
12.333920618
 30
0.0
 10
14.5346096536
 20
12.3424532387
 30
0.0
 10
14.6142461321
 20
12.349393346
 30
0.0
 10
14.7185245416
 20
12.349121478
 30
0.0
 10
14.8466735398
 20
12.3352514491
 30
0.0
 10
14.9763181942
 20
12.3082035488
 30
0.0
 10
15.1039640573
 20
12.2687059463
 30
0.0
 10
15.2064777501
 20
12.226028285
 30
0.0
 10
15.2845521623
 20
12.1865065797
 30
0.0
 10
15.3401580331
 20
12.1547076293
 30
0.0
 10
15.3927821628
 20
12.1207905336
 30
0.0
 10
15.4420711176
 20
12.0849862704
 30
0.0
 10
15.4876861401
 20
12.0475332859
 30
0.0
 10
15.5293241534
 20
12.0086925316
 30
0.0
 10
15.5666974207
 20
11.968713569
 30
0.0
 10
15.5995607964
 20
11.9278634202
 30
0.0
 10
15.627668699
 20
11.8864210522
 30
0.0
 10
15.64350002
 20
11.8579080082
 30
0.0
 10
15.6504960284
 20
11.8436516418
 30
0.0
  0
SPLINE
  5
4C7
100
AcDbEntity
  8
0
100
AcDbSpline
 62
7
  6
CONTINUOUS
 70
0
 71
3
 72
13
 73
9
 74
0
 42
0.0000001
 43
0.0000001
 44
0.0000000001
 40
0.0
 40
0.0
 40
0.0
 40
0.0
 40
0.229580243
 40
0.3544915774
 40
0.4838678252
 40
0.7464156919
 40
0.8756245553
 40
1.0
 40
1.0
 40
1.0
 40
1.0
 10
15.6323410542
 20
11.7849021236
 30
0.0
 10
15.6306623966
 20
11.7794699858
 30
0.0
 10
15.6261796167
 20
11.7716176723
 30
0.0
 10
15.617934743
 20
11.7628941949
 30
0.0
 10
15.6078172791
 20
11.754985532
 30
0.0
 10
15.5960142205
 20
11.7492720166
 30
0.0
 10
15.5835548965
 20
11.7462750732
 30
0.0
 10
15.5772648691
 20
11.7457357781
 30
0.0
 10
15.5741846883
 20
11.7457357781
 30
0.0
  0
SPLINE
  5
4C8
100
AcDbEntity
  8
0
100
AcDbSpline
 62
7
  6
CONTINUOUS
 70
0
 71
3
 72
11
 73
7
 74
0
 42
0.0000001
 43
0.0000001
 44
0.0000000001
 40
0.0
 40
0.0
 40
0.0
 40
0.0
 40
0.2448529171
 40
0.4950263709
 40
0.7474213727
 40
1.0
 40
1.0
 40
1.0
 40
1.0
 10
16.1323407303
 20
12.9159156917
 30
0.0
 10
16.1242843319
 20
12.9077605377
 30
0.0
 10
16.1088590968
 20
12.8904030012
 30
0.0
 10
16.0880778664
 20
12.8622029589
 30
0.0
 10
16.0692513359
 20
12.8322484294
 30
0.0
 10
16.0578338046
 20
12.8115338615
 30
0.0
 10
16.0523509782
 20
12.8010565392
 30
0.0
  0
SPLINE
  5
4C9
100
AcDbEntity
  8
0
100
AcDbSpline
 62
7
  6
CONTINUOUS
 70
0
 71
3
 72
11
 73
7
 74
0
 42
0.0000001
 43
0.0000001
 44
0.0000000001
 40
0.0
 40
0.0
 40
0.0
 40
0.0
 40
0.2340729518
 40
0.4779011338
 40
0.7331594816
 40
1.0
 40
1.0
 40
1.0
 40
1.0
 10
16.2345523818
 20
12.9854913744
 30
0.0
 10
16.2256947578
 20
12.9815337938
 30
0.0
 10
16.2078703273
 20
12.9728470699
 30
0.0
 10
16.1817378077
 20
12.9572575982
 30
0.0
 10
16.156140763
 20
12.9383936914
 30
0.0
 10
16.1401133005
 20
12.9237835383
 30
0.0
 10
16.1323407303
 20
12.9159156917
 30
0.0
  0
SPLINE
  5
4CA
100
AcDbEntity
  8
0
100
AcDbSpline
 62
7
  6
CONTINUOUS
 70
0
 71
3
 72
12
 73
8
 74
0
 42
0.0000001
 43
0.0000001
 44
0.0000000001
 40
0.0
 40
0.0
 40
0.0
 40
0.0
 40
0.2719536786
 40
0.4021524803
 40
0.5284065616
 40
0.7702031228
 40
1.0
 40
1.0
 40
1.0
 40
1.0
 10
15.9160332996
 20
12.8236982741
 30
0.0
 10
15.9054238576
 20
12.8236982741
 30
0.0
 10
15.8897166317
 20
12.8229087089
 30
0.0
 10
15.8692722694
 20
12.8202118177
 30
0.0
 10
15.8501548412
 20
12.8166530089
 30
0.0
 10
15.8275692706
 20
12.8106853056
 30
0.0
 10
15.8102484526
 20
12.80441756
 30
0.0
 10
15.8019375204
 20
12.8010565392
 30
0.0
  0
SPLINE
  5
4CB
100
AcDbEntity
  8
0
100
AcDbSpline
 62
7
  6
CONTINUOUS
 70
0
 71
3
 72
24
 73
20
 74
0
 42
0.0000001
 43
0.0000001
 44
0.0000000001
 40
0.0
 40
0.0
 40
0.0
 40
0.0
 40
0.1779606612
 40
0.2620354016
 40
0.3423738626
 40
0.4186804162
 40
0.4905952134
 40
0.5577344626
 40
0.6198324379
 40
0.6767532026
 40
0.72847232
 40
0.7753799863
 40
0.8185130633
 40
0.8392395508
 40
0.8597735443
 40
0.8804840803
 40
0.9017752267
 40
0.9475292663
 40
1.0
 40
1.0
 40
1.0
 40
1.0
 10
13.9575031572
 20
13.232249872
 30
0.0
 10
13.960948449
 20
13.2434001461
 30
0.0
 10
13.9667203323
 20
13.2596218015
 30
0.0
 10
13.9758434883
 20
13.280145942
 30
0.0
 10
13.9830441176
 20
13.2942045241
 30
0.0
 10
13.9906887595
 20
13.3071092722
 30
0.0
 10
13.9987171599
 20
13.318744043
 30
0.0
 10
14.0070578353
 20
13.328984674
 30
0.0
 10
14.0156392372
 20
13.3376982362
 30
0.0
 10
14.024377555
 20
13.3447457035
 30
0.0
 10
14.0331744567
 20
13.3499934072
 30
0.0
 10
14.0419337687
 20
13.3532829683
 30
0.0
 10
14.0492245056
 20
13.3542302004
 30
0.0
 10
14.0547578179
 20
13.3537734135
 30
0.0
 10
14.0587296378
 20
13.3528409514
 30
0.0
 10
14.0625458728
 20
13.351294679
 30
0.0
 10
14.0675024566
 20
13.3483294131
 30
0.0
 10
14.0732208269
 20
13.3428108768
 30
0.0
 10
14.0766117192
 20
13.3372620932
 30
0.0
 10
14.0781269824
 20
13.334172728
 30
0.0
  0
SPLINE
  5
4CC
100
AcDbEntity
  8
0
100
AcDbSpline
 62
7
  6
CONTINUOUS
 70
0
 71
3
 72
11
 73
7
 74
0
 42
0.0000001
 43
0.0000001
 44
0.0000000001
 40
0.0
 40
0.0
 40
0.0
 40
0.0
 40
0.2555803142
 40
0.5093738747
 40
0.7587408379
 40
1.0
 40
1.0
 40
1.0
 40
1.0
 10
16.0523509782
 20
12.8010565392
 30
0.0
 10
16.0410079531
 20
12.8043403768
 30
0.0
 10
16.0182671436
 20
12.8104385283
 30
0.0
 10
15.9839515283
 20
12.8177139298
 30
0.0
 10
15.9498597068
 20
12.8225082506
 30
0.0
 10
15.9271804089
 20
12.8236982741
 30
0.0
 10
15.9160332996
 20
12.8236982741
 30
0.0
  0
SPLINE
  5
4CD
100
AcDbEntity
  8
0
100
AcDbSpline
 62
7
  6
CONTINUOUS
 70
0
 71
3
 72
30
 73
26
 74
0
 42
0.0000001
 43
0.0000001
 44
0.0000000001
 40
0.0
 40
0.0
 40
0.0
 40
0.0
 40
0.0339520975
 40
0.0671397737
 40
0.0995203753
 40
0.1310908132
 40
0.1619101093
 40
0.1920805335
 40
0.2217505067
 40
0.25108549
 40
0.2802614893
 40
0.309435535
 40
0.3387441554
 40
0.3682848098
 40
0.3981248677
 40
0.4282965719
 40
0.4588049279
 40
0.4896437053
 40
0.5521184965
 40
0.6155135315
 40
0.6795342965
 40
0.7438816554
 40
0.8083124567
 40
0.8726228039
 40
1.0
 40
1.0
 40
1.0
 40
1.0
 10
15.5595816743
 20
13.0065192055
 30
0.0
 10
15.5549138342
 20
13.0160331533
 30
0.0
 10
15.5463968187
 20
13.0352100452
 30
0.0
 10
15.5362810423
 20
13.0646250838
 30
0.0
 10
15.5292688595
 20
13.0941780958
 30
0.0
 10
15.5255701636
 20
13.1235904026
 30
0.0
 10
15.525395932
 20
13.1525534029
 30
0.0
 10
15.5288140043
 20
13.1807251495
 30
0.0
 10
15.5358683255
 20
13.2077401536
 30
0.0
 10
15.5464536034
 20
13.23324372
 30
0.0
 10
15.5604246653
 20
13.2568817997
 30
0.0
 10
15.5775174577
 20
13.278356319
 30
0.0
 10
15.5974355687
 20
13.2973976012
 30
0.0
 10
15.6198126973
 20
13.3138201957
 30
0.0
 10
15.6442776213
 20
13.3274778514
 30
0.0
 10
15.6704319409
 20
13.338322242
 30
0.0
 10
15.6979091817
 20
13.3463275666
 30
0.0
 10
15.73597078
 20
13.353345472
 30
0.0
 10
15.785125682
 20
13.3553070109
 30
0.0
 10
15.8441645929
 20
13.3480811909
 30
0.0
 10
15.902166034
 20
13.3326416268
 30
0.0
 10
15.9581789393
 20
13.3103173458
 30
0.0
 10
16.0116726166
 20
13.282350761
 30
0.0
 10
16.0789897983
 20
13.2390945413
 30
0.0
 10
16.1254357125
 20
13.2009755512
 30
0.0
 10
16.1545652392
 20
13.1739171903
 30
0.0
  0
SPLINE
  5
4CE
100
AcDbEntity
  8
0
100
AcDbSpline
 62
7
  6
CONTINUOUS
 70
0
 71
3
 72
11
 73
7
 74
0
 42
0.0000001
 43
0.0000001
 44
0.0000000001
 40
0.0
 40
0.0
 40
0.0
 40
0.0
 40
0.2712853133
 40
0.5254821577
 40
0.7663463298
 40
1.0
 40
1.0
 40
1.0
 40
1.0
 10
16.4225074058
 20
11.2534843481
 30
0.0
 10
16.4237188559
 20
11.2510147874
 30
0.0
 10
16.4257268557
 20
11.2460519702
 30
0.0
 10
16.4273986934
 20
11.2384205925
 30
0.0
 10
16.4275594067
 20
11.230984357
 30
0.0
 10
16.4266406053
 20
11.2262167084
 30
0.0
 10
16.4259411189
 20
11.2239531921
 30
0.0
  0
LINE
  5
4CF
100
AcDbEntity
  8
0
100
AcDbLine
 62
7
  6
CONTINUOUS
 10
15.9407517519
 20
12.3575708533
 11
15.9429915172
 21
12.3552630772
  0
SPLINE
  5
4D0
100
AcDbEntity
  8
0
100
AcDbSpline
 62
7
  6
CONTINUOUS
 70
0
 71
3
 72
13
 73
9
 74
0
 42
0.0000001
 43
0.0000001
 44
0.0000000001
 40
0.0
 40
0.0
 40
0.0
 40
0.0
 40
0.1124904634
 40
0.23365638
 40
0.3608651823
 40
0.4915689963
 40
0.7529822308
 40
1.0
 40
1.0
 40
1.0
 40
1.0
 10
15.931998931
 20
12.3903864991
 30
0.0
 10
15.9316089245
 20
12.3891244374
 30
0.0
 10
15.9310625523
 20
12.3864185048
 30
0.0
 10
15.9308811571
 20
12.382171057
 30
0.0
 10
15.9313124339
 20
12.3777272488
 30
0.0
 10
15.9326316999
 20
12.3717611323
 30
0.0
 10
15.9354653856
 20
12.3647479857
 30
0.0
 10
15.9388380462
 20
12.359750674
 30
0.0
 10
15.9407517519
 20
12.3575708533
 30
0.0
  0
SPLINE
  5
4D1
100
AcDbEntity
  8
0
100
AcDbSpline
 62
7
  6
CONTINUOUS
 70
0
 71
3
 72
24
 73
20
 74
0
 42
0.0000001
 43
0.0000001
 44
0.0000000001
 40
0.0
 40
0.0
 40
0.0
 40
0.0
 40
0.1168123042
 40
0.2383986734
 40
0.3640350975
 40
0.4280052327
 40
0.4924019875
 40
0.5569674969
 40
0.6213738614
 40
0.6852717662
 40
0.7483423311
 40
0.7795578577
 40
0.8105362097
 40
0.8413607135
 40
0.8721458258
 40
0.9030988012
 40
0.9345110963
 40
0.966731141
 40
1.0
 40
1.0
 40
1.0
 40
1.0
 10
16.1774097118
 20
12.0584677115
 30
0.0
 10
16.1867541978
 20
12.0394256511
 30
0.0
 10
16.2085250345
 20
12.0018369153
 30
0.0
 10
16.2488178822
 20
11.9492251558
 30
0.0
 10
16.2890103538
 20
11.9091961933
 30
0.0
 10
16.325254926
 20
11.880598749
 30
0.0
 10
16.3545808287
 20
11.8613395342
 30
0.0
 10
16.3857444962
 20
11.845020687
 30
0.0
 10
16.4185268821
 20
11.8324309458
 30
0.0
 10
16.4524975973
 20
11.8245358722
 30
0.0
 10
16.4813697633
 20
11.82284732
 30
0.0
 10
16.5040412134
 20
11.8251735118
 30
0.0
 10
16.5205627624
 20
11.8289026046
 30
0.0
 10
16.5363673592
 20
11.8347981698
 30
0.0
 10
16.5511344308
 20
11.8429681177
 30
0.0
 10
16.5644688231
 20
11.853503439
 30
0.0
 10
16.5759860721
 20
11.8663658581
 30
0.0
 10
16.5852592037
 20
11.8814226064
 30
0.0
 10
16.5897004551
 20
11.8925244954
 30
0.0
 10
16.5914840768
 20
11.8982962974
 30
0.0
  0
SPLINE
  5
4D2
100
AcDbEntity
  8
0
100
AcDbSpline
 62
7
  6
CONTINUOUS
 70
0
 71
3
 72
11
 73
7
 74
0
 42
0.0000001
 43
0.0000001
 44
0.0000000001
 40
0.0
 40
0.0
 40
0.0
 40
0.0
 40
0.2637701646
 40
0.5173006006
 40
0.7622146705
 40
1.0
 40
1.0
 40
1.0
 40
1.0
 10
16.0372085814
 20
12.2588079428
 30
0.0
 10
16.0515470423
 20
12.242702684
 30
0.0
 10
16.0790473386
 20
12.2105517384
 30
0.0
 10
16.116836103
 20
12.1609541424
 30
0.0
 10
16.1498910473
 20
12.1105919222
 30
0.0
 10
16.1688460352
 20
12.0759186495
 30
0.0
 10
16.1774097118
 20
12.0584677115
 30
0.0
  0
SPLINE
  5
4D3
100
AcDbEntity
  8
0
100
AcDbSpline
 62
7
  6
CONTINUOUS
 70
0
 71
3
 72
15
 73
11
 74
0
 42
0.0000001
 43
0.0000001
 44
0.0000000001
 40
0.0
 40
0.0
 40
0.0
 40
0.0
 40
0.1095968686
 40
0.2298715576
 40
0.3584427761
 40
0.4919858109
 40
0.6266730676
 40
0.7585364323
 40
0.8840689919
 40
1.0
 40
1.0
 40
1.0
 40
1.0
 10
14.3461147547
 20
13.355400842
 30
0.0
 10
14.3495705259
 20
13.3556223561
 30
0.0
 10
14.3567752253
 20
13.3569011185
 30
0.0
 10
14.3674629152
 20
13.3607734502
 30
0.0
 10
14.3781350926
 20
13.3665219521
 30
0.0
 10
14.3883212264
 20
13.3738900673
 30
0.0
 10
14.3975743626
 20
13.3825521603
 30
0.0
 10
14.4054889866
 20
13.3921308011
 30
0.0
 10
14.4117049654
 20
13.4021998207
 30
0.0
 10
14.4146805486
 20
13.4092740002
 30
0.0
 10
14.4157620395
 20
13.412773706
 30
0.0
  0
SPLINE
  5
4D4
100
AcDbEntity
  8
0
100
AcDbSpline
 62
7
  6
CONTINUOUS
 70
0
 71
3
 72
13
 73
9
 74
0
 42
0.0000001
 43
0.0000001
 44
0.0000000001
 40
0.0
 40
0.0
 40
0.0
 40
0.0
 40
0.2286640731
 40
0.3496531487
 40
0.4745164447
 40
0.6026771091
 40
0.7335130267
 40
1.0
 40
1.0
 40
1.0
 40
1.0
 10
16.7790854775
 20
12.5053746524
 30
0.0
 10
16.7825085071
 20
12.5164515805
 30
0.0
 10
16.785138771
 20
12.5342684111
 30
0.0
 10
16.7843563929
 20
12.5583353738
 30
0.0
 10
16.7817536849
 20
12.5771564091
 30
0.0
 10
16.7773159845
 20
12.5961293246
 30
0.0
 10
16.7692311344
 20
12.6215376044
 30
0.0
 10
16.761198626
 20
12.6400772942
 30
0.0
 10
16.7552455094
 20
12.6522066094
 30
0.0
  0
SPLINE
  5
4D5
100
AcDbEntity
  8
0
100
AcDbSpline
 62
7
  6
CONTINUOUS
 70
0
 71
3
 72
15
 73
11
 74
0
 42
0.0000001
 43
0.0000001
 44
0.0000000001
 40
0.0
 40
0.0
 40
0.0
 40
0.0
 40
0.1133561023
 40
0.2275816101
 40
0.3442067196
 40
0.4647225938
 40
0.5901546602
 40
0.7211133369
 40
0.8578649508
 40
1.0
 40
1.0
 40
1.0
 40
1.0
 10
15.7567205437
 20
12.9159156917
 30
0.0
 10
15.7592889908
 20
12.9089710083
 30
0.0
 10
15.7657285344
 20
12.8954652133
 30
0.0
 10
15.7789793762
 20
12.877158236
 30
0.0
 10
15.7955822172
 20
12.8611449891
 30
0.0
 10
15.8152088202
 20
12.8477093348
 30
0.0
 10
15.8375006262
 20
12.8370496161
 30
0.0
 10
15.862079482
 20
12.8293388651
 30
0.0
 10
15.8885123905
 20
12.8246965869
 30
0.0
 10
15.9067490293
 20
12.8236982741
 30
0.0
 10
15.9160332996
 20
12.8236982741
 30
0.0
  0
SPLINE
  5
4D6
100
AcDbEntity
  8
0
100
AcDbSpline
 62
7
  6
CONTINUOUS
 70
0
 71
3
 72
14
 73
10
 74
0
 42
0.0000001
 43
0.0000001
 44
0.0000000001
 40
0.0
 40
0.0
 40
0.0
 40
0.0
 40
0.1423036394
 40
0.2800271632
 40
0.5387645294
 40
0.66028788
 40
0.7769621289
 40
0.8898062407
 40
1.0
 40
1.0
 40
1.0
 40
1.0
 10
15.8137152185
 20
13.100350527
 30
0.0
 10
15.8069360411
 20
13.0934882501
 30
0.0
 10
15.7942737315
 20
13.0792820621
 30
0.0
 10
15.7730718875
 20
13.0494977768
 30
0.0
 10
15.7577607662
 20
13.0173774675
 30
0.0
 10
15.7500189275
 20
12.9844858088
 30
0.0
 10
15.7481534943
 20
12.9606578177
 30
0.0
 10
15.7501769375
 20
12.9376132841
 30
0.0
 10
15.7541295052
 20
12.9229214586
 30
0.0
 10
15.7567205437
 20
12.9159156917
 30
0.0
  0
SPLINE
  5
4D7
100
AcDbEntity
  8
0
100
AcDbSpline
 62
7
  6
CONTINUOUS
 70
0
 71
3
 72
13
 73
9
 74
0
 42
0.0000001
 43
0.0000001
 44
0.0000000001
 40
0.0
 40
0.0
 40
0.0
 40
0.0
 40
0.1196980358
 40
0.2428785337
 40
0.495546694
 40
0.7505515712
 40
0.8765483809
 40
1.0
 40
1.0
 40
1.0
 40
1.0
 10
16.0300226492
 20
13.1925679446
 30
0.0
 10
16.0204136287
 20
13.1925679446
 30
0.0
 10
16.000901208
 20
13.1914627765
 30
0.0
 10
15.9615760241
 20
13.1850961647
 30
0.0
 10
15.9130289026
 20
13.1695393291
 30
0.0
 10
15.868026918
 20
13.1451431482
 30
0.0
 10
15.8355138856
 20
13.1209152863
 30
0.0
 10
15.8206800747
 20
13.1074007586
 30
0.0
 10
15.8137152185
 20
13.100350527
 30
0.0
  0
SPLINE
  5
4D8
100
AcDbEntity
  8
0
100
AcDbSpline
 62
7
  6
CONTINUOUS
 70
0
 71
3
 72
15
 73
11
 74
0
 42
0.0000001
 43
0.0000001
 44
0.0000000001
 40
0.0
 40
0.0
 40
0.0
 40
0.0
 40
0.1133561023
 40
0.2275816101
 40
0.3442067196
 40
0.4647225938
 40
0.5901546602
 40
0.7211133369
 40
0.8578649508
 40
1.0
 40
1.0
 40
1.0
 40
1.0
 10
16.1893354051
 20
13.100350527
 30
0.0
 10
16.186766958
 20
13.1072952104
 30
0.0
 10
16.1803274145
 20
13.1208010054
 30
0.0
 10
16.1670765726
 20
13.1391079827
 30
0.0
 10
16.1504737316
 20
13.1551212296
 30
0.0
 10
16.1308471287
 20
13.1685568839
 30
0.0
 10
16.1085553226
 20
13.1792166025
 30
0.0
 10
16.0839764669
 20
13.1869273536
 30
0.0
 10
16.0575435583
 20
13.1915696318
 30
0.0
 10
16.0393069195
 20
13.1925679446
 30
0.0
 10
16.0300226492
 20
13.1925679446
 30
0.0
  0
LINE
  5
4D9
100
AcDbEntity
  8
0
100
AcDbLine
 62
7
  6
CONTINUOUS
 10
14.3438147019
 20
12.6520957144
 11
14.3451516804
 21
12.6574626243
  0
SPLINE
  5
4DA
100
AcDbEntity
  8
0
100
AcDbSpline
 62
7
  6
CONTINUOUS
 70
0
 71
3
 72
9
 73
5
 74
0
 42
0.0000001
 43
0.0000001
 44
0.0000000001
 40
0.0
 40
0.0
 40
0.0
 40
0.0
 40
0.2591189582
 40
1.0
 40
1.0
 40
1.0
 40
1.0
 10
14.3451516804
 20
12.6574626243
 30
0.0
 10
14.3452834712
 20
12.6581758063
 30
0.0
 10
14.345722409
 20
12.6609400955
 30
0.0
 10
14.3458745447
 20
12.6637535053
 30
0.0
 10
14.3457909048
 20
12.6658254948
 30
0.0
  0
SPLINE
  5
4DB
100
AcDbEntity
  8
0
100
AcDbSpline
 62
7
  6
CONTINUOUS
 70
0
 71
3
 72
9
 73
5
 74
0
 42
0.0000001
 43
0.0000001
 44
0.0000000001
 40
0.0
 40
0.0
 40
0.0
 40
0.0
 40
0.2602644906
 40
1.0
 40
1.0
 40
1.0
 40
1.0
 10
14.3457909048
 20
12.6658254948
 30
0.0
 10
14.3457586219
 20
12.6666252323
 30
0.0
 10
14.345522876
 20
12.6696914246
 30
0.0
 10
14.3448128968
 20
12.6727293478
 30
0.0
 10
14.3439922112
 20
12.6748510574
 30
0.0
  0
SPLINE
  5
4DC
100
AcDbEntity
  8
0
100
AcDbSpline
 62
7
  6
CONTINUOUS
 70
0
 71
3
 72
23
 73
19
 74
0
 42
0.0000001
 43
0.0000001
 44
0.0000000001
 40
0.0
 40
0.0
 40
0.0
 40
0.0
 40
0.0492819404
 40
0.1019435536
 40
0.1579302603
 40
0.2170750509
 40
0.2790638765
 40
0.343486434
 40
0.4098570657
 40
0.4776323059
 40
0.546229407
 40
0.6150438895
 40
0.6834658639
 40
0.7508952528
 40
0.8167588981
 40
0.8805281882
 40
0.9417365603
 40
1.0
 40
1.0
 40
1.0
 40
1.0
 10
16.0079972174
 20
11.8828179873
 30
0.0
 10
15.9936460027
 20
11.9120626881
 30
0.0
 10
15.9596464759
 20
11.970500016
 30
0.0
 10
15.8966504105
 20
12.0539963562
 30
0.0
 10
15.8208041655
 20
12.1351778427
 30
0.0
 10
15.7331295228
 20
12.2130002638
 30
0.0
 10
15.6347490968
 20
12.2864751243
 30
0.0
 10
15.526949235
 20
12.354654348
 30
0.0
 10
15.4111345626
 20
12.4166541442
 30
0.0
 10
15.2888156003
 20
12.4716627075
 30
0.0
 10
15.1615927582
 20
12.5189613495
 30
0.0
 10
15.0311320947
 20
12.5579332056
 30
0.0
 10
14.8991413703
 20
12.5880677734
 30
0.0
 10
14.7673470805
 20
12.6089674896
 30
0.0
 10
14.6374737962
 20
12.6203610336
 30
0.0
 10
14.5112112846
 20
12.6220989416
 30
0.0
 10
14.3902172794
 20
12.6141585599
 30
0.0
 10
14.3120284587
 20
12.6021494388
 30
0.0
 10
14.2742981659
 20
12.5944236889
 30
0.0
  0
SPLINE
  5
4DD
100
AcDbEntity
  8
0
100
AcDbSpline
 62
7
  6
CONTINUOUS
 70
0
 71
3
 72
18
 73
14
 74
0
 42
0.0000001
 43
0.0000001
 44
0.0000000001
 40
0.0
 40
0.0
 40
0.0
 40
0.0
 40
0.149100226
 40
0.2903432666
 40
0.4237505701
 40
0.5496857245
 40
0.668895409
 40
0.7263633367
 40
0.7826205344
 40
0.8378752539
 40
0.8923558496
 40
0.9463107484
 40
1.0
 40
1.0
 40
1.0
 40
1.0
 10
14.2573204737
 20
12.5908134424
 30
0.0
 10
14.2269976473
 20
12.5841233561
 30
0.0
 10
14.1684467097
 20
12.5686504704
 30
0.0
 10
14.085475079
 20
12.5381805421
 30
0.0
 10
14.010444918
 20
12.5013059063
 30
0.0
 10
13.9440973777
 20
12.4583594776
 30
0.0
 10
13.8959918258
 20
12.4172915478
 30
0.0
 10
13.8628036862
 20
12.3818534362
 30
0.0
 10
13.8407657335
 20
12.3543683659
 30
0.0
 10
13.8213386518
 20
12.3257276633
 30
0.0
 10
13.8045779466
 20
12.2959953125
 30
0.0
 10
13.7905260047
 20
12.2652509171
 30
0.0
 10
13.7829770681
 20
12.2441070425
 30
0.0
 10
13.779675319
 20
12.233424153
 30
0.0
  0
SPLINE
  5
4DE
100
AcDbEntity
  8
0
100
AcDbSpline
 62
7
  6
CONTINUOUS
 70
0
 71
3
 72
43
 73
39
 74
0
 42
0.0000001
 43
0.0000001
 44
0.0000000001
 40
0.0
 40
0.0
 40
0.0
 40
0.0
 40
0.0276953622
 40
0.0569890381
 40
0.0878658047
 40
0.1202850361
 40
0.1541520321
 40
0.1893313318
 40
0.2256578849
 40
0.2629416833
 40
0.3009715749
 40
0.339522053
 40
0.3783585249
 40
0.4172403445
 40
0.4559266574
 40
0.4941796037
 40
0.5317701123
 40
0.5684814723
 40
0.6041147225
 40
0.6384947352
 40
0.6714740798
 40
0.7029424891
 40
0.7328321148
 40
0.7611267142
 40
0.7878724266
 40
0.8131843295
 40
0.837256751
 40
0.8603636147
 40
0.8716700156
 40
0.882870034
 40
0.894015043
 40
0.9051576207
 40
0.9163503804
 40
0.927644228
 40
0.9390878759
 40
0.9507275228
 40
0.9747462301
 40
1.0
 40
1.0
 40
1.0
 40
1.0
 10
15.9498408515
 20
11.8436516418
 30
0.0
 10
15.9384079268
 20
11.8669494929
 30
0.0
 10
15.912036676
 20
11.9135294422
 30
0.0
 10
15.8643115528
 20
11.9807669742
 30
0.0
 10
15.8077493261
 20
12.0467038591
 30
0.0
 10
15.7428918495
 20
12.1107350785
 30
0.0
 10
15.6703308714
 20
12.1723025827
 30
0.0
 10
15.5907209563
 20
12.2308378238
 30
0.0
 10
15.5047950578
 20
12.2858146011
 30
0.0
 10
15.413338705
 20
12.3367313705
 30
0.0
 10
15.3171876609
 20
12.3831166717
 30
0.0
 10
15.2172279436
 20
12.4245524847
 30
0.0
 10
15.1143741547
 20
12.4606512862
 30
0.0
 10
15.0095721078
 20
12.4910856626
 30
0.0
 10
14.9037844532
 20
12.5155775387
 30
0.0
 10
14.7979808644
 20
12.5338958179
 30
0.0
 10
14.693133575
 20
12.5458806275
 30
0.0
 10
14.5902024776
 20
12.5514157016
 30
0.0
 10
14.4901298288
 20
12.5504507265
 30
0.0
 10
14.3938294494
 20
12.5429976886
 30
0.0
 10
14.3021791635
 20
12.5291122716
 30
0.0
 10
14.2160109102
 20
12.5089230116
 30
0.0
 10
14.13610597
 20
12.482598609
 30
0.0
 10
14.0631909285
 20
12.4503558765
 30
0.0
 10
13.9979287562
 20
12.4124689602
 30
0.0
 10
13.9409339125
 20
12.3692306543
 30
0.0
 10
13.89276649
 20
12.3210126069
 30
0.0
 10
13.8601522463
 20
12.2766628907
 30
0.0
 10
13.8391898387
 20
12.2393673348
 30
0.0
 10
13.8260399638
 20
12.2106657402
 30
0.0
 10
13.8153852245
 20
12.181111585
 30
0.0
 10
13.8072557673
 20
12.1507719809
 30
0.0
 10
13.8016715909
 20
12.1197214832
 30
0.0
 10
13.7986381259
 20
12.0880369323
 30
0.0
 10
13.7981646809
 20
12.0557923713
 30
0.0
 10
13.8009784151
 20
12.011706142
 30
0.0
 10
13.8111267581
 20
11.9553205818
 30
0.0
 10
13.8255293643
 20
11.9112986057
 30
0.0
 10
13.8342199025
 20
11.8892881464
 30
0.0
  0
SPLINE
  5
4DF
100
AcDbEntity
  8
0
100
AcDbSpline
 62
7
  6
CONTINUOUS
 70
0
 71
3
 72
14
 73
10
 74
0
 42
0.0000001
 43
0.0000001
 44
0.0000000001
 40
0.0
 40
0.0
 40
0.0
 40
0.0
 40
0.1423036394
 40
0.2800271632
 40
0.5387645294
 40
0.66028788
 40
0.7769621289
 40
0.8898062407
 40
1.0
 40
1.0
 40
1.0
 40
1.0
 10
16.1323407303
 20
12.9159156917
 30
0.0
 10
16.1391199077
 20
12.9227779685
 30
0.0
 10
16.1517822173
 20
12.9369841566
 30
0.0
 10
16.1729840613
 20
12.9667684419
 30
0.0
 10
16.1882951826
 20
12.9988887512
 30
0.0
 10
16.1960370213
 20
13.0317804098
 30
0.0
 10
16.1979024545
 20
13.055608401
 30
0.0
 10
16.1958790113
 20
13.0786529345
 30
0.0
 10
16.1919264436
 20
13.09334476
 30
0.0
 10
16.1893354051
 20
13.100350527
 30
0.0
  0
SPLINE
  5
4E0
100
AcDbEntity
  8
0
100
AcDbSpline
 62
7
  6
CONTINUOUS
 70
0
 71
3
 72
13
 73
9
 74
0
 42
0.0000001
 43
0.0000001
 44
0.0000000001
 40
0.0
 40
0.0
 40
0.0
 40
0.0
 40
0.1196980358
 40
0.2428785337
 40
0.495546694
 40
0.7505515712
 40
0.8765483809
 40
1.0
 40
1.0
 40
1.0
 40
1.0
 10
15.9160332996
 20
12.8236982741
 30
0.0
 10
15.9256423201
 20
12.8236982741
 30
0.0
 10
15.9451547408
 20
12.8248034422
 30
0.0
 10
15.9844799247
 20
12.831170054
 30
0.0
 10
16.0330270462
 20
12.8467268896
 30
0.0
 10
16.0780290308
 20
12.8711230705
 30
0.0
 10
16.1105420632
 20
12.8953509324
 30
0.0
 10
16.1253758741
 20
12.90886546
 30
0.0
 10
16.1323407303
 20
12.9159156917
 30
0.0
  0
SPLINE
  5
4E1
100
AcDbEntity
  8
0
100
AcDbSpline
 62
7
  6
CONTINUOUS
 70
0
 71
3
 72
12
 73
8
 74
0
 42
0.0000001
 43
0.0000001
 44
0.0000000001
 40
0.0
 40
0.0
 40
0.0
 40
0.0
 40
0.2713725663
 40
0.5253788093
 40
0.7660670494
 40
0.8834807287
 40
1.0
 40
1.0
 40
1.0
 40
1.0
 10
14.5408693857
 20
11.7457357781
 30
0.0
 10
14.5365124334
 20
11.7546143135
 30
0.0
 10
14.529287267
 20
11.7724469449
 30
0.0
 10
14.5232842345
 20
11.7998599657
 30
0.0
 10
14.5228062062
 20
11.8223341381
 30
0.0
 10
14.5251907474
 20
11.8394934228
 30
0.0
 10
14.5272696643
 20
11.8477824921
 30
0.0
 10
14.5285238409
 20
11.8518395142
 30
0.0
  0
SPLINE
  5
4E2
100
AcDbEntity
  8
0
100
AcDbSpline
 62
7
  6
CONTINUOUS
 70
0
 71
3
 72
11
 73
7
 74
0
 42
0.0000001
 43
0.0000001
 44
0.0000000001
 40
0.0
 40
0.0
 40
0.0
 40
0.0
 40
0.2433456731
 40
0.489517429
 40
0.7411652189
 40
1.0
 40
1.0
 40
1.0
 40
1.0
 10
15.7813870863
 20
12.7815217534
 30
0.0
 10
15.7846283998
 20
12.774913668
 30
0.0
 10
15.7922068327
 20
12.7621119868
 30
0.0
 10
15.8065171357
 20
12.7447477577
 30
0.0
 10
15.8236061794
 20
12.7294066159
 30
0.0
 10
15.8364801719
 20
12.7207810086
 30
0.0
 10
15.8432556416
 20
12.7168590608
 30
0.0
  0
SPLINE
  5
4E3
100
AcDbEntity
  8
0
100
AcDbSpline
 62
7
  6
CONTINUOUS
 70
0
 71
3
 72
9
 73
5
 74
0
 42
0.0000001
 43
0.0000001
 44
0.0000000001
 40
0.0
 40
0.0
 40
0.0
 40
0.0
 40
0.5069999944
 40
1.0
 40
1.0
 40
1.0
 40
1.0
 10
14.3379740587
 20
13.2773719935
 30
0.0
 10
14.3356623138
 20
13.278375873
 30
0.0
 10
14.3312556679
 20
13.280735464
 30
0.0
 10
14.3273379817
 20
13.2838469141
 30
0.0
 10
14.3255710122
 20
13.2855450905
 30
0.0
  0
SPLINE
  5
4E4
100
AcDbEntity
  8
0
100
AcDbSpline
 62
7
  6
CONTINUOUS
 70
0
 71
3
 72
13
 73
9
 74
0
 42
0.0000001
 43
0.0000001
 44
0.0000000001
 40
0.0
 40
0.0
 40
0.0
 40
0.0
 40
0.1097032265
 40
0.2210719844
 40
0.3358708262
 40
0.4556025787
 40
0.713653086
 40
1.0
 40
1.0
 40
1.0
 40
1.0
 10
14.3238180577
 20
13.2873421516
 30
0.0
 10
14.3223763145
 20
13.2889193357
 30
0.0
 10
14.3197317
 20
13.2923470375
 30
0.0
 10
14.3166175802
 20
13.2981305501
 30
0.0
 10
14.3143719828
 20
13.3045104765
 30
0.0
 10
14.3125161881
 20
13.313953395
 30
0.0
 10
14.312609271
 20
13.327023099
 30
0.0
 10
14.3149196032
 20
13.337442589
 30
0.0
 10
14.3165663751
 20
13.3427715447
 30
0.0
  0
SPLINE
  5
4E5
100
AcDbEntity
  8
0
100
AcDbSpline
 62
7
  6
CONTINUOUS
 70
0
 71
3
 72
22
 73
18
 74
0
 42
0.0000001
 43
0.0000001
 44
0.0000000001
 40
0.0
 40
0.0
 40
0.0
 40
0.0
 40
0.0504538379
 40
0.1017378247
 40
0.1545831892
 40
0.209554803
 40
0.2670053051
 40
0.3270769155
 40
0.389716279
 40
0.4546950451
 40
0.5216519391
 40
0.5901121954
 40
0.7291450568
 40
0.7986689484
 40
0.8673454194
 40
0.9346538192
 40
1.0
 40
1.0
 40
1.0
 40
1.0
 10
16.2847785399
 20
12.9899852692
 30
0.0
 10
16.2886862251
 20
12.9820202892
 30
0.0
 10
16.2950650078
 20
12.9651732385
 30
0.0
 10
16.2998358448
 20
12.9382676031
 30
0.0
 10
16.2998073056
 20
12.9101530188
 30
0.0
 10
16.2949952838
 20
12.8813713797
 30
0.0
 10
16.2855260896
 20
12.8524455007
 30
0.0
 10
16.2715972031
 20
12.8238901712
 30
0.0
 10
16.2534658796
 20
12.7962164063
 30
0.0
 10
16.2314787622
 20
12.7699093787
 30
0.0
 10
16.2060251654
 20
12.7454402077
 30
0.0
 10
16.1679237219
 20
12.7157175819
 30
0.0
 10
16.1251568586
 20
12.6916216801
 30
0.0
 10
16.0796129228
 20
12.6740781644
 30
0.0
 10
16.0447072061
 20
12.6644712244
 30
0.0
 10
16.0097315669
 20
12.6586166126
 30
0.0
 10
15.9863879771
 20
12.6572463941
 30
0.0
 10
15.9748973569
 20
12.6572463941
 30
0.0
  0
SPLINE
  5
4E6
100
AcDbEntity
  8
0
100
AcDbSpline
 62
7
  6
CONTINUOUS
 70
0
 71
3
 72
11
 73
7
 74
0
 42
0.0000001
 43
0.0000001
 44
0.0000000001
 40
0.0
 40
0.0
 40
0.0
 40
0.0
 40
0.2710451881
 40
0.5252759824
 40
0.7663125261
 40
1.0
 40
1.0
 40
1.0
 40
1.0
 10
15.8739391958
 20
11.3883223401
 30
0.0
 10
15.8745444206
 20
11.3870890216
 30
0.0
 10
15.875547282
 20
11.3846088491
 30
0.0
 10
15.8763827241
 20
11.3807944706
 30
0.0
 10
15.876467354
 20
11.3770759503
 30
0.0
 10
15.8760066778
 20
11.3746916999
 30
0.0
 10
15.875656942
 20
11.3735600447
 30
0.0
  0
SPLINE
  5
4E7
100
AcDbEntity
  8
0
100
AcDbSpline
 62
7
  6
CONTINUOUS
 70
0
 71
3
 72
9
 73
5
 74
0
 42
0.0000001
 43
0.0000001
 44
0.0000000001
 40
0.0
 40
0.0
 40
0.0
 40
0.0
 40
0.2435231917
 40
1.0
 40
1.0
 40
1.0
 40
1.0
 10
14.3165663751
 20
13.3427715447
 30
0.0
 10
14.3168931724
 20
13.3438290613
 30
0.0
 10
14.3183072189
 20
13.3481491915
 30
0.0
 10
14.3199974063
 20
13.3523775644
 30
0.0
 10
14.3214048107
 20
13.3555146551
 30
0.0
  0
SPLINE
  5
4E8
100
AcDbEntity
  8
0
100
AcDbSpline
 62
7
  6
CONTINUOUS
 70
0
 71
3
 72
11
 73
7
 74
0
 42
0.0000001
 43
0.0000001
 44
0.0000000001
 40
0.0
 40
0.0
 40
0.0
 40
0.0
 40
0.2433456731
 40
0.489517429
 40
0.7411652189
 40
1.0
 40
1.0
 40
1.0
 40
1.0
 10
13.6322447669
 20
12.7815217534
 30
0.0
 10
13.6354860805
 20
12.774913668
 30
0.0
 10
13.6430645133
 20
12.7621119868
 30
0.0
 10
13.6573748164
 20
12.7447477577
 30
0.0
 10
13.6744638601
 20
12.7294066159
 30
0.0
 10
13.6873378526
 20
12.7207810086
 30
0.0
 10
13.6941133222
 20
12.7168590608
 30
0.0
  0
SPLINE
  5
4E9
100
AcDbEntity
  8
0
100
AcDbSpline
 62
7
  6
CONTINUOUS
 70
0
 71
3
 72
15
 73
11
 74
0
 42
0.0000001
 43
0.0000001
 44
0.0000000001
 40
0.0
 40
0.0
 40
0.0
 40
0.0
 40
0.1475741132
 40
0.2907380827
 40
0.4277984796
 40
0.5577337339
 40
0.6798972894
 40
0.794084862
 40
0.9005459625
 40
1.0
 40
1.0
 40
1.0
 40
1.0
 10
14.4266472102
 20
13.2949687355
 30
0.0
 10
14.4227722824
 20
13.2924690933
 30
0.0
 10
14.4149352633
 20
13.2878503545
 30
0.0
 10
14.4028715188
 20
13.2820540279
 30
0.0
 10
14.3908375723
 20
13.277587434
 30
0.0
 10
14.3790469097
 20
13.274520043
 30
0.0
 10
14.3676877615
 20
13.2729099704
 30
0.0
 10
14.3569413435
 20
13.2727829406
 30
0.0
 10
14.3469952224
 20
13.2741649273
 30
0.0
 10
14.3408245131
 20
13.2761341783
 30
0.0
 10
14.3379740587
 20
13.2773719935
 30
0.0
  0
SPLINE
  5
4EA
100
AcDbEntity
  8
0
100
AcDbSpline
 62
7
  6
CONTINUOUS
 70
0
 71
3
 72
17
 73
13
 74
0
 42
0.0000001
 43
0.0000001
 44
0.0000000001
 40
0.0
 40
0.0
 40
0.0
 40
0.0
 40
0.0357761115
 40
0.0617392189
 40
0.0942477829
 40
0.1336376627
 40
0.1800357063
 40
0.2937565675
 40
0.434594764
 40
0.6008895301
 40
0.7905181806
 40
1.0
 40
1.0
 40
1.0
 40
1.0
 10
17.3511135818
 20
12.5328203447
 30
0.0
 10
17.350855124
 20
12.5328690446
 30
0.0
 10
17.3503843822
 20
12.532666801
 30
0.0
 10
17.3498724776
 20
12.5322151195
 30
0.0
 10
17.3493968247
 20
12.5316680042
 30
0.0
 10
17.3488964399
 20
12.5309571292
 30
0.0
 10
17.3481384585
 20
12.5296997813
 30
0.0
 10
17.3471582686
 20
12.5277130984
 30
0.0
 10
17.3459749769
 20
12.5248526086
 30
0.0
 10
17.3447729884
 20
12.5214030689
 30
0.0
 10
17.3435258386
 20
12.5174363039
 30
0.0
 10
17.3428997602
 20
12.5145627717
 30
0.0
 10
17.3426566197
 20
12.5130420941
 30
0.0
  0
SPLINE
  5
4EB
100
AcDbEntity
  8
0
100
AcDbSpline
 62
7
  6
CONTINUOUS
 70
0
 71
3
 72
15
 73
11
 74
0
 42
0.0000001
 43
0.0000001
 44
0.0000000001
 40
0.0
 40
0.0
 40
0.0
 40
0.0
 40
0.1110159947
 40
0.2283952282
 40
0.351018531
 40
0.4777642873
 40
0.6074282059
 40
0.7386958562
 40
0.8701374607
 40
1.0
 40
1.0
 40
1.0
 40
1.0
 10
14.4939126782
 20
13.3779650287
 30
0.0
 10
14.4927236617
 20
13.37411737
 30
0.0
 10
14.4898012789
 20
13.3663437115
 30
0.0
 10
14.484124065
 20
13.3549251232
 30
0.0
 10
14.4771042807
 20
13.3436023388
 30
0.0
 10
14.4688750346
 20
13.3325674514
 30
0.0
 10
14.4595674492
 20
13.3220050705
 30
0.0
 10
14.4493389691
 20
13.3120857327
 30
0.0
 10
14.4383625996
 20
13.3029913342
 30
0.0
 10
14.4306058746
 20
13.2975223945
 30
0.0
 10
14.4266472102
 20
13.2949687355
 30
0.0
  0
SPLINE
  5
4EC
100
AcDbEntity
  8
0
100
AcDbSpline
 62
7
  6
CONTINUOUS
 70
0
 71
3
 72
12
 73
8
 74
0
 42
0.0000001
 43
0.0000001
 44
0.0000000001
 40
0.0
 40
0.0
 40
0.0
 40
0.0
 40
0.249071347
 40
0.3705964993
 40
0.4917021749
 40
0.7381332529
 40
1.0
 40
1.0
 40
1.0
 40
1.0
 10
14.4725049946
 20
13.4433645799
 30
0.0
 10
14.4759332932
 20
13.4418758348
 30
0.0
 10
14.4807987922
 20
13.4390106976
 30
0.0
 10
14.486256616
 20
13.4340170528
 30
0.0
 10
14.4909363356
 20
13.4283336641
 30
0.0
 10
14.4953241964
 20
13.4198304162
 30
0.0
 10
14.4969798043
 20
13.4122998215
 30
0.0
 10
14.4974174527
 20
13.4083946674
 30
0.0
  0
SPLINE
  5
4ED
100
AcDbEntity
  8
0
100
AcDbSpline
 62
7
  6
CONTINUOUS
 70
0
 71
3
 72
9
 73
5
 74
0
 42
0.0000001
 43
0.0000001
 44
0.0000000001
 40
0.0
 40
0.0
 40
0.0
 40
0.0
 40
0.4762606057
 40
1.0
 40
1.0
 40
1.0
 40
1.0
 10
14.4975485421
 20
13.407087566
 30
0.0
 10
14.4979618441
 20
13.4024249946
 30
0.0
 10
14.4976282421
 20
13.3925154565
 30
0.0
 10
14.4954324615
 20
13.3828830494
 30
0.0
 10
14.4939126782
 20
13.3779650287
 30
0.0
  0
SPLINE
  5
4EE
100
AcDbEntity
  8
0
100
AcDbSpline
 62
7
  6
CONTINUOUS
 70
0
 71
3
 72
31
 73
27
 74
0
 42
0.0000001
 43
0.0000001
 44
0.0000000001
 40
0.0
 40
0.0
 40
0.0
 40
0.0
 40
0.1213712763
 40
0.1865005421
 40
0.2536808341
 40
0.3221128251
 40
0.3909688028
 40
0.459408079
 40
0.5265875907
 40
0.5916682628
 40
0.6538328341
 40
0.6835631252
 40
0.7122513055
 40
0.739796751
 40
0.7660962057
 40
0.7787514862
 40
0.7910724744
 40
0.8149455579
 40
0.8391371688
 40
0.8523512055
 40
0.8669310742
 40
0.8826483808
 40
0.8989486134
 40
0.9322654667
 40
0.966034907
 40
1.0
 40
1.0
 40
1.0
 40
1.0
 10
17.0340220142
 20
11.5143002924
 30
0.0
 10
17.0326338079
 20
11.5113303219
 30
0.0
 10
17.031107793
 20
11.5065009627
 30
0.0
 10
17.0292285751
 20
11.4999172235
 30
0.0
 10
17.0278731347
 20
11.4946652
 30
0.0
 10
17.0265949833
 20
11.4892923072
 30
0.0
 10
17.0253988994
 20
11.483865255
 30
0.0
 10
17.024292864
 20
11.478453845
 30
0.0
 10
17.0232762073
 20
11.4731287739
 30
0.0
 10
17.0223373595
 20
11.4679616517
 30
0.0
 10
17.0216136764
 20
11.4637837452
 30
0.0
 10
17.0210469155
 20
11.4605763298
 30
0.0
 10
17.0206207545
 20
11.4582936948
 30
0.0
 10
17.0201695219
 20
11.4561103346
 30
0.0
 10
17.0197458416
 20
11.4543640349
 30
0.0
 10
17.0193563863
 20
11.4530344064
 30
0.0
 10
17.0189315035
 20
11.451785332
 30
0.0
 10
17.0182127458
 20
11.4503048667
 30
0.0
 10
17.0169926161
 20
11.4491045386
 30
0.0
 10
17.0156872172
 20
11.4485498411
 30
0.0
 10
17.0145266818
 20
11.448330572
 30
0.0
 10
17.0132679722
 20
11.4482596231
 30
0.0
 10
17.0115023006
 20
11.4483193511
 30
0.0
 10
17.0092664796
 20
11.4486150088
 30
0.0
 10
17.0065726436
 20
11.4490507149
 30
0.0
 10
17.0047723815
 20
11.4493803273
 30
0.0
 10
17.0038741321
 20
11.4495669913
 30
0.0
  0
SPLINE
  5
4EF
100
AcDbEntity
  8
0
100
AcDbSpline
 62
7
  6
CONTINUOUS
 70
0
 71
3
 72
12
 73
8
 74
0
 42
0.0000001
 43
0.0000001
 44
0.0000000001
 40
0.0
 40
0.0
 40
0.0
 40
0.0
 40
0.2491552096
 40
0.4989682961
 40
0.7493187429
 40
0.8746528182
 40
1.0
 40
1.0
 40
1.0
 40
1.0
 10
17.0038726685
 20
11.449562257
 30
0.0
 10
16.9958698185
 20
11.4511442935
 30
0.0
 10
16.9798614108
 20
11.4544076531
 30
0.0
 10
16.9558997916
 20
11.4596792122
 30
0.0
 10
16.9359576828
 20
11.4643443252
 30
0.0
 10
16.9200271619
 20
11.4682595772
 30
0.0
 10
16.9120549802
 20
11.4702115892
 30
0.0
 10
16.9080692092
 20
11.4711898159
 30
0.0
  0
SPLINE
  5
4F0
100
AcDbEntity
  8
0
100
AcDbSpline
 62
7
  6
CONTINUOUS
 70
0
 71
3
 72
14
 73
10
 74
0
 42
0.0000001
 43
0.0000001
 44
0.0000000001
 40
0.0
 40
0.0
 40
0.0
 40
0.0
 40
0.1139414115
 40
0.2319675487
 40
0.3538062807
 40
0.478903155
 40
0.606621736
 40
0.7363765107
 40
1.0
 40
1.0
 40
1.0
 40
1.0
 10
16.6852847771
 20
12.2018354749
 30
0.0
 10
16.6833095516
 20
12.1954436429
 30
0.0
 10
16.6802379164
 20
12.1821215751
 30
0.0
 10
16.6782542916
 20
12.1613929558
 30
0.0
 10
16.6786971511
 20
12.1399257033
 30
0.0
 10
16.6813835187
 20
12.1180598186
 30
0.0
 10
16.6860999574
 20
12.0960699254
 30
0.0
 10
16.6948609021
 20
12.0667316816
 30
0.0
 10
16.7038186144
 20
12.0453468985
 30
0.0
 10
16.7106378649
 20
12.0314513415
 30
0.0
  0
SPLINE
  5
4F1
100
AcDbEntity
  8
0
100
AcDbSpline
 62
7
  6
CONTINUOUS
 70
0
 71
3
 72
25
 73
21
 74
0
 42
0.0000001
 43
0.0000001
 44
0.0000000001
 40
0.0
 40
0.0
 40
0.0
 40
0.0
 40
0.1423945894
 40
0.2127530317
 40
0.2820810809
 40
0.3501077858
 40
0.4166209589
 40
0.4814571563
 40
0.5444986842
 40
0.6056739078
 40
0.6649701641
 40
0.7224620761
 40
0.7783646061
 40
0.833122546
 40
0.860328682
 40
0.8875732498
 40
0.9150078165
 40
0.942792121
 40
0.9710841316
 40
1.0
 40
1.0
 40
1.0
 40
1.0
 10
17.1114394904
 20
12.2860526845
 30
0.0
 10
17.0898884771
 20
12.2923208992
 30
0.0
 10
17.057185119
 20
12.3000451254
 30
0.0
 10
17.0133067464
 20
12.3072742233
 30
0.0
 10
16.9807835803
 20
12.3111382043
 30
0.0
 10
16.9487240792
 20
12.3134749972
 30
0.0
 10
16.9172960209
 20
12.314269718
 30
0.0
 10
16.8866519285
 20
12.3134761851
 30
0.0
 10
16.8569377049
 20
12.3110076465
 30
0.0
 10
16.8283065331
 20
12.3067280529
 30
0.0
 10
16.8009357018
 20
12.3004413415
 30
0.0
 10
16.775047791
 20
12.2918737144
 30
0.0
 10
16.7509528103
 20
12.2806684811
 30
0.0
 10
16.7326806583
 20
12.2687171926
 30
0.0
 10
16.7196171762
 20
12.257474958
 30
0.0
 10
16.7106582233
 20
12.2481549932
 30
0.0
 10
16.7026227518
 20
12.2379096637
 30
0.0
 10
16.6956134603
 20
12.2267388022
 30
0.0
 10
16.6897250447
 20
12.2146793326
 30
0.0
 10
16.6866304224
 20
12.2061899846
 30
0.0
 10
16.6852847771
 20
12.2018354749
 30
0.0
  0
SPLINE
  5
4F2
100
AcDbEntity
  8
0
100
AcDbSpline
 62
7
  6
CONTINUOUS
 70
0
 71
3
 72
11
 73
7
 74
0
 42
0.0000001
 43
0.0000001
 44
0.0000000001
 40
0.0
 40
0.0
 40
0.0
 40
0.0
 40
0.2823371884
 40
0.5429299773
 40
0.7815311895
 40
1.0
 40
1.0
 40
1.0
 40
1.0
 10
14.4186579226
 20
13.4426130001
 30
0.0
 10
14.4235745431
 20
13.4442108093
 30
0.0
 10
14.4332338919
 20
13.4467075383
 30
0.0
 10
14.4475253351
 20
13.4482207284
 30
0.0
 10
14.4607083222
 20
13.4472988343
 30
0.0
 10
14.4688357528
 20
13.444957955
 30
0.0
 10
14.4725049946
 20
13.4433645799
 30
0.0
  0
SPLINE
  5
4F3
100
AcDbEntity
  8
0
100
AcDbSpline
 62
7
  6
CONTINUOUS
 70
0
 71
3
 72
11
 73
7
 74
0
 42
0.0000001
 43
0.0000001
 44
0.0000000001
 40
0.0
 40
0.0
 40
0.0
 40
0.0
 40
0.2655815067
 40
0.5201609226
 40
0.7645028055
 40
1.0
 40
1.0
 40
1.0
 40
1.0
 10
13.7811082848
 20
12.6608332429
 30
0.0
 10
13.7714361339
 20
12.6624386059
 30
0.0
 10
13.7526532399
 20
12.6667015118
 30
0.0
 10
13.7260896588
 20
12.6764846377
 30
0.0
 10
13.7021401364
 20
12.6893897347
 30
0.0
 10
13.6879353635
 20
12.7001207592
 30
0.0
 10
13.6814594375
 20
12.7059212264
 30
0.0
  0
SPLINE
  5
4F4
100
AcDbEntity
  8
0
100
AcDbSpline
 62
7
  6
CONTINUOUS
 70
0
 71
3
 72
10
 73
6
 74
0
 42
0.0000001
 43
0.0000001
 44
0.0000000001
 40
0.0
 40
0.0
 40
0.0
 40
0.0
 40
0.5041618166
 40
0.7526499902
 40
1.0
 40
1.0
 40
1.0
 40
1.0
 10
13.6814594375
 20
12.7059212264
 30
0.0
 10
13.6744129784
 20
12.7122327185
 30
0.0
 10
13.6647160022
 20
12.722652736
 30
0.0
 10
13.6540545568
 20
12.7381172106
 30
0.0
 10
13.649541627
 20
12.7462748433
 30
0.0
 10
13.6474974179
 20
12.750441526
 30
0.0
  0
SPLINE
  5
4F5
100
AcDbEntity
  8
0
100
AcDbSpline
 62
7
  6
CONTINUOUS
 70
0
 71
3
 72
10
 73
6
 74
0
 42
0.0000001
 43
0.0000001
 44
0.0000000001
 40
0.0
 40
0.0
 40
0.0
 40
0.0
 40
0.5108951022
 40
0.7580474244
 40
1.0
 40
1.0
 40
1.0
 40
1.0
 10
16.7796040861
 20
12.0096329315
 30
0.0
 10
16.776054828
 20
11.9981475281
 30
0.0
 10
16.7721178917
 20
11.9806348327
 30
0.0
 10
16.7700497125
 20
11.9571735356
 30
0.0
 10
16.7701048681
 20
11.9456434622
 30
0.0
 10
16.7704078348
 20
11.939958413
 30
0.0
  0
SPLINE
  5
4F6
100
AcDbEntity
  8
0
100
AcDbSpline
 62
7
  6
CONTINUOUS
 70
0
 71
3
 72
16
 73
12
 74
0
 42
0.0000001
 43
0.0000001
 44
0.0000000001
 40
0.0
 40
0.0
 40
0.0
 40
0.0
 40
0.0614386151
 40
0.1243420208
 40
0.2532201502
 40
0.3845511761
 40
0.5159941324
 40
0.6451494022
 40
0.7698527584
 40
0.8884628084
 40
1.0
 40
1.0
 40
1.0
 40
1.0
 10
17.1309654632
 20
12.2462629354
 30
0.0
 10
17.1217566954
 20
12.2462629354
 30
0.0
 10
17.1031111558
 20
12.2454706431
 30
0.0
 10
17.0654062211
 20
12.2408694591
 30
0.0
 10
17.0181347354
 20
12.2294722098
 30
0.0
 10
16.963445771
 20
12.2076234437
 30
0.0
 10
16.9123098675
 20
12.1783092542
 30
0.0
 10
16.8666529101
 20
12.1426124373
 30
0.0
 10
16.828168509
 20
12.1018462063
 30
0.0
 10
16.7983353148
 20
12.0575154031
 30
0.0
 10
16.7845399803
 20
12.0256054912
 30
0.0
 10
16.7796040861
 20
12.0096329315
 30
0.0
  0
SPLINE
  5
4F7
100
AcDbEntity
  8
0
100
AcDbSpline
 62
7
  6
CONTINUOUS
 70
0
 71
3
 72
15
 73
11
 74
0
 42
0.0000001
 43
0.0000001
 44
0.0000000001
 40
0.0
 40
0.0
 40
0.0
 40
0.0
 40
0.1412329818
 40
0.2776837483
 40
0.408787668
 40
0.5346409846
 40
0.6557486507
 40
0.7729160399
 40
0.8872117162
 40
1.0
 40
1.0
 40
1.0
 40
1.0
 10
17.2683630607
 20
12.1320277611
 30
0.0
 10
17.2740950306
 20
12.1320277611
 30
0.0
 10
17.2853749917
 20
12.1314493435
 30
0.0
 10
17.3017859703
 20
12.1287865332
 30
0.0
 10
17.3171673953
 20
12.124351044
 30
0.0
 10
17.3312815002
 20
12.1182145296
 30
0.0
 10
17.3439180287
 20
12.1104518011
 30
0.0
 10
17.3548916506
 20
12.1011772472
 30
0.0
 10
17.3640209064
 20
12.0905214338
 30
0.0
 10
17.3687920772
 20
12.0825761004
 30
0.0
 10
17.3708093017
 20
12.0784670081
 30
0.0
  0
SPLINE
  5
4F8
100
AcDbEntity
  8
0
100
AcDbSpline
 62
7
  6
CONTINUOUS
 70
0
 71
3
 72
9
 73
5
 74
0
 42
0.0000001
 43
0.0000001
 44
0.0000000001
 40
0.0
 40
0.0
 40
0.0
 40
0.0
 40
0.2432603124
 40
1.0
 40
1.0
 40
1.0
 40
1.0
 10
17.3036643996
 20
12.2462629354
 30
0.0
 10
17.3002301791
 20
12.2462629354
 30
0.0
 10
17.2861139077
 20
12.2466184076
 30
0.0
 10
17.272040386
 20
12.2483312728
 30
0.0
 10
17.2615377405
 20
12.2502873621
 30
0.0
  0
SPLINE
  5
4F9
100
AcDbEntity
  8
0
100
AcDbSpline
 62
7
  6
CONTINUOUS
 70
0
 71
3
 72
11
 73
7
 74
0
 42
0.0000001
 43
0.0000001
 44
0.0000000001
 40
0.0
 40
0.0
 40
0.0
 40
0.0
 40
0.263047343
 40
0.5174111512
 40
0.762972127
 40
1.0
 40
1.0
 40
1.0
 40
1.0
 10
15.740788755
 20
12.9573306646
 30
0.0
 10
15.7341709466
 20
12.9475636964
 30
0.0
 10
15.7220377209
 20
12.9277313617
 30
0.0
 10
15.707193665
 20
12.8968313286
 30
0.0
 10
15.6961509314
 20
12.8656079664
 30
0.0
 10
15.6913438045
 20
12.8444400536
 30
0.0
 10
15.68964868
 20
12.833945219
 30
0.0
  0
SPLINE
  5
4FA
100
AcDbEntity
  8
0
100
AcDbSpline
 62
7
  6
CONTINUOUS
 70
0
 71
3
 72
27
 73
23
 74
0
 42
0.0000001
 43
0.0000001
 44
0.0000000001
 40
0.0
 40
0.0
 40
0.0
 40
0.0
 40
0.0214583142
 40
0.0432122517
 40
0.0655388872
 40
0.0886783625
 40
0.1128292838
 40
0.1381365861
 40
0.1925148221
 40
0.25215276
 40
0.3167523842
 40
0.3855962218
 40
0.457667066
 40
0.5317479643
 40
0.6065084516
 40
0.6805795869
 40
0.7526291476
 40
0.8214454937
 40
0.8860048207
 40
0.9456165875
 40
0.9734776716
 40
1.0
 40
1.0
 40
1.0
 40
1.0
 10
15.2152275199
 20
11.6396320421
 30
0.0
 10
15.2135496441
 20
11.6342044338
 30
0.0
 10
15.2093721714
 20
11.6235037294
 30
0.0
 10
15.2007909034
 20
11.6083600753
 30
0.0
 10
15.1899433
 20
11.5941845612
 30
0.0
 10
15.1769258216
 20
11.5810707667
 30
0.0
 10
15.1618264359
 20
11.5691108268
 30
0.0
 10
15.1385207772
 20
11.5544458015
 30
0.0
 10
15.1045027656
 20
11.5396207426
 30
0.0
 10
15.0585298142
 20
11.5278866955
 30
0.0
 10
15.0076119812
 20
11.5220206089
 30
0.0
 10
14.9530927649
 20
11.5221624717
 30
0.0
 10
14.8964071468
 20
11.5282980874
 30
0.0
 10
14.8390664772
 20
11.540261301
 30
0.0
 10
14.7826049473
 20
11.5577316748
 30
0.0
 10
14.7285359188
 20
11.5802411876
 30
0.0
 10
14.6783070637
 20
11.6071878363
 30
0.0
 10
14.6332585962
 20
11.6378601584
 30
0.0
 10
14.5945835473
 20
11.6714391365
 30
0.0
 10
14.5679246327
 20
11.7018205365
 30
0.0
 10
14.5509654717
 20
11.7268224397
 30
0.0
 10
14.5439627552
 20
11.7394321538
 30
0.0
 10
14.5408693857
 20
11.7457357781
 30
0.0
  0
SPLINE
  5
4FB
100
AcDbEntity
  8
0
100
AcDbSpline
 62
7
  6
CONTINUOUS
 70
0
 71
3
 72
11
 73
7
 74
0
 42
0.0000001
 43
0.0000001
 44
0.0000000001
 40
0.0
 40
0.0
 40
0.0
 40
0.0
 40
0.2345324681
 40
0.4778120378
 40
0.7324466614
 40
1.0
 40
1.0
 40
1.0
 40
1.0
 10
15.3656870212
 20
11.633962054
 30
0.0
 10
15.3663035034
 20
11.6429863572
 30
0.0
 10
15.3661373827
 20
11.6614937346
 30
0.0
 10
15.3618290059
 20
11.6894982537
 30
0.0
 10
15.3535161885
 20
11.717905109
 30
0.0
 10
15.3455870266
 20
11.736472203
 30
0.0
 10
15.3410411242
 20
11.7457357781
 30
0.0
  0
SPLINE
  5
4FC
100
AcDbEntity
  8
0
100
AcDbSpline
 62
7
  6
CONTINUOUS
 70
0
 71
3
 72
13
 73
9
 74
0
 42
0.0000001
 43
0.0000001
 44
0.0000000001
 40
0.0
 40
0.0
 40
0.0
 40
0.0
 40
0.1228518317
 40
0.2458035433
 40
0.3694804726
 40
0.4939403176
 40
0.7453058511
 40
1.0
 40
1.0
 40
1.0
 40
1.0
 10
13.5358336801
 20
11.4711898253
 30
0.0
 10
13.5328069499
 20
11.4702113473
 30
0.0
 10
13.5267491683
 20
11.4682594277
 30
0.0
 10
13.5176480676
 20
11.4653104825
 30
0.0
 10
13.5084690522
 20
11.4624690544
 30
0.0
 10
13.4960752182
 20
11.4587716418
 30
0.0
 10
13.4803529251
 20
11.4543676122
 30
0.0
 10
13.4676540227
 20
11.451133069
 30
0.0
 10
13.461249122
 20
11.449562257
 30
0.0
  0
SPLINE
  5
4FD
100
AcDbEntity
  8
0
100
AcDbSpline
 62
7
  6
CONTINUOUS
 70
0
 71
3
 72
32
 73
28
 74
0
 42
0.0000001
 43
0.0000001
 44
0.0000000001
 40
0.0
 40
0.0
 40
0.0
 40
0.0
 40
0.0269589844
 40
0.0406955827
 40
0.0545297107
 40
0.0685506969
 40
0.0829883567
 40
0.0981228143
 40
0.1139699831
 40
0.1302308274
 40
0.146730502
 40
0.1633773974
 40
0.1799465554
 40
0.2120103232
 40
0.243460896
 40
0.2749684871
 40
0.3066676269
 40
0.3708331953
 40
0.4360954349
 40
0.5021664161
 40
0.5686047418
 40
0.6349140782
 40
0.7005698693
 40
0.7650461544
 40
0.8278175903
 40
0.8883825583
 40
1.0
 40
1.0
 40
1.0
 40
1.0
 10
13.4612505856
 20
11.4495669913
 30
0.0
 10
13.4605206292
 20
11.4493762675
 30
0.0
 10
13.4594087171
 20
11.4491265603
 30
0.0
 10
13.4579109939
 20
11.4488342225
 30
0.0
 10
13.4567667547
 20
11.4486206861
 30
0.0
 10
13.4555982384
 20
11.448430722
 30
0.0
 10
13.454384406
 20
11.4483001369
 30
0.0
 10
13.4531124941
 20
11.4482592652
 30
0.0
 10
13.4517906054
 20
11.4483377774
 30
0.0
 10
13.4504462468
 20
11.4485696668
 30
0.0
 10
13.449127227
 20
11.4490010206
 30
0.0
 10
13.4478732918
 20
11.4496117854
 30
0.0
 10
13.4463232559
 20
11.4505839999
 30
0.0
 10
13.4446005706
 20
11.4520341494
 30
0.0
 10
13.4427965638
 20
11.4539923562
 30
0.0
 10
13.4411469842
 20
11.4560676289
 30
0.0
 10
13.4391156125
 20
11.4589992598
 30
0.0
 10
13.4368599236
 20
11.4629130582
 30
0.0
 10
13.4345468091
 20
11.4678770216
 30
0.0
 10
13.4325903476
 20
11.4730598487
 30
0.0
 10
13.4310063529
 20
11.4783984874
 30
0.0
 10
13.4297954746
 20
11.483821603
 30
0.0
 10
13.4289602448
 20
11.4892595196
 30
0.0
 10
13.4285062445
 20
11.4946432845
 30
0.0
 10
13.4284275491
 20
11.4999026266
 30
0.0
 10
13.4287898035
 20
11.5064750567
 30
0.0
 10
13.4296155537
 20
11.5112349477
 30
0.0
 10
13.4302164215
 20
11.5143002844
 30
0.0
  0
SPLINE
  5
4FE
100
AcDbEntity
  8
0
100
AcDbSpline
 62
7
  6
CONTINUOUS
 70
0
 71
3
 72
9
 73
5
 74
0
 42
0.0000001
 43
0.0000001
 44
0.0000000001
 40
0.0
 40
0.0
 40
0.0
 40
0.0
 40
0.4814420406
 40
1.0
 40
1.0
 40
1.0
 40
1.0
 10
13.6941133222
 20
12.7168590608
 30
0.0
 10
13.7084697795
 20
12.708548895
 30
0.0
 10
13.7407599931
 20
12.695388531
 30
0.0
 10
13.7750691244
 20
12.6899651489
 30
0.0
 10
13.7929021932
 20
12.6888647978
 30
0.0
  0
SPLINE
  5
4FF
100
AcDbEntity
  8
0
100
AcDbSpline
 62
7
  6
CONTINUOUS
 70
0
 71
3
 72
11
 73
7
 74
0
 42
0.0000001
 43
0.0000001
 44
0.0000000001
 40
0.0
 40
0.0
 40
0.0
 40
0.0
 40
0.2336507478
 40
0.4745100459
 40
0.7287054591
 40
1.0
 40
1.0
 40
1.0
 40
1.0
 10
16.3851095857
 20
11.0918210092
 30
0.0
 10
16.3858088947
 20
11.0940840632
 30
0.0
 10
16.3867272643
 20
11.0988507651
 30
0.0
 10
16.3865659717
 20
11.106285451
 30
0.0
 10
16.3848934891
 20
11.1139151701
 30
0.0
 10
16.3828851078
 20
11.1188767873
 30
0.0
 10
16.381673504
 20
11.1213457762
 30
0.0
  0
SPLINE
  5
500
100
AcDbEntity
  8
0
100
AcDbSpline
 62
7
  6
CONTINUOUS
 70
0
 71
3
 72
15
 73
11
 74
0
 42
0.0000001
 43
0.0000001
 44
0.0000000001
 40
0.0
 40
0.0
 40
0.0
 40
0.0
 40
0.1115258386
 40
0.2301825255
 40
0.3548826754
 40
0.4840529013
 40
0.61551191
 40
0.7468391467
 40
0.8757692153
 40
1.0
 40
1.0
 40
1.0
 40
1.0
 10
13.4023804414
 20
12.0096329315
 30
0.0
 10
13.4049329706
 20
12.0178929189
 30
0.0
 10
13.4120714009
 20
12.0343976255
 30
0.0
 10
13.4274989506
 20
12.0573292208
 30
0.0
 10
13.4474072219
 20
12.0784150062
 30
0.0
 10
13.4710212237
 20
12.0968800959
 30
0.0
 10
13.4974695795
 20
12.1120399396
 30
0.0
 10
13.5257634825
 20
12.1233448503
 30
0.0
 10
13.5548369099
 20
12.1303507747
 30
0.0
 10
13.574488816
 20
12.1320277611
 30
0.0
 10
13.5841190847
 20
12.1320277611
 30
0.0
  0
SPLINE
  5
501
100
AcDbEntity
  8
0
100
AcDbSpline
 62
7
  6
CONTINUOUS
 70
0
 71
3
 72
15
 73
11
 74
0
 42
0.0000001
 43
0.0000001
 44
0.0000000001
 40
0.0
 40
0.0
 40
0.0
 40
0.0
 40
0.1506425392
 40
0.2881265806
 40
0.4136267109
 40
0.5299111104
 40
0.6413394736
 40
0.7535261622
 40
0.8718942508
 40
1.0
 40
1.0
 40
1.0
 40
1.0
 10
16.3057551055
 20
11.052513279
 30
0.0
 10
16.3077502451
 20
11.0529816728
 30
0.0
 10
16.3115146259
 20
11.0541332658
 30
0.0
 10
16.3165844992
 20
11.0566414596
 30
0.0
 10
16.3206999773
 20
11.0598194101
 30
0.0
 10
16.3237489142
 20
11.0636005424
 30
0.0
 10
16.3256016849
 20
11.067903393
 30
0.0
 10
16.3261861403
 20
11.0725794812
 30
0.0
 10
16.3254925048
 20
11.0774575549
 30
0.0
 10
16.3242849103
 20
11.0806148756
 30
0.0
 10
16.3235171381
 20
11.0821794307
 30
0.0
  0
SPLINE
  5
502
100
AcDbEntity
  8
0
100
AcDbSpline
 62
7
  6
CONTINUOUS
 70
0
 71
3
 72
10
 73
6
 74
0
 42
0.0000001
 43
0.0000001
 44
0.0000000001
 40
0.0
 40
0.0
 40
0.0
 40
0.0
 40
0.2266367671
 40
0.4694169877
 40
1.0
 40
1.0
 40
1.0
 40
1.0
 10
14.7558517345
 20
11.2335389992
 30
0.0
 10
14.7547147069
 20
11.2358560179
 30
0.0
 10
14.7520089148
 20
11.2404881358
 30
0.0
 10
14.7451139565
 20
11.2495749291
 30
0.0
 10
14.7386659238
 20
11.2556819732
 30
0.0
 10
14.7339630979
 20
11.2594758414
 30
0.0
  0
SPLINE
  5
503
100
AcDbEntity
  8
0
100
AcDbSpline
 62
7
  6
CONTINUOUS
 70
0
 71
3
 72
34
 73
30
 74
0
 42
0.0000001
 43
0.0000001
 44
0.0000000001
 40
0.0
 40
0.0
 40
0.0
 40
0.0
 40
0.0214525218
 40
0.0432007392
 40
0.0655210555
 40
0.0886562892
 40
0.1128005697
 40
0.1381020332
 40
0.1646575021
 40
0.1925208437
 40
0.2217046925
 40
0.2521856642
 40
0.2839119182
 40
0.3168024422
 40
0.3507577864
 40
0.3856563093
 40
0.4213641363
 40
0.457732826
 40
0.5317957816
 40
0.6065375058
 40
0.6805898679
 40
0.7526209983
 40
0.8214179927
 40
0.8542919695
 40
0.8859964376
 40
0.916455593
 40
0.9456251749
 40
0.9734780454
 40
1.0
 40
1.0
 40
1.0
 40
1.0
 10
15.4063124008
 20
11.5805823356
 30
0.0
 10
15.4037025016
 20
11.5721337427
 30
0.0
 10
15.3971996403
 20
11.5554777871
 30
0.0
 10
15.3838379382
 20
11.5319101795
 30
0.0
 10
15.3669598966
 20
11.5098401179
 30
0.0
 10
15.3466906656
 20
11.4894346447
 30
0.0
 10
15.3231943718
 20
11.4708117417
 30
0.0
 10
15.2966304554
 20
11.4541013434
 30
0.0
 10
15.2671908056
 20
11.4393964283
 30
0.0
 10
15.2350721571
 20
11.4267959704
 30
0.0
 10
15.2004936619
 20
11.416376195
 30
0.0
 10
15.1636880321
 20
11.4082025367
 30
0.0
 10
15.124903165
 20
11.4023330269
 30
0.0
 10
15.0844014578
 20
11.3987973788
 30
0.0
 10
15.0424566242
 20
11.3976293246
 30
0.0
 10
14.9993529268
 20
11.3988247731
 30
0.0
 10
14.9553822715
 20
11.4023862704
 30
0.0
 10
14.895644779
 20
11.410292996
 30
0.0
 10
14.8208003762
 20
11.4259106871
 30
0.0
 10
14.7329209059
 20
11.453103077
 30
0.0
 10
14.6487595151
 20
11.4881429212
 30
0.0
 10
14.5705836658
 20
11.5300834378
 30
0.0
 10
14.5112608017
 20
11.5704677514
 30
0.0
 10
14.4687455325
 20
11.6053699001
 30
0.0
 10
14.4400797743
 20
11.6321115706
 30
0.0
 10
14.4143488589
 20
11.6596352427
 30
0.0
 10
14.3917237202
 20
11.6877608066
 30
0.0
 10
14.372372706
 20
11.7162924656
 30
0.0
 10
14.3614732439
 20
11.7359216857
 30
0.0
 10
14.3566571869
 20
11.7457357781
 30
0.0
  0
SPLINE
  5
504
100
AcDbEntity
  8
0
100
AcDbSpline
 62
7
  6
CONTINUOUS
 70
0
 71
3
 72
12
 73
8
 74
0
 42
0.0000001
 43
0.0000001
 44
0.0000000001
 40
0.0
 40
0.0
 40
0.0
 40
0.0
 40
0.2865320449
 40
0.5447401464
 40
0.7788002438
 40
0.8902329881
 40
1.0
 40
1.0
 40
1.0
 40
1.0
 10
14.2177959861
 20
12.6695487073
 30
0.0
 10
14.2169224178
 20
12.6667232534
 30
0.0
 10
14.2156983943
 20
12.6611951306
 30
0.0
 10
14.2156324915
 20
12.6530884937
 30
0.0
 10
14.2172340304
 20
12.646965466
 30
0.0
 10
14.2194713236
 20
12.6428133583
 30
0.0
 10
14.2208733424
 20
12.6409956754
 30
0.0
 10
14.2216377506
 20
12.6401594591
 30
0.0
  0
SPLINE
  5
505
100
AcDbEntity
  8
0
100
AcDbSpline
 62
7
  6
CONTINUOUS
 70
0
 71
3
 72
9
 73
5
 74
0
 42
0.0000001
 43
0.0000001
 44
0.0000000001
 40
0.0
 40
0.0
 40
0.0
 40
0.0
 40
0.4926445474
 40
1.0
 40
1.0
 40
1.0
 40
1.0
 10
14.2216377506
 20
12.6401594591
 30
0.0
 10
14.2226606068
 20
12.6390405164
 30
0.0
 10
14.2249980865
 20
12.6369964663
 30
0.0
 10
14.2277115327
 20
12.6354951745
 30
0.0
 10
14.2291436348
 20
12.6348733561
 30
0.0
  0
SPLINE
  5
506
100
AcDbEntity
  8
0
100
AcDbSpline
 62
7
  6
CONTINUOUS
 70
0
 71
3
 72
14
 73
10
 74
0
 42
0.0000001
 43
0.0000001
 44
0.0000000001
 40
0.0
 40
0.0
 40
0.0
 40
0.0
 40
0.2712713263
 40
0.4002871349
 40
0.525338176
 40
0.6470558666
 40
0.766182341
 40
0.8835396576
 40
1.0
 40
1.0
 40
1.0
 40
1.0
 10
14.3566571869
 20
11.7457357781
 30
0.0
 10
14.3498741496
 20
11.7595581549
 30
0.0
 10
14.3412944387
 20
11.7807339683
 30
0.0
 10
14.3337434099
 20
11.8096108651
 30
0.0
 10
14.3302423138
 20
11.8306839204
 30
0.0
 10
14.3288229472
 20
11.8514363792
 30
0.0
 10
14.3294920502
 20
11.8717932668
 30
0.0
 10
14.3322550486
 20
11.8916708214
 30
0.0
 10
14.3354879581
 20
11.9045735669
 30
0.0
 10
14.3374389599
 20
11.9108892207
 30
0.0
  0
SPLINE
  5
507
100
AcDbEntity
  8
0
100
AcDbSpline
 62
7
  6
CONTINUOUS
 70
0
 71
3
 72
13
 73
9
 74
0
 42
0.0000001
 43
0.0000001
 44
0.0000000001
 40
0.0
 40
0.0
 40
0.0
 40
0.0
 40
0.2053586082
 40
0.3196615396
 40
0.4419506072
 40
0.5720207821
 40
0.7092243229
 40
1.0
 40
1.0
 40
1.0
 40
1.0
 10
14.2291436348
 20
12.6348733561
 30
0.0
 10
14.2322616195
 20
12.633519528
 30
0.0
 10
14.237575312
 20
12.6324178393
 30
0.0
 10
14.2448966209
 20
12.6325086402
 30
0.0
 10
14.2509240953
 20
12.6333615973
 30
0.0
 10
14.2571759915
 20
12.6349883933
 30
0.0
 10
14.2658463817
 20
12.6382073101
 30
0.0
 10
14.2721209771
 20
12.6415958228
 30
0.0
 10
14.2761657291
 20
12.6442046214
 30
0.0
  0
SPLINE
  5
508
100
AcDbEntity
  8
0
100
AcDbSpline
 62
7
  6
CONTINUOUS
 70
0
 71
3
 72
11
 73
7
 74
0
 42
0.0000001
 43
0.0000001
 44
0.0000000001
 40
0.0
 40
0.0
 40
0.0
 40
0.0
 40
0.2613562112
 40
0.52233375
 40
0.7717020767
 40
1.0
 40
1.0
 40
1.0
 40
1.0
 10
14.2761657291
 20
12.6442046214
 30
0.0
 10
14.2803866518
 20
12.6469270472
 30
0.0
 10
14.2883903431
 20
12.6530655353
 30
0.0
 10
14.2986816121
 20
12.6638250692
 30
0.0
 10
14.3067681392
 20
12.6755666485
 30
0.0
 10
14.3105442263
 20
12.6840196478
 30
0.0
 10
14.3118401938
 20
12.688211292
 30
0.0
  0
SPLINE
  5
509
100
AcDbEntity
  8
0
100
AcDbSpline
 62
7
  6
CONTINUOUS
 70
0
 71
3
 72
15
 73
11
 74
0
 42
0.0000001
 43
0.0000001
 44
0.0000000001
 40
0.0
 40
0.0
 40
0.0
 40
0.0
 40
0.1495724605
 40
0.289491429
 40
0.4197933935
 40
0.5417867225
 40
0.6576764396
 40
0.7704586
 40
0.8835408901
 40
1.0
 40
1.0
 40
1.0
 40
1.0
 10
14.3118401938
 20
12.688211292
 30
0.0
 10
14.3124325486
 20
12.6901271893
 30
0.0
 10
14.3133711126
 20
12.6939049877
 30
0.0
 10
14.3140070375
 20
12.6995154932
 30
0.0
 10
14.3137965055
 20
12.7047933403
 30
0.0
 10
14.3127398739
 20
12.7096446969
 30
0.0
 10
14.3108389624
 20
12.7139817179
 30
0.0
 10
14.3081217587
 20
12.7177181247
 30
0.0
 10
14.3046393208
 20
12.720762285
 30
0.0
 10
14.3019247804
 20
12.7222647857
 30
0.0
 10
14.3004925483
 20
12.7228866606
 30
0.0
  0
SPLINE
  5
50A
100
AcDbEntity
  8
0
100
AcDbSpline
 62
7
  6
CONTINUOUS
 70
0
 71
3
 72
13
 73
9
 74
0
 42
0.0000001
 43
0.0000001
 44
0.0000000001
 40
0.0
 40
0.0
 40
0.0
 40
0.0
 40
0.2053586082
 40
0.3196615396
 40
0.4419506072
 40
0.5720207821
 40
0.7092243229
 40
1.0
 40
1.0
 40
1.0
 40
1.0
 10
14.3004925483
 20
12.7228866606
 30
0.0
 10
14.2973745635
 20
12.7242404887
 30
0.0
 10
14.292060871
 20
12.7253421774
 30
0.0
 10
14.2847395621
 20
12.7252513765
 30
0.0
 10
14.2787120877
 20
12.7243984194
 30
0.0
 10
14.2724601915
 20
12.7227716234
 30
0.0
 10
14.2637898013
 20
12.7195527065
 30
0.0
 10
14.2575152059
 20
12.7161641939
 30
0.0
 10
14.2534704539
 20
12.7135553953
 30
0.0
  0
SPLINE
  5
50B
100
AcDbEntity
  8
0
100
AcDbSpline
 62
7
  6
CONTINUOUS
 70
0
 71
3
 72
11
 73
7
 74
0
 42
0.0000001
 43
0.0000001
 44
0.0000000001
 40
0.0
 40
0.0
 40
0.0
 40
0.0
 40
0.2613562307
 40
0.5223337847
 40
0.7717021133
 40
1.0
 40
1.0
 40
1.0
 40
1.0
 10
14.2534704539
 20
12.7135553953
 30
0.0
 10
14.2492495297
 20
12.7108329685
 30
0.0
 10
14.2412458354
 20
12.704694478
 30
0.0
 10
14.2309545644
 20
12.6939349392
 30
0.0
 10
14.2228680346
 20
12.6821933562
 30
0.0
 10
14.2190919538
 20
12.6737403521
 30
0.0
 10
14.2177959861
 20
12.6695487073
 30
0.0
  0
SPLINE
  5
50C
100
AcDbEntity
  8
0
100
AcDbSpline
 62
7
  6
CONTINUOUS
 70
0
 71
3
 72
12
 73
8
 74
0
 42
0.0000001
 43
0.0000001
 44
0.0000000001
 40
0.0
 40
0.0
 40
0.0
 40
0.0
 40
0.2719536786
 40
0.4021524803
 40
0.5284065616
 40
0.7702031228
 40
1.0
 40
1.0
 40
1.0
 40
1.0
 10
13.7668909803
 20
12.8236982741
 30
0.0
 10
13.7562815382
 20
12.8236982741
 30
0.0
 10
13.7405743123
 20
12.8229087089
 30
0.0
 10
13.7201299501
 20
12.8202118177
 30
0.0
 10
13.7010125218
 20
12.8166530089
 30
0.0
 10
13.6784269513
 20
12.8106853056
 30
0.0
 10
13.6611061333
 20
12.80441756
 30
0.0
 10
13.6527952011
 20
12.8010565392
 30
0.0
  0
SPLINE
  5
50D
100
AcDbEntity
  8
0
100
AcDbSpline
 62
7
  6
CONTINUOUS
 70
0
 71
3
 72
9
 73
5
 74
0
 42
0.0000001
 43
0.0000001
 44
0.0000000001
 40
0.0
 40
0.0
 40
0.0
 40
0.0
 40
0.5311018851
 40
1.0
 40
1.0
 40
1.0
 40
1.0
 10
14.251361314
 20
12.6233141979
 30
0.0
 10
14.2475231283
 20
12.6255372768
 30
0.0
 10
14.2402358436
 20
12.6296197995
 30
0.0
 10
14.2327356588
 20
12.6333137003
 30
0.0
 10
14.2291436348
 20
12.6348733561
 30
0.0
  0
SPLINE
  5
50E
100
AcDbEntity
  8
0
100
AcDbSpline
 62
7
  6
CONTINUOUS
 70
0
 71
3
 72
9
 73
5
 74
0
 42
0.0000001
 43
0.0000001
 44
0.0000000001
 40
0.0
 40
0.0
 40
0.0
 40
0.0
 40
0.291455973
 40
1.0
 40
1.0
 40
1.0
 40
1.0
 10
14.2291436348
 20
12.6348733561
 30
0.0
 10
14.2275797995
 20
12.635552373
 30
0.0
 10
14.2221656615
 20
12.6377626858
 30
0.0
 10
14.2165238601
 20
12.6394573223
 30
0.0
 10
14.2124481593
 20
12.640210279
 30
0.0
  0
SPLINE
  5
50F
100
AcDbEntity
  8
0
100
AcDbSpline
 62
7
  6
CONTINUOUS
 70
0
 71
3
 72
9
 73
5
 74
0
 42
0.0000001
 43
0.0000001
 44
0.0000000001
 40
0.0
 40
0.0
 40
0.0
 40
0.0
 40
0.5024722438
 40
1.0
 40
1.0
 40
1.0
 40
1.0
 10
14.306492348
 20
12.6588728096
 30
0.0
 10
14.3011853693
 20
12.6569305908
 30
0.0
 10
14.2907599306
 20
12.6526669085
 30
0.0
 10
14.2808680785
 20
12.6472375595
 30
0.0
 10
14.2761657291
 20
12.6442046214
 30
0.0
  0
SPLINE
  5
510
100
AcDbEntity
  8
0
100
AcDbSpline
 62
7
  6
CONTINUOUS
 70
0
 71
3
 72
9
 73
5
 74
0
 42
0.0000001
 43
0.0000001
 44
0.0000000001
 40
0.0
 40
0.0
 40
0.0
 40
0.0
 40
0.5061452564
 40
1.0
 40
1.0
 40
1.0
 40
1.0
 10
14.2761657291
 20
12.6442046214
 30
0.0
 10
14.2715595368
 20
12.641233703
 30
0.0
 10
14.2628677168
 20
12.6347101638
 30
0.0
 10
14.2550454733
 20
12.6271909217
 30
0.0
 10
14.251361314
 20
12.6233141979
 30
0.0
  0
SPLINE
  5
511
100
AcDbEntity
  8
0
100
AcDbSpline
 62
7
  6
CONTINUOUS
 70
0
 71
3
 72
9
 73
5
 74
0
 42
0.0000001
 43
0.0000001
 44
0.0000000001
 40
0.0
 40
0.0
 40
0.0
 40
0.0
 40
0.4795375801
 40
1.0
 40
1.0
 40
1.0
 40
1.0
 10
14.3227088126
 20
12.7113251065
 30
0.0
 10
14.3204797765
 20
12.7078924524
 30
0.0
 10
14.316249039
 20
12.7004483763
 30
0.0
 10
14.3131523306
 20
12.6924552411
 30
0.0
 10
14.3118401858
 20
12.6882112736
 30
0.0
  0
SPLINE
  5
512
100
AcDbEntity
  8
0
100
AcDbSpline
 62
7
  6
CONTINUOUS
 70
0
 71
3
 72
9
 73
5
 74
0
 42
0.0000001
 43
0.0000001
 44
0.0000000001
 40
0.0
 40
0.0
 40
0.0
 40
0.0
 40
0.4852953395
 40
1.0
 40
1.0
 40
1.0
 40
1.0
 10
14.3118401858
 20
12.6882112736
 30
0.0
 10
14.3104131658
 20
12.6835957567
 30
0.0
 10
14.3081920371
 20
12.6738599384
 30
0.0
 10
14.306962866
 20
12.6639714544
 30
0.0
 10
14.3064919316
 20
12.6588692891
 30
0.0
  0
SPLINE
  5
513
100
AcDbEntity
  8
0
100
AcDbSpline
 62
7
  6
CONTINUOUS
 70
0
 71
3
 72
9
 73
5
 74
0
 42
0.0000001
 43
0.0000001
 44
0.0000000001
 40
0.0
 40
0.0
 40
0.0
 40
0.0
 40
0.5091805229
 40
1.0
 40
1.0
 40
1.0
 40
1.0
 10
13.8557160397
 20
12.8131829739
 30
0.0
 10
13.8408586001
 20
12.816405768
 30
0.0
 10
13.8114205764
 20
12.8216383467
 30
0.0
 10
13.7815457191
 20
12.8236982741
 30
0.0
 10
13.7668909803
 20
12.8236982741
 30
0.0
  0
SPLINE
  5
514
100
AcDbEntity
  8
0
100
AcDbSpline
 62
7
  6
CONTINUOUS
 70
0
 71
3
 72
9
 73
5
 74
0
 42
0.0000001
 43
0.0000001
 44
0.0000000001
 40
0.0
 40
0.0
 40
0.0
 40
0.0
 40
0.2429987814
 40
1.0
 40
1.0
 40
1.0
 40
1.0
 10
14.3688815362
 20
11.7852937871
 30
0.0
 10
14.370691349
 20
11.7816057763
 30
0.0
 10
14.3784288908
 20
11.7665716436
 30
0.0
 10
14.387274227
 20
11.7521155507
 30
0.0
 10
14.3944606365
 20
11.7415258708
 30
0.0
  0
SPLINE
  5
515
100
AcDbEntity
  8
0
100
AcDbSpline
 62
7
  6
CONTINUOUS
 70
0
 71
3
 72
9
 73
5
 74
0
 42
0.0000001
 43
0.0000001
 44
0.0000000001
 40
0.0
 40
0.0
 40
0.0
 40
0.0
 40
0.2420229965
 40
1.0
 40
1.0
 40
1.0
 40
1.0
 10
14.3944606365
 20
11.7415258708
 30
0.0
 10
14.3975879798
 20
11.7369175104
 30
0.0
 10
14.4109013298
 20
11.7181434183
 30
0.0
 10
14.4257055582
 20
11.7004419946
 30
0.0
 10
14.4375450883
 20
11.6876335727
 30
0.0
  0
SPLINE
  5
516
100
AcDbEntity
  8
0
100
AcDbSpline
 62
7
  6
CONTINUOUS
 70
0
 71
3
 72
15
 73
11
 74
0
 42
0.0000001
 43
0.0000001
 44
0.0000000001
 40
0.0
 40
0.0
 40
0.0
 40
0.0
 40
0.1469088292
 40
0.2871855777
 40
0.4207279362
 40
0.5476509584
 40
0.668295295
 40
0.7832682371
 40
0.8934512493
 40
1.0
 40
1.0
 40
1.0
 40
1.0
 10
15.1788146914
 20
11.4487552651
 30
0.0
 10
15.1917618711
 20
11.4512388746
 30
0.0
 10
15.216911615
 20
11.4569946546
 30
0.0
 10
15.2529770902
 20
11.4683019819
 30
0.0
 10
15.2862740514
 20
11.4820195928
 30
0.0
 10
15.3165515582
 20
11.4980472808
 30
0.0
 10
15.3435791536
 20
11.5162777914
 30
0.0
 10
15.3671458835
 20
11.5365887371
 30
0.0
 10
15.3870583569
 20
11.558828615
 30
0.0
 10
15.3979226373
 20
11.5750568726
 30
0.0
 10
15.4026339211
 20
11.5833770068
 30
0.0
  0
SPLINE
  5
517
100
AcDbEntity
  8
0
100
AcDbSpline
 62
7
  6
CONTINUOUS
 70
0
 71
3
 72
9
 73
5
 74
0
 42
0.0000001
 43
0.0000001
 44
0.0000000001
 40
0.0
 40
0.0
 40
0.0
 40
0.0
 40
0.2481394342
 40
1.0
 40
1.0
 40
1.0
 40
1.0
 10
14.2530575734
 20
12.6047563056
 30
0.0
 10
14.2533628786
 20
12.6044123146
 30
0.0
 10
14.2546420948
 20
12.6030699302
 30
0.0
 10
14.2561146432
 20
12.601913673
 30
0.0
 10
14.2572922922
 20
12.6011685082
 30
0.0
  0
SPLINE
  5
518
100
AcDbEntity
  8
0
100
AcDbSpline
 62
7
  6
CONTINUOUS
 70
0
 71
3
 72
9
 73
5
 74
0
 42
0.0000001
 43
0.0000001
 44
0.0000000001
 40
0.0
 40
0.0
 40
0.0
 40
0.0
 40
0.4798647968
 40
1.0
 40
1.0
 40
1.0
 40
1.0
 10
14.2572922922
 20
12.6011685082
 30
0.0
 10
14.2588564804
 20
12.6001787583
 30
0.0
 10
14.2624024283
 20
12.5985516131
 30
0.0
 10
14.2662063057
 20
12.5977564878
 30
0.0
 10
14.2681988597
 20
12.5975215016
 30
0.0
  0
LINE
  5
519
100
AcDbEntity
  8
0
100
AcDbLine
 62
7
  6
CONTINUOUS
 10
14.2681988597
 20
12.5975215016
 11
14.2719207442
 21
12.5972796768
  0
LINE
  5
51A
100
AcDbEntity
  8
0
100
AcDbLine
 62
7
  6
CONTINUOUS
 10
14.2775683722
 20
12.5975653333
 11
14.2819426842
 21
12.5982451981
  0
SPLINE
  5
51B
100
AcDbEntity
  8
0
100
AcDbSpline
 62
7
  6
CONTINUOUS
 70
0
 71
3
 72
9
 73
5
 74
0
 42
0.0000001
 43
0.0000001
 44
0.0000000001
 40
0.0
 40
0.0
 40
0.0
 40
0.0
 40
0.4843300563
 40
1.0
 40
1.0
 40
1.0
 40
1.0
 10
14.2819426842
 20
12.5982451981
 30
0.0
 10
14.2844907423
 20
12.5987477749
 30
0.0
 10
14.2896845822
 20
12.6001414471
 30
0.0
 10
14.294686096
 20
12.6021051824
 30
0.0
 10
14.2972064956
 20
12.6032426984
 30
0.0
  0
SPLINE
  5
51C
100
AcDbEntity
  8
0
100
AcDbSpline
 62
7
  6
CONTINUOUS
 70
0
 71
3
 72
9
 73
5
 74
0
 42
0.0000001
 43
0.0000001
 44
0.0000000001
 40
0.0
 40
0.0
 40
0.0
 40
0.0
 40
0.2440298999
 40
1.0
 40
1.0
 40
1.0
 40
1.0
 10
14.2972064956
 20
12.6032426984
 30
0.0
 10
14.2985153785
 20
12.6038334282
 30
0.0
 10
14.3038151665
 20
12.6063939056
 30
0.0
 10
14.3088586967
 20
12.609478854
 30
0.0
 10
14.3124868029
 20
12.6120530729
 30
0.0
  0
SPLINE
  5
51D
100
AcDbEntity
  8
0
100
AcDbSpline
 62
7
  6
CONTINUOUS
 70
0
 71
3
 72
9
 73
5
 74
0
 42
0.0000001
 43
0.0000001
 44
0.0000000001
 40
0.0
 40
0.0
 40
0.0
 40
0.0
 40
0.25586315
 40
1.0
 40
1.0
 40
1.0
 40
1.0
 10
14.3262350755
 20
12.6238779272
 30
0.0
 10
14.3272698578
 20
12.62495405
 30
0.0
 10
14.331210805
 20
12.629257034
 30
0.0
 10
14.3347371536
 20
12.6339476532
 30
0.0
 10
14.3370355781
 20
12.6376313379
 30
0.0
  0
SPLINE
  5
51E
100
AcDbEntity
  8
0
100
AcDbSpline
 62
7
  6
CONTINUOUS
 70
0
 71
3
 72
9
 73
5
 74
0
 42
0.0000001
 43
0.0000001
 44
0.0000000001
 40
0.0
 40
0.0
 40
0.0
 40
0.0
 40
0.515684498
 40
1.0
 40
1.0
 40
1.0
 40
1.0
 10
14.3370355781
 20
12.6376313379
 30
0.0
 10
14.3384920323
 20
12.639965597
 30
0.0
 10
14.3410677618
 20
12.6446532656
 30
0.0
 10
14.3430439016
 20
12.6496293535
 30
0.0
 10
14.3438147019
 20
12.6520957144
 30
0.0
  0
ENDSEC
  0
SECTION
  2
OBJECTS
  0
DICTIONARY
  5
C
100
AcDbDictionary
280
0
281
1
  3
ACAD_GROUP
350
D
  3
ACAD_MLINESTYLE
350
17
  3
ACAD_LAYOUT
350
1A
  3
ACAD_PLOTSETTINGS
350
19
  3
ACAD_PLOTSTYLENAME
350
E
  0
DICTIONARY
  5
D
102
{ACAD_REACTORS
330
C
102
}
100
AcDbDictionary
280
0
281
1
  0
ACDBDICTIONARYWDFLT
  5
E
102
{ACAD_REACTORS
330
C
102
}
100
AcDbDictionary
281
1
  3
Normal
350
F
100
AcDbDictionaryWithDefault
340
F
  0
DICTIONARY
  5
17
102
{ACAD_REACTORS
330
C
102
}
100
AcDbDictionary
280
0
281
1
  3
Standard
350
18
  0
DICTIONARY
  5
19
102
{ACAD_REACTORS
330
C
102
}
100
AcDbDictionary
281
1
  0
DICTIONARY
  5
1A
102
{ACAD_REACTORS
330
C
102
}
100
AcDbDictionary
281
1
  3
Model
350
51F
  3
Layout1
350
520
  0
ACDBPLACEHOLDER
  5
F
102
{ACAD_REACTORS
330
E
102
}
  0
MLINESTYLE
  5
18
102
{ACAD_REACTORS
330
17
102
}
100
AcDbMlineStyle
  2
STANDARD
 70
0
  3

 62
256
 51
90.0
 52
90.0
 71
2
 49
0.5
 62
256
  6
BYLAYER
 49
-0.5
 62
256
  6
BYLAYER
  0
LAYOUT
  5
51F
102
{ACAD_REACTORS
330
1A
102
}
100
AcDbPlotSettings
  1

  2
none_device
  4
ANSI_C_(22.00_x_17.00_Inches)
  6

 40
0.0
 41
0.0
 42
0.0
 43
0.0
 44
558.8
 45
431.8
 46
0.0
 47
0.0
 48
0.0
 49
0.0
140
0.0
141
0.0
142
1.0
143
1.0
 70
1024
 72
0
 73
0
 74
0
  7

 75
0
147
1.0
148
0.0
149
0.0
100
AcDbLayout
  1
Model
 70
0
 71
0
 10
0.0
 20
0.0
 11
22.0
 21
17.0
 12
0.0
 22
0.0
 32
0.0
 14
0.0
 24
0.0
 34
0.0
 15
0.0
 25
0.0
 35
0.0
146
0.0
 13
0.0
 23
0.0
 33
0.0
 16
1.0
 26
0.0
 36
0.0
 17
0.0
 27
1.0
 37
0.0
 76
0
330
22A
345
0
346
0
  0
LAYOUT
  5
520
102
{ACAD_REACTORS
330
1A
102
}
100
AcDbPlotSettings
  1

  2
none_device
  4
ANSI_C_(22.00_x_17.00_Inches)
  6

 40
0.0
 41
0.0
 42
0.0
 43
0.0
 44
558.8
 45
431.8
 46
0.0
 47
0.0
 48
0.0
 49
0.0
140
0.0
141
0.0
142
1.0
143
1.0
 70
0
 72
0
 73
0
 74
0
  7

 75
0
147
1.0
148
0.0
149
0.0
100
AcDbLayout
  1
Layout1
 70
0
 71
1
 10
0.0
 20
0.0
 11
22.0
 21
17.0
 12
0.0
 22
0.0
 32
0.0
 14
0.0
 24
0.0
 34
0.0
 15
0.0
 25
0.0
 35
0.0
146
0.0
 13
0.0
 23
0.0
 33
0.0
 16
1.0
 26
0.0
 36
0.0
 17
0.0
 27
1.0
 37
0.0
 76
0
330
22B
345
0
346
0
  0
ENDSEC
  0
EOF