999
DXF file: _cgs_temp_output.dxf
999
Pro/ENGINEER 2016360 by Parametric Technology Corporation
  0
SECTION
  2
HEADER
  9
$ACADVER
  1
AC1021
  9
$DWGCODEPAGE
  3
ANSI_1252
  9
$EXTMAX
 10
22.0
 20
17.0
 30
0.0
  9
$EXTMIN
 10
0.0
 20
0.0
 30
0.0
  9
$LIMMIN
 10
0.0
 20
0.0
  9
$LIMMAX
 10
22.0
 20
17.0
  9
$VIEWCTR
 10
11.0
 20
8.5
  9
$VIEWSIZE
 40
17.0
  9
$CLAYER
  8
0
  9
$LTSCALE
 40
1.21
  9
$CELTYPE
  6
BYLAYER
  9
$DIMSCALE
 40
1.0
  9
$DIMASZ
 40
0.1875
  9
$DIMEXO
 40
0.0625
  9
$DIMDLI
 40
0.836
  9
$DIMEXE
 40
0.125
  9
$DIMCEN
 40
0.198
  9
$DIMLFAC
 40
1.0
  9
$DIMBLK
  1
_CLOSED
  9
$DIMALT
 70
0
  9
$DIMALTF
 40
25.4
  9
$DIMTXT
 40
0.15625
  9
$DIMTOL
 70
0
  9
$DIMLIM
 70
0
  9
$DIMTFAC
 40
1.0
  9
$DIMGAP
 40
0.09
  9
$DIMDSEP
 70
46
  9
$AUNITS
 70
0
  9
$PDMODE
 70
3
  9
$PDSIZE
 40
0.3125
  9
$HANDSEED
  5
2D1
  9
$TILEMODE
 70
1
  9
$MEASUREMENT
 70
0
  9
$INSUNITS
 70
1
  0
ENDSEC
  0
SECTION
  2
CLASSES
  0
CLASS
  1
ACDBDICTIONARYWDFLT
  2
AcDbDictionaryWithDefault
  3
AutoCAD 2000
 90
0
 91
1
280
0
281
0
  0
CLASS
  1
ACDBPLACEHOLDER
  2
AcDbPlaceHolder
  3
AutoCAD 2000
 90
0
 91
1
280
0
281
0
  0
CLASS
  1
LAYOUT
  2
AcDbLayout
  3
AutoCAD 2000
 90
0
 91
0
280
0
281
0
  0
ENDSEC
  0
SECTION
  2
TABLES
  0
TABLE
  2
VPORT
  5
8
100
AcDbSymbolTable
 70
2
  0
VPORT
  5
1F4
100
AcDbSymbolTableRecord
100
AcDbViewportTableRecord
  2
*ACTIVE
 70
0
 10
0.0
 20
0.0
 11
1.0
 21
1.0
 12
11.0
 22
8.5
 13
0.0
 23
0.0
 14
1.0
 24
1.0
 15
0.0
 25
0.0
 16
0.0
 26
0.0
 36
1.0
 17
0.0
 27
0.0
 37
0.0
 40
17.0
 41
1.2941176471
 42
50.0
 43
0.0
 44
0.0
 50
0.0
 51
0.0
 71
0
 72
100
 73
1
 74
1
 75
0
 76
0
 77
0
 78
0
  0
ENDTAB
  0
TABLE
  2
LTYPE
  5
5
100
AcDbSymbolTable
 70
6
  0
LTYPE
  5
14
100
AcDbSymbolTableRecord
100
AcDbLinetypeTableRecord
  2
BYBLOCK
 70
0
  3

 72
65
 73
0
 40
0.0
  0
LTYPE
  5
15
100
AcDbSymbolTableRecord
100
AcDbLinetypeTableRecord
  2
BYLAYER
 70
0
  3

 72
65
 73
0
 40
0.0
  0
LTYPE
  5
16
100
AcDbSymbolTableRecord
100
AcDbLinetypeTableRecord
  2
CONTINUOUS
 70
64
  3
Solid line
 72
65
 73
0
 40
0.0
  0
LTYPE
  5
1F5
100
AcDbSymbolTableRecord
100
AcDbLinetypeTableRecord
  2
CENTER
 70
64
  3
____ _ ____ _ ____ _ ____ _ ____ _ ____ _ ____
 72
65
 73
4
 40
0.6
 49
0.375
 74
0
 49
-0.075
 74
0
 49
0.075
 74
0
 49
-0.075
 74
0
  0
LTYPE
  5
1F6
100
AcDbSymbolTableRecord
100
AcDbLinetypeTableRecord
  2
HIDDEN
 70
64
  3
- - - - - - - - - - - - - - - - - - - -
 72
65
 73
2
 40
0.2
 49
0.1
 74
0
 49
-0.1
 74
0
  0
LTYPE
  5
1F7
100
AcDbSymbolTableRecord
100
AcDbLinetypeTableRecord
  2
PHANTOM
 70
64
  3
_____ _ _ _____ _ _ _____ _ _ _____
 72
65
 73
6
 40
0.8
 49
0.45
 74
0
 49
-0.05
 74
0
 49
0.1
 74
0
 49
-0.05
 74
0
 49
0.1
 74
0
 49
-0.05
 74
0
  0
LTYPE
  5
1F8
100
AcDbSymbolTableRecord
100
AcDbLinetypeTableRecord
  2
DOT
 70
64
  3
. . . . . . . . . . . . . . . . . . . .
 72
65
 73
2
 40
0.2
 49
0.1
 74
0
 49
-0.1
 74
0
  0
LTYPE
  5
1F9
100
AcDbSymbolTableRecord
100
AcDbLinetypeTableRecord
  2
DASHED
 70
64
  3
- - - - - - - - - - - - - - - - - - - -
 72
65
 73
2
 40
0.2
 49
0.1
 74
0
 49
-0.1
 74
0
  0
ENDTAB
  0
TABLE
  2
LAYER
  5
2
100
AcDbSymbolTable
 70
36
  0
LAYER
  5
10
100
AcDbSymbolTableRecord
100
AcDbLayerTableRecord
  2
0
 70
0
 62
7
  6
CONTINUOUS
370
-3
390
F
  0
LAYER
  5
1FA
100
AcDbSymbolTableRecord
100
AcDbLayerTableRecord
  2
DEFAULT_1
 70
0
 62
7
  6
CENTER
370
-3
390
F
  0
LAYER
  5
1FB
100
AcDbSymbolTableRecord
100
AcDbLayerTableRecord
  2
DEFAULT_2
 70
0
 62
8
  6
HIDDEN
370
-3
390
F
  0
LAYER
  5
1FC
100
AcDbSymbolTableRecord
100
AcDbLayerTableRecord
  2
DEFAULT_3
 70
0
 62
7
  6
PHANTOM
370
-3
390
F
  0
LAYER
  5
1FD
100
AcDbSymbolTableRecord
100
AcDbLayerTableRecord
  2
01_ALL_DTM_PLN
 70
0
 62
7
  6
CONTINUOUS
370
-3
390
F
  0
LAYER
  5
1FE
100
AcDbSymbolTableRecord
100
AcDbLayerTableRecord
  2
01__ASM_ALL_DTM_PLN
 70
0
 62
7
  6
CONTINUOUS
370
-3
390
F
  0
LAYER
  5
1FF
100
AcDbSymbolTableRecord
100
AcDbLayerTableRecord
  2
01__ASM_DEF_DTM_PLN
 70
0
 62
7
  6
CONTINUOUS
370
-3
390
F
  0
LAYER
  5
200
100
AcDbSymbolTableRecord
100
AcDbLayerTableRecord
  2
01___PRT_ALL_DTM_PLN
 70
0
 62
7
  6
CONTINUOUS
370
-3
390
F
  0
LAYER
  5
201
100
AcDbSymbolTableRecord
100
AcDbLayerTableRecord
  2
01___PRT_DEF_DTM_PLN
 70
0
 62
7
  6
CONTINUOUS
370
-3
390
F
  0
LAYER
  5
202
100
AcDbSymbolTableRecord
100
AcDbLayerTableRecord
  2
02_ALL_AXES
 70
0
 62
7
  6
CONTINUOUS
370
-3
390
F
  0
LAYER
  5
203
100
AcDbSymbolTableRecord
100
AcDbLayerTableRecord
  2
02__ASM_ALL_AXES
 70
0
 62
7
  6
CONTINUOUS
370
-3
390
F
  0
LAYER
  5
204
100
AcDbSymbolTableRecord
100
AcDbLayerTableRecord
  2
02___PRT_ALL_AXES
 70
0
 62
7
  6
CONTINUOUS
370
-3
390
F
  0
LAYER
  5
205
100
AcDbSymbolTableRecord
100
AcDbLayerTableRecord
  2
03_ALL_CURVES
 70
0
 62
7
  6
CONTINUOUS
370
-3
390
F
  0
LAYER
  5
206
100
AcDbSymbolTableRecord
100
AcDbLayerTableRecord
  2
03__ASM_ALL_CURVES
 70
0
 62
7
  6
CONTINUOUS
370
-3
390
F
  0
LAYER
  5
207
100
AcDbSymbolTableRecord
100
AcDbLayerTableRecord
  2
03___PRT_ALL_CURVES
 70
0
 62
7
  6
CONTINUOUS
370
-3
390
F
  0
LAYER
  5
208
100
AcDbSymbolTableRecord
100
AcDbLayerTableRecord
  2
04_ALL_DTM_PNT
 70
0
 62
7
  6
CONTINUOUS
370
-3
390
F
  0
LAYER
  5
209
100
AcDbSymbolTableRecord
100
AcDbLayerTableRecord
  2
04__ASM_ALL_DTM_PNT
 70
0
 62
7
  6
CONTINUOUS
370
-3
390
F
  0
LAYER
  5
20A
100
AcDbSymbolTableRecord
100
AcDbLayerTableRecord
  2
04___PRT_ALL_DTM_PNT
 70
0
 62
7
  6
CONTINUOUS
370
-3
390
F
  0
LAYER
  5
20B
100
AcDbSymbolTableRecord
100
AcDbLayerTableRecord
  2
05_ALL_DTM_CSYS
 70
0
 62
7
  6
CONTINUOUS
370
-3
390
F
  0
LAYER
  5
20C
100
AcDbSymbolTableRecord
100
AcDbLayerTableRecord
  2
05__ASM_ALL_DTM_CSYS
 70
0
 62
7
  6
CONTINUOUS
370
-3
390
F
  0
LAYER
  5
20D
100
AcDbSymbolTableRecord
100
AcDbLayerTableRecord
  2
05__ASM_DEF_DTM_CSYS
 70
0
 62
7
  6
CONTINUOUS
370
-3
390
F
  0
LAYER
  5
20E
100
AcDbSymbolTableRecord
100
AcDbLayerTableRecord
  2
05___PRT_ALL_DTM_CSYS
 70
0
 62
7
  6
CONTINUOUS
370
-3
390
F
  0
LAYER
  5
20F
100
AcDbSymbolTableRecord
100
AcDbLayerTableRecord
  2
05___PRT_DEF_DTM_CSYS
 70
0
 62
7
  6
CONTINUOUS
370
-3
390
F
  0
LAYER
  5
210
100
AcDbSymbolTableRecord
100
AcDbLayerTableRecord
  2
06_ALL_SURFS
 70
0
 62
7
  6
CONTINUOUS
370
-3
390
F
  0
LAYER
  5
211
100
AcDbSymbolTableRecord
100
AcDbLayerTableRecord
  2
06__ASM_ALL_SURFS
 70
0
 62
7
  6
CONTINUOUS
370
-3
390
F
  0
LAYER
  5
212
100
AcDbSymbolTableRecord
100
AcDbLayerTableRecord
  2
06___PRT_ALL_SURFS
 70
0
 62
7
  6
CONTINUOUS
370
-3
390
F
  0
LAYER
  5
213
100
AcDbSymbolTableRecord
100
AcDbLayerTableRecord
  2
07__ASM_ALL_SKELETONS
 70
0
 62
7
  6
CONTINUOUS
370
-3
390
F
  0
ENDTAB
  0
TABLE
  2
STYLE
  5
3
100
AcDbSymbolTable
 70
1
  0
STYLE
  5
11
100
AcDbSymbolTableRecord
100
AcDbTextStyleTableRecord
  2
STANDARD
 70
0
 40
0.0
 41
0.8
 50
0.0
 71
0
 42
0.2
  3
txt
  4

  0
STYLE
  5
214
100
AcDbSymbolTableRecord
100
AcDbTextStyleTableRecord
  2
TEXTSTYLE_1
 70
0
 40
0.0
 41
0.8
 50
0.0
 71
0
 42
0.2
  3
gdt
  4

  0
ENDTAB
  0
TABLE
  2
VIEW
  5
6
100
AcDbSymbolTable
 70
0
  0
ENDTAB
  0
TABLE
  2
UCS
  5
7
100
AcDbSymbolTable
 70
0
  0
ENDTAB
  0
TABLE
  2
APPID
  5
9
100
AcDbSymbolTable
 70
1
  0
APPID
  5
215
100
AcDbSymbolTableRecord
100
AcDbRegAppTableRecord
  2
ACAD
 70
0
  0
ENDTAB
  0
TABLE
  2
BLOCK_RECORD
  5
1
100
AcDbSymbolTable
 70
0
  0
BLOCK_RECORD
  5
216
100
AcDbSymbolTableRecord
100
AcDbBlockTableRecord
  2
*Model_Space
  0
BLOCK_RECORD
  5
217
100
AcDbSymbolTableRecord
100
AcDbBlockTableRecord
  2
*Paper_Space
  0
ENDTAB
  0
TABLE
  2
DIMSTYLE
  5
A
100
AcDbSymbolTable
 70
1
100
AcDbDimStyleTable
 71
0
  0
DIMSTYLE
105
218
100
AcDbSymbolTableRecord
100
AcDbDimStyleTableRecord
  2
STANDARD
 70
0
  3

  4

 40
1.0
 41
0.1875
 42
0.0625
 43
0.38
 44
0.125
 45
0.0
 46
0.0
 47
0.0001
 48
0.0001
140
0.15625
141
0.09
142
0.0
143
25.4
144
1.0
145
0.0
146
1.0
147
0.09
 71
0.0
 72
0.0
 73
1
 74
1
 75
0
 76
0
 77
0
 78
4
 79
1
170
0
171
3
172
0
173
0
174
0
175
0
176
0
177
0
178
0
270
2
179
4
271
4
272
4
273
2
274
2
275
0
280
0
281
0
282
0
283
1
284
4
285
0
286
0
287
3
288
0
340
11
278
46
  0
ENDTAB
  0
ENDSEC
  0
SECTION
  2
BLOCKS
  0
BLOCK
  5
20
100
AcDbEntity
  8
0
100
AcDbBlockBegin
  2
*Model_Space
 70
0
 10
0.0
 20
0.0
 30
0.0
  3
*Model_Space
  1

  0
ENDBLK
  5
21
100
AcDbEntity
  8
0
100
AcDbBlockEnd
  0
BLOCK
  5
1C
100
AcDbEntity
  8
0
100
AcDbBlockBegin
  2
*Paper_Space
 70
0
 10
0.0
 20
0.0
 30
0.0
  3
*Paper_Space
  1

  0
ENDBLK
  5
1D
100
AcDbEntity
  8
0
100
AcDbBlockEnd
  0
ENDSEC
  0
SECTION
  2
ENTITIES
  0
MTEXT
  5
219
100
AcDbEntity
  8
0
100
AcDbMText
 62
7
  6
CONTINUOUS
  7
STANDARD
 71
1
 72
1
 10
15.9560215477
 20
0.9479130325
 30
0.0
 11
1.0
 21
0.0
 31
0.0
 44
0.9
  1
SCALE: 1:1.000
 40
0.3
 41
3.36
  0
LINE
  5
21A
100
AcDbEntity
  8
0
100
AcDbLine
 62
7
  6
CONTINUOUS
 10
0.0
 20
0.0
 11
0.0
 21
17.0
  0
LINE
  5
21B
100
AcDbEntity
  8
0
100
AcDbLine
 62
7
  6
CONTINUOUS
 10
0.0
 20
0.0
 11
22.0
 21
0.0
  0
LINE
  5
21C
100
AcDbEntity
  8
0
100
AcDbLine
 62
7
  6
CONTINUOUS
 10
0.0
 20
17.0
 11
22.0
 21
17.0
  0
LINE
  5
21D
100
AcDbEntity
  8
0
100
AcDbLine
 62
7
  6
CONTINUOUS
 10
22.0
 20
0.0
 11
22.0
 21
17.0
  0
LINE
  5
21E
100
AcDbEntity
  8
0
100
AcDbLine
 62
7
  6
CONTINUOUS
 10
4.949264914
 20
5.6087025739
 11
4.949264914
 21
5.5457104479
  0
LINE
  5
21F
100
AcDbEntity
  8
0
100
AcDbLine
 62
7
  6
CONTINUOUS
 10
5.0464988723
 20
5.5170100571
 11
5.0728941677
 21
5.444489579
  0
LINE
  5
220
100
AcDbEntity
  8
0
100
AcDbLine
 62
7
  6
CONTINUOUS
 10
5.2193364476
 20
5.444489579
 11
5.245731743
 21
5.5170100571
  0
LINE
  5
221
100
AcDbEntity
  8
0
100
AcDbLine
 62
7
  6
CONTINUOUS
 10
4.949264914
 20
5.5457104479
 11
4.9650129455
 21
5.5299624164
  0
LINE
  5
222
100
AcDbEntity
  8
0
100
AcDbLine
 62
7
  6
CONTINUOUS
 10
5.4401996597
 20
5.5170100571
 11
5.4665949551
 21
5.444489579
  0
LINE
  5
223
100
AcDbEntity
  8
0
100
AcDbLine
 62
7
  6
CONTINUOUS
 10
5.3272176699
 20
5.5299624164
 11
5.3429657014
 21
5.5457104479
  0
LINE
  5
224
100
AcDbEntity
  8
0
100
AcDbLine
 62
7
  6
CONTINUOUS
 10
5.3429657014
 20
5.5457104479
 11
5.3587137329
 21
5.5299624164
  0
LINE
  5
225
100
AcDbEntity
  8
0
100
AcDbLine
 62
7
  6
CONTINUOUS
 10
5.613037235
 20
5.444489579
 11
5.6394325304
 21
5.5170100571
  0
LINE
  5
226
100
AcDbEntity
  8
0
100
AcDbLine
 62
7
  6
CONTINUOUS
 10
5.7209184573
 20
5.5299624164
 11
5.7366664888
 21
5.5457104479
  0
LINE
  5
227
100
AcDbEntity
  8
0
100
AcDbLine
 62
7
  6
CONTINUOUS
 10
5.7366664888
 20
5.5457104479
 11
5.7524145203
 21
5.5299624164
  0
LINE
  5
228
100
AcDbEntity
  8
0
100
AcDbLine
 62
7
  6
CONTINUOUS
 10
5.8339004471
 20
5.5170100571
 11
5.8602957425
 21
5.444489579
  0
LINE
  5
229
100
AcDbEntity
  8
0
100
AcDbLine
 62
7
  6
CONTINUOUS
 10
6.0067380225
 20
5.444489579
 11
6.0331333178
 21
5.5170100571
  0
LINE
  5
22A
100
AcDbEntity
  8
0
100
AcDbLine
 62
7
  6
CONTINUOUS
 10
5.0913920539
 20
5.4315372196
 11
5.2008385614
 21
5.4315372196
  0
LINE
  5
22B
100
AcDbEntity
  8
0
100
AcDbLine
 62
7
  6
CONTINUOUS
 10
5.4850928413
 20
5.4315372196
 11
5.5945393488
 21
5.4315372196
  0
LINE
  5
22C
100
AcDbEntity
  8
0
100
AcDbLine
 62
7
  6
CONTINUOUS
 10
5.8787936287
 20
5.4315372196
 11
5.9882401362
 21
5.4315372196
  0
LINE
  5
22D
100
AcDbEntity
  8
0
100
AcDbLine
 62
7
  6
CONTINUOUS
 10
6.2724944161
 20
5.4315372196
 11
6.3819409236
 21
5.4315372196
  0
LINE
  5
22E
100
AcDbEntity
  8
0
100
AcDbLine
 62
7
  6
CONTINUOUS
 10
6.6661952035
 20
5.4315372196
 11
6.775641711
 21
5.4315372196
  0
LINE
  5
22F
100
AcDbEntity
  8
0
100
AcDbLine
 62
7
  6
CONTINUOUS
 10
7.0598959909
 20
5.4315372196
 11
7.1693424984
 21
5.4315372196
  0
LINE
  5
230
100
AcDbEntity
  8
0
100
AcDbLine
 62
7
  6
CONTINUOUS
 10
6.1146192447
 20
5.5299624164
 11
6.1303672762
 21
5.5457104479
  0
LINE
  5
231
100
AcDbEntity
  8
0
100
AcDbLine
 62
7
  6
CONTINUOUS
 10
4.9650129455
 20
5.5299624164
 11
5.028000986
 21
5.5299624164
  0
LINE
  5
232
100
AcDbEntity
  8
0
100
AcDbLine
 62
7
  6
CONTINUOUS
 10
5.2642296293
 20
5.5299624164
 11
5.3272176699
 21
5.5299624164
  0
LINE
  5
233
100
AcDbEntity
  8
0
100
AcDbLine
 62
7
  6
CONTINUOUS
 10
5.3587137329
 20
5.5299624164
 11
5.4217017734
 21
5.5299624164
  0
LINE
  5
234
100
AcDbEntity
  8
0
100
AcDbLine
 62
7
  6
CONTINUOUS
 10
5.6579304167
 20
5.5299624164
 11
5.7209184573
 21
5.5299624164
  0
LINE
  5
235
100
AcDbEntity
  8
0
100
AcDbLine
 62
7
  6
CONTINUOUS
 10
5.7524145203
 20
5.5299624164
 11
5.8154025608
 21
5.5299624164
  0
LINE
  5
236
100
AcDbEntity
  8
0
100
AcDbLine
 62
7
  6
CONTINUOUS
 10
6.0516312041
 20
5.5299624164
 11
6.1146192447
 21
5.5299624164
  0
LINE
  5
237
100
AcDbEntity
  8
0
100
AcDbLine
 62
7
  6
CONTINUOUS
 10
6.1461153077
 20
5.5299624164
 11
6.2091033482
 21
5.5299624164
  0
LINE
  5
238
100
AcDbEntity
  8
0
100
AcDbLine
 62
7
  6
CONTINUOUS
 10
6.4453319915
 20
5.5299624164
 11
6.5083200321
 21
5.5299624164
  0
LINE
  5
239
100
AcDbEntity
  8
0
100
AcDbLine
 62
7
  6
CONTINUOUS
 10
6.5398160951
 20
5.5299624164
 11
6.6028041357
 21
5.5299624164
  0
LINE
  5
23A
100
AcDbEntity
  8
0
100
AcDbLine
 62
7
  6
CONTINUOUS
 10
6.8390327789
 20
5.5299624164
 11
6.9020208195
 21
5.5299624164
  0
LINE
  5
23B
100
AcDbEntity
  8
0
100
AcDbLine
 62
7
  6
CONTINUOUS
 10
6.9335168825
 20
5.5299624164
 11
6.9965049231
 21
5.5299624164
  0
LINE
  5
23C
100
AcDbEntity
  8
0
100
AcDbLine
 62
7
  6
CONTINUOUS
 10
7.2327335663
 20
5.5299624164
 11
7.2957216069
 21
5.5299624164
  0
LINE
  5
23D
100
AcDbEntity
  8
0
100
AcDbLine
 62
7
  6
CONTINUOUS
 10
7.3114696384
 20
5.6087025739
 11
4.949264914
 21
5.6087025739
  0
LINE
  5
23E
100
AcDbEntity
  8
0
100
AcDbLine
 62
7
  6
CONTINUOUS
 10
6.1303672762
 20
5.5457104479
 11
6.1461153077
 21
5.5299624164
  0
LINE
  5
23F
100
AcDbEntity
  8
0
100
AcDbLine
 62
7
  6
CONTINUOUS
 10
6.2276012345
 20
5.5170100571
 11
6.2539965299
 21
5.444489579
  0
LINE
  5
240
100
AcDbEntity
  8
0
100
AcDbLine
 62
7
  6
CONTINUOUS
 10
6.4004388099
 20
5.444489579
 11
6.4268341052
 21
5.5170100571
  0
LINE
  5
241
100
AcDbEntity
  8
0
100
AcDbLine
 62
7
  6
CONTINUOUS
 10
6.5083200321
 20
5.5299624164
 11
6.5240680636
 21
5.5457104479
  0
LINE
  5
242
100
AcDbEntity
  8
0
100
AcDbLine
 62
7
  6
CONTINUOUS
 10
6.5240680636
 20
5.5457104479
 11
6.5398160951
 21
5.5299624164
  0
LINE
  5
243
100
AcDbEntity
  8
0
100
AcDbLine
 62
7
  6
CONTINUOUS
 10
6.6213020219
 20
5.5170100571
 11
6.6476973173
 21
5.444489579
  0
LINE
  5
244
100
AcDbEntity
  8
0
100
AcDbLine
 62
7
  6
CONTINUOUS
 10
6.9020208195
 20
5.5299624164
 11
6.917768851
 21
5.5457104479
  0
LINE
  5
245
100
AcDbEntity
  8
0
100
AcDbLine
 62
7
  6
CONTINUOUS
 10
6.917768851
 20
5.5457104479
 11
6.9335168825
 21
5.5299624164
  0
LINE
  5
246
100
AcDbEntity
  8
0
100
AcDbLine
 62
7
  6
CONTINUOUS
 10
6.7941395973
 20
5.444489579
 11
6.8205348927
 21
5.5170100571
  0
LINE
  5
247
100
AcDbEntity
  8
0
100
AcDbLine
 62
7
  6
CONTINUOUS
 10
7.2957216069
 20
5.5299624164
 11
7.3114696384
 21
5.5457104479
  0
LINE
  5
248
100
AcDbEntity
  8
0
100
AcDbLine
 62
7
  6
CONTINUOUS
 10
7.0150028093
 20
5.5170100571
 11
7.0413981047
 21
5.444489579
  0
LINE
  5
249
100
AcDbEntity
  8
0
100
AcDbLine
 62
7
  6
CONTINUOUS
 10
7.1878403847
 20
5.444489579
 11
7.2142356801
 21
5.5170100571
  0
LINE
  5
24A
100
AcDbEntity
  8
0
100
AcDbLine
 62
7
  6
CONTINUOUS
 10
7.3114696384
 20
5.5457104479
 11
7.3114696384
 21
5.6087025739
  0
LINE
  5
24B
100
AcDbEntity
  8
0
100
AcDbLine
 62
7
  6
CONTINUOUS
 10
4.8897697217
 20
13.0921737656
 11
4.8897697217
 21
12.1079217971
  0
LINE
  5
24C
100
AcDbEntity
  8
0
100
AcDbLine
 62
7
  6
CONTINUOUS
 10
7.2519744461
 20
12.1079217971
 11
4.8897697217
 21
12.1079217971
  0
LINE
  5
24D
100
AcDbEntity
  8
0
100
AcDbLine
 62
7
  6
CONTINUOUS
 10
4.8897697217
 20
13.0921737656
 11
7.2519744461
 21
13.0921737656
  0
LINE
  5
24E
100
AcDbEntity
  8
0
100
AcDbLine
 62
7
  6
CONTINUOUS
 10
7.2519744461
 20
13.0921737656
 11
7.2519744461
 21
12.1079217971
  0
LINE
  5
24F
100
AcDbEntity
  8
0
100
AcDbLine
 62
7
  6
CONTINUOUS
 10
15.0682292727
 20
5.3720420273
 11
15.0682292727
 21
5.5492073816
  0
LINE
  5
250
100
AcDbEntity
  8
0
100
AcDbLine
 62
7
  6
CONTINUOUS
 10
15.0682292727
 20
5.3720420273
 11
16.0524812412
 21
5.3720420273
  0
LINE
  5
251
100
AcDbEntity
  8
0
100
AcDbLine
 62
7
  6
CONTINUOUS
 10
16.0524812412
 20
5.4704672241
 11
15.0682292727
 21
5.4704672241
  0
LINE
  5
252
100
AcDbEntity
  8
0
100
AcDbLine
 62
7
  6
CONTINUOUS
 10
16.0524812412
 20
5.4862152556
 11
15.0682292727
 21
5.4862152556
  0
LINE
  5
253
100
AcDbEntity
  8
0
100
AcDbLine
 62
7
  6
CONTINUOUS
 10
16.0524812412
 20
5.5492073816
 11
15.0682292727
 21
5.5492073816
  0
LINE
  5
254
100
AcDbEntity
  8
0
100
AcDbLine
 62
7
  6
CONTINUOUS
 10
16.0524812412
 20
5.3720420273
 11
16.0524812412
 21
5.5492073816
  0
LINE
  5
255
100
AcDbEntity
  8
0
100
AcDbLine
 62
7
  6
CONTINUOUS
 10
14.2545104072
 20
12.1803733417
 11
14.2737256429
 21
12.1412168082
  0
LINE
  5
256
100
AcDbEntity
  8
0
100
AcDbLine
 62
7
  6
CONTINUOUS
 10
14.4927646625
 20
12.9513643944
 11
14.2545104072
 21
12.1803733417
  0
LINE
  5
257
100
AcDbEntity
  8
0
100
AcDbLine
 62
7
  6
CONTINUOUS
 10
14.37203887
 20
12.1233763592
 11
14.418472329
 21
12.0782969071
  0
LINE
  5
258
100
AcDbEntity
  8
0
100
AcDbLine
 62
7
  6
CONTINUOUS
 10
14.553354601
 20
12.0782969071
 11
14.555544496
 21
12.1233763592
  0
LINE
  5
259
100
AcDbEntity
  8
0
100
AcDbLine
 62
7
  6
CONTINUOUS
 10
14.2737256429
 20
12.1412168082
 11
14.2930343494
 21
12.1314276749
  0
LINE
  5
25A
100
AcDbEntity
  8
0
100
AcDbLine
 62
7
  6
CONTINUOUS
 10
14.555544496
 20
12.1233763592
 11
14.5558262349
 21
12.1250038928
  0
LINE
  5
25B
100
AcDbEntity
  8
0
100
AcDbLine
 62
7
  6
CONTINUOUS
 10
14.5530727565
 20
12.0766694062
 11
14.553354601
 21
12.0782969071
  0
LINE
  5
25C
100
AcDbEntity
  8
0
100
AcDbLine
 62
7
  6
CONTINUOUS
 10
14.7346613086
 20
12.1233763592
 11
14.7810947676
 21
12.0782969071
  0
LINE
  5
25D
100
AcDbEntity
  8
0
100
AcDbLine
 62
7
  6
CONTINUOUS
 10
14.5535543302
 20
12.0782351861
 11
14.5699920525
 21
12.1314276749
  0
LINE
  5
25E
100
AcDbEntity
  8
0
100
AcDbLine
 62
7
  6
CONTINUOUS
 10
14.6363480815
 20
12.1412168082
 11
14.655656788
 21
12.1314276749
  0
LINE
  5
25F
100
AcDbEntity
  8
0
100
AcDbLine
 62
7
  6
CONTINUOUS
 10
14.9159770396
 20
12.0782969071
 11
14.9181669346
 21
12.1233763592
  0
LINE
  5
260
100
AcDbEntity
  8
0
100
AcDbLine
 62
7
  6
CONTINUOUS
 10
14.9989705201
 20
12.1412168082
 11
15.0182792265
 21
12.1314276749
  0
LINE
  5
261
100
AcDbEntity
  8
0
100
AcDbLine
 62
7
  6
CONTINUOUS
 10
15.0972837472
 20
12.1233763592
 11
15.1437172062
 21
12.0782969071
  0
LINE
  5
262
100
AcDbEntity
  8
0
100
AcDbLine
 62
7
  6
CONTINUOUS
 10
14.9181669346
 20
12.1233763592
 11
14.9184531193
 21
12.1250025209
  0
LINE
  5
263
100
AcDbEntity
  8
0
100
AcDbLine
 62
7
  6
CONTINUOUS
 10
14.9156899716
 20
12.0766710174
 11
14.9159770396
 21
12.0782969071
  0
LINE
  5
264
100
AcDbEntity
  8
0
100
AcDbLine
 62
7
  6
CONTINUOUS
 10
14.4394610224
 20
12.0702455914
 11
14.5402679314
 21
12.0702455914
  0
LINE
  5
265
100
AcDbEntity
  8
0
100
AcDbLine
 62
7
  6
CONTINUOUS
 10
14.802083461
 20
12.0702455914
 11
14.90289037
 21
12.0702455914
  0
LINE
  5
266
100
AcDbEntity
  8
0
100
AcDbLine
 62
7
  6
CONTINUOUS
 10
15.1647058996
 20
12.0702455914
 11
15.2655128086
 21
12.0702455914
  0
LINE
  5
267
100
AcDbEntity
  8
0
100
AcDbLine
 62
7
  6
CONTINUOUS
 10
15.5273283382
 20
12.0702455914
 11
15.6281352471
 21
12.0702455914
  0
LINE
  5
268
100
AcDbEntity
  8
0
100
AcDbLine
 62
7
  6
CONTINUOUS
 10
15.8899507767
 20
12.0702455914
 11
15.9907576857
 21
12.0702455914
  0
LINE
  5
269
100
AcDbEntity
  8
0
100
AcDbLine
 62
7
  6
CONTINUOUS
 10
16.2525732153
 20
12.0702455914
 11
16.3533801243
 21
12.0702455914
  0
LINE
  5
26A
100
AcDbEntity
  8
0
100
AcDbLine
 62
7
  6
CONTINUOUS
 10
14.9161767688
 20
12.0782351861
 11
14.9326144911
 21
12.1314276749
  0
LINE
  5
26B
100
AcDbEntity
  8
0
100
AcDbLine
 62
7
  6
CONTINUOUS
 10
14.2930343494
 20
12.1314276749
 11
14.3510501766
 21
12.1314276749
  0
LINE
  5
26C
100
AcDbEntity
  8
0
100
AcDbLine
 62
7
  6
CONTINUOUS
 10
14.5686311656
 20
12.1314276749
 11
14.6266469929
 21
12.1314276749
  0
LINE
  5
26D
100
AcDbEntity
  8
0
100
AcDbLine
 62
7
  6
CONTINUOUS
 10
14.655656788
 20
12.1314276749
 11
14.7136726152
 21
12.1314276749
  0
LINE
  5
26E
100
AcDbEntity
  8
0
100
AcDbLine
 62
7
  6
CONTINUOUS
 10
14.9312536042
 20
12.1314276749
 11
14.9892694315
 21
12.1314276749
  0
LINE
  5
26F
100
AcDbEntity
  8
0
100
AcDbLine
 62
7
  6
CONTINUOUS
 10
15.0182792265
 20
12.1314276749
 11
15.0762950538
 21
12.1314276749
  0
LINE
  5
270
100
AcDbEntity
  8
0
100
AcDbLine
 62
7
  6
CONTINUOUS
 10
15.2938760428
 20
12.1314276749
 11
15.35189187
 21
12.1314276749
  0
LINE
  5
271
100
AcDbEntity
  8
0
100
AcDbLine
 62
7
  6
CONTINUOUS
 10
15.3809016651
 20
12.1314276749
 11
15.4389174924
 21
12.1314276749
  0
LINE
  5
272
100
AcDbEntity
  8
0
100
AcDbLine
 62
7
  6
CONTINUOUS
 10
15.6564984814
 20
12.1314276749
 11
15.7145143086
 21
12.1314276749
  0
LINE
  5
273
100
AcDbEntity
  8
0
100
AcDbLine
 62
7
  6
CONTINUOUS
 10
15.7435241037
 20
12.1314276749
 11
15.801539931
 21
12.1314276749
  0
LINE
  5
274
100
AcDbEntity
  8
0
100
AcDbLine
 62
7
  6
CONTINUOUS
 10
16.0191209199
 20
12.1314276749
 11
16.0771367472
 21
12.1314276749
  0
LINE
  5
275
100
AcDbEntity
  8
0
100
AcDbLine
 62
7
  6
CONTINUOUS
 10
16.1061465423
 20
12.1314276749
 11
16.1641623696
 21
12.1314276749
  0
LINE
  5
276
100
AcDbEntity
  8
0
100
AcDbLine
 62
7
  6
CONTINUOUS
 10
16.3817433585
 20
12.1314276749
 11
16.4397591858
 21
12.1314276749
  0
LINE
  5
277
100
AcDbEntity
  8
0
100
AcDbLine
 62
7
  6
CONTINUOUS
 10
15.3615929587
 20
12.1412168082
 11
15.3809016651
 21
12.1314276749
  0
LINE
  5
278
100
AcDbEntity
  8
0
100
AcDbLine
 62
7
  6
CONTINUOUS
 10
14.6266469929
 20
12.1314276749
 11
14.6363480815
 21
12.1412168082
  0
LINE
  5
279
100
AcDbEntity
  8
0
100
AcDbLine
 62
7
  6
CONTINUOUS
 10
16.4302450387
 20
12.1803733417
 11
14.2545104072
 21
12.1803733417
  0
LINE
  5
27A
100
AcDbEntity
  8
0
100
AcDbLine
 62
7
  6
CONTINUOUS
 10
15.4599061858
 20
12.1233763592
 11
15.5063396448
 21
12.0782969071
  0
LINE
  5
27B
100
AcDbEntity
  8
0
100
AcDbLine
 62
7
  6
CONTINUOUS
 10
15.2785994782
 20
12.0782969071
 11
15.2807893732
 21
12.1233763592
  0
LINE
  5
27C
100
AcDbEntity
  8
0
100
AcDbLine
 62
7
  6
CONTINUOUS
 10
15.7242153972
 20
12.1412168082
 11
15.7435241037
 21
12.1314276749
  0
LINE
  5
27D
100
AcDbEntity
  8
0
100
AcDbLine
 62
7
  6
CONTINUOUS
 10
15.2807893732
 20
12.1233763592
 11
15.2810755579
 21
12.1250025209
  0
LINE
  5
27E
100
AcDbEntity
  8
0
100
AcDbLine
 62
7
  6
CONTINUOUS
 10
15.2783124102
 20
12.0766710174
 11
15.2785994782
 21
12.0782969071
  0
LINE
  5
27F
100
AcDbEntity
  8
0
100
AcDbLine
 62
7
  6
CONTINUOUS
 10
14.9892694315
 20
12.1314276749
 11
14.9989705201
 21
12.1412168082
  0
LINE
  5
280
100
AcDbEntity
  8
0
100
AcDbLine
 62
7
  6
CONTINUOUS
 10
15.2787992074
 20
12.0782351861
 11
15.2952369296
 21
12.1314276749
  0
LINE
  5
281
100
AcDbEntity
  8
0
100
AcDbLine
 62
7
  6
CONTINUOUS
 10
16.0868378358
 20
12.1412168082
 11
16.1061465423
 21
12.1314276749
  0
LINE
  5
282
100
AcDbEntity
  8
0
100
AcDbLine
 62
7
  6
CONTINUOUS
 10
15.8225286244
 20
12.1233763592
 11
15.8689620834
 21
12.0782969071
  0
LINE
  5
283
100
AcDbEntity
  8
0
100
AcDbLine
 62
7
  6
CONTINUOUS
 10
15.35189187
 20
12.1314276749
 11
15.3615929587
 21
12.1412168082
  0
LINE
  5
284
100
AcDbEntity
  8
0
100
AcDbLine
 62
7
  6
CONTINUOUS
 10
15.6412219167
 20
12.0782969071
 11
15.6434118118
 21
12.1233763592
  0
LINE
  5
285
100
AcDbEntity
  8
0
100
AcDbLine
 62
7
  6
CONTINUOUS
 10
15.6434118118
 20
12.1233763592
 11
15.6436979965
 21
12.1250025209
  0
LINE
  5
286
100
AcDbEntity
  8
0
100
AcDbLine
 62
7
  6
CONTINUOUS
 10
15.6409348488
 20
12.0766710174
 11
15.6412219167
 21
12.0782969071
  0
LINE
  5
287
100
AcDbEntity
  8
0
100
AcDbLine
 62
7
  6
CONTINUOUS
 10
16.1851510629
 20
12.1233763592
 11
16.231584522
 21
12.0782969071
  0
LINE
  5
288
100
AcDbEntity
  8
0
100
AcDbLine
 62
7
  6
CONTINUOUS
 10
15.641421646
 20
12.0782351861
 11
15.6578593682
 21
12.1314276749
  0
LINE
  5
289
100
AcDbEntity
  8
0
100
AcDbLine
 62
7
  6
CONTINUOUS
 10
15.7145143086
 20
12.1314276749
 11
15.7242153972
 21
12.1412168082
  0
LINE
  5
28A
100
AcDbEntity
  8
0
100
AcDbLine
 62
7
  6
CONTINUOUS
 10
14.4927646625
 20
12.9513643944
 11
16.668499294
 21
12.9513643944
  0
LINE
  5
28B
100
AcDbEntity
  8
0
100
AcDbLine
 62
7
  6
CONTINUOUS
 10
16.0038443553
 20
12.0782969071
 11
16.0060342503
 21
12.1233763592
  0
LINE
  5
28C
100
AcDbEntity
  8
0
100
AcDbLine
 62
7
  6
CONTINUOUS
 10
16.0060342503
 20
12.1233763592
 11
16.006320435
 21
12.1250025209
  0
LINE
  5
28D
100
AcDbEntity
  8
0
100
AcDbLine
 62
7
  6
CONTINUOUS
 10
16.0035572874
 20
12.0766710174
 11
16.0038443553
 21
12.0782969071
  0
LINE
  5
28E
100
AcDbEntity
  8
0
100
AcDbLine
 62
7
  6
CONTINUOUS
 10
16.0040440845
 20
12.0782351861
 11
16.0204818068
 21
12.1314276749
  0
LINE
  5
28F
100
AcDbEntity
  8
0
100
AcDbLine
 62
7
  6
CONTINUOUS
 10
16.0771367472
 20
12.1314276749
 11
16.0868378358
 21
12.1412168082
  0
LINE
  5
290
100
AcDbEntity
  8
0
100
AcDbLine
 62
7
  6
CONTINUOUS
 10
16.4494602744
 20
12.1412168082
 11
16.4302450387
 21
12.1803733417
  0
LINE
  5
291
100
AcDbEntity
  8
0
100
AcDbLine
 62
7
  6
CONTINUOUS
 10
16.3664667939
 20
12.0782969071
 11
16.3686566889
 21
12.1233763592
  0
LINE
  5
292
100
AcDbEntity
  8
0
100
AcDbLine
 62
7
  6
CONTINUOUS
 10
16.3686566889
 20
12.1233763592
 11
16.3689428736
 21
12.1250025209
  0
LINE
  5
293
100
AcDbEntity
  8
0
100
AcDbLine
 62
7
  6
CONTINUOUS
 10
16.366179726
 20
12.0766710174
 11
16.3664667939
 21
12.0782969071
  0
LINE
  5
294
100
AcDbEntity
  8
0
100
AcDbLine
 62
7
  6
CONTINUOUS
 10
16.4397591858
 20
12.1314276749
 11
16.4494602744
 21
12.1412168082
  0
LINE
  5
295
100
AcDbEntity
  8
0
100
AcDbLine
 62
7
  6
CONTINUOUS
 10
16.3666665231
 20
12.0782351861
 11
16.3831042454
 21
12.1314276749
  0
LINE
  5
296
100
AcDbEntity
  8
0
100
AcDbLine
 62
7
  6
CONTINUOUS
 10
16.668499294
 20
12.9513643944
 11
16.4302450387
 21
12.1803733417
  0
LINE
  5
297
100
AcDbEntity
  8
0
100
AcDbLine
 62
7
  6
CONTINUOUS
 10
16.6877145297
 20
12.912207861
 11
16.4494602744
 21
12.1412168082
  0
LINE
  5
298
100
AcDbEntity
  8
0
100
AcDbLine
 62
7
  6
CONTINUOUS
 10
16.6877145297
 20
12.912207861
 11
16.668499294
 21
12.9513643944
  0
ARC
  5
299
100
AcDbEntity
  8
0
100
AcDbCircle
 62
7
  6
CONTINUOUS
 10
7.2327335663
 20
5.5102773771
 40
0.0196850394
100
AcDbArc
 50
90.0
 51
160.0
  0
ARC
  5
29A
100
AcDbEntity
  8
0
100
AcDbCircle
 62
7
  6
CONTINUOUS
 10
6.9965049231
 20
5.5102773771
 40
0.0196850394
100
AcDbArc
 50
20.0
 51
90.0
  0
ARC
  5
29B
100
AcDbEntity
  8
0
100
AcDbCircle
 62
7
  6
CONTINUOUS
 10
6.8390327789
 20
5.5102773771
 40
0.0196850394
100
AcDbArc
 50
90.0
 51
160.0
  0
ARC
  5
29C
100
AcDbEntity
  8
0
100
AcDbCircle
 62
7
  6
CONTINUOUS
 10
6.6028041357
 20
5.5102773771
 40
0.0196850394
100
AcDbArc
 50
20.0
 51
90.0
  0
ARC
  5
29D
100
AcDbEntity
  8
0
100
AcDbCircle
 62
7
  6
CONTINUOUS
 10
6.4453319915
 20
5.5102773771
 40
0.0196850394
100
AcDbArc
 50
90.0
 51
160.0
  0
ARC
  5
29E
100
AcDbEntity
  8
0
100
AcDbCircle
 62
7
  6
CONTINUOUS
 10
6.2091033482
 20
5.5102773771
 40
0.0196850394
100
AcDbArc
 50
20.0
 51
90.0
  0
ARC
  5
29F
100
AcDbEntity
  8
0
100
AcDbCircle
 62
7
  6
CONTINUOUS
 10
6.0516312041
 20
5.5102773771
 40
0.0196850394
100
AcDbArc
 50
90.0
 51
160.0
  0
ARC
  5
2A0
100
AcDbEntity
  8
0
100
AcDbCircle
 62
7
  6
CONTINUOUS
 10
5.8154025608
 20
5.5102773771
 40
0.0196850394
100
AcDbArc
 50
20.0
 51
90.0
  0
ARC
  5
2A1
100
AcDbEntity
  8
0
100
AcDbCircle
 62
7
  6
CONTINUOUS
 10
5.6579304167
 20
5.5102773771
 40
0.0196850394
100
AcDbArc
 50
90.0
 51
160.0
  0
ARC
  5
2A2
100
AcDbEntity
  8
0
100
AcDbCircle
 62
7
  6
CONTINUOUS
 10
5.4217017734
 20
5.5102773771
 40
0.0196850394
100
AcDbArc
 50
20.0
 51
90.0
  0
ARC
  5
2A3
100
AcDbEntity
  8
0
100
AcDbCircle
 62
7
  6
CONTINUOUS
 10
5.028000986
 20
5.5102773771
 40
0.0196850394
100
AcDbArc
 50
20.0
 51
90.0
  0
ARC
  5
2A4
100
AcDbEntity
  8
0
100
AcDbCircle
 62
7
  6
CONTINUOUS
 10
5.2642296293
 20
5.5102773771
 40
0.0196850394
100
AcDbArc
 50
90.0
 51
160.0
  0
ARC
  5
2A5
100
AcDbEntity
  8
0
100
AcDbCircle
 62
7
  6
CONTINUOUS
 10
5.0913920539
 20
5.451222259
 40
0.0196850394
100
AcDbArc
 50
200.0
 51
270.0
  0
ARC
  5
2A6
100
AcDbEntity
  8
0
100
AcDbCircle
 62
7
  6
CONTINUOUS
 10
5.2008385614
 20
5.451222259
 40
0.0196850394
100
AcDbArc
 50
270.0
 51
340.0
  0
ARC
  5
2A7
100
AcDbEntity
  8
0
100
AcDbCircle
 62
7
  6
CONTINUOUS
 10
5.4850928413
 20
5.451222259
 40
0.0196850394
100
AcDbArc
 50
200.0
 51
270.0
  0
ARC
  5
2A8
100
AcDbEntity
  8
0
100
AcDbCircle
 62
7
  6
CONTINUOUS
 10
5.5945393488
 20
5.451222259
 40
0.0196850394
100
AcDbArc
 50
270.0
 51
340.0
  0
ARC
  5
2A9
100
AcDbEntity
  8
0
100
AcDbCircle
 62
7
  6
CONTINUOUS
 10
5.8787936287
 20
5.451222259
 40
0.0196850394
100
AcDbArc
 50
200.0
 51
270.0
  0
ARC
  5
2AA
100
AcDbEntity
  8
0
100
AcDbCircle
 62
7
  6
CONTINUOUS
 10
5.9882401362
 20
5.451222259
 40
0.0196850394
100
AcDbArc
 50
270.0
 51
340.0
  0
ARC
  5
2AB
100
AcDbEntity
  8
0
100
AcDbCircle
 62
7
  6
CONTINUOUS
 10
6.2724944161
 20
5.451222259
 40
0.0196850394
100
AcDbArc
 50
200.0
 51
270.0
  0
ARC
  5
2AC
100
AcDbEntity
  8
0
100
AcDbCircle
 62
7
  6
CONTINUOUS
 10
6.3819409236
 20
5.451222259
 40
0.0196850394
100
AcDbArc
 50
270.0
 51
340.0
  0
ARC
  5
2AD
100
AcDbEntity
  8
0
100
AcDbCircle
 62
7
  6
CONTINUOUS
 10
6.6661952035
 20
5.451222259
 40
0.0196850394
100
AcDbArc
 50
200.0
 51
270.0
  0
ARC
  5
2AE
100
AcDbEntity
  8
0
100
AcDbCircle
 62
7
  6
CONTINUOUS
 10
7.1693424984
 20
5.451222259
 40
0.0196850394
100
AcDbArc
 50
270.0
 51
340.0
  0
ARC
  5
2AF
100
AcDbEntity
  8
0
100
AcDbCircle
 62
7
  6
CONTINUOUS
 10
7.0598959909
 20
5.451222259
 40
0.0196850394
100
AcDbArc
 50
200.0
 51
270.0
  0
ARC
  5
2B0
100
AcDbEntity
  8
0
100
AcDbCircle
 62
7
  6
CONTINUOUS
 10
6.775641711
 20
5.451222259
 40
0.0196850394
100
AcDbArc
 50
270.0
 51
340.0
  0
SPLINE
  5
2B1
100
AcDbEntity
  8
0
100
AcDbSpline
 62
7
  6
CONTINUOUS
 70
0
 71
3
 72
9
 73
5
 74
0
 42
0.0000001
 43
0.0000001
 44
0.0000000001
 40
0.0
 40
0.0
 40
0.0
 40
0.0
 40
0.4768411866
 40
1.0
 40
1.0
 40
1.0
 40
1.0
 10
16.3689415206
 20
12.1250029391
 30
0.0
 10
16.3692027258
 20
12.1258476353
 30
0.0
 10
16.3701366896
 20
12.1275149208
 30
0.0
 10
16.3716049728
 20
12.1287075153
 30
0.0
 10
16.3724312563
 20
12.1292156871
 30
0.0
  0
SPLINE
  5
2B2
100
AcDbEntity
  8
0
100
AcDbSpline
 62
7
  6
CONTINUOUS
 70
0
 71
3
 72
9
 73
5
 74
0
 42
0.0000001
 43
0.0000001
 44
0.0000000001
 40
0.0
 40
0.0
 40
0.0
 40
0.0
 40
0.2215311249
 40
1.0
 40
1.0
 40
1.0
 40
1.0
 10
16.3724312563
 20
12.1292156871
 30
0.0
 10
16.3730377346
 20
12.1295886766
 30
0.0
 10
16.3759429835
 20
12.1310006232
 30
0.0
 10
16.3792413804
 20
12.1314276749
 30
0.0
 10
16.3817433585
 20
12.1314276749
 30
0.0
  0
SPLINE
  5
2B3
100
AcDbEntity
  8
0
100
AcDbSpline
 62
7
  6
CONTINUOUS
 70
0
 71
3
 72
9
 73
5
 74
0
 42
0.0000001
 43
0.0000001
 44
0.0000000001
 40
0.0
 40
0.0
 40
0.0
 40
0.0
 40
0.4768411866
 40
1.0
 40
1.0
 40
1.0
 40
1.0
 10
16.006319082
 20
12.1250029391
 30
0.0
 10
16.0065802872
 20
12.1258476353
 30
0.0
 10
16.007514251
 20
12.1275149208
 30
0.0
 10
16.0089825342
 20
12.1287075153
 30
0.0
 10
16.0098088177
 20
12.1292156871
 30
0.0
  0
SPLINE
  5
2B4
100
AcDbEntity
  8
0
100
AcDbSpline
 62
7
  6
CONTINUOUS
 70
0
 71
3
 72
9
 73
5
 74
0
 42
0.0000001
 43
0.0000001
 44
0.0000000001
 40
0.0
 40
0.0
 40
0.0
 40
0.0
 40
0.2215311249
 40
1.0
 40
1.0
 40
1.0
 40
1.0
 10
16.0098088177
 20
12.1292156871
 30
0.0
 10
16.010415296
 20
12.1295886766
 30
0.0
 10
16.0133205449
 20
12.1310006232
 30
0.0
 10
16.0166189418
 20
12.1314276749
 30
0.0
 10
16.0191209199
 20
12.1314276749
 30
0.0
  0
SPLINE
  5
2B5
100
AcDbEntity
  8
0
100
AcDbSpline
 62
7
  6
CONTINUOUS
 70
0
 71
3
 72
9
 73
5
 74
0
 42
0.0000001
 43
0.0000001
 44
0.0000000001
 40
0.0
 40
0.0
 40
0.0
 40
0.0
 40
0.4768411866
 40
1.0
 40
1.0
 40
1.0
 40
1.0
 10
15.6436966434
 20
12.1250029391
 30
0.0
 10
15.6439578486
 20
12.1258476353
 30
0.0
 10
15.6448918124
 20
12.1275149208
 30
0.0
 10
15.6463600956
 20
12.1287075153
 30
0.0
 10
15.6471863792
 20
12.1292156871
 30
0.0
  0
SPLINE
  5
2B6
100
AcDbEntity
  8
0
100
AcDbSpline
 62
7
  6
CONTINUOUS
 70
0
 71
3
 72
9
 73
5
 74
0
 42
0.0000001
 43
0.0000001
 44
0.0000000001
 40
0.0
 40
0.0
 40
0.0
 40
0.0
 40
0.2215311249
 40
1.0
 40
1.0
 40
1.0
 40
1.0
 10
15.6471863792
 20
12.1292156871
 30
0.0
 10
15.6477928574
 20
12.1295886766
 30
0.0
 10
15.6506981063
 20
12.1310006232
 30
0.0
 10
15.6539965032
 20
12.1314276749
 30
0.0
 10
15.6564984814
 20
12.1314276749
 30
0.0
  0
SPLINE
  5
2B7
100
AcDbEntity
  8
0
100
AcDbSpline
 62
7
  6
CONTINUOUS
 70
0
 71
3
 72
9
 73
5
 74
0
 42
0.0000001
 43
0.0000001
 44
0.0000000001
 40
0.0
 40
0.0
 40
0.0
 40
0.0
 40
0.4768411866
 40
1.0
 40
1.0
 40
1.0
 40
1.0
 10
15.2810742049
 20
12.1250029391
 30
0.0
 10
15.2813354101
 20
12.1258476353
 30
0.0
 10
15.2822693739
 20
12.1275149208
 30
0.0
 10
15.283737657
 20
12.1287075153
 30
0.0
 10
15.2845639406
 20
12.1292156871
 30
0.0
  0
SPLINE
  5
2B8
100
AcDbEntity
  8
0
100
AcDbSpline
 62
7
  6
CONTINUOUS
 70
0
 71
3
 72
9
 73
5
 74
0
 42
0.0000001
 43
0.0000001
 44
0.0000000001
 40
0.0
 40
0.0
 40
0.0
 40
0.0
 40
0.2215311249
 40
1.0
 40
1.0
 40
1.0
 40
1.0
 10
15.2845639406
 20
12.1292156871
 30
0.0
 10
15.2851704188
 20
12.1295886766
 30
0.0
 10
15.2880756677
 20
12.1310006232
 30
0.0
 10
15.2913740646
 20
12.1314276749
 30
0.0
 10
15.2938760428
 20
12.1314276749
 30
0.0
  0
SPLINE
  5
2B9
100
AcDbEntity
  8
0
100
AcDbSpline
 62
7
  6
CONTINUOUS
 70
0
 71
3
 72
9
 73
5
 74
0
 42
0.0000001
 43
0.0000001
 44
0.0000000001
 40
0.0
 40
0.0
 40
0.0
 40
0.0
 40
0.4768411866
 40
1.0
 40
1.0
 40
1.0
 40
1.0
 10
14.9184517663
 20
12.1250029391
 30
0.0
 10
14.9187129715
 20
12.1258476353
 30
0.0
 10
14.9196469353
 20
12.1275149208
 30
0.0
 10
14.9211152184
 20
12.1287075153
 30
0.0
 10
14.921941502
 20
12.1292156871
 30
0.0
  0
SPLINE
  5
2BA
100
AcDbEntity
  8
0
100
AcDbSpline
 62
7
  6
CONTINUOUS
 70
0
 71
3
 72
9
 73
5
 74
0
 42
0.0000001
 43
0.0000001
 44
0.0000000001
 40
0.0
 40
0.0
 40
0.0
 40
0.0
 40
0.2215311249
 40
1.0
 40
1.0
 40
1.0
 40
1.0
 10
14.921941502
 20
12.1292156871
 30
0.0
 10
14.9225479802
 20
12.1295886766
 30
0.0
 10
14.9254532291
 20
12.1310006232
 30
0.0
 10
14.928751626
 20
12.1314276749
 30
0.0
 10
14.9312536042
 20
12.1314276749
 30
0.0
  0
SPLINE
  5
2BB
100
AcDbEntity
  8
0
100
AcDbSpline
 62
7
  6
CONTINUOUS
 70
0
 71
3
 72
9
 73
5
 74
0
 42
0.0000001
 43
0.0000001
 44
0.0000000001
 40
0.0
 40
0.0
 40
0.0
 40
0.0
 40
0.242678239
 40
1.0
 40
1.0
 40
1.0
 40
1.0
 10
14.5558287957
 20
12.1250031016
 30
0.0
 10
14.5559241749
 20
12.1253119072
 30
0.0
 10
14.5564112585
 20
12.1265556331
 30
0.0
 10
14.5572837565
 20
12.1276298944
 30
0.0
 10
14.5580468704
 20
12.1282893939
 30
0.0
  0
SPLINE
  5
2BC
100
AcDbEntity
  8
0
100
AcDbSpline
 62
7
  6
CONTINUOUS
 70
0
 71
3
 72
9
 73
5
 74
0
 42
0.0000001
 43
0.0000001
 44
0.0000000001
 40
0.0
 40
0.0
 40
0.0
 40
0.0
 40
0.2153611094
 40
1.0
 40
1.0
 40
1.0
 40
1.0
 10
14.5580468704
 20
12.1282893939
 30
0.0
 10
14.5586539468
 20
12.1288140424
 30
0.0
 10
14.5618107894
 20
12.1308613526
 30
0.0
 10
14.5657078394
 20
12.1314276749
 30
0.0
 10
14.5686311656
 20
12.1314276749
 30
0.0
  0
SPLINE
  5
2BD
100
AcDbEntity
  8
0
100
AcDbSpline
 62
7
  6
CONTINUOUS
 70
0
 71
3
 72
9
 73
5
 74
0
 42
0.0000001
 43
0.0000001
 44
0.0000000001
 40
0.0
 40
0.0
 40
0.0
 40
0.0
 40
0.5118924406
 40
1.0
 40
1.0
 40
1.0
 40
1.0
 10
16.1641623696
 20
12.1314276749
 30
0.0
 10
16.1680613017
 20
12.1314276749
 30
0.0
 10
16.1756805948
 20
12.1298631788
 30
0.0
 10
16.1824835986
 20
12.1259660398
 30
0.0
 10
16.1851510629
 20
12.1233763592
 30
0.0
  0
SPLINE
  5
2BE
100
AcDbEntity
  8
0
100
AcDbSpline
 62
7
  6
CONTINUOUS
 70
0
 71
3
 72
9
 73
5
 74
0
 42
0.0000001
 43
0.0000001
 44
0.0000000001
 40
0.0
 40
0.0
 40
0.0
 40
0.0
 40
0.5118924406
 40
1.0
 40
1.0
 40
1.0
 40
1.0
 10
15.801539931
 20
12.1314276749
 30
0.0
 10
15.8054388631
 20
12.1314276749
 30
0.0
 10
15.8130581562
 20
12.1298631788
 30
0.0
 10
15.81986116
 20
12.1259660398
 30
0.0
 10
15.8225286244
 20
12.1233763592
 30
0.0
  0
SPLINE
  5
2BF
100
AcDbEntity
  8
0
100
AcDbSpline
 62
7
  6
CONTINUOUS
 70
0
 71
3
 72
9
 73
5
 74
0
 42
0.0000001
 43
0.0000001
 44
0.0000000001
 40
0.0
 40
0.0
 40
0.0
 40
0.0
 40
0.5118924406
 40
1.0
 40
1.0
 40
1.0
 40
1.0
 10
15.4389174924
 20
12.1314276749
 30
0.0
 10
15.4428164245
 20
12.1314276749
 30
0.0
 10
15.4504357176
 20
12.1298631788
 30
0.0
 10
15.4572387214
 20
12.1259660398
 30
0.0
 10
15.4599061858
 20
12.1233763592
 30
0.0
  0
SPLINE
  5
2C0
100
AcDbEntity
  8
0
100
AcDbSpline
 62
7
  6
CONTINUOUS
 70
0
 71
3
 72
9
 73
5
 74
0
 42
0.0000001
 43
0.0000001
 44
0.0000000001
 40
0.0
 40
0.0
 40
0.0
 40
0.0
 40
0.5118924406
 40
1.0
 40
1.0
 40
1.0
 40
1.0
 10
15.0762950538
 20
12.1314276749
 30
0.0
 10
15.0801939859
 20
12.1314276749
 30
0.0
 10
15.087813279
 20
12.1298631788
 30
0.0
 10
15.0946162828
 20
12.1259660398
 30
0.0
 10
15.0972837472
 20
12.1233763592
 30
0.0
  0
SPLINE
  5
2C1
100
AcDbEntity
  8
0
100
AcDbSpline
 62
7
  6
CONTINUOUS
 70
0
 71
3
 72
9
 73
5
 74
0
 42
0.0000001
 43
0.0000001
 44
0.0000000001
 40
0.0
 40
0.0
 40
0.0
 40
0.0
 40
0.5118924406
 40
1.0
 40
1.0
 40
1.0
 40
1.0
 10
14.7136726152
 20
12.1314276749
 30
0.0
 10
14.7175715473
 20
12.1314276749
 30
0.0
 10
14.7251908404
 20
12.1298631788
 30
0.0
 10
14.7319938443
 20
12.1259660398
 30
0.0
 10
14.7346613086
 20
12.1233763592
 30
0.0
  0
SPLINE
  5
2C2
100
AcDbEntity
  8
0
100
AcDbSpline
 62
7
  6
CONTINUOUS
 70
0
 71
3
 72
11
 73
7
 74
0
 42
0.0000001
 43
0.0000001
 44
0.0000000001
 40
0.0
 40
0.0
 40
0.0
 40
0.0
 40
0.3037039003
 40
0.5698806061
 40
0.7976289829
 40
1.0
 40
1.0
 40
1.0
 40
1.0
 10
16.3533801243
 20
12.0702455914
 30
0.0
 10
16.3549206278
 20
12.0702455914
 30
0.0
 10
16.357822634
 20
12.0704900401
 30
0.0
 10
16.3617214151
 20
12.0717155663
 30
0.0
 10
16.3646958186
 20
12.0737504929
 30
0.0
 10
16.3658786906
 20
12.0756896444
 30
0.0
 10
16.3661819533
 20
12.0766703289
 30
0.0
  0
SPLINE
  5
2C3
100
AcDbEntity
  8
0
100
AcDbSpline
 62
7
  6
CONTINUOUS
 70
0
 71
3
 72
9
 73
5
 74
0
 42
0.0000001
 43
0.0000001
 44
0.0000000001
 40
0.0
 40
0.0
 40
0.0
 40
0.0
 40
0.4881094647
 40
1.0
 40
1.0
 40
1.0
 40
1.0
 10
16.231584522
 20
12.0782969071
 30
0.0
 10
16.2342519967
 20
12.0757072163
 30
0.0
 10
16.2410550055
 20
12.0718100821
 30
0.0
 10
16.2486742978
 20
12.0702455914
 30
0.0
 10
16.2525732153
 20
12.0702455914
 30
0.0
  0
SPLINE
  5
2C4
100
AcDbEntity
  8
0
100
AcDbSpline
 62
7
  6
CONTINUOUS
 70
0
 71
3
 72
11
 73
7
 74
0
 42
0.0000001
 43
0.0000001
 44
0.0000000001
 40
0.0
 40
0.0
 40
0.0
 40
0.0
 40
0.3037039003
 40
0.5698806061
 40
0.7976289829
 40
1.0
 40
1.0
 40
1.0
 40
1.0
 10
15.9907576857
 20
12.0702455914
 30
0.0
 10
15.9922981892
 20
12.0702455914
 30
0.0
 10
15.9952001954
 20
12.0704900401
 30
0.0
 10
15.9990989766
 20
12.0717155663
 30
0.0
 10
16.00207338
 20
12.0737504929
 30
0.0
 10
16.003256252
 20
12.0756896444
 30
0.0
 10
16.0035595147
 20
12.0766703289
 30
0.0
  0
SPLINE
  5
2C5
100
AcDbEntity
  8
0
100
AcDbSpline
 62
7
  6
CONTINUOUS
 70
0
 71
3
 72
9
 73
5
 74
0
 42
0.0000001
 43
0.0000001
 44
0.0000000001
 40
0.0
 40
0.0
 40
0.0
 40
0.0
 40
0.4881094647
 40
1.0
 40
1.0
 40
1.0
 40
1.0
 10
15.8689620834
 20
12.0782969071
 30
0.0
 10
15.8716295581
 20
12.0757072163
 30
0.0
 10
15.8784325669
 20
12.0718100821
 30
0.0
 10
15.8860518592
 20
12.0702455914
 30
0.0
 10
15.8899507767
 20
12.0702455914
 30
0.0
  0
SPLINE
  5
2C6
100
AcDbEntity
  8
0
100
AcDbSpline
 62
7
  6
CONTINUOUS
 70
0
 71
3
 72
11
 73
7
 74
0
 42
0.0000001
 43
0.0000001
 44
0.0000000001
 40
0.0
 40
0.0
 40
0.0
 40
0.0
 40
0.3037039003
 40
0.5698806061
 40
0.7976289829
 40
1.0
 40
1.0
 40
1.0
 40
1.0
 10
15.6281352471
 20
12.0702455914
 30
0.0
 10
15.6296757506
 20
12.0702455914
 30
0.0
 10
15.6325777568
 20
12.0704900401
 30
0.0
 10
15.636476538
 20
12.0717155663
 30
0.0
 10
15.6394509415
 20
12.0737504929
 30
0.0
 10
15.6406338134
 20
12.0756896444
 30
0.0
 10
15.6409370761
 20
12.0766703289
 30
0.0
  0
SPLINE
  5
2C7
100
AcDbEntity
  8
0
100
AcDbSpline
 62
7
  6
CONTINUOUS
 70
0
 71
3
 72
9
 73
5
 74
0
 42
0.0000001
 43
0.0000001
 44
0.0000000001
 40
0.0
 40
0.0
 40
0.0
 40
0.0
 40
0.4881094647
 40
1.0
 40
1.0
 40
1.0
 40
1.0
 10
15.5063396448
 20
12.0782969071
 30
0.0
 10
15.5090071195
 20
12.0757072163
 30
0.0
 10
15.5158101284
 20
12.0718100821
 30
0.0
 10
15.5234294206
 20
12.0702455914
 30
0.0
 10
15.5273283382
 20
12.0702455914
 30
0.0
  0
SPLINE
  5
2C8
100
AcDbEntity
  8
0
100
AcDbSpline
 62
7
  6
CONTINUOUS
 70
0
 71
3
 72
11
 73
7
 74
0
 42
0.0000001
 43
0.0000001
 44
0.0000000001
 40
0.0
 40
0.0
 40
0.0
 40
0.0
 40
0.3037039003
 40
0.5698806061
 40
0.7976289829
 40
1.0
 40
1.0
 40
1.0
 40
1.0
 10
15.2655128086
 20
12.0702455914
 30
0.0
 10
15.267053312
 20
12.0702455914
 30
0.0
 10
15.2699553182
 20
12.0704900401
 30
0.0
 10
15.2738540994
 20
12.0717155663
 30
0.0
 10
15.2768285029
 20
12.0737504929
 30
0.0
 10
15.2780113748
 20
12.0756896444
 30
0.0
 10
15.2783146375
 20
12.0766703289
 30
0.0
  0
SPLINE
  5
2C9
100
AcDbEntity
  8
0
100
AcDbSpline
 62
7
  6
CONTINUOUS
 70
0
 71
3
 72
9
 73
5
 74
0
 42
0.0000001
 43
0.0000001
 44
0.0000000001
 40
0.0
 40
0.0
 40
0.0
 40
0.0
 40
0.4881094647
 40
1.0
 40
1.0
 40
1.0
 40
1.0
 10
15.1437172062
 20
12.0782969071
 30
0.0
 10
15.1463846809
 20
12.0757072163
 30
0.0
 10
15.1531876898
 20
12.0718100821
 30
0.0
 10
15.160806982
 20
12.0702455914
 30
0.0
 10
15.1647058996
 20
12.0702455914
 30
0.0
  0
SPLINE
  5
2CA
100
AcDbEntity
  8
0
100
AcDbSpline
 62
7
  6
CONTINUOUS
 70
0
 71
3
 72
11
 73
7
 74
0
 42
0.0000001
 43
0.0000001
 44
0.0000000001
 40
0.0
 40
0.0
 40
0.0
 40
0.0
 40
0.3037039003
 40
0.5698806061
 40
0.7976289829
 40
1.0
 40
1.0
 40
1.0
 40
1.0
 10
14.90289037
 20
12.0702455914
 30
0.0
 10
14.9044308735
 20
12.0702455914
 30
0.0
 10
14.9073328797
 20
12.0704900401
 30
0.0
 10
14.9112316608
 20
12.0717155663
 30
0.0
 10
14.9142060643
 20
12.0737504929
 30
0.0
 10
14.9153889363
 20
12.0756896444
 30
0.0
 10
14.9156921989
 20
12.0766703289
 30
0.0
  0
SPLINE
  5
2CB
100
AcDbEntity
  8
0
100
AcDbSpline
 62
7
  6
CONTINUOUS
 70
0
 71
3
 72
9
 73
5
 74
0
 42
0.0000001
 43
0.0000001
 44
0.0000000001
 40
0.0
 40
0.0
 40
0.0
 40
0.0
 40
0.4881094647
 40
1.0
 40
1.0
 40
1.0
 40
1.0
 10
14.7810947676
 20
12.0782969071
 30
0.0
 10
14.7837622424
 20
12.0757072163
 30
0.0
 10
14.7905652512
 20
12.0718100821
 30
0.0
 10
14.7981845434
 20
12.0702455914
 30
0.0
 10
14.802083461
 20
12.0702455914
 30
0.0
  0
SPLINE
  5
2CC
100
AcDbEntity
  8
0
100
AcDbSpline
 62
7
  6
CONTINUOUS
 70
0
 71
3
 72
11
 73
7
 74
0
 42
0.0000001
 43
0.0000001
 44
0.0000000001
 40
0.0
 40
0.0
 40
0.0
 40
0.0
 40
0.3037907189
 40
0.5698931538
 40
0.7977139005
 40
1.0
 40
1.0
 40
1.0
 40
1.0
 10
14.5402679314
 20
12.0702455914
 30
0.0
 10
14.5418088989
 20
12.0702455914
 30
0.0
 10
14.544711058
 20
12.0704897409
 30
0.0
 10
14.5486102165
 20
12.0717160443
 30
0.0
 10
14.5515838379
 20
12.0737510291
 30
0.0
 10
14.5527674934
 20
12.0756897741
 30
0.0
 10
14.5530703015
 20
12.0766701647
 30
0.0
  0
SPLINE
  5
2CD
100
AcDbEntity
  8
0
100
AcDbSpline
 62
7
  6
CONTINUOUS
 70
0
 71
3
 72
9
 73
5
 74
0
 42
0.0000001
 43
0.0000001
 44
0.0000000001
 40
0.0
 40
0.0
 40
0.0
 40
0.0
 40
0.4881102094
 40
1.0
 40
1.0
 40
1.0
 40
1.0
 10
14.418472329
 20
12.0782969071
 30
0.0
 10
14.4211398005
 20
12.0757072195
 30
0.0
 10
14.4279429456
 20
12.0718104021
 30
0.0
 10
14.4355621212
 20
12.0702455914
 30
0.0
 10
14.4394610224
 20
12.0702455914
 30
0.0
  0
SPLINE
  5
2CE
100
AcDbEntity
  8
0
100
AcDbSpline
 62
7
  6
CONTINUOUS
 70
0
 71
3
 72
9
 73
5
 74
0
 42
0.0000001
 43
0.0000001
 44
0.0000000001
 40
0.0
 40
0.0
 40
0.0
 40
0.0
 40
0.5118912834
 40
1.0
 40
1.0
 40
1.0
 40
1.0
 10
14.3510501766
 20
12.1314276749
 30
0.0
 10
14.3549490892
 20
12.1314276749
 30
0.0
 10
14.3625682655
 20
12.1298628599
 30
0.0
 10
14.3693714067
 20
12.1259660388
 30
0.0
 10
14.37203887
 20
12.1233763592
 30
0.0
  0
ENDSEC
  0
SECTION
  2
OBJECTS
  0
DICTIONARY
  5
C
100
AcDbDictionary
280
0
281
1
  3
ACAD_GROUP
350
D
  3
ACAD_MLINESTYLE
350
17
  3
ACAD_LAYOUT
350
1A
  3
ACAD_PLOTSETTINGS
350
19
  3
ACAD_PLOTSTYLENAME
350
E
  0
DICTIONARY
  5
D
102
{ACAD_REACTORS
330
C
102
}
100
AcDbDictionary
280
0
281
1
  0
ACDBDICTIONARYWDFLT
  5
E
102
{ACAD_REACTORS
330
C
102
}
100
AcDbDictionary
281
1
  3
Normal
350
F
100
AcDbDictionaryWithDefault
340
F
  0
DICTIONARY
  5
17
102
{ACAD_REACTORS
330
C
102
}
100
AcDbDictionary
280
0
281
1
  3
Standard
350
18
  0
DICTIONARY
  5
19
102
{ACAD_REACTORS
330
C
102
}
100
AcDbDictionary
281
1
  0
DICTIONARY
  5
1A
102
{ACAD_REACTORS
330
C
102
}
100
AcDbDictionary
281
1
  3
Model
350
2CF
  3
Layout1
350
2D0
  0
ACDBPLACEHOLDER
  5
F
102
{ACAD_REACTORS
330
E
102
}
  0
MLINESTYLE
  5
18
102
{ACAD_REACTORS
330
17
102
}
100
AcDbMlineStyle
  2
STANDARD
 70
0
  3

 62
256
 51
90.0
 52
90.0
 71
2
 49
0.5
 62
256
  6
BYLAYER
 49
-0.5
 62
256
  6
BYLAYER
  0
LAYOUT
  5
2CF
102
{ACAD_REACTORS
330
1A
102
}
100
AcDbPlotSettings
  1

  2
none_device
  4
ANSI_C_(22.00_x_17.00_Inches)
  6

 40
0.0
 41
0.0
 42
0.0
 43
0.0
 44
558.8
 45
431.8
 46
0.0
 47
0.0
 48
0.0
 49
0.0
140
0.0
141
0.0
142
1.0
143
1.0
 70
1024
 72
0
 73
0
 74
0
  7

 75
0
147
1.0
148
0.0
149
0.0
100
AcDbLayout
  1
Model
 70
0
 71
0
 10
0.0
 20
0.0
 11
22.0
 21
17.0
 12
0.0
 22
0.0
 32
0.0
 14
0.0
 24
0.0
 34
0.0
 15
0.0
 25
0.0
 35
0.0
146
0.0
 13
0.0
 23
0.0
 33
0.0
 16
1.0
 26
0.0
 36
0.0
 17
0.0
 27
1.0
 37
0.0
 76
0
330
216
345
0
346
0
  0
LAYOUT
  5
2D0
102
{ACAD_REACTORS
330
1A
102
}
100
AcDbPlotSettings
  1

  2
none_device
  4
ANSI_C_(22.00_x_17.00_Inches)
  6

 40
0.0
 41
0.0
 42
0.0
 43
0.0
 44
558.8
 45
431.8
 46
0.0
 47
0.0
 48
0.0
 49
0.0
140
0.0
141
0.0
142
1.0
143
1.0
 70
0
 72
0
 73
0
 74
0
  7

 75
0
147
1.0
148
0.0
149
0.0
100
AcDbLayout
  1
Layout1
 70
0
 71
1
 10
0.0
 20
0.0
 11
22.0
 21
17.0
 12
0.0
 22
0.0
 32
0.0
 14
0.0
 24
0.0
 34
0.0
 15
0.0
 25
0.0
 35
0.0
146
0.0
 13
0.0
 23
0.0
 33
0.0
 16
1.0
 26
0.0
 36
0.0
 17
0.0
 27
1.0
 37
0.0
 76
0
330
217
345
0
346
0
  0
ENDSEC
  0
EOF