999
DXF file: _cgs_temp_output.dxf
999
Pro/ENGINEER 2016360 by Parametric Technology Corporation
  0
SECTION
  2
HEADER
  9
$ACADVER
  1
AC1021
  9
$DWGCODEPAGE
  3
ANSI_1252
  9
$EXTMAX
 10
22.0
 20
17.0
 30
0.0
  9
$EXTMIN
 10
0.0
 20
0.0
 30
0.0
  9
$LIMMIN
 10
0.0
 20
0.0
  9
$LIMMAX
 10
22.0
 20
17.0
  9
$VIEWCTR
 10
11.0
 20
8.5
  9
$VIEWSIZE
 40
17.0
  9
$CLAYER
  8
0
  9
$LTSCALE
 40
1.21
  9
$CELTYPE
  6
BYLAYER
  9
$DIMSCALE
 40
1.0
  9
$DIMASZ
 40
0.1875
  9
$DIMEXO
 40
0.0625
  9
$DIMDLI
 40
0.836
  9
$DIMEXE
 40
0.125
  9
$DIMCEN
 40
0.198
  9
$DIMLFAC
 40
1.0
  9
$DIMBLK
  1
_CLOSED
  9
$DIMALT
 70
0
  9
$DIMALTF
 40
25.4
  9
$DIMTXT
 40
0.15625
  9
$DIMTOL
 70
0
  9
$DIMLIM
 70
0
  9
$DIMTFAC
 40
1.0
  9
$DIMGAP
 40
0.09
  9
$DIMDSEP
 70
46
  9
$AUNITS
 70
0
  9
$PDMODE
 70
3
  9
$PDSIZE
 40
0.3125
  9
$HANDSEED
  5
2D1
  9
$TILEMODE
 70
1
  9
$MEASUREMENT
 70
0
  9
$INSUNITS
 70
1
  0
ENDSEC
  0
SECTION
  2
CLASSES
  0
CLASS
  1
ACDBDICTIONARYWDFLT
  2
AcDbDictionaryWithDefault
  3
AutoCAD 2000
 90
0
 91
1
280
0
281
0
  0
CLASS
  1
ACDBPLACEHOLDER
  2
AcDbPlaceHolder
  3
AutoCAD 2000
 90
0
 91
1
280
0
281
0
  0
CLASS
  1
LAYOUT
  2
AcDbLayout
  3
AutoCAD 2000
 90
0
 91
0
280
0
281
0
  0
ENDSEC
  0
SECTION
  2
TABLES
  0
TABLE
  2
VPORT
  5
8
100
AcDbSymbolTable
 70
2
  0
VPORT
  5
1F4
100
AcDbSymbolTableRecord
100
AcDbViewportTableRecord
  2
*ACTIVE
 70
0
 10
0.0
 20
0.0
 11
1.0
 21
1.0
 12
11.0
 22
8.5
 13
0.0
 23
0.0
 14
1.0
 24
1.0
 15
0.0
 25
0.0
 16
0.0
 26
0.0
 36
1.0
 17
0.0
 27
0.0
 37
0.0
 40
17.0
 41
1.2941176471
 42
50.0
 43
0.0
 44
0.0
 50
0.0
 51
0.0
 71
0
 72
100
 73
1
 74
1
 75
0
 76
0
 77
0
 78
0
  0
ENDTAB
  0
TABLE
  2
LTYPE
  5
5
100
AcDbSymbolTable
 70
6
  0
LTYPE
  5
14
100
AcDbSymbolTableRecord
100
AcDbLinetypeTableRecord
  2
BYBLOCK
 70
0
  3

 72
65
 73
0
 40
0.0
  0
LTYPE
  5
15
100
AcDbSymbolTableRecord
100
AcDbLinetypeTableRecord
  2
BYLAYER
 70
0
  3

 72
65
 73
0
 40
0.0
  0
LTYPE
  5
16
100
AcDbSymbolTableRecord
100
AcDbLinetypeTableRecord
  2
CONTINUOUS
 70
64
  3
Solid line
 72
65
 73
0
 40
0.0
  0
LTYPE
  5
1F5
100
AcDbSymbolTableRecord
100
AcDbLinetypeTableRecord
  2
CENTER
 70
64
  3
____ _ ____ _ ____ _ ____ _ ____ _ ____ _ ____
 72
65
 73
4
 40
0.6
 49
0.375
 74
0
 49
-0.075
 74
0
 49
0.075
 74
0
 49
-0.075
 74
0
  0
LTYPE
  5
1F6
100
AcDbSymbolTableRecord
100
AcDbLinetypeTableRecord
  2
HIDDEN
 70
64
  3
- - - - - - - - - - - - - - - - - - - -
 72
65
 73
2
 40
0.2
 49
0.1
 74
0
 49
-0.1
 74
0
  0
LTYPE
  5
1F7
100
AcDbSymbolTableRecord
100
AcDbLinetypeTableRecord
  2
PHANTOM
 70
64
  3
_____ _ _ _____ _ _ _____ _ _ _____
 72
65
 73
6
 40
0.8
 49
0.45
 74
0
 49
-0.05
 74
0
 49
0.1
 74
0
 49
-0.05
 74
0
 49
0.1
 74
0
 49
-0.05
 74
0
  0
LTYPE
  5
1F8
100
AcDbSymbolTableRecord
100
AcDbLinetypeTableRecord
  2
DOT
 70
64
  3
. . . . . . . . . . . . . . . . . . . .
 72
65
 73
2
 40
0.2
 49
0.1
 74
0
 49
-0.1
 74
0
  0
LTYPE
  5
1F9
100
AcDbSymbolTableRecord
100
AcDbLinetypeTableRecord
  2
DASHED
 70
64
  3
- - - - - - - - - - - - - - - - - - - -
 72
65
 73
2
 40
0.2
 49
0.1
 74
0
 49
-0.1
 74
0
  0
ENDTAB
  0
TABLE
  2
LAYER
  5
2
100
AcDbSymbolTable
 70
36
  0
LAYER
  5
10
100
AcDbSymbolTableRecord
100
AcDbLayerTableRecord
  2
0
 70
0
 62
7
  6
CONTINUOUS
370
-3
390
F
  0
LAYER
  5
1FA
100
AcDbSymbolTableRecord
100
AcDbLayerTableRecord
  2
DEFAULT_1
 70
0
 62
7
  6
CENTER
370
-3
390
F
  0
LAYER
  5
1FB
100
AcDbSymbolTableRecord
100
AcDbLayerTableRecord
  2
DEFAULT_2
 70
0
 62
8
  6
HIDDEN
370
-3
390
F
  0
LAYER
  5
1FC
100
AcDbSymbolTableRecord
100
AcDbLayerTableRecord
  2
DEFAULT_3
 70
0
 62
7
  6
PHANTOM
370
-3
390
F
  0
LAYER
  5
1FD
100
AcDbSymbolTableRecord
100
AcDbLayerTableRecord
  2
01_ALL_DTM_PLN
 70
0
 62
7
  6
CONTINUOUS
370
-3
390
F
  0
LAYER
  5
1FE
100
AcDbSymbolTableRecord
100
AcDbLayerTableRecord
  2
01__ASM_ALL_DTM_PLN
 70
0
 62
7
  6
CONTINUOUS
370
-3
390
F
  0
LAYER
  5
1FF
100
AcDbSymbolTableRecord
100
AcDbLayerTableRecord
  2
01__ASM_DEF_DTM_PLN
 70
0
 62
7
  6
CONTINUOUS
370
-3
390
F
  0
LAYER
  5
200
100
AcDbSymbolTableRecord
100
AcDbLayerTableRecord
  2
01___PRT_ALL_DTM_PLN
 70
0
 62
7
  6
CONTINUOUS
370
-3
390
F
  0
LAYER
  5
201
100
AcDbSymbolTableRecord
100
AcDbLayerTableRecord
  2
01___PRT_DEF_DTM_PLN
 70
0
 62
7
  6
CONTINUOUS
370
-3
390
F
  0
LAYER
  5
202
100
AcDbSymbolTableRecord
100
AcDbLayerTableRecord
  2
02_ALL_AXES
 70
0
 62
7
  6
CONTINUOUS
370
-3
390
F
  0
LAYER
  5
203
100
AcDbSymbolTableRecord
100
AcDbLayerTableRecord
  2
02__ASM_ALL_AXES
 70
0
 62
7
  6
CONTINUOUS
370
-3
390
F
  0
LAYER
  5
204
100
AcDbSymbolTableRecord
100
AcDbLayerTableRecord
  2
02___PRT_ALL_AXES
 70
0
 62
7
  6
CONTINUOUS
370
-3
390
F
  0
LAYER
  5
205
100
AcDbSymbolTableRecord
100
AcDbLayerTableRecord
  2
03_ALL_CURVES
 70
0
 62
7
  6
CONTINUOUS
370
-3
390
F
  0
LAYER
  5
206
100
AcDbSymbolTableRecord
100
AcDbLayerTableRecord
  2
03__ASM_ALL_CURVES
 70
0
 62
7
  6
CONTINUOUS
370
-3
390
F
  0
LAYER
  5
207
100
AcDbSymbolTableRecord
100
AcDbLayerTableRecord
  2
03___PRT_ALL_CURVES
 70
0
 62
7
  6
CONTINUOUS
370
-3
390
F
  0
LAYER
  5
208
100
AcDbSymbolTableRecord
100
AcDbLayerTableRecord
  2
04_ALL_DTM_PNT
 70
0
 62
7
  6
CONTINUOUS
370
-3
390
F
  0
LAYER
  5
209
100
AcDbSymbolTableRecord
100
AcDbLayerTableRecord
  2
04__ASM_ALL_DTM_PNT
 70
0
 62
7
  6
CONTINUOUS
370
-3
390
F
  0
LAYER
  5
20A
100
AcDbSymbolTableRecord
100
AcDbLayerTableRecord
  2
04___PRT_ALL_DTM_PNT
 70
0
 62
7
  6
CONTINUOUS
370
-3
390
F
  0
LAYER
  5
20B
100
AcDbSymbolTableRecord
100
AcDbLayerTableRecord
  2
05_ALL_DTM_CSYS
 70
0
 62
7
  6
CONTINUOUS
370
-3
390
F
  0
LAYER
  5
20C
100
AcDbSymbolTableRecord
100
AcDbLayerTableRecord
  2
05__ASM_ALL_DTM_CSYS
 70
0
 62
7
  6
CONTINUOUS
370
-3
390
F
  0
LAYER
  5
20D
100
AcDbSymbolTableRecord
100
AcDbLayerTableRecord
  2
05__ASM_DEF_DTM_CSYS
 70
0
 62
7
  6
CONTINUOUS
370
-3
390
F
  0
LAYER
  5
20E
100
AcDbSymbolTableRecord
100
AcDbLayerTableRecord
  2
05___PRT_ALL_DTM_CSYS
 70
0
 62
7
  6
CONTINUOUS
370
-3
390
F
  0
LAYER
  5
20F
100
AcDbSymbolTableRecord
100
AcDbLayerTableRecord
  2
05___PRT_DEF_DTM_CSYS
 70
0
 62
7
  6
CONTINUOUS
370
-3
390
F
  0
LAYER
  5
210
100
AcDbSymbolTableRecord
100
AcDbLayerTableRecord
  2
06_ALL_SURFS
 70
0
 62
7
  6
CONTINUOUS
370
-3
390
F
  0
LAYER
  5
211
100
AcDbSymbolTableRecord
100
AcDbLayerTableRecord
  2
06__ASM_ALL_SURFS
 70
0
 62
7
  6
CONTINUOUS
370
-3
390
F
  0
LAYER
  5
212
100
AcDbSymbolTableRecord
100
AcDbLayerTableRecord
  2
06___PRT_ALL_SURFS
 70
0
 62
7
  6
CONTINUOUS
370
-3
390
F
  0
LAYER
  5
213
100
AcDbSymbolTableRecord
100
AcDbLayerTableRecord
  2
07__ASM_ALL_SKELETONS
 70
0
 62
7
  6
CONTINUOUS
370
-3
390
F
  0
ENDTAB
  0
TABLE
  2
STYLE
  5
3
100
AcDbSymbolTable
 70
1
  0
STYLE
  5
11
100
AcDbSymbolTableRecord
100
AcDbTextStyleTableRecord
  2
STANDARD
 70
0
 40
0.0
 41
0.8
 50
0.0
 71
0
 42
0.2
  3
txt
  4

  0
STYLE
  5
214
100
AcDbSymbolTableRecord
100
AcDbTextStyleTableRecord
  2
TEXTSTYLE_1
 70
0
 40
0.0
 41
0.8
 50
0.0
 71
0
 42
0.2
  3
gdt
  4

  0
ENDTAB
  0
TABLE
  2
VIEW
  5
6
100
AcDbSymbolTable
 70
0
  0
ENDTAB
  0
TABLE
  2
UCS
  5
7
100
AcDbSymbolTable
 70
0
  0
ENDTAB
  0
TABLE
  2
APPID
  5
9
100
AcDbSymbolTable
 70
1
  0
APPID
  5
215
100
AcDbSymbolTableRecord
100
AcDbRegAppTableRecord
  2
ACAD
 70
0
  0
ENDTAB
  0
TABLE
  2
BLOCK_RECORD
  5
1
100
AcDbSymbolTable
 70
0
  0
BLOCK_RECORD
  5
216
100
AcDbSymbolTableRecord
100
AcDbBlockTableRecord
  2
*Model_Space
  0
BLOCK_RECORD
  5
217
100
AcDbSymbolTableRecord
100
AcDbBlockTableRecord
  2
*Paper_Space
  0
ENDTAB
  0
TABLE
  2
DIMSTYLE
  5
A
100
AcDbSymbolTable
 70
1
100
AcDbDimStyleTable
 71
0
  0
DIMSTYLE
105
218
100
AcDbSymbolTableRecord
100
AcDbDimStyleTableRecord
  2
STANDARD
 70
0
  3

  4

 40
1.0
 41
0.1875
 42
0.0625
 43
0.38
 44
0.125
 45
0.0
 46
0.0
 47
0.0001
 48
0.0001
140
0.15625
141
0.09
142
0.0
143
25.4
144
1.0
145
0.0
146
1.0
147
0.09
 71
0.0
 72
0.0
 73
1
 74
1
 75
0
 76
0
 77
0
 78
4
 79
1
170
0
171
3
172
0
173
0
174
0
175
0
176
0
177
0
178
0
270
2
179
4
271
4
272
4
273
2
274
2
275
0
280
0
281
0
282
0
283
1
284
4
285
0
286
0
287
3
288
0
340
11
278
46
  0
ENDTAB
  0
ENDSEC
  0
SECTION
  2
BLOCKS
  0
BLOCK
  5
20
100
AcDbEntity
  8
0
100
AcDbBlockBegin
  2
*Model_Space
 70
0
 10
0.0
 20
0.0
 30
0.0
  3
*Model_Space
  1

  0
ENDBLK
  5
21
100
AcDbEntity
  8
0
100
AcDbBlockEnd
  0
BLOCK
  5
1C
100
AcDbEntity
  8
0
100
AcDbBlockBegin
  2
*Paper_Space
 70
0
 10
0.0
 20
0.0
 30
0.0
  3
*Paper_Space
  1

  0
ENDBLK
  5
1D
100
AcDbEntity
  8
0
100
AcDbBlockEnd
  0
ENDSEC
  0
SECTION
  2
ENTITIES
  0
MTEXT
  5
219
100
AcDbEntity
  8
0
100
AcDbMText
 62
7
  6
CONTINUOUS
  7
STANDARD
 71
1
 72
1
 10
15.9560215477
 20
0.9479130325
 30
0.0
 11
1.0
 21
0.0
 31
0.0
 44
0.9
  1
SCALE: 1:1.000
 40
0.3
 41
3.36
  0
LINE
  5
21A
100
AcDbEntity
  8
0
100
AcDbLine
 62
7
  6
CONTINUOUS
 10
0.0
 20
0.0
 11
0.0
 21
17.0
  0
LINE
  5
21B
100
AcDbEntity
  8
0
100
AcDbLine
 62
7
  6
CONTINUOUS
 10
0.0
 20
0.0
 11
22.0
 21
0.0
  0
LINE
  5
21C
100
AcDbEntity
  8
0
100
AcDbLine
 62
7
  6
CONTINUOUS
 10
0.0
 20
17.0
 11
22.0
 21
17.0
  0
LINE
  5
21D
100
AcDbEntity
  8
0
100
AcDbLine
 62
7
  6
CONTINUOUS
 10
22.0
 20
0.0
 11
22.0
 21
17.0
  0
LINE
  5
21E
100
AcDbEntity
  8
0
100
AcDbLine
 62
7
  6
CONTINUOUS
 10
3.7681625518
 20
5.6776002117
 11
3.7681625518
 21
5.5909860385
  0
LINE
  5
21F
100
AcDbEntity
  8
0
100
AcDbLine
 62
7
  6
CONTINUOUS
 10
3.9681473475
 20
5.5400614364
 11
4.0256522116
 21
5.3820681209
  0
LINE
  5
220
100
AcDbEntity
  8
0
100
AcDbLine
 62
7
  6
CONTINUOUS
 10
4.2980744667
 20
5.3820681209
 11
4.3555793308
 21
5.5400614364
  0
LINE
  5
221
100
AcDbEntity
  8
0
100
AcDbLine
 62
7
  6
CONTINUOUS
 10
3.7681625518
 20
5.5909860385
 11
3.7996586147
 21
5.5594899755
  0
LINE
  5
222
100
AcDbEntity
  8
0
100
AcDbLine
 62
7
  6
CONTINUOUS
 10
4.7555489223
 20
5.5400614364
 11
4.8130537864
 21
5.3820681209
  0
LINE
  5
223
100
AcDbEntity
  8
0
100
AcDbLine
 62
7
  6
CONTINUOUS
 10
4.5240680636
 20
5.5594899755
 11
4.5555641266
 21
5.5909860385
  0
LINE
  5
224
100
AcDbEntity
  8
0
100
AcDbLine
 62
7
  6
CONTINUOUS
 10
5.0854760415
 20
5.3820681209
 11
5.1429809056
 21
5.5400614364
  0
LINE
  5
225
100
AcDbEntity
  8
0
100
AcDbLine
 62
7
  6
CONTINUOUS
 10
4.5555641266
 20
5.5909860385
 11
4.5870601896
 21
5.5594899755
  0
LINE
  5
226
100
AcDbEntity
  8
0
100
AcDbLine
 62
7
  6
CONTINUOUS
 10
5.3114696384
 20
5.5594899755
 11
5.3429657014
 21
5.5909860385
  0
LINE
  5
227
100
AcDbEntity
  8
0
100
AcDbLine
 62
7
  6
CONTINUOUS
 10
5.3429657014
 20
5.5909860385
 11
5.3744617644
 21
5.5594899755
  0
LINE
  5
228
100
AcDbEntity
  8
0
100
AcDbLine
 62
7
  6
CONTINUOUS
 10
5.5429504971
 20
5.5400614364
 11
5.6004553612
 21
5.3820681209
  0
LINE
  5
229
100
AcDbEntity
  8
0
100
AcDbLine
 62
7
  6
CONTINUOUS
 10
5.8728776163
 20
5.3820681209
 11
5.9303824804
 21
5.5400614364
  0
LINE
  5
22A
100
AcDbEntity
  8
0
100
AcDbLine
 62
7
  6
CONTINUOUS
 10
4.0533990409
 20
5.3626395818
 11
4.2703276374
 21
5.3626395818
  0
LINE
  5
22B
100
AcDbEntity
  8
0
100
AcDbLine
 62
7
  6
CONTINUOUS
 10
4.8408006157
 20
5.3626395818
 11
5.0577292122
 21
5.3626395818
  0
LINE
  5
22C
100
AcDbEntity
  8
0
100
AcDbLine
 62
7
  6
CONTINUOUS
 10
5.6282021905
 20
5.3626395818
 11
5.845130787
 21
5.3626395818
  0
LINE
  5
22D
100
AcDbEntity
  8
0
100
AcDbLine
 62
7
  6
CONTINUOUS
 10
6.4156037653
 20
5.3626395818
 11
6.6325323618
 21
5.3626395818
  0
LINE
  5
22E
100
AcDbEntity
  8
0
100
AcDbLine
 62
7
  6
CONTINUOUS
 10
7.2030053401
 20
5.3626395818
 11
7.4199339366
 21
5.3626395818
  0
LINE
  5
22F
100
AcDbEntity
  8
0
100
AcDbLine
 62
7
  6
CONTINUOUS
 10
7.9904069149
 20
5.3626395818
 11
8.2073355114
 21
5.3626395818
  0
LINE
  5
230
100
AcDbEntity
  8
0
100
AcDbLine
 62
7
  6
CONTINUOUS
 10
6.0988712132
 20
5.5594899755
 11
6.1303672762
 21
5.5909860385
  0
LINE
  5
231
100
AcDbEntity
  8
0
100
AcDbLine
 62
7
  6
CONTINUOUS
 10
3.7996586147
 20
5.5594899755
 11
3.9404005181
 21
5.5594899755
  0
LINE
  5
232
100
AcDbEntity
  8
0
100
AcDbLine
 62
7
  6
CONTINUOUS
 10
4.3833261602
 20
5.5594899755
 11
4.5240680636
 21
5.5594899755
  0
LINE
  5
233
100
AcDbEntity
  8
0
100
AcDbLine
 62
7
  6
CONTINUOUS
 10
4.5870601896
 20
5.5594899755
 11
4.727802093
 21
5.5594899755
  0
LINE
  5
234
100
AcDbEntity
  8
0
100
AcDbLine
 62
7
  6
CONTINUOUS
 10
5.170727735
 20
5.5594899755
 11
5.3114696384
 21
5.5594899755
  0
LINE
  5
235
100
AcDbEntity
  8
0
100
AcDbLine
 62
7
  6
CONTINUOUS
 10
5.3744617644
 20
5.5594899755
 11
5.5152036678
 21
5.5594899755
  0
LINE
  5
236
100
AcDbEntity
  8
0
100
AcDbLine
 62
7
  6
CONTINUOUS
 10
5.9581293098
 20
5.5594899755
 11
6.0988712132
 21
5.5594899755
  0
LINE
  5
237
100
AcDbEntity
  8
0
100
AcDbLine
 62
7
  6
CONTINUOUS
 10
6.1618633392
 20
5.5594899755
 11
6.3026052426
 21
5.5594899755
  0
LINE
  5
238
100
AcDbEntity
  8
0
100
AcDbLine
 62
7
  6
CONTINUOUS
 10
6.7455308846
 20
5.5594899755
 11
6.886272788
 21
5.5594899755
  0
LINE
  5
239
100
AcDbEntity
  8
0
100
AcDbLine
 62
7
  6
CONTINUOUS
 10
6.949264914
 20
5.5594899755
 11
7.0900068174
 21
5.5594899755
  0
LINE
  5
23A
100
AcDbEntity
  8
0
100
AcDbLine
 62
7
  6
CONTINUOUS
 10
7.5329324594
 20
5.5594899755
 11
7.6736743628
 21
5.5594899755
  0
LINE
  5
23B
100
AcDbEntity
  8
0
100
AcDbLine
 62
7
  6
CONTINUOUS
 10
7.7366664888
 20
5.5594899755
 11
7.8774083922
 21
5.5594899755
  0
LINE
  5
23C
100
AcDbEntity
  8
0
100
AcDbLine
 62
7
  6
CONTINUOUS
 10
8.3203340342
 20
5.5594899755
 11
8.4610759376
 21
5.5594899755
  0
LINE
  5
23D
100
AcDbEntity
  8
0
100
AcDbLine
 62
7
  6
CONTINUOUS
 10
8.4925720006
 20
5.6776002117
 11
3.7681625518
 21
5.6776002117
  0
LINE
  5
23E
100
AcDbEntity
  8
0
100
AcDbLine
 62
7
  6
CONTINUOUS
 10
6.1303672762
 20
5.5909860385
 11
6.1618633392
 21
5.5594899755
  0
LINE
  5
23F
100
AcDbEntity
  8
0
100
AcDbLine
 62
7
  6
CONTINUOUS
 10
6.3303520719
 20
5.5400614364
 11
6.387856936
 21
5.3820681209
  0
LINE
  5
240
100
AcDbEntity
  8
0
100
AcDbLine
 62
7
  6
CONTINUOUS
 10
6.6602791912
 20
5.3820681209
 11
6.7177840552
 21
5.5400614364
  0
LINE
  5
241
100
AcDbEntity
  8
0
100
AcDbLine
 62
7
  6
CONTINUOUS
 10
6.886272788
 20
5.5594899755
 11
6.917768851
 21
5.5909860385
  0
LINE
  5
242
100
AcDbEntity
  8
0
100
AcDbLine
 62
7
  6
CONTINUOUS
 10
6.917768851
 20
5.5909860385
 11
6.949264914
 21
5.5594899755
  0
LINE
  5
243
100
AcDbEntity
  8
0
100
AcDbLine
 62
7
  6
CONTINUOUS
 10
7.1177536467
 20
5.5400614364
 11
7.1752585108
 21
5.3820681209
  0
LINE
  5
244
100
AcDbEntity
  8
0
100
AcDbLine
 62
7
  6
CONTINUOUS
 10
7.6736743628
 20
5.5594899755
 11
7.7051704258
 21
5.5909860385
  0
LINE
  5
245
100
AcDbEntity
  8
0
100
AcDbLine
 62
7
  6
CONTINUOUS
 10
7.7051704258
 20
5.5909860385
 11
7.7366664888
 21
5.5594899755
  0
LINE
  5
246
100
AcDbEntity
  8
0
100
AcDbLine
 62
7
  6
CONTINUOUS
 10
7.447680766
 20
5.3820681209
 11
7.50518563
 21
5.5400614364
  0
LINE
  5
247
100
AcDbEntity
  8
0
100
AcDbLine
 62
7
  6
CONTINUOUS
 10
8.4610759376
 20
5.5594899755
 11
8.4925720006
 21
5.5909860385
  0
LINE
  5
248
100
AcDbEntity
  8
0
100
AcDbLine
 62
7
  6
CONTINUOUS
 10
7.9051552215
 20
5.5400614364
 11
7.9626600856
 21
5.3820681209
  0
LINE
  5
249
100
AcDbEntity
  8
0
100
AcDbLine
 62
7
  6
CONTINUOUS
 10
8.2350823408
 20
5.3820681209
 11
8.2925872048
 21
5.5400614364
  0
LINE
  5
24A
100
AcDbEntity
  8
0
100
AcDbLine
 62
7
  6
CONTINUOUS
 10
8.4925720006
 20
5.5909860385
 11
8.4925720006
 21
5.6776002117
  0
LINE
  5
24B
100
AcDbEntity
  8
0
100
AcDbLine
 62
7
  6
CONTINUOUS
 10
3.7086673594
 20
13.2299690412
 11
3.7086673594
 21
11.9701265215
  0
LINE
  5
24C
100
AcDbEntity
  8
0
100
AcDbLine
 62
7
  6
CONTINUOUS
 10
8.4330768083
 20
11.9701265215
 11
3.7086673594
 21
11.9701265215
  0
LINE
  5
24D
100
AcDbEntity
  8
0
100
AcDbLine
 62
7
  6
CONTINUOUS
 10
3.7086673594
 20
13.2299690412
 11
8.4330768083
 21
13.2299690412
  0
LINE
  5
24E
100
AcDbEntity
  8
0
100
AcDbLine
 62
7
  6
CONTINUOUS
 10
8.4330768083
 20
13.2299690412
 11
8.4330768083
 21
11.9701265215
  0
LINE
  5
24F
100
AcDbEntity
  8
0
100
AcDbLine
 62
7
  6
CONTINUOUS
 10
14.9304339971
 20
5.3031443895
 11
14.9304339971
 21
5.6181050194
  0
LINE
  5
250
100
AcDbEntity
  8
0
100
AcDbLine
 62
7
  6
CONTINUOUS
 10
14.9304339971
 20
5.3031443895
 11
16.1902765168
 21
5.3031443895
  0
LINE
  5
251
100
AcDbEntity
  8
0
100
AcDbLine
 62
7
  6
CONTINUOUS
 10
16.1902765168
 20
5.4999947832
 11
14.9304339971
 21
5.4999947832
  0
LINE
  5
252
100
AcDbEntity
  8
0
100
AcDbLine
 62
7
  6
CONTINUOUS
 10
16.1902765168
 20
5.5314908462
 11
14.9304339971
 21
5.5314908462
  0
LINE
  5
253
100
AcDbEntity
  8
0
100
AcDbLine
 62
7
  6
CONTINUOUS
 10
16.1902765168
 20
5.6181050194
 11
14.9304339971
 21
5.6181050194
  0
LINE
  5
254
100
AcDbEntity
  8
0
100
AcDbLine
 62
7
  6
CONTINUOUS
 10
16.1902765168
 20
5.3031443895
 11
16.1902765168
 21
5.6181050194
  0
LINE
  5
255
100
AcDbEntity
  8
0
100
AcDbLine
 62
7
  6
CONTINUOUS
 10
13.129684639
 20
12.1152620527
 11
13.1561055881
 21
12.0614218192
  0
LINE
  5
256
100
AcDbEntity
  8
0
100
AcDbLine
 62
7
  6
CONTINUOUS
 10
13.4346500858
 20
13.1021306003
 11
13.129684639
 21
12.1152620527
  0
LINE
  5
257
100
AcDbEntity
  8
0
100
AcDbLine
 62
7
  6
CONTINUOUS
 10
13.3558379185
 20
12.029766579
 11
13.4569979817
 21
11.9315563591
  0
LINE
  5
258
100
AcDbEntity
  8
0
100
AcDbLine
 62
7
  6
CONTINUOUS
 10
13.7079154948
 20
11.9315563591
 11
13.7126864062
 21
12.029766579
  0
LINE
  5
259
100
AcDbEntity
  8
0
100
AcDbLine
 62
7
  6
CONTINUOUS
 10
13.7126864062
 20
12.029766579
 11
13.7131091034
 21
12.0322078519
  0
LINE
  5
25A
100
AcDbEntity
  8
0
100
AcDbLine
 62
7
  6
CONTINUOUS
 10
13.7074926695
 20
11.9291151259
 11
13.7079154948
 21
11.9315563591
  0
LINE
  5
25B
100
AcDbEntity
  8
0
100
AcDbLine
 62
7
  6
CONTINUOUS
 10
13.7082150886
 20
11.9314637776
 11
13.7423250189
 21
12.0418435525
  0
LINE
  5
25C
100
AcDbEntity
  8
0
100
AcDbLine
 62
7
  6
CONTINUOUS
 10
13.1561055881
 20
12.0614218192
 11
13.194723001
 21
12.0418435525
  0
LINE
  5
25D
100
AcDbEntity
  8
0
100
AcDbLine
 62
7
  6
CONTINUOUS
 10
14.0810827957
 20
12.029766579
 11
14.1822428589
 21
11.9315563591
  0
LINE
  5
25E
100
AcDbEntity
  8
0
100
AcDbLine
 62
7
  6
CONTINUOUS
 10
13.8813504653
 20
12.0614218192
 11
13.9199678782
 21
12.0418435525
  0
LINE
  5
25F
100
AcDbEntity
  8
0
100
AcDbLine
 62
7
  6
CONTINUOUS
 10
14.433160372
 20
11.9315563591
 11
14.4379312834
 21
12.029766579
  0
LINE
  5
260
100
AcDbEntity
  8
0
100
AcDbLine
 62
7
  6
CONTINUOUS
 10
14.4379312834
 20
12.029766579
 11
14.4383622447
 21
12.0322053029
  0
LINE
  5
261
100
AcDbEntity
  8
0
100
AcDbLine
 62
7
  6
CONTINUOUS
 10
14.432727784
 20
11.9291181359
 11
14.433160372
 21
11.9315563591
  0
LINE
  5
262
100
AcDbEntity
  8
0
100
AcDbLine
 62
7
  6
CONTINUOUS
 10
14.4334599658
 20
11.9314637776
 11
14.4675698961
 21
12.0418435525
  0
LINE
  5
263
100
AcDbEntity
  8
0
100
AcDbLine
 62
7
  6
CONTINUOUS
 10
13.861948288
 20
12.0418435525
 11
13.8813504653
 21
12.0614218192
  0
LINE
  5
264
100
AcDbEntity
  8
0
100
AcDbLine
 62
7
  6
CONTINUOUS
 10
14.6065953424
 20
12.0614218192
 11
14.6452127554
 21
12.0418435525
  0
LINE
  5
265
100
AcDbEntity
  8
0
100
AcDbLine
 62
7
  6
CONTINUOUS
 10
14.8063276729
 20
12.029766579
 11
14.907487736
 21
11.9315563591
  0
LINE
  5
266
100
AcDbEntity
  8
0
100
AcDbLine
 62
7
  6
CONTINUOUS
 10
13.4884810217
 20
11.9194793855
 11
13.6882854904
 21
11.9194793855
  0
LINE
  5
267
100
AcDbEntity
  8
0
100
AcDbLine
 62
7
  6
CONTINUOUS
 10
14.2137258989
 20
11.9194793855
 11
14.4135303676
 21
11.9194793855
  0
LINE
  5
268
100
AcDbEntity
  8
0
100
AcDbLine
 62
7
  6
CONTINUOUS
 10
14.9389707761
 20
11.9194793855
 11
15.1387752448
 21
11.9194793855
  0
LINE
  5
269
100
AcDbEntity
  8
0
100
AcDbLine
 62
7
  6
CONTINUOUS
 10
15.6642156532
 20
11.9194793855
 11
15.8640201219
 21
11.9194793855
  0
LINE
  5
26A
100
AcDbEntity
  8
0
100
AcDbLine
 62
7
  6
CONTINUOUS
 10
16.3894605304
 20
11.9194793855
 11
16.5892649991
 21
11.9194793855
  0
LINE
  5
26B
100
AcDbEntity
  8
0
100
AcDbLine
 62
7
  6
CONTINUOUS
 10
17.1147054076
 20
11.9194793855
 11
17.3145098763
 21
11.9194793855
  0
LINE
  5
26C
100
AcDbEntity
  8
0
100
AcDbLine
 62
7
  6
CONTINUOUS
 10
13.194723001
 20
12.0418435525
 11
13.3243548785
 21
12.0418435525
  0
LINE
  5
26D
100
AcDbEntity
  8
0
100
AcDbLine
 62
7
  6
CONTINUOUS
 10
13.7323164106
 20
12.0418435525
 11
13.861948288
 21
12.0418435525
  0
LINE
  5
26E
100
AcDbEntity
  8
0
100
AcDbLine
 62
7
  6
CONTINUOUS
 10
13.9199678782
 20
12.0418435525
 11
14.0495997556
 21
12.0418435525
  0
LINE
  5
26F
100
AcDbEntity
  8
0
100
AcDbLine
 62
7
  6
CONTINUOUS
 10
14.4575612878
 20
12.0418435525
 11
14.5871931652
 21
12.0418435525
  0
LINE
  5
270
100
AcDbEntity
  8
0
100
AcDbLine
 62
7
  6
CONTINUOUS
 10
14.6452127554
 20
12.0418435525
 11
14.7748446328
 21
12.0418435525
  0
LINE
  5
271
100
AcDbEntity
  8
0
100
AcDbLine
 62
7
  6
CONTINUOUS
 10
15.1828061649
 20
12.0418435525
 11
15.3124380424
 21
12.0418435525
  0
LINE
  5
272
100
AcDbEntity
  8
0
100
AcDbLine
 62
7
  6
CONTINUOUS
 10
15.3704576325
 20
12.0418435525
 11
15.50008951
 21
12.0418435525
  0
LINE
  5
273
100
AcDbEntity
  8
0
100
AcDbLine
 62
7
  6
CONTINUOUS
 10
15.9080510421
 20
12.0418435525
 11
16.0376829195
 21
12.0418435525
  0
LINE
  5
274
100
AcDbEntity
  8
0
100
AcDbLine
 62
7
  6
CONTINUOUS
 10
16.0957025097
 20
12.0418435525
 11
16.2253343872
 21
12.0418435525
  0
LINE
  5
275
100
AcDbEntity
  8
0
100
AcDbLine
 62
7
  6
CONTINUOUS
 10
16.6332959193
 20
12.0418435525
 11
16.7629277967
 21
12.0418435525
  0
LINE
  5
276
100
AcDbEntity
  8
0
100
AcDbLine
 62
7
  6
CONTINUOUS
 10
16.8209473869
 20
12.0418435525
 11
16.9505792643
 21
12.0418435525
  0
LINE
  5
277
100
AcDbEntity
  8
0
100
AcDbLine
 62
7
  6
CONTINUOUS
 10
17.3585407964
 20
12.0418435525
 11
17.4881726739
 21
12.0418435525
  0
LINE
  5
278
100
AcDbEntity
  8
0
100
AcDbLine
 62
7
  6
CONTINUOUS
 10
15.3318402196
 20
12.0614218192
 11
15.3704576325
 21
12.0418435525
  0
LINE
  5
279
100
AcDbEntity
  8
0
100
AcDbLine
 62
7
  6
CONTINUOUS
 10
17.481153902
 20
12.1152620527
 11
13.129684639
 21
12.1152620527
  0
LINE
  5
27A
100
AcDbEntity
  8
0
100
AcDbLine
 62
7
  6
CONTINUOUS
 10
15.53157255
 20
12.029766579
 11
15.6327326132
 21
11.9315563591
  0
LINE
  5
27B
100
AcDbEntity
  8
0
100
AcDbLine
 62
7
  6
CONTINUOUS
 10
15.1584052492
 20
11.9315563591
 11
15.1631761605
 21
12.029766579
  0
LINE
  5
27C
100
AcDbEntity
  8
0
100
AcDbLine
 62
7
  6
CONTINUOUS
 10
15.1631761605
 20
12.029766579
 11
15.1636071219
 21
12.0322053029
  0
LINE
  5
27D
100
AcDbEntity
  8
0
100
AcDbLine
 62
7
  6
CONTINUOUS
 10
15.1579726612
 20
11.9291181359
 11
15.1584052492
 21
11.9315563591
  0
LINE
  5
27E
100
AcDbEntity
  8
0
100
AcDbLine
 62
7
  6
CONTINUOUS
 10
14.5871931652
 20
12.0418435525
 11
14.6065953424
 21
12.0614218192
  0
LINE
  5
27F
100
AcDbEntity
  8
0
100
AcDbLine
 62
7
  6
CONTINUOUS
 10
15.158704843
 20
11.9314637776
 11
15.1928147733
 21
12.0418435525
  0
LINE
  5
280
100
AcDbEntity
  8
0
100
AcDbLine
 62
7
  6
CONTINUOUS
 10
16.0570850968
 20
12.0614218192
 11
16.0957025097
 21
12.0418435525
  0
LINE
  5
281
100
AcDbEntity
  8
0
100
AcDbLine
 62
7
  6
CONTINUOUS
 10
15.3124380424
 20
12.0418435525
 11
15.3318402196
 21
12.0614218192
  0
LINE
  5
282
100
AcDbEntity
  8
0
100
AcDbLine
 62
7
  6
CONTINUOUS
 10
16.7823299739
 20
12.0614218192
 11
16.8209473869
 21
12.0418435525
  0
LINE
  5
283
100
AcDbEntity
  8
0
100
AcDbLine
 62
7
  6
CONTINUOUS
 10
16.2568174272
 20
12.029766579
 11
16.3579774904
 21
11.9315563591
  0
LINE
  5
284
100
AcDbEntity
  8
0
100
AcDbLine
 62
7
  6
CONTINUOUS
 10
15.8836501263
 20
11.9315563591
 11
15.8884210377
 21
12.029766579
  0
LINE
  5
285
100
AcDbEntity
  8
0
100
AcDbLine
 62
7
  6
CONTINUOUS
 10
15.8884210377
 20
12.029766579
 11
15.8888519991
 21
12.0322053029
  0
LINE
  5
286
100
AcDbEntity
  8
0
100
AcDbLine
 62
7
  6
CONTINUOUS
 10
15.8832175383
 20
11.9291181359
 11
15.8836501263
 21
11.9315563591
  0
LINE
  5
287
100
AcDbEntity
  8
0
100
AcDbLine
 62
7
  6
CONTINUOUS
 10
15.8839497201
 20
11.9314637776
 11
15.9180596504
 21
12.0418435525
  0
LINE
  5
288
100
AcDbEntity
  8
0
100
AcDbLine
 62
7
  6
CONTINUOUS
 10
13.4346500858
 20
13.1021306003
 11
17.7861193488
 21
13.1021306003
  0
LINE
  5
289
100
AcDbEntity
  8
0
100
AcDbLine
 62
7
  6
CONTINUOUS
 10
16.0376829195
 20
12.0418435525
 11
16.0570850968
 21
12.0614218192
  0
LINE
  5
28A
100
AcDbEntity
  8
0
100
AcDbLine
 62
7
  6
CONTINUOUS
 10
16.9820623044
 20
12.029766579
 11
17.0832223675
 21
11.9315563591
  0
LINE
  5
28B
100
AcDbEntity
  8
0
100
AcDbLine
 62
7
  6
CONTINUOUS
 10
16.6088950035
 20
11.9315563591
 11
16.6136659149
 21
12.029766579
  0
LINE
  5
28C
100
AcDbEntity
  8
0
100
AcDbLine
 62
7
  6
CONTINUOUS
 10
16.6136659149
 20
12.029766579
 11
16.6140968762
 21
12.0322053029
  0
LINE
  5
28D
100
AcDbEntity
  8
0
100
AcDbLine
 62
7
  6
CONTINUOUS
 10
16.6084624155
 20
11.9291181359
 11
16.6088950035
 21
11.9315563591
  0
LINE
  5
28E
100
AcDbEntity
  8
0
100
AcDbLine
 62
7
  6
CONTINUOUS
 10
16.6091945973
 20
11.9314637776
 11
16.6433045276
 21
12.0418435525
  0
LINE
  5
28F
100
AcDbEntity
  8
0
100
AcDbLine
 62
7
  6
CONTINUOUS
 10
16.7629277967
 20
12.0418435525
 11
16.7823299739
 21
12.0614218192
  0
LINE
  5
290
100
AcDbEntity
  8
0
100
AcDbLine
 62
7
  6
CONTINUOUS
 10
17.5075748511
 20
12.0614218192
 11
17.481153902
 21
12.1152620527
  0
LINE
  5
291
100
AcDbEntity
  8
0
100
AcDbLine
 62
7
  6
CONTINUOUS
 10
17.4881726739
 20
12.0418435525
 11
17.5075748511
 21
12.0614218192
  0
LINE
  5
292
100
AcDbEntity
  8
0
100
AcDbLine
 62
7
  6
CONTINUOUS
 10
17.3341398807
 20
11.9315563591
 11
17.338910792
 21
12.029766579
  0
LINE
  5
293
100
AcDbEntity
  8
0
100
AcDbLine
 62
7
  6
CONTINUOUS
 10
17.338910792
 20
12.029766579
 11
17.3393417534
 21
12.0322053029
  0
LINE
  5
294
100
AcDbEntity
  8
0
100
AcDbLine
 62
7
  6
CONTINUOUS
 10
17.3337072927
 20
11.9291181359
 11
17.3341398807
 21
11.9315563591
  0
LINE
  5
295
100
AcDbEntity
  8
0
100
AcDbLine
 62
7
  6
CONTINUOUS
 10
17.3344394745
 20
11.9314637776
 11
17.3685494048
 21
12.0418435525
  0
LINE
  5
296
100
AcDbEntity
  8
0
100
AcDbLine
 62
7
  6
CONTINUOUS
 10
17.7861193488
 20
13.1021306003
 11
17.481153902
 21
12.1152620527
  0
LINE
  5
297
100
AcDbEntity
  8
0
100
AcDbLine
 62
7
  6
CONTINUOUS
 10
17.8125402979
 20
13.0482903668
 11
17.5075748511
 21
12.0614218192
  0
LINE
  5
298
100
AcDbEntity
  8
0
100
AcDbLine
 62
7
  6
CONTINUOUS
 10
17.8125402979
 20
13.0482903668
 11
17.7861193488
 21
13.1021306003
  0
ARC
  5
299
100
AcDbEntity
  8
0
100
AcDbCircle
 62
7
  6
CONTINUOUS
 10
8.3203340342
 20
5.5299624164
 40
0.0295275591
100
AcDbArc
 50
90.0
 51
160.0
  0
ARC
  5
29A
100
AcDbEntity
  8
0
100
AcDbCircle
 62
7
  6
CONTINUOUS
 10
7.8774083922
 20
5.5299624164
 40
0.0295275591
100
AcDbArc
 50
20.0
 51
90.0
  0
ARC
  5
29B
100
AcDbEntity
  8
0
100
AcDbCircle
 62
7
  6
CONTINUOUS
 10
7.5329324594
 20
5.5299624164
 40
0.0295275591
100
AcDbArc
 50
90.0
 51
160.0
  0
ARC
  5
29C
100
AcDbEntity
  8
0
100
AcDbCircle
 62
7
  6
CONTINUOUS
 10
7.0900068174
 20
5.5299624164
 40
0.0295275591
100
AcDbArc
 50
20.0
 51
90.0
  0
ARC
  5
29D
100
AcDbEntity
  8
0
100
AcDbCircle
 62
7
  6
CONTINUOUS
 10
6.7455308846
 20
5.5299624164
 40
0.0295275591
100
AcDbArc
 50
90.0
 51
160.0
  0
ARC
  5
29E
100
AcDbEntity
  8
0
100
AcDbCircle
 62
7
  6
CONTINUOUS
 10
6.3026052426
 20
5.5299624164
 40
0.0295275591
100
AcDbArc
 50
20.0
 51
90.0
  0
ARC
  5
29F
100
AcDbEntity
  8
0
100
AcDbCircle
 62
7
  6
CONTINUOUS
 10
5.9581293098
 20
5.5299624164
 40
0.0295275591
100
AcDbArc
 50
90.0
 51
160.0
  0
ARC
  5
2A0
100
AcDbEntity
  8
0
100
AcDbCircle
 62
7
  6
CONTINUOUS
 10
5.5152036678
 20
5.5299624164
 40
0.0295275591
100
AcDbArc
 50
20.0
 51
90.0
  0
ARC
  5
2A1
100
AcDbEntity
  8
0
100
AcDbCircle
 62
7
  6
CONTINUOUS
 10
5.170727735
 20
5.5299624164
 40
0.0295275591
100
AcDbArc
 50
90.0
 51
160.0
  0
ARC
  5
2A2
100
AcDbEntity
  8
0
100
AcDbCircle
 62
7
  6
CONTINUOUS
 10
4.727802093
 20
5.5299624164
 40
0.0295275591
100
AcDbArc
 50
20.0
 51
90.0
  0
ARC
  5
2A3
100
AcDbEntity
  8
0
100
AcDbCircle
 62
7
  6
CONTINUOUS
 10
3.9404005181
 20
5.5299624164
 40
0.0295275591
100
AcDbArc
 50
20.0
 51
90.0
  0
ARC
  5
2A4
100
AcDbEntity
  8
0
100
AcDbCircle
 62
7
  6
CONTINUOUS
 10
4.3833261602
 20
5.5299624164
 40
0.0295275591
100
AcDbArc
 50
90.0
 51
160.0
  0
ARC
  5
2A5
100
AcDbEntity
  8
0
100
AcDbCircle
 62
7
  6
CONTINUOUS
 10
4.0533990409
 20
5.3921671408
 40
0.0295275591
100
AcDbArc
 50
200.0
 51
270.0
  0
ARC
  5
2A6
100
AcDbEntity
  8
0
100
AcDbCircle
 62
7
  6
CONTINUOUS
 10
4.2703276374
 20
5.3921671408
 40
0.0295275591
100
AcDbArc
 50
270.0
 51
340.0
  0
ARC
  5
2A7
100
AcDbEntity
  8
0
100
AcDbCircle
 62
7
  6
CONTINUOUS
 10
4.8408006157
 20
5.3921671408
 40
0.0295275591
100
AcDbArc
 50
200.0
 51
270.0
  0
ARC
  5
2A8
100
AcDbEntity
  8
0
100
AcDbCircle
 62
7
  6
CONTINUOUS
 10
5.0577292122
 20
5.3921671408
 40
0.0295275591
100
AcDbArc
 50
270.0
 51
340.0
  0
ARC
  5
2A9
100
AcDbEntity
  8
0
100
AcDbCircle
 62
7
  6
CONTINUOUS
 10
5.6282021905
 20
5.3921671408
 40
0.0295275591
100
AcDbArc
 50
200.0
 51
270.0
  0
ARC
  5
2AA
100
AcDbEntity
  8
0
100
AcDbCircle
 62
7
  6
CONTINUOUS
 10
5.845130787
 20
5.3921671408
 40
0.0295275591
100
AcDbArc
 50
270.0
 51
340.0
  0
ARC
  5
2AB
100
AcDbEntity
  8
0
100
AcDbCircle
 62
7
  6
CONTINUOUS
 10
6.4156037653
 20
5.3921671408
 40
0.0295275591
100
AcDbArc
 50
200.0
 51
270.0
  0
ARC
  5
2AC
100
AcDbEntity
  8
0
100
AcDbCircle
 62
7
  6
CONTINUOUS
 10
6.6325323618
 20
5.3921671408
 40
0.0295275591
100
AcDbArc
 50
270.0
 51
340.0
  0
ARC
  5
2AD
100
AcDbEntity
  8
0
100
AcDbCircle
 62
7
  6
CONTINUOUS
 10
7.2030053401
 20
5.3921671408
 40
0.0295275591
100
AcDbArc
 50
200.0
 51
270.0
  0
ARC
  5
2AE
100
AcDbEntity
  8
0
100
AcDbCircle
 62
7
  6
CONTINUOUS
 10
8.2073355114
 20
5.3921671408
 40
0.0295275591
100
AcDbArc
 50
270.0
 51
340.0
  0
ARC
  5
2AF
100
AcDbEntity
  8
0
100
AcDbCircle
 62
7
  6
CONTINUOUS
 10
7.9904069149
 20
5.3921671408
 40
0.0295275591
100
AcDbArc
 50
200.0
 51
270.0
  0
ARC
  5
2B0
100
AcDbEntity
  8
0
100
AcDbCircle
 62
7
  6
CONTINUOUS
 10
7.4199339366
 20
5.3921671408
 40
0.0295275591
100
AcDbArc
 50
270.0
 51
340.0
  0
SPLINE
  5
2B1
100
AcDbEntity
  8
0
100
AcDbSpline
 62
7
  6
CONTINUOUS
 70
0
 71
3
 72
9
 73
5
 74
0
 42
0.0000001
 43
0.0000001
 44
0.0000000001
 40
0.0
 40
0.0
 40
0.0
 40
0.0
 40
0.4768487235
 40
1.0
 40
1.0
 40
1.0
 40
1.0
 10
17.3393380534
 20
12.0322064465
 30
0.0
 10
17.339729857
 20
12.0334734511
 30
0.0
 10
17.3411306771
 20
12.0359742943
 30
0.0
 10
17.3433329851
 20
12.0377631282
 30
0.0
 10
17.3445723176
 20
12.0385253707
 30
0.0
  0
SPLINE
  5
2B2
100
AcDbEntity
  8
0
100
AcDbSpline
 62
7
  6
CONTINUOUS
 70
0
 71
3
 72
9
 73
5
 74
0
 42
0.0000001
 43
0.0000001
 44
0.0000000001
 40
0.0
 40
0.0
 40
0.0
 40
0.0
 40
0.2215248257
 40
1.0
 40
1.0
 40
1.0
 40
1.0
 10
17.3445723176
 20
12.0385253707
 30
0.0
 10
17.3454820191
 20
12.0390848759
 30
0.0
 10
17.3498399521
 20
12.0412029664
 30
0.0
 10
17.3547877011
 20
12.0418435525
 30
0.0
 10
17.3585407964
 20
12.0418435525
 30
0.0
  0
SPLINE
  5
2B3
100
AcDbEntity
  8
0
100
AcDbSpline
 62
7
  6
CONTINUOUS
 70
0
 71
3
 72
9
 73
5
 74
0
 42
0.0000001
 43
0.0000001
 44
0.0000000001
 40
0.0
 40
0.0
 40
0.0
 40
0.0
 40
0.4768487235
 40
1.0
 40
1.0
 40
1.0
 40
1.0
 10
16.6140931762
 20
12.0322064465
 30
0.0
 10
16.6144849798
 20
12.0334734511
 30
0.0
 10
16.6158857999
 20
12.0359742943
 30
0.0
 10
16.6180881079
 20
12.0377631282
 30
0.0
 10
16.6193274405
 20
12.0385253707
 30
0.0
  0
SPLINE
  5
2B4
100
AcDbEntity
  8
0
100
AcDbSpline
 62
7
  6
CONTINUOUS
 70
0
 71
3
 72
9
 73
5
 74
0
 42
0.0000001
 43
0.0000001
 44
0.0000000001
 40
0.0
 40
0.0
 40
0.0
 40
0.0
 40
0.2215248257
 40
1.0
 40
1.0
 40
1.0
 40
1.0
 10
16.6193274405
 20
12.0385253707
 30
0.0
 10
16.6202371419
 20
12.0390848759
 30
0.0
 10
16.6245950749
 20
12.0412029664
 30
0.0
 10
16.629542824
 20
12.0418435525
 30
0.0
 10
16.6332959193
 20
12.0418435525
 30
0.0
  0
SPLINE
  5
2B5
100
AcDbEntity
  8
0
100
AcDbSpline
 62
7
  6
CONTINUOUS
 70
0
 71
3
 72
9
 73
5
 74
0
 42
0.0000001
 43
0.0000001
 44
0.0000000001
 40
0.0
 40
0.0
 40
0.0
 40
0.0
 40
0.4768487235
 40
1.0
 40
1.0
 40
1.0
 40
1.0
 10
15.8888482991
 20
12.0322064465
 30
0.0
 10
15.8892401026
 20
12.0334734511
 30
0.0
 10
15.8906409227
 20
12.0359742943
 30
0.0
 10
15.8928432307
 20
12.0377631282
 30
0.0
 10
15.8940825633
 20
12.0385253707
 30
0.0
  0
SPLINE
  5
2B6
100
AcDbEntity
  8
0
100
AcDbSpline
 62
7
  6
CONTINUOUS
 70
0
 71
3
 72
9
 73
5
 74
0
 42
0.0000001
 43
0.0000001
 44
0.0000000001
 40
0.0
 40
0.0
 40
0.0
 40
0.0
 40
0.2215248257
 40
1.0
 40
1.0
 40
1.0
 40
1.0
 10
15.8940825633
 20
12.0385253707
 30
0.0
 10
15.8949922647
 20
12.0390848759
 30
0.0
 10
15.8993501978
 20
12.0412029664
 30
0.0
 10
15.9042979468
 20
12.0418435525
 30
0.0
 10
15.9080510421
 20
12.0418435525
 30
0.0
  0
SPLINE
  5
2B7
100
AcDbEntity
  8
0
100
AcDbSpline
 62
7
  6
CONTINUOUS
 70
0
 71
3
 72
9
 73
5
 74
0
 42
0.0000001
 43
0.0000001
 44
0.0000000001
 40
0.0
 40
0.0
 40
0.0
 40
0.0
 40
0.4768487235
 40
1.0
 40
1.0
 40
1.0
 40
1.0
 10
15.1636034219
 20
12.0322064465
 30
0.0
 10
15.1639952255
 20
12.0334734511
 30
0.0
 10
15.1653960456
 20
12.0359742943
 30
0.0
 10
15.1675983536
 20
12.0377631282
 30
0.0
 10
15.1688376861
 20
12.0385253707
 30
0.0
  0
SPLINE
  5
2B8
100
AcDbEntity
  8
0
100
AcDbSpline
 62
7
  6
CONTINUOUS
 70
0
 71
3
 72
9
 73
5
 74
0
 42
0.0000001
 43
0.0000001
 44
0.0000000001
 40
0.0
 40
0.0
 40
0.0
 40
0.0
 40
0.2215248257
 40
1.0
 40
1.0
 40
1.0
 40
1.0
 10
15.1688376861
 20
12.0385253707
 30
0.0
 10
15.1697473876
 20
12.0390848759
 30
0.0
 10
15.1741053206
 20
12.0412029664
 30
0.0
 10
15.1790530696
 20
12.0418435525
 30
0.0
 10
15.1828061649
 20
12.0418435525
 30
0.0
  0
SPLINE
  5
2B9
100
AcDbEntity
  8
0
100
AcDbSpline
 62
7
  6
CONTINUOUS
 70
0
 71
3
 72
9
 73
5
 74
0
 42
0.0000001
 43
0.0000001
 44
0.0000000001
 40
0.0
 40
0.0
 40
0.0
 40
0.0
 40
0.4768487235
 40
1.0
 40
1.0
 40
1.0
 40
1.0
 10
14.4383585447
 20
12.0322064465
 30
0.0
 10
14.4387503483
 20
12.0334734511
 30
0.0
 10
14.4401511684
 20
12.0359742943
 30
0.0
 10
14.4423534764
 20
12.0377631282
 30
0.0
 10
14.443592809
 20
12.0385253707
 30
0.0
  0
SPLINE
  5
2BA
100
AcDbEntity
  8
0
100
AcDbSpline
 62
7
  6
CONTINUOUS
 70
0
 71
3
 72
9
 73
5
 74
0
 42
0.0000001
 43
0.0000001
 44
0.0000000001
 40
0.0
 40
0.0
 40
0.0
 40
0.0
 40
0.2215248257
 40
1.0
 40
1.0
 40
1.0
 40
1.0
 10
14.443592809
 20
12.0385253707
 30
0.0
 10
14.4445025104
 20
12.0390848759
 30
0.0
 10
14.4488604434
 20
12.0412029664
 30
0.0
 10
14.4538081925
 20
12.0418435525
 30
0.0
 10
14.4575612878
 20
12.0418435525
 30
0.0
  0
SPLINE
  5
2BB
100
AcDbEntity
  8
0
100
AcDbSpline
 62
7
  6
CONTINUOUS
 70
0
 71
3
 72
9
 73
5
 74
0
 42
0.0000001
 43
0.0000001
 44
0.0000000001
 40
0.0
 40
0.0
 40
0.0
 40
0.0
 40
0.4659361838
 40
1.0
 40
1.0
 40
1.0
 40
1.0
 10
13.7131128564
 20
12.0322066923
 30
0.0
 10
13.7136097265
 20
12.0338153879
 30
0.0
 10
13.7156593817
 20
12.0369961911
 30
0.0
 10
13.7188279331
 20
12.0389212844
 30
0.0
 10
13.7205969495
 20
12.0396926161
 30
0.0
  0
SPLINE
  5
2BC
100
AcDbEntity
  8
0
100
AcDbSpline
 62
7
  6
CONTINUOUS
 70
0
 71
3
 72
9
 73
5
 74
0
 42
0.0000001
 43
0.0000001
 44
0.0000000001
 40
0.0
 40
0.0
 40
0.0
 40
0.0
 40
0.228148904
 40
1.0
 40
1.0
 40
1.0
 40
1.0
 10
13.7205969495
 20
12.0396926161
 30
0.0
 10
13.7214309682
 20
12.0400562674
 30
0.0
 10
13.725195168
 20
12.041400978
 30
0.0
 10
13.7292382905
 20
12.0418435525
 30
0.0
 10
13.7323164106
 20
12.0418435525
 30
0.0
  0
SPLINE
  5
2BD
100
AcDbEntity
  8
0
100
AcDbSpline
 62
7
  6
CONTINUOUS
 70
0
 71
3
 72
9
 73
5
 74
0
 42
0.0000001
 43
0.0000001
 44
0.0000000001
 40
0.0
 40
0.0
 40
0.0
 40
0.0
 40
0.5118922958
 40
1.0
 40
1.0
 40
1.0
 40
1.0
 10
16.9505792643
 20
12.0418435525
 30
0.0
 10
16.9564276608
 20
12.0418435525
 30
0.0
 10
16.9678566003
 20
12.039496809
 30
0.0
 10
16.9780611067
 20
12.0336511011
 30
0.0
 10
16.9820623044
 20
12.029766579
 30
0.0
  0
SPLINE
  5
2BE
100
AcDbEntity
  8
0
100
AcDbSpline
 62
7
  6
CONTINUOUS
 70
0
 71
3
 72
9
 73
5
 74
0
 42
0.0000001
 43
0.0000001
 44
0.0000000001
 40
0.0
 40
0.0
 40
0.0
 40
0.0
 40
0.5118922958
 40
1.0
 40
1.0
 40
1.0
 40
1.0
 10
16.2253343872
 20
12.0418435525
 30
0.0
 10
16.2311827836
 20
12.0418435525
 30
0.0
 10
16.2426117232
 20
12.039496809
 30
0.0
 10
16.2528162295
 20
12.0336511011
 30
0.0
 10
16.2568174272
 20
12.029766579
 30
0.0
  0
SPLINE
  5
2BF
100
AcDbEntity
  8
0
100
AcDbSpline
 62
7
  6
CONTINUOUS
 70
0
 71
3
 72
9
 73
5
 74
0
 42
0.0000001
 43
0.0000001
 44
0.0000000001
 40
0.0
 40
0.0
 40
0.0
 40
0.0
 40
0.5118922958
 40
1.0
 40
1.0
 40
1.0
 40
1.0
 10
15.50008951
 20
12.0418435525
 30
0.0
 10
15.5059379065
 20
12.0418435525
 30
0.0
 10
15.517366846
 20
12.039496809
 30
0.0
 10
15.5275713523
 20
12.0336511011
 30
0.0
 10
15.53157255
 20
12.029766579
 30
0.0
  0
SPLINE
  5
2C0
100
AcDbEntity
  8
0
100
AcDbSpline
 62
7
  6
CONTINUOUS
 70
0
 71
3
 72
9
 73
5
 74
0
 42
0.0000001
 43
0.0000001
 44
0.0000000001
 40
0.0
 40
0.0
 40
0.0
 40
0.0
 40
0.5118922958
 40
1.0
 40
1.0
 40
1.0
 40
1.0
 10
14.7748446328
 20
12.0418435525
 30
0.0
 10
14.7806930293
 20
12.0418435525
 30
0.0
 10
14.7921219688
 20
12.039496809
 30
0.0
 10
14.8023264752
 20
12.0336511011
 30
0.0
 10
14.8063276729
 20
12.029766579
 30
0.0
  0
SPLINE
  5
2C1
100
AcDbEntity
  8
0
100
AcDbSpline
 62
7
  6
CONTINUOUS
 70
0
 71
3
 72
9
 73
5
 74
0
 42
0.0000001
 43
0.0000001
 44
0.0000000001
 40
0.0
 40
0.0
 40
0.0
 40
0.0
 40
0.5118922958
 40
1.0
 40
1.0
 40
1.0
 40
1.0
 10
14.0495997556
 20
12.0418435525
 30
0.0
 10
14.0554481521
 20
12.0418435525
 30
0.0
 10
14.0668770917
 20
12.039496809
 30
0.0
 10
14.077081598
 20
12.0336511011
 30
0.0
 10
14.0810827957
 20
12.029766579
 30
0.0
  0
SPLINE
  5
2C2
100
AcDbEntity
  8
0
100
AcDbSpline
 62
7
  6
CONTINUOUS
 70
0
 71
3
 72
11
 73
7
 74
0
 42
0.0000001
 43
0.0000001
 44
0.0000000001
 40
0.0
 40
0.0
 40
0.0
 40
0.0
 40
0.3037072943
 40
0.5698824994
 40
0.7976269964
 40
1.0
 40
1.0
 40
1.0
 40
1.0
 10
17.3145098763
 20
11.9194793855
 30
0.0
 10
17.3168206572
 20
11.9194793855
 30
0.0
 10
17.3211736819
 20
11.9198460766
 30
0.0
 10
17.3270218278
 20
11.9216843662
 30
0.0
 10
17.3314834417
 20
11.9247367148
 30
0.0
 10
17.3332576929
 20
11.927645457
 30
0.0
 10
17.3337126022
 20
11.9291164948
 30
0.0
  0
SPLINE
  5
2C3
100
AcDbEntity
  8
0
100
AcDbSpline
 62
7
  6
CONTINUOUS
 70
0
 71
3
 72
9
 73
5
 74
0
 42
0.0000001
 43
0.0000001
 44
0.0000000001
 40
0.0
 40
0.0
 40
0.0
 40
0.0
 40
0.4881093198
 40
1.0
 40
1.0
 40
1.0
 40
1.0
 10
17.0832223675
 20
11.9315563591
 30
0.0
 10
17.0872235784
 20
11.9276718241
 30
0.0
 10
17.0974280911
 20
11.9218261222
 30
0.0
 10
17.1088570296
 20
11.9194793855
 30
0.0
 10
17.1147054076
 20
11.9194793855
 30
0.0
  0
SPLINE
  5
2C4
100
AcDbEntity
  8
0
100
AcDbSpline
 62
7
  6
CONTINUOUS
 70
0
 71
3
 72
11
 73
7
 74
0
 42
0.0000001
 43
0.0000001
 44
0.0000000001
 40
0.0
 40
0.0
 40
0.0
 40
0.0
 40
0.3037072943
 40
0.5698824994
 40
0.7976269964
 40
1.0
 40
1.0
 40
1.0
 40
1.0
 10
16.5892649991
 20
11.9194793855
 30
0.0
 10
16.59157578
 20
11.9194793855
 30
0.0
 10
16.5959288048
 20
11.9198460766
 30
0.0
 10
16.6017769506
 20
11.9216843662
 30
0.0
 10
16.6062385645
 20
11.9247367148
 30
0.0
 10
16.6080128157
 20
11.927645457
 30
0.0
 10
16.6084677251
 20
11.9291164948
 30
0.0
  0
SPLINE
  5
2C5
100
AcDbEntity
  8
0
100
AcDbSpline
 62
7
  6
CONTINUOUS
 70
0
 71
3
 72
9
 73
5
 74
0
 42
0.0000001
 43
0.0000001
 44
0.0000000001
 40
0.0
 40
0.0
 40
0.0
 40
0.0
 40
0.4881093198
 40
1.0
 40
1.0
 40
1.0
 40
1.0
 10
16.3579774904
 20
11.9315563591
 30
0.0
 10
16.3619787013
 20
11.9276718241
 30
0.0
 10
16.372183214
 20
11.9218261222
 30
0.0
 10
16.3836121524
 20
11.9194793855
 30
0.0
 10
16.3894605304
 20
11.9194793855
 30
0.0
  0
SPLINE
  5
2C6
100
AcDbEntity
  8
0
100
AcDbSpline
 62
7
  6
CONTINUOUS
 70
0
 71
3
 72
11
 73
7
 74
0
 42
0.0000001
 43
0.0000001
 44
0.0000000001
 40
0.0
 40
0.0
 40
0.0
 40
0.0
 40
0.3037072943
 40
0.5698824994
 40
0.7976269964
 40
1.0
 40
1.0
 40
1.0
 40
1.0
 10
15.8640201219
 20
11.9194793855
 30
0.0
 10
15.8663309028
 20
11.9194793855
 30
0.0
 10
15.8706839276
 20
11.9198460766
 30
0.0
 10
15.8765320734
 20
11.9216843662
 30
0.0
 10
15.8809936873
 20
11.9247367148
 30
0.0
 10
15.8827679386
 20
11.927645457
 30
0.0
 10
15.8832228479
 20
11.9291164948
 30
0.0
  0
SPLINE
  5
2C7
100
AcDbEntity
  8
0
100
AcDbSpline
 62
7
  6
CONTINUOUS
 70
0
 71
3
 72
9
 73
5
 74
0
 42
0.0000001
 43
0.0000001
 44
0.0000000001
 40
0.0
 40
0.0
 40
0.0
 40
0.0
 40
0.4881093198
 40
1.0
 40
1.0
 40
1.0
 40
1.0
 10
15.6327326132
 20
11.9315563591
 30
0.0
 10
15.6367338241
 20
11.9276718241
 30
0.0
 10
15.6469383368
 20
11.9218261222
 30
0.0
 10
15.6583672752
 20
11.9194793855
 30
0.0
 10
15.6642156532
 20
11.9194793855
 30
0.0
  0
SPLINE
  5
2C8
100
AcDbEntity
  8
0
100
AcDbSpline
 62
7
  6
CONTINUOUS
 70
0
 71
3
 72
11
 73
7
 74
0
 42
0.0000001
 43
0.0000001
 44
0.0000000001
 40
0.0
 40
0.0
 40
0.0
 40
0.0
 40
0.3037072943
 40
0.5698824994
 40
0.7976269964
 40
1.0
 40
1.0
 40
1.0
 40
1.0
 10
15.1387752448
 20
11.9194793855
 30
0.0
 10
15.1410860256
 20
11.9194793855
 30
0.0
 10
15.1454390504
 20
11.9198460766
 30
0.0
 10
15.1512871963
 20
11.9216843662
 30
0.0
 10
15.1557488102
 20
11.9247367148
 30
0.0
 10
15.1575230614
 20
11.927645457
 30
0.0
 10
15.1579779707
 20
11.9291164948
 30
0.0
  0
SPLINE
  5
2C9
100
AcDbEntity
  8
0
100
AcDbSpline
 62
7
  6
CONTINUOUS
 70
0
 71
3
 72
9
 73
5
 74
0
 42
0.0000001
 43
0.0000001
 44
0.0000000001
 40
0.0
 40
0.0
 40
0.0
 40
0.0
 40
0.4881093198
 40
1.0
 40
1.0
 40
1.0
 40
1.0
 10
14.907487736
 20
11.9315563591
 30
0.0
 10
14.9114889469
 20
11.9276718241
 30
0.0
 10
14.9216934596
 20
11.9218261222
 30
0.0
 10
14.9331223981
 20
11.9194793855
 30
0.0
 10
14.9389707761
 20
11.9194793855
 30
0.0
  0
SPLINE
  5
2CA
100
AcDbEntity
  8
0
100
AcDbSpline
 62
7
  6
CONTINUOUS
 70
0
 71
3
 72
11
 73
7
 74
0
 42
0.0000001
 43
0.0000001
 44
0.0000000001
 40
0.0
 40
0.0
 40
0.0
 40
0.0
 40
0.3037072943
 40
0.5698824994
 40
0.7976269964
 40
1.0
 40
1.0
 40
1.0
 40
1.0
 10
14.4135303676
 20
11.9194793855
 30
0.0
 10
14.4158411485
 20
11.9194793855
 30
0.0
 10
14.4201941733
 20
11.9198460766
 30
0.0
 10
14.4260423191
 20
11.9216843662
 30
0.0
 10
14.430503933
 20
11.9247367148
 30
0.0
 10
14.4322781842
 20
11.927645457
 30
0.0
 10
14.4327330936
 20
11.9291164948
 30
0.0
  0
SPLINE
  5
2CB
100
AcDbEntity
  8
0
100
AcDbSpline
 62
7
  6
CONTINUOUS
 70
0
 71
3
 72
9
 73
5
 74
0
 42
0.0000001
 43
0.0000001
 44
0.0000000001
 40
0.0
 40
0.0
 40
0.0
 40
0.0
 40
0.4881093198
 40
1.0
 40
1.0
 40
1.0
 40
1.0
 10
14.1822428589
 20
11.9315563591
 30
0.0
 10
14.1862440698
 20
11.9276718241
 30
0.0
 10
14.1964485825
 20
11.9218261222
 30
0.0
 10
14.2078775209
 20
11.9194793855
 30
0.0
 10
14.2137258989
 20
11.9194793855
 30
0.0
  0
SPLINE
  5
2CC
100
AcDbEntity
  8
0
100
AcDbSpline
 62
7
  6
CONTINUOUS
 70
0
 71
3
 72
11
 73
7
 74
0
 42
0.0000001
 43
0.0000001
 44
0.0000000001
 40
0.0
 40
0.0
 40
0.0
 40
0.0
 40
0.3037909792
 40
0.569893227
 40
0.7977138066
 40
1.0
 40
1.0
 40
1.0
 40
1.0
 10
13.6882854904
 20
11.9194793855
 30
0.0
 10
13.6905969436
 20
11.9194793855
 30
0.0
 10
13.694950183
 20
11.91984561
 30
0.0
 10
13.7007989195
 20
11.9216850661
 30
0.0
 10
13.7052593502
 20
11.9247375418
 30
0.0
 10
13.7070348325
 20
11.9276456591
 30
0.0
 10
13.7074890451
 20
11.9291162457
 30
0.0
  0
SPLINE
  5
2CD
100
AcDbEntity
  8
0
100
AcDbSpline
 62
7
  6
CONTINUOUS
 70
0
 71
3
 72
9
 73
5
 74
0
 42
0.0000001
 43
0.0000001
 44
0.0000000001
 40
0.0
 40
0.0
 40
0.0
 40
0.0
 40
0.4881101785
 40
1.0
 40
1.0
 40
1.0
 40
1.0
 10
13.4569979817
 20
11.9315563591
 30
0.0
 10
13.4609991887
 20
11.927671828
 30
0.0
 10
13.4712039061
 20
11.9218266016
 30
0.0
 10
13.4826326696
 20
11.9194793855
 30
0.0
 10
13.4884810217
 20
11.9194793855
 30
0.0
  0
SPLINE
  5
2CE
100
AcDbEntity
  8
0
100
AcDbSpline
 62
7
  6
CONTINUOUS
 70
0
 71
3
 72
9
 73
5
 74
0
 42
0.0000001
 43
0.0000001
 44
0.0000000001
 40
0.0
 40
0.0
 40
0.0
 40
0.0
 40
0.5118912531
 40
1.0
 40
1.0
 40
1.0
 40
1.0
 10
13.3243548785
 20
12.0418435525
 30
0.0
 10
13.330203247
 20
12.0418435525
 30
0.0
 10
13.3416320115
 20
12.0394963304
 30
0.0
 10
13.3518367233
 20
12.0336510987
 30
0.0
 10
13.3558379185
 20
12.029766579
 30
0.0
  0
ENDSEC
  0
SECTION
  2
OBJECTS
  0
DICTIONARY
  5
C
100
AcDbDictionary
280
0
281
1
  3
ACAD_GROUP
350
D
  3
ACAD_MLINESTYLE
350
17
  3
ACAD_LAYOUT
350
1A
  3
ACAD_PLOTSETTINGS
350
19
  3
ACAD_PLOTSTYLENAME
350
E
  0
DICTIONARY
  5
D
102
{ACAD_REACTORS
330
C
102
}
100
AcDbDictionary
280
0
281
1
  0
ACDBDICTIONARYWDFLT
  5
E
102
{ACAD_REACTORS
330
C
102
}
100
AcDbDictionary
281
1
  3
Normal
350
F
100
AcDbDictionaryWithDefault
340
F
  0
DICTIONARY
  5
17
102
{ACAD_REACTORS
330
C
102
}
100
AcDbDictionary
280
0
281
1
  3
Standard
350
18
  0
DICTIONARY
  5
19
102
{ACAD_REACTORS
330
C
102
}
100
AcDbDictionary
281
1
  0
DICTIONARY
  5
1A
102
{ACAD_REACTORS
330
C
102
}
100
AcDbDictionary
281
1
  3
Model
350
2CF
  3
Layout1
350
2D0
  0
ACDBPLACEHOLDER
  5
F
102
{ACAD_REACTORS
330
E
102
}
  0
MLINESTYLE
  5
18
102
{ACAD_REACTORS
330
17
102
}
100
AcDbMlineStyle
  2
STANDARD
 70
0
  3

 62
256
 51
90.0
 52
90.0
 71
2
 49
0.5
 62
256
  6
BYLAYER
 49
-0.5
 62
256
  6
BYLAYER
  0
LAYOUT
  5
2CF
102
{ACAD_REACTORS
330
1A
102
}
100
AcDbPlotSettings
  1

  2
none_device
  4
ANSI_C_(22.00_x_17.00_Inches)
  6

 40
0.0
 41
0.0
 42
0.0
 43
0.0
 44
558.8
 45
431.8
 46
0.0
 47
0.0
 48
0.0
 49
0.0
140
0.0
141
0.0
142
1.0
143
1.0
 70
1024
 72
0
 73
0
 74
0
  7

 75
0
147
1.0
148
0.0
149
0.0
100
AcDbLayout
  1
Model
 70
0
 71
0
 10
0.0
 20
0.0
 11
22.0
 21
17.0
 12
0.0
 22
0.0
 32
0.0
 14
0.0
 24
0.0
 34
0.0
 15
0.0
 25
0.0
 35
0.0
146
0.0
 13
0.0
 23
0.0
 33
0.0
 16
1.0
 26
0.0
 36
0.0
 17
0.0
 27
1.0
 37
0.0
 76
0
330
216
345
0
346
0
  0
LAYOUT
  5
2D0
102
{ACAD_REACTORS
330
1A
102
}
100
AcDbPlotSettings
  1

  2
none_device
  4
ANSI_C_(22.00_x_17.00_Inches)
  6

 40
0.0
 41
0.0
 42
0.0
 43
0.0
 44
558.8
 45
431.8
 46
0.0
 47
0.0
 48
0.0
 49
0.0
140
0.0
141
0.0
142
1.0
143
1.0
 70
0
 72
0
 73
0
 74
0
  7

 75
0
147
1.0
148
0.0
149
0.0
100
AcDbLayout
  1
Layout1
 70
0
 71
1
 10
0.0
 20
0.0
 11
22.0
 21
17.0
 12
0.0
 22
0.0
 32
0.0
 14
0.0
 24
0.0
 34
0.0
 15
0.0
 25
0.0
 35
0.0
146
0.0
 13
0.0
 23
0.0
 33
0.0
 16
1.0
 26
0.0
 36
0.0
 17
0.0
 27
1.0
 37
0.0
 76
0
330
217
345
0
346
0
  0
ENDSEC
  0
EOF