999
DXF file: _cgs_temp_output.dxf
999
Pro/ENGINEER 2015110 by Parametric Technology Corporation
  0
SECTION
  2
HEADER
  9
$ACADVER
  1
AC1021
  9
$DWGCODEPAGE
  3
ANSI_1252
  9
$EXTMAX
 10
22.0
 20
17.0
 30
0.0
  9
$EXTMIN
 10
0.0
 20
0.0
 30
0.0
  9
$LIMMIN
 10
0.0
 20
0.0
  9
$LIMMAX
 10
22.0
 20
17.0
  9
$VIEWCTR
 10
11.0
 20
8.5
  9
$VIEWSIZE
 40
17.0
  9
$CLAYER
  8
0
  9
$LTSCALE
 40
1.21
  9
$CELTYPE
  6
BYLAYER
  9
$DIMSCALE
 40
1.0
  9
$DIMASZ
 40
0.1875
  9
$DIMEXO
 40
0.0625
  9
$DIMDLI
 40
0.836
  9
$DIMEXE
 40
0.125
  9
$DIMCEN
 40
0.198
  9
$DIMLFAC
 40
1.0
  9
$DIMBLK
  1
_CLOSED
  9
$DIMALT
 70
0
  9
$DIMALTF
 40
25.4
  9
$DIMTXT
 40
0.15625
  9
$DIMTOL
 70
0
  9
$DIMLIM
 70
0
  9
$DIMTFAC
 40
1.0
  9
$DIMGAP
 40
0.09
  9
$DIMDSEP
 70
46
  9
$AUNITS
 70
0
  9
$PDMODE
 70
3
  9
$PDSIZE
 40
0.3125
  9
$HANDSEED
  5
2D1
  9
$TILEMODE
 70
1
  9
$MEASUREMENT
 70
0
  9
$INSUNITS
 70
1
  0
ENDSEC
  0
SECTION
  2
CLASSES
  0
CLASS
  1
ACDBDICTIONARYWDFLT
  2
AcDbDictionaryWithDefault
  3
AutoCAD 2000
 90
0
 91
1
280
0
281
0
  0
CLASS
  1
ACDBPLACEHOLDER
  2
AcDbPlaceHolder
  3
AutoCAD 2000
 90
0
 91
1
280
0
281
0
  0
CLASS
  1
LAYOUT
  2
AcDbLayout
  3
AutoCAD 2000
 90
0
 91
0
280
0
281
0
  0
ENDSEC
  0
SECTION
  2
TABLES
  0
TABLE
  2
VPORT
  5
8
100
AcDbSymbolTable
 70
2
  0
VPORT
  5
1F4
100
AcDbSymbolTableRecord
100
AcDbViewportTableRecord
  2
*ACTIVE
 70
0
 10
0.0
 20
0.0
 11
1.0
 21
1.0
 12
11.0
 22
8.5
 13
0.0
 23
0.0
 14
1.0
 24
1.0
 15
0.0
 25
0.0
 16
0.0
 26
0.0
 36
1.0
 17
0.0
 27
0.0
 37
0.0
 40
17.0
 41
1.2941176471
 42
50.0
 43
0.0
 44
0.0
 50
0.0
 51
0.0
 71
0
 72
100
 73
1
 74
1
 75
0
 76
0
 77
0
 78
0
  0
ENDTAB
  0
TABLE
  2
LTYPE
  5
5
100
AcDbSymbolTable
 70
6
  0
LTYPE
  5
14
100
AcDbSymbolTableRecord
100
AcDbLinetypeTableRecord
  2
BYBLOCK
 70
0
  3

 72
65
 73
0
 40
0.0
  0
LTYPE
  5
15
100
AcDbSymbolTableRecord
100
AcDbLinetypeTableRecord
  2
BYLAYER
 70
0
  3

 72
65
 73
0
 40
0.0
  0
LTYPE
  5
16
100
AcDbSymbolTableRecord
100
AcDbLinetypeTableRecord
  2
CONTINUOUS
 70
64
  3
Solid line
 72
65
 73
0
 40
0.0
  0
LTYPE
  5
1F5
100
AcDbSymbolTableRecord
100
AcDbLinetypeTableRecord
  2
CENTER
 70
64
  3
____ _ ____ _ ____ _ ____ _ ____ _ ____ _ ____
 72
65
 73
4
 40
0.6
 49
0.375
 74
0
 49
-0.075
 74
0
 49
0.075
 74
0
 49
-0.075
 74
0
  0
LTYPE
  5
1F6
100
AcDbSymbolTableRecord
100
AcDbLinetypeTableRecord
  2
HIDDEN
 70
64
  3
- - - - - - - - - - - - - - - - - - - -
 72
65
 73
2
 40
0.2
 49
0.1
 74
0
 49
-0.1
 74
0
  0
LTYPE
  5
1F7
100
AcDbSymbolTableRecord
100
AcDbLinetypeTableRecord
  2
PHANTOM
 70
64
  3
_____ _ _ _____ _ _ _____ _ _ _____
 72
65
 73
6
 40
0.8
 49
0.45
 74
0
 49
-0.05
 74
0
 49
0.1
 74
0
 49
-0.05
 74
0
 49
0.1
 74
0
 49
-0.05
 74
0
  0
LTYPE
  5
1F8
100
AcDbSymbolTableRecord
100
AcDbLinetypeTableRecord
  2
DOT
 70
64
  3
. . . . . . . . . . . . . . . . . . . .
 72
65
 73
2
 40
0.2
 49
0.1
 74
0
 49
-0.1
 74
0
  0
LTYPE
  5
1F9
100
AcDbSymbolTableRecord
100
AcDbLinetypeTableRecord
  2
DASHED
 70
64
  3
- - - - - - - - - - - - - - - - - - - -
 72
65
 73
2
 40
0.2
 49
0.1
 74
0
 49
-0.1
 74
0
  0
ENDTAB
  0
TABLE
  2
LAYER
  5
2
100
AcDbSymbolTable
 70
36
  0
LAYER
  5
10
100
AcDbSymbolTableRecord
100
AcDbLayerTableRecord
  2
0
 70
0
 62
7
  6
CONTINUOUS
370
-3
390
F
  0
LAYER
  5
1FA
100
AcDbSymbolTableRecord
100
AcDbLayerTableRecord
  2
DEFAULT_1
 70
0
 62
7
  6
CENTER
370
-3
390
F
  0
LAYER
  5
1FB
100
AcDbSymbolTableRecord
100
AcDbLayerTableRecord
  2
DEFAULT_2
 70
0
 62
8
  6
HIDDEN
370
-3
390
F
  0
LAYER
  5
1FC
100
AcDbSymbolTableRecord
100
AcDbLayerTableRecord
  2
DEFAULT_3
 70
0
 62
7
  6
PHANTOM
370
-3
390
F
  0
LAYER
  5
1FD
100
AcDbSymbolTableRecord
100
AcDbLayerTableRecord
  2
01_ALL_DTM_PLN
 70
0
 62
7
  6
CONTINUOUS
370
-3
390
F
  0
LAYER
  5
1FE
100
AcDbSymbolTableRecord
100
AcDbLayerTableRecord
  2
01__ASM_ALL_DTM_PLN
 70
0
 62
7
  6
CONTINUOUS
370
-3
390
F
  0
LAYER
  5
1FF
100
AcDbSymbolTableRecord
100
AcDbLayerTableRecord
  2
01__ASM_DEF_DTM_PLN
 70
0
 62
7
  6
CONTINUOUS
370
-3
390
F
  0
LAYER
  5
200
100
AcDbSymbolTableRecord
100
AcDbLayerTableRecord
  2
01___PRT_ALL_DTM_PLN
 70
0
 62
7
  6
CONTINUOUS
370
-3
390
F
  0
LAYER
  5
201
100
AcDbSymbolTableRecord
100
AcDbLayerTableRecord
  2
01___PRT_DEF_DTM_PLN
 70
0
 62
7
  6
CONTINUOUS
370
-3
390
F
  0
LAYER
  5
202
100
AcDbSymbolTableRecord
100
AcDbLayerTableRecord
  2
02_ALL_AXES
 70
0
 62
7
  6
CONTINUOUS
370
-3
390
F
  0
LAYER
  5
203
100
AcDbSymbolTableRecord
100
AcDbLayerTableRecord
  2
02__ASM_ALL_AXES
 70
0
 62
7
  6
CONTINUOUS
370
-3
390
F
  0
LAYER
  5
204
100
AcDbSymbolTableRecord
100
AcDbLayerTableRecord
  2
02___PRT_ALL_AXES
 70
0
 62
7
  6
CONTINUOUS
370
-3
390
F
  0
LAYER
  5
205
100
AcDbSymbolTableRecord
100
AcDbLayerTableRecord
  2
03_ALL_CURVES
 70
0
 62
7
  6
CONTINUOUS
370
-3
390
F
  0
LAYER
  5
206
100
AcDbSymbolTableRecord
100
AcDbLayerTableRecord
  2
03__ASM_ALL_CURVES
 70
0
 62
7
  6
CONTINUOUS
370
-3
390
F
  0
LAYER
  5
207
100
AcDbSymbolTableRecord
100
AcDbLayerTableRecord
  2
03___PRT_ALL_CURVES
 70
0
 62
7
  6
CONTINUOUS
370
-3
390
F
  0
LAYER
  5
208
100
AcDbSymbolTableRecord
100
AcDbLayerTableRecord
  2
04_ALL_DTM_PNT
 70
0
 62
7
  6
CONTINUOUS
370
-3
390
F
  0
LAYER
  5
209
100
AcDbSymbolTableRecord
100
AcDbLayerTableRecord
  2
04__ASM_ALL_DTM_PNT
 70
0
 62
7
  6
CONTINUOUS
370
-3
390
F
  0
LAYER
  5
20A
100
AcDbSymbolTableRecord
100
AcDbLayerTableRecord
  2
04___PRT_ALL_DTM_PNT
 70
0
 62
7
  6
CONTINUOUS
370
-3
390
F
  0
LAYER
  5
20B
100
AcDbSymbolTableRecord
100
AcDbLayerTableRecord
  2
05_ALL_DTM_CSYS
 70
0
 62
7
  6
CONTINUOUS
370
-3
390
F
  0
LAYER
  5
20C
100
AcDbSymbolTableRecord
100
AcDbLayerTableRecord
  2
05__ASM_ALL_DTM_CSYS
 70
0
 62
7
  6
CONTINUOUS
370
-3
390
F
  0
LAYER
  5
20D
100
AcDbSymbolTableRecord
100
AcDbLayerTableRecord
  2
05__ASM_DEF_DTM_CSYS
 70
0
 62
7
  6
CONTINUOUS
370
-3
390
F
  0
LAYER
  5
20E
100
AcDbSymbolTableRecord
100
AcDbLayerTableRecord
  2
05___PRT_ALL_DTM_CSYS
 70
0
 62
7
  6
CONTINUOUS
370
-3
390
F
  0
LAYER
  5
20F
100
AcDbSymbolTableRecord
100
AcDbLayerTableRecord
  2
05___PRT_DEF_DTM_CSYS
 70
0
 62
7
  6
CONTINUOUS
370
-3
390
F
  0
LAYER
  5
210
100
AcDbSymbolTableRecord
100
AcDbLayerTableRecord
  2
06_ALL_SURFS
 70
0
 62
7
  6
CONTINUOUS
370
-3
390
F
  0
LAYER
  5
211
100
AcDbSymbolTableRecord
100
AcDbLayerTableRecord
  2
06__ASM_ALL_SURFS
 70
0
 62
7
  6
CONTINUOUS
370
-3
390
F
  0
LAYER
  5
212
100
AcDbSymbolTableRecord
100
AcDbLayerTableRecord
  2
06___PRT_ALL_SURFS
 70
0
 62
7
  6
CONTINUOUS
370
-3
390
F
  0
LAYER
  5
213
100
AcDbSymbolTableRecord
100
AcDbLayerTableRecord
  2
07__ASM_ALL_SKELETONS
 70
0
 62
7
  6
CONTINUOUS
370
-3
390
F
  0
ENDTAB
  0
TABLE
  2
STYLE
  5
3
100
AcDbSymbolTable
 70
1
  0
STYLE
  5
11
100
AcDbSymbolTableRecord
100
AcDbTextStyleTableRecord
  2
STANDARD
 70
0
 40
0.0
 41
0.8
 50
0.0
 71
0
 42
0.2
  3
txt
  4

  0
STYLE
  5
214
100
AcDbSymbolTableRecord
100
AcDbTextStyleTableRecord
  2
TEXTSTYLE_1
 70
0
 40
0.0
 41
0.8
 50
0.0
 71
0
 42
0.2
  3
gdt
  4

  0
ENDTAB
  0
TABLE
  2
VIEW
  5
6
100
AcDbSymbolTable
 70
0
  0
ENDTAB
  0
TABLE
  2
UCS
  5
7
100
AcDbSymbolTable
 70
0
  0
ENDTAB
  0
TABLE
  2
APPID
  5
9
100
AcDbSymbolTable
 70
1
  0
APPID
  5
215
100
AcDbSymbolTableRecord
100
AcDbRegAppTableRecord
  2
ACAD
 70
0
  0
ENDTAB
  0
TABLE
  2
BLOCK_RECORD
  5
1
100
AcDbSymbolTable
 70
0
  0
BLOCK_RECORD
  5
216
100
AcDbSymbolTableRecord
100
AcDbBlockTableRecord
  2
*Model_Space
  0
BLOCK_RECORD
  5
217
100
AcDbSymbolTableRecord
100
AcDbBlockTableRecord
  2
*Paper_Space
  0
ENDTAB
  0
TABLE
  2
DIMSTYLE
  5
A
100
AcDbSymbolTable
 70
1
100
AcDbDimStyleTable
 71
0
  0
DIMSTYLE
105
218
100
AcDbSymbolTableRecord
100
AcDbDimStyleTableRecord
  2
STANDARD
 70
0
  3

  4

 40
1.0
 41
0.1875
 42
0.0625
 43
0.38
 44
0.125
 45
0.0
 46
0.0
 47
0.0001
 48
0.0001
140
0.15625
141
0.09
142
0.0
143
25.4
144
1.0
145
0.0
146
1.0
147
0.09
 71
0.0
 72
0.0
 73
1
 74
1
 75
0
 76
0
 77
0
 78
4
170
0
171
2
172
0
173
0
174
0
175
0
176
0
177
0
178
0
270
2
271
4
272
4
273
2
274
2
275
0
280
0
281
0
282
0
283
1
284
4
285
0
286
0
287
3
288
0
340
11
278
46
  0
ENDTAB
  0
ENDSEC
  0
SECTION
  2
BLOCKS
  0
BLOCK
  5
20
100
AcDbEntity
  8
0
100
AcDbBlockBegin
  2
*Model_Space
 70
0
 10
0.0
 20
0.0
 30
0.0
  3
*Model_Space
  1

  0
ENDBLK
  5
21
100
AcDbEntity
  8
0
100
AcDbBlockEnd
  0
BLOCK
  5
1C
100
AcDbEntity
  8
0
100
AcDbBlockBegin
  2
*Paper_Space
 70
0
 10
0.0
 20
0.0
 30
0.0
  3
*Paper_Space
  1

  0
ENDBLK
  5
1D
100
AcDbEntity
  8
0
100
AcDbBlockEnd
  0
ENDSEC
  0
SECTION
  2
ENTITIES
  0
MTEXT
  5
219
100
AcDbEntity
  8
0
100
AcDbMText
 62
7
  6
CONTINUOUS
  7
STANDARD
 71
1
 72
1
 10
15.9560215477
 20
0.9479130325
 30
0.0
 11
1.0
 21
0.0
 31
0.0
 44
0.9
  1
SCALE: 1:3.000
 40
0.3
 41
3.36
  0
LINE
  5
21A
100
AcDbEntity
  8
0
100
AcDbLine
 62
7
  6
CONTINUOUS
 10
0.0
 20
0.0
 11
0.0
 21
17.0
  0
LINE
  5
21B
100
AcDbEntity
  8
0
100
AcDbLine
 62
7
  6
CONTINUOUS
 10
0.0
 20
0.0
 11
22.0
 21
0.0
  0
LINE
  5
21C
100
AcDbEntity
  8
0
100
AcDbLine
 62
7
  6
CONTINUOUS
 10
0.0
 20
17.0
 11
22.0
 21
17.0
  0
LINE
  5
21D
100
AcDbEntity
  8
0
100
AcDbLine
 62
7
  6
CONTINUOUS
 10
22.0
 20
0.0
 11
22.0
 21
17.0
  0
LINE
  5
21E
100
AcDbEntity
  8
0
100
AcDbLine
 62
7
  6
CONTINUOUS
 10
4.3587137329
 20
5.6500411566
 11
4.3587137329
 21
5.5555529676
  0
LINE
  5
21F
100
AcDbEntity
  8
0
100
AcDbLine
 62
7
  6
CONTINUOUS
 10
4.5016119144
 20
5.5125023813
 11
4.539055427
 21
5.409627176
  0
LINE
  5
220
100
AcDbEntity
  8
0
100
AcDbLine
 62
7
  6
CONTINUOUS
 10
4.7689232198
 20
5.409627176
 11
4.8063667324
 21
5.5125023813
  0
LINE
  5
221
100
AcDbEntity
  8
0
100
AcDbLine
 62
7
  6
CONTINUOUS
 10
4.3587137329
 20
5.5555529676
 11
4.3823357801
 21
5.5319309204
  0
LINE
  5
222
100
AcDbEntity
  8
0
100
AcDbLine
 62
7
  6
CONTINUOUS
 10
5.0921630955
 20
5.5125023813
 11
5.1296066081
 21
5.409627176
  0
LINE
  5
223
100
AcDbEntity
  8
0
100
AcDbLine
 62
7
  6
CONTINUOUS
 10
4.9256428667
 20
5.5319309204
 11
4.949264914
 21
5.5555529676
  0
LINE
  5
224
100
AcDbEntity
  8
0
100
AcDbLine
 62
7
  6
CONTINUOUS
 10
4.949264914
 20
5.5555529676
 11
4.9728869612
 21
5.5319309204
  0
LINE
  5
225
100
AcDbEntity
  8
0
100
AcDbLine
 62
7
  6
CONTINUOUS
 10
5.3594744009
 20
5.409627176
 11
5.3969179135
 21
5.5125023813
  0
LINE
  5
226
100
AcDbEntity
  8
0
100
AcDbLine
 62
7
  6
CONTINUOUS
 10
5.5161940478
 20
5.5319309204
 11
5.5398160951
 21
5.5555529676
  0
LINE
  5
227
100
AcDbEntity
  8
0
100
AcDbLine
 62
7
  6
CONTINUOUS
 10
5.5398160951
 20
5.5555529676
 11
5.5634381423
 21
5.5319309204
  0
LINE
  5
228
100
AcDbEntity
  8
0
100
AcDbLine
 62
7
  6
CONTINUOUS
 10
5.6827142766
 20
5.5125023813
 11
5.7201577892
 21
5.409627176
  0
LINE
  5
229
100
AcDbEntity
  8
0
100
AcDbLine
 62
7
  6
CONTINUOUS
 10
5.950025582
 20
5.409627176
 11
5.9874690946
 21
5.5125023813
  0
LINE
  5
22A
100
AcDbEntity
  8
0
100
AcDbLine
 62
7
  6
CONTINUOUS
 10
4.5668022564
 20
5.3901986369
 11
4.7411763905
 21
5.3901986369
  0
LINE
  5
22B
100
AcDbEntity
  8
0
100
AcDbLine
 62
7
  6
CONTINUOUS
 10
5.1573534375
 20
5.3901986369
 11
5.3317275716
 21
5.3901986369
  0
LINE
  5
22C
100
AcDbEntity
  8
0
100
AcDbLine
 62
7
  6
CONTINUOUS
 10
5.7479046186
 20
5.3901986369
 11
5.9222787527
 21
5.3901986369
  0
LINE
  5
22D
100
AcDbEntity
  8
0
100
AcDbLine
 62
7
  6
CONTINUOUS
 10
6.3384557997
 20
5.3901986369
 11
6.5128299338
 21
5.3901986369
  0
LINE
  5
22E
100
AcDbEntity
  8
0
100
AcDbLine
 62
7
  6
CONTINUOUS
 10
6.9290069808
 20
5.3901986369
 11
7.1033811149
 21
5.3901986369
  0
LINE
  5
22F
100
AcDbEntity
  8
0
100
AcDbLine
 62
7
  6
CONTINUOUS
 10
7.5195581619
 20
5.3901986369
 11
7.693932296
 21
5.3901986369
  0
LINE
  5
230
100
AcDbEntity
  8
0
100
AcDbLine
 62
7
  6
CONTINUOUS
 10
6.1067452289
 20
5.5319309204
 11
6.1303672762
 21
5.5555529676
  0
LINE
  5
231
100
AcDbEntity
  8
0
100
AcDbLine
 62
7
  6
CONTINUOUS
 10
4.3823357801
 20
5.5319309204
 11
4.4738650851
 21
5.5319309204
  0
LINE
  5
232
100
AcDbEntity
  8
0
100
AcDbLine
 62
7
  6
CONTINUOUS
 10
4.8341135617
 20
5.5319309204
 11
4.9256428667
 21
5.5319309204
  0
LINE
  5
233
100
AcDbEntity
  8
0
100
AcDbLine
 62
7
  6
CONTINUOUS
 10
4.9728869612
 20
5.5319309204
 11
5.0644162662
 21
5.5319309204
  0
LINE
  5
234
100
AcDbEntity
  8
0
100
AcDbLine
 62
7
  6
CONTINUOUS
 10
5.4246647428
 20
5.5319309204
 11
5.5161940478
 21
5.5319309204
  0
LINE
  5
235
100
AcDbEntity
  8
0
100
AcDbLine
 62
7
  6
CONTINUOUS
 10
5.5634381423
 20
5.5319309204
 11
5.6549674473
 21
5.5319309204
  0
LINE
  5
236
100
AcDbEntity
  8
0
100
AcDbLine
 62
7
  6
CONTINUOUS
 10
6.0152159239
 20
5.5319309204
 11
6.1067452289
 21
5.5319309204
  0
LINE
  5
237
100
AcDbEntity
  8
0
100
AcDbLine
 62
7
  6
CONTINUOUS
 10
6.1539893234
 20
5.5319309204
 11
6.2455186284
 21
5.5319309204
  0
LINE
  5
238
100
AcDbEntity
  8
0
100
AcDbLine
 62
7
  6
CONTINUOUS
 10
6.6057671051
 20
5.5319309204
 11
6.69729641
 21
5.5319309204
  0
LINE
  5
239
100
AcDbEntity
  8
0
100
AcDbLine
 62
7
  6
CONTINUOUS
 10
6.7445405045
 20
5.5319309204
 11
6.8360698095
 21
5.5319309204
  0
LINE
  5
23A
100
AcDbEntity
  8
0
100
AcDbLine
 62
7
  6
CONTINUOUS
 10
7.1963182862
 20
5.5319309204
 11
7.2878475911
 21
5.5319309204
  0
LINE
  5
23B
100
AcDbEntity
  8
0
100
AcDbLine
 62
7
  6
CONTINUOUS
 10
7.3350916856
 20
5.5319309204
 11
7.4266209906
 21
5.5319309204
  0
LINE
  5
23C
100
AcDbEntity
  8
0
100
AcDbLine
 62
7
  6
CONTINUOUS
 10
7.7868694673
 20
5.5319309204
 11
7.8783987722
 21
5.5319309204
  0
LINE
  5
23D
100
AcDbEntity
  8
0
100
AcDbLine
 62
7
  6
CONTINUOUS
 10
7.9020208195
 20
5.6500411566
 11
4.3587137329
 21
5.6500411566
  0
LINE
  5
23E
100
AcDbEntity
  8
0
100
AcDbLine
 62
7
  6
CONTINUOUS
 10
6.1303672762
 20
5.5555529676
 11
6.1539893234
 21
5.5319309204
  0
LINE
  5
23F
100
AcDbEntity
  8
0
100
AcDbLine
 62
7
  6
CONTINUOUS
 10
6.2732654577
 20
5.5125023813
 11
6.3107089703
 21
5.409627176
  0
LINE
  5
240
100
AcDbEntity
  8
0
100
AcDbLine
 62
7
  6
CONTINUOUS
 10
6.5405767631
 20
5.409627176
 11
6.5780202757
 21
5.5125023813
  0
LINE
  5
241
100
AcDbEntity
  8
0
100
AcDbLine
 62
7
  6
CONTINUOUS
 10
6.69729641
 20
5.5319309204
 11
6.7209184573
 21
5.5555529676
  0
LINE
  5
242
100
AcDbEntity
  8
0
100
AcDbLine
 62
7
  6
CONTINUOUS
 10
6.7209184573
 20
5.5555529676
 11
6.7445405045
 21
5.5319309204
  0
LINE
  5
243
100
AcDbEntity
  8
0
100
AcDbLine
 62
7
  6
CONTINUOUS
 10
6.8638166388
 20
5.5125023813
 11
6.9012601514
 21
5.409627176
  0
LINE
  5
244
100
AcDbEntity
  8
0
100
AcDbLine
 62
7
  6
CONTINUOUS
 10
7.2878475911
 20
5.5319309204
 11
7.3114696384
 21
5.5555529676
  0
LINE
  5
245
100
AcDbEntity
  8
0
100
AcDbLine
 62
7
  6
CONTINUOUS
 10
7.3114696384
 20
5.5555529676
 11
7.3350916856
 21
5.5319309204
  0
LINE
  5
246
100
AcDbEntity
  8
0
100
AcDbLine
 62
7
  6
CONTINUOUS
 10
7.1311279442
 20
5.409627176
 11
7.1685714568
 21
5.5125023813
  0
LINE
  5
247
100
AcDbEntity
  8
0
100
AcDbLine
 62
7
  6
CONTINUOUS
 10
7.8783987722
 20
5.5319309204
 11
7.9020208195
 21
5.5555529676
  0
LINE
  5
248
100
AcDbEntity
  8
0
100
AcDbLine
 62
7
  6
CONTINUOUS
 10
7.4543678199
 20
5.5125023813
 11
7.4918113325
 21
5.409627176
  0
LINE
  5
249
100
AcDbEntity
  8
0
100
AcDbLine
 62
7
  6
CONTINUOUS
 10
7.7216791253
 20
5.409627176
 11
7.7591226379
 21
5.5125023813
  0
LINE
  5
24A
100
AcDbEntity
  8
0
100
AcDbLine
 62
7
  6
CONTINUOUS
 10
7.9020208195
 20
5.5555529676
 11
7.9020208195
 21
5.6500411566
  0
LINE
  5
24B
100
AcDbEntity
  8
0
100
AcDbLine
 62
7
  6
CONTINUOUS
 10
4.2992185406
 20
13.7811501436
 11
4.2992185406
 21
11.4189454192
  0
LINE
  5
24C
100
AcDbEntity
  8
0
100
AcDbLine
 62
7
  6
CONTINUOUS
 10
7.8425256272
 20
11.4189454192
 11
4.2992185406
 21
11.4189454192
  0
LINE
  5
24D
100
AcDbEntity
  8
0
100
AcDbLine
 62
7
  6
CONTINUOUS
 10
4.2992185406
 20
13.7811501436
 11
7.8425256272
 21
13.7811501436
  0
LINE
  5
24E
100
AcDbEntity
  8
0
100
AcDbLine
 62
7
  6
CONTINUOUS
 10
7.8425256272
 20
13.7811501436
 11
7.8425256272
 21
11.4189454192
  0
LINE
  5
24F
100
AcDbEntity
  8
0
100
AcDbLine
 62
7
  6
CONTINUOUS
 10
14.3792528947
 20
5.3307034446
 11
14.3792528947
 21
5.5905459643
  0
LINE
  5
250
100
AcDbEntity
  8
0
100
AcDbLine
 62
7
  6
CONTINUOUS
 10
14.3792528947
 20
5.3307034446
 11
16.7414576191
 21
5.3307034446
  0
LINE
  5
251
100
AcDbEntity
  8
0
100
AcDbLine
 62
7
  6
CONTINUOUS
 10
16.7414576191
 20
5.4724357281
 11
14.3792528947
 21
5.4724357281
  0
LINE
  5
252
100
AcDbEntity
  8
0
100
AcDbLine
 62
7
  6
CONTINUOUS
 10
16.7414576191
 20
5.4960577753
 11
14.3792528947
 21
5.4960577753
  0
LINE
  5
253
100
AcDbEntity
  8
0
100
AcDbLine
 62
7
  6
CONTINUOUS
 10
16.7414576191
 20
5.5905459643
 11
14.3792528947
 21
5.5905459643
  0
LINE
  5
254
100
AcDbEntity
  8
0
100
AcDbLine
 62
7
  6
CONTINUOUS
 10
16.7414576191
 20
5.3307034446
 11
16.7414576191
 21
5.5905459643
  0
LINE
  5
255
100
AcDbEntity
  8
0
100
AcDbLine
 62
7
  6
CONTINUOUS
 10
13.5389949617
 20
11.6663760798
 11
13.5678178152
 21
11.6076412796
  0
LINE
  5
256
100
AcDbEntity
  8
0
100
AcDbLine
 62
7
  6
CONTINUOUS
 10
13.7125679876
 20
11.580880606
 11
13.7784369912
 21
11.5169323529
  0
LINE
  5
257
100
AcDbEntity
  8
0
100
AcDbLine
 62
7
  6
CONTINUOUS
 10
14.1108051745
 20
13.5167546065
 11
13.5389949617
 21
11.6663760798
  0
LINE
  5
258
100
AcDbEntity
  8
0
100
AcDbLine
 62
7
  6
CONTINUOUS
 10
13.5678178152
 20
11.6076412796
 11
13.5967808749
 21
11.5929575796
  0
LINE
  5
259
100
AcDbEntity
  8
0
100
AcDbLine
 62
7
  6
CONTINUOUS
 10
14.2565016455
 20
11.580880606
 11
14.3223706491
 21
11.5169323529
  0
LINE
  5
25A
100
AcDbEntity
  8
0
100
AcDbLine
 62
7
  6
CONTINUOUS
 10
13.9901592489
 20
11.5169323529
 11
13.9932657632
 21
11.580880606
  0
LINE
  5
25B
100
AcDbEntity
  8
0
100
AcDbLine
 62
7
  6
CONTINUOUS
 10
13.9932657632
 20
11.580880606
 11
13.9936879374
 21
11.5833220408
  0
LINE
  5
25C
100
AcDbEntity
  8
0
100
AcDbLine
 62
7
  6
CONTINUOUS
 10
13.9897365675
 20
11.5144910751
 11
13.9901592489
 21
11.5169323529
  0
LINE
  5
25D
100
AcDbEntity
  8
0
100
AcDbLine
 62
7
  6
CONTINUOUS
 10
14.1117514731
 20
11.6076412796
 11
14.1407145328
 21
11.5929575796
  0
LINE
  5
25E
100
AcDbEntity
  8
0
100
AcDbLine
 62
7
  6
CONTINUOUS
 10
14.655685131
 20
11.6076412796
 11
14.6846481907
 21
11.5929575796
  0
LINE
  5
25F
100
AcDbEntity
  8
0
100
AcDbLine
 62
7
  6
CONTINUOUS
 10
13.9904588427
 20
11.5168397714
 11
14.0138864216
 21
11.5926514443
  0
LINE
  5
260
100
AcDbEntity
  8
0
100
AcDbLine
 62
7
  6
CONTINUOUS
 10
13.8099200312
 20
11.5048553794
 11
13.9705292445
 21
11.5048553794
  0
LINE
  5
261
100
AcDbEntity
  8
0
100
AcDbLine
 62
7
  6
CONTINUOUS
 10
14.3538536891
 20
11.5048553794
 11
14.5144629024
 21
11.5048553794
  0
LINE
  5
262
100
AcDbEntity
  8
0
100
AcDbLine
 62
7
  6
CONTINUOUS
 10
14.897787347
 20
11.5048553794
 11
15.0583965603
 21
11.5048553794
  0
LINE
  5
263
100
AcDbEntity
  8
0
100
AcDbLine
 62
7
  6
CONTINUOUS
 10
15.4417210049
 20
11.5048553794
 11
15.6023302181
 21
11.5048553794
  0
LINE
  5
264
100
AcDbEntity
  8
0
100
AcDbLine
 62
7
  6
CONTINUOUS
 10
15.9856546627
 20
11.5048553794
 11
16.146263876
 21
11.5048553794
  0
LINE
  5
265
100
AcDbEntity
  8
0
100
AcDbLine
 62
7
  6
CONTINUOUS
 10
16.5295883206
 20
11.5048553794
 11
16.6901975339
 21
11.5048553794
  0
LINE
  5
266
100
AcDbEntity
  8
0
100
AcDbLine
 62
7
  6
CONTINUOUS
 10
14.8004353034
 20
11.580880606
 11
14.8663043069
 21
11.5169323529
  0
LINE
  5
267
100
AcDbEntity
  8
0
100
AcDbLine
 62
7
  6
CONTINUOUS
 10
14.5340929068
 20
11.5169323529
 11
14.537199421
 21
11.580880606
  0
LINE
  5
268
100
AcDbEntity
  8
0
100
AcDbLine
 62
7
  6
CONTINUOUS
 10
13.5967808749
 20
11.5929575796
 11
13.6810849476
 21
11.5929575796
  0
LINE
  5
269
100
AcDbEntity
  8
0
100
AcDbLine
 62
7
  6
CONTINUOUS
 10
14.0128957676
 20
11.5929575796
 11
14.0971998402
 21
11.5929575796
  0
LINE
  5
26A
100
AcDbEntity
  8
0
100
AcDbLine
 62
7
  6
CONTINUOUS
 10
14.1407145328
 20
11.5929575796
 11
14.2250186054
 21
11.5929575796
  0
LINE
  5
26B
100
AcDbEntity
  8
0
100
AcDbLine
 62
7
  6
CONTINUOUS
 10
14.5568294254
 20
11.5929575796
 11
14.6411334981
 21
11.5929575796
  0
LINE
  5
26C
100
AcDbEntity
  8
0
100
AcDbLine
 62
7
  6
CONTINUOUS
 10
14.6846481907
 20
11.5929575796
 11
14.7689522633
 21
11.5929575796
  0
LINE
  5
26D
100
AcDbEntity
  8
0
100
AcDbLine
 62
7
  6
CONTINUOUS
 10
15.1007630833
 20
11.5929575796
 11
15.1850671559
 21
11.5929575796
  0
LINE
  5
26E
100
AcDbEntity
  8
0
100
AcDbLine
 62
7
  6
CONTINUOUS
 10
15.2285818486
 20
11.5929575796
 11
15.3128859212
 21
11.5929575796
  0
LINE
  5
26F
100
AcDbEntity
  8
0
100
AcDbLine
 62
7
  6
CONTINUOUS
 10
15.6446967412
 20
11.5929575796
 11
15.7290008138
 21
11.5929575796
  0
LINE
  5
270
100
AcDbEntity
  8
0
100
AcDbLine
 62
7
  6
CONTINUOUS
 10
15.7725155064
 20
11.5929575796
 11
15.8568195791
 21
11.5929575796
  0
LINE
  5
271
100
AcDbEntity
  8
0
100
AcDbLine
 62
7
  6
CONTINUOUS
 10
16.1886303991
 20
11.5929575796
 11
16.2729344717
 21
11.5929575796
  0
LINE
  5
272
100
AcDbEntity
  8
0
100
AcDbLine
 62
7
  6
CONTINUOUS
 10
16.3164491643
 20
11.5929575796
 11
16.4007532369
 21
11.5929575796
  0
LINE
  5
273
100
AcDbEntity
  8
0
100
AcDbLine
 62
7
  6
CONTINUOUS
 10
16.7325640569
 20
11.5929575796
 11
16.8168681296
 21
11.5929575796
  0
LINE
  5
274
100
AcDbEntity
  8
0
100
AcDbLine
 62
7
  6
CONTINUOUS
 10
15.1996187889
 20
11.6076412796
 11
15.2285818486
 21
11.5929575796
  0
LINE
  5
275
100
AcDbEntity
  8
0
100
AcDbLine
 62
7
  6
CONTINUOUS
 10
14.537199421
 20
11.580880606
 11
14.5376293083
 21
11.5833196607
  0
LINE
  5
276
100
AcDbEntity
  8
0
100
AcDbLine
 62
7
  6
CONTINUOUS
 10
14.5336615456
 20
11.5144937521
 11
14.5340929068
 21
11.5169323529
  0
LINE
  5
277
100
AcDbEntity
  8
0
100
AcDbLine
 62
7
  6
CONTINUOUS
 10
16.8025969089
 20
11.6663760798
 11
13.5389949617
 21
11.6663760798
  0
LINE
  5
278
100
AcDbEntity
  8
0
100
AcDbLine
 62
7
  6
CONTINUOUS
 10
15.3443689612
 20
11.580880606
 11
15.4102379648
 21
11.5169323529
  0
LINE
  5
279
100
AcDbEntity
  8
0
100
AcDbLine
 62
7
  6
CONTINUOUS
 10
14.5343925006
 20
11.5168397714
 11
14.5578200794
 21
11.5926514443
  0
LINE
  5
27A
100
AcDbEntity
  8
0
100
AcDbLine
 62
7
  6
CONTINUOUS
 10
15.7435524467
 20
11.6076412796
 11
15.7725155064
 21
11.5929575796
  0
LINE
  5
27B
100
AcDbEntity
  8
0
100
AcDbLine
 62
7
  6
CONTINUOUS
 10
16.2874861046
 20
11.6076412796
 11
16.3164491643
 21
11.5929575796
  0
LINE
  5
27C
100
AcDbEntity
  8
0
100
AcDbLine
 62
7
  6
CONTINUOUS
 10
15.0780265647
 20
11.5169323529
 11
15.0811330789
 21
11.580880606
  0
LINE
  5
27D
100
AcDbEntity
  8
0
100
AcDbLine
 62
7
  6
CONTINUOUS
 10
14.0971998402
 20
11.5929575796
 11
14.1117514731
 21
11.6076412796
  0
LINE
  5
27E
100
AcDbEntity
  8
0
100
AcDbLine
 62
7
  6
CONTINUOUS
 10
15.8883026191
 20
11.580880606
 11
15.9541716227
 21
11.5169323529
  0
LINE
  5
27F
100
AcDbEntity
  8
0
100
AcDbLine
 62
7
  6
CONTINUOUS
 10
15.0811330789
 20
11.580880606
 11
15.0815629662
 21
11.5833196607
  0
LINE
  5
280
100
AcDbEntity
  8
0
100
AcDbLine
 62
7
  6
CONTINUOUS
 10
15.0775952035
 20
11.5144937521
 11
15.0780265647
 21
11.5169323529
  0
LINE
  5
281
100
AcDbEntity
  8
0
100
AcDbLine
 62
7
  6
CONTINUOUS
 10
15.0783261585
 20
11.5168397714
 11
15.1017537373
 21
11.5926514443
  0
LINE
  5
282
100
AcDbEntity
  8
0
100
AcDbLine
 62
7
  6
CONTINUOUS
 10
16.432236277
 20
11.580880606
 11
16.4981052806
 21
11.5169323529
  0
LINE
  5
283
100
AcDbEntity
  8
0
100
AcDbLine
 62
7
  6
CONTINUOUS
 10
14.6411334981
 20
11.5929575796
 11
14.655685131
 21
11.6076412796
  0
LINE
  5
284
100
AcDbEntity
  8
0
100
AcDbLine
 62
7
  6
CONTINUOUS
 10
15.6219602225
 20
11.5169323529
 11
15.6250667368
 21
11.580880606
  0
LINE
  5
285
100
AcDbEntity
  8
0
100
AcDbLine
 62
7
  6
CONTINUOUS
 10
15.6250667368
 20
11.580880606
 11
15.6254966241
 21
11.5833196607
  0
LINE
  5
286
100
AcDbEntity
  8
0
100
AcDbLine
 62
7
  6
CONTINUOUS
 10
15.6215288613
 20
11.5144937521
 11
15.6219602225
 21
11.5169323529
  0
LINE
  5
287
100
AcDbEntity
  8
0
100
AcDbLine
 62
7
  6
CONTINUOUS
 10
15.6222598163
 20
11.5168397714
 11
15.6456873952
 21
11.5926514443
  0
LINE
  5
288
100
AcDbEntity
  8
0
100
AcDbLine
 62
7
  6
CONTINUOUS
 10
15.1850671559
 20
11.5929575796
 11
15.1996187889
 21
11.6076412796
  0
LINE
  5
289
100
AcDbEntity
  8
0
100
AcDbLine
 62
7
  6
CONTINUOUS
 10
16.1658938804
 20
11.5169323529
 11
16.1690003947
 21
11.580880606
  0
LINE
  5
28A
100
AcDbEntity
  8
0
100
AcDbLine
 62
7
  6
CONTINUOUS
 10
16.1690003947
 20
11.580880606
 11
16.1694302819
 21
11.5833196607
  0
LINE
  5
28B
100
AcDbEntity
  8
0
100
AcDbLine
 62
7
  6
CONTINUOUS
 10
16.1654625192
 20
11.5144937521
 11
16.1658938804
 21
11.5169323529
  0
LINE
  5
28C
100
AcDbEntity
  8
0
100
AcDbLine
 62
7
  6
CONTINUOUS
 10
15.7290008138
 20
11.5929575796
 11
15.7435524467
 21
11.6076412796
  0
LINE
  5
28D
100
AcDbEntity
  8
0
100
AcDbLine
 62
7
  6
CONTINUOUS
 10
16.8314197625
 20
11.6076412796
 11
16.8025969089
 21
11.6663760798
  0
LINE
  5
28E
100
AcDbEntity
  8
0
100
AcDbLine
 62
7
  6
CONTINUOUS
 10
16.1661934742
 20
11.5168397714
 11
16.1896210531
 21
11.5926514443
  0
LINE
  5
28F
100
AcDbEntity
  8
0
100
AcDbLine
 62
7
  6
CONTINUOUS
 10
14.1108051745
 20
13.5167546065
 11
17.3744071217
 21
13.5167546065
  0
LINE
  5
290
100
AcDbEntity
  8
0
100
AcDbLine
 62
7
  6
CONTINUOUS
 10
16.7098275383
 20
11.5169323529
 11
16.7129340525
 21
11.580880606
  0
LINE
  5
291
100
AcDbEntity
  8
0
100
AcDbLine
 62
7
  6
CONTINUOUS
 10
16.2729344717
 20
11.5929575796
 11
16.2874861046
 21
11.6076412796
  0
LINE
  5
292
100
AcDbEntity
  8
0
100
AcDbLine
 62
7
  6
CONTINUOUS
 10
16.7129340525
 20
11.580880606
 11
16.7133639398
 21
11.5833196607
  0
LINE
  5
293
100
AcDbEntity
  8
0
100
AcDbLine
 62
7
  6
CONTINUOUS
 10
16.7093961771
 20
11.5144937521
 11
16.7098275383
 21
11.5169323529
  0
LINE
  5
294
100
AcDbEntity
  8
0
100
AcDbLine
 62
7
  6
CONTINUOUS
 10
16.7101271321
 20
11.5168397714
 11
16.7335547109
 21
11.5926514443
  0
LINE
  5
295
100
AcDbEntity
  8
0
100
AcDbLine
 62
7
  6
CONTINUOUS
 10
17.3744071217
 20
13.5167546065
 11
16.8025969089
 21
11.6663760798
  0
LINE
  5
296
100
AcDbEntity
  8
0
100
AcDbLine
 62
7
  6
CONTINUOUS
 10
17.4032299753
 20
13.4580198063
 11
16.8314197625
 21
11.6076412796
  0
LINE
  5
297
100
AcDbEntity
  8
0
100
AcDbLine
 62
7
  6
CONTINUOUS
 10
16.8168681296
 20
11.5929575796
 11
16.8314197625
 21
11.6076412796
  0
LINE
  5
298
100
AcDbEntity
  8
0
100
AcDbLine
 62
7
  6
CONTINUOUS
 10
17.4032299753
 20
13.4580198063
 11
17.3744071217
 21
13.5167546065
  0
ARC
  5
299
100
AcDbEntity
  8
0
100
AcDbCircle
 62
7
  6
CONTINUOUS
 10
7.7868694673
 20
5.5024033613
 40
0.0295275591
100
AcDbArc
 50
90.0
 51
160.0
  0
ARC
  5
29A
100
AcDbEntity
  8
0
100
AcDbCircle
 62
7
  6
CONTINUOUS
 10
7.4266209906
 20
5.5024033613
 40
0.0295275591
100
AcDbArc
 50
20.0
 51
90.0
  0
ARC
  5
29B
100
AcDbEntity
  8
0
100
AcDbCircle
 62
7
  6
CONTINUOUS
 10
7.1963182862
 20
5.5024033613
 40
0.0295275591
100
AcDbArc
 50
90.0
 51
160.0
  0
ARC
  5
29C
100
AcDbEntity
  8
0
100
AcDbCircle
 62
7
  6
CONTINUOUS
 10
6.8360698095
 20
5.5024033613
 40
0.0295275591
100
AcDbArc
 50
20.0
 51
90.0
  0
ARC
  5
29D
100
AcDbEntity
  8
0
100
AcDbCircle
 62
7
  6
CONTINUOUS
 10
6.6057671051
 20
5.5024033613
 40
0.0295275591
100
AcDbArc
 50
90.0
 51
160.0
  0
ARC
  5
29E
100
AcDbEntity
  8
0
100
AcDbCircle
 62
7
  6
CONTINUOUS
 10
6.2455186284
 20
5.5024033613
 40
0.0295275591
100
AcDbArc
 50
20.0
 51
90.0
  0
ARC
  5
29F
100
AcDbEntity
  8
0
100
AcDbCircle
 62
7
  6
CONTINUOUS
 10
6.0152159239
 20
5.5024033613
 40
0.0295275591
100
AcDbArc
 50
90.0
 51
160.0
  0
ARC
  5
2A0
100
AcDbEntity
  8
0
100
AcDbCircle
 62
7
  6
CONTINUOUS
 10
5.6549674473
 20
5.5024033613
 40
0.0295275591
100
AcDbArc
 50
20.0
 51
90.0
  0
ARC
  5
2A1
100
AcDbEntity
  8
0
100
AcDbCircle
 62
7
  6
CONTINUOUS
 10
5.4246647428
 20
5.5024033613
 40
0.0295275591
100
AcDbArc
 50
90.0
 51
160.0
  0
ARC
  5
2A2
100
AcDbEntity
  8
0
100
AcDbCircle
 62
7
  6
CONTINUOUS
 10
5.0644162662
 20
5.5024033613
 40
0.0295275591
100
AcDbArc
 50
20.0
 51
90.0
  0
ARC
  5
2A3
100
AcDbEntity
  8
0
100
AcDbCircle
 62
7
  6
CONTINUOUS
 10
4.4738650851
 20
5.5024033613
 40
0.0295275591
100
AcDbArc
 50
20.0
 51
90.0
  0
ARC
  5
2A4
100
AcDbEntity
  8
0
100
AcDbCircle
 62
7
  6
CONTINUOUS
 10
4.8341135617
 20
5.5024033613
 40
0.0295275591
100
AcDbArc
 50
90.0
 51
160.0
  0
ARC
  5
2A5
100
AcDbEntity
  8
0
100
AcDbCircle
 62
7
  6
CONTINUOUS
 10
4.5668022564
 20
5.419726196
 40
0.0295275591
100
AcDbArc
 50
200.0
 51
270.0
  0
ARC
  5
2A6
100
AcDbEntity
  8
0
100
AcDbCircle
 62
7
  6
CONTINUOUS
 10
4.7411763905
 20
5.419726196
 40
0.0295275591
100
AcDbArc
 50
270.0
 51
340.0
  0
ARC
  5
2A7
100
AcDbEntity
  8
0
100
AcDbCircle
 62
7
  6
CONTINUOUS
 10
5.1573534375
 20
5.419726196
 40
0.0295275591
100
AcDbArc
 50
200.0
 51
270.0
  0
ARC
  5
2A8
100
AcDbEntity
  8
0
100
AcDbCircle
 62
7
  6
CONTINUOUS
 10
5.3317275716
 20
5.419726196
 40
0.0295275591
100
AcDbArc
 50
270.0
 51
340.0
  0
ARC
  5
2A9
100
AcDbEntity
  8
0
100
AcDbCircle
 62
7
  6
CONTINUOUS
 10
5.7479046186
 20
5.419726196
 40
0.0295275591
100
AcDbArc
 50
200.0
 51
270.0
  0
ARC
  5
2AA
100
AcDbEntity
  8
0
100
AcDbCircle
 62
7
  6
CONTINUOUS
 10
5.9222787527
 20
5.419726196
 40
0.0295275591
100
AcDbArc
 50
270.0
 51
340.0
  0
ARC
  5
2AB
100
AcDbEntity
  8
0
100
AcDbCircle
 62
7
  6
CONTINUOUS
 10
6.3384557997
 20
5.419726196
 40
0.0295275591
100
AcDbArc
 50
200.0
 51
270.0
  0
ARC
  5
2AC
100
AcDbEntity
  8
0
100
AcDbCircle
 62
7
  6
CONTINUOUS
 10
6.5128299338
 20
5.419726196
 40
0.0295275591
100
AcDbArc
 50
270.0
 51
340.0
  0
ARC
  5
2AD
100
AcDbEntity
  8
0
100
AcDbCircle
 62
7
  6
CONTINUOUS
 10
6.9290069808
 20
5.419726196
 40
0.0295275591
100
AcDbArc
 50
200.0
 51
270.0
  0
ARC
  5
2AE
100
AcDbEntity
  8
0
100
AcDbCircle
 62
7
  6
CONTINUOUS
 10
7.693932296
 20
5.419726196
 40
0.0295275591
100
AcDbArc
 50
270.0
 51
340.0
  0
ARC
  5
2AF
100
AcDbEntity
  8
0
100
AcDbCircle
 62
7
  6
CONTINUOUS
 10
7.5195581619
 20
5.419726196
 40
0.0295275591
100
AcDbArc
 50
200.0
 51
270.0
  0
ARC
  5
2B0
100
AcDbEntity
  8
0
100
AcDbCircle
 62
7
  6
CONTINUOUS
 10
7.1033811149
 20
5.419726196
 40
0.0295275591
100
AcDbArc
 50
270.0
 51
340.0
  0
SPLINE
  5
2B1
100
AcDbEntity
  8
0
100
AcDbSpline
 62
7
  6
CONTINUOUS
 70
0
 71
3
 72
9
 73
5
 74
0
 42
0.0000001
 43
0.0000001
 44
0.0000000001
 40
0.0
 40
0.0
 40
0.0
 40
0.0
 40
0.4768440025
 40
1.0
 40
1.0
 40
1.0
 40
1.0
 10
16.713361305
 20
11.5833204751
 30
0.0
 10
16.7137531105
 20
11.5845875027
 30
0.0
 10
16.7151540071
 20
11.5870883955
 30
0.0
 10
16.7173563833
 20
11.5888772648
 30
0.0
 10
16.7185957715
 20
11.5896395167
 30
0.0
  0
SPLINE
  5
2B2
100
AcDbEntity
  8
0
100
AcDbSpline
 62
7
  6
CONTINUOUS
 70
0
 71
3
 72
9
 73
5
 74
0
 42
0.0000001
 43
0.0000001
 44
0.0000000001
 40
0.0
 40
0.0
 40
0.0
 40
0.0
 40
0.4611808084
 40
1.0
 40
1.0
 40
1.0
 40
1.0
 10
16.7185957715
 20
11.5896395167
 30
0.0
 10
16.7204928227
 20
11.5908062463
 30
0.0
 10
16.7251155524
 20
11.5925057314
 30
0.0
 10
16.7299620088
 20
11.5929575796
 30
0.0
 10
16.7325640569
 20
11.5929575796
 30
0.0
  0
SPLINE
  5
2B3
100
AcDbEntity
  8
0
100
AcDbSpline
 62
7
  6
CONTINUOUS
 70
0
 71
3
 72
9
 73
5
 74
0
 42
0.0000001
 43
0.0000001
 44
0.0000000001
 40
0.0
 40
0.0
 40
0.0
 40
0.0
 40
0.4768440025
 40
1.0
 40
1.0
 40
1.0
 40
1.0
 10
16.1694276471
 20
11.5833204751
 30
0.0
 10
16.1698194527
 20
11.5845875027
 30
0.0
 10
16.1712203492
 20
11.5870883955
 30
0.0
 10
16.1734227255
 20
11.5888772648
 30
0.0
 10
16.1746621137
 20
11.5896395167
 30
0.0
  0
SPLINE
  5
2B4
100
AcDbEntity
  8
0
100
AcDbSpline
 62
7
  6
CONTINUOUS
 70
0
 71
3
 72
9
 73
5
 74
0
 42
0.0000001
 43
0.0000001
 44
0.0000000001
 40
0.0
 40
0.0
 40
0.0
 40
0.0
 40
0.4611808084
 40
1.0
 40
1.0
 40
1.0
 40
1.0
 10
16.1746621137
 20
11.5896395167
 30
0.0
 10
16.1765591648
 20
11.5908062463
 30
0.0
 10
16.1811818946
 20
11.5925057314
 30
0.0
 10
16.1860283509
 20
11.5929575796
 30
0.0
 10
16.1886303991
 20
11.5929575796
 30
0.0
  0
SPLINE
  5
2B5
100
AcDbEntity
  8
0
100
AcDbSpline
 62
7
  6
CONTINUOUS
 70
0
 71
3
 72
9
 73
5
 74
0
 42
0.0000001
 43
0.0000001
 44
0.0000000001
 40
0.0
 40
0.0
 40
0.0
 40
0.0
 40
0.4768440025
 40
1.0
 40
1.0
 40
1.0
 40
1.0
 10
15.6254939893
 20
11.5833204751
 30
0.0
 10
15.6258857948
 20
11.5845875027
 30
0.0
 10
15.6272866913
 20
11.5870883955
 30
0.0
 10
15.6294890676
 20
11.5888772648
 30
0.0
 10
15.6307284558
 20
11.5896395167
 30
0.0
  0
SPLINE
  5
2B6
100
AcDbEntity
  8
0
100
AcDbSpline
 62
7
  6
CONTINUOUS
 70
0
 71
3
 72
9
 73
5
 74
0
 42
0.0000001
 43
0.0000001
 44
0.0000000001
 40
0.0
 40
0.0
 40
0.0
 40
0.0
 40
0.4611808084
 40
1.0
 40
1.0
 40
1.0
 40
1.0
 10
15.6307284558
 20
11.5896395167
 30
0.0
 10
15.6326255069
 20
11.5908062463
 30
0.0
 10
15.6372482367
 20
11.5925057314
 30
0.0
 10
15.642094693
 20
11.5929575796
 30
0.0
 10
15.6446967412
 20
11.5929575796
 30
0.0
  0
SPLINE
  5
2B7
100
AcDbEntity
  8
0
100
AcDbSpline
 62
7
  6
CONTINUOUS
 70
0
 71
3
 72
9
 73
5
 74
0
 42
0.0000001
 43
0.0000001
 44
0.0000000001
 40
0.0
 40
0.0
 40
0.0
 40
0.0
 40
0.4768440025
 40
1.0
 40
1.0
 40
1.0
 40
1.0
 10
15.0815603314
 20
11.5833204751
 30
0.0
 10
15.0819521369
 20
11.5845875027
 30
0.0
 10
15.0833530335
 20
11.5870883955
 30
0.0
 10
15.0855554097
 20
11.5888772648
 30
0.0
 10
15.0867947979
 20
11.5896395167
 30
0.0
  0
SPLINE
  5
2B8
100
AcDbEntity
  8
0
100
AcDbSpline
 62
7
  6
CONTINUOUS
 70
0
 71
3
 72
9
 73
5
 74
0
 42
0.0000001
 43
0.0000001
 44
0.0000000001
 40
0.0
 40
0.0
 40
0.0
 40
0.0
 40
0.4611808084
 40
1.0
 40
1.0
 40
1.0
 40
1.0
 10
15.0867947979
 20
11.5896395167
 30
0.0
 10
15.088691849
 20
11.5908062463
 30
0.0
 10
15.0933145788
 20
11.5925057314
 30
0.0
 10
15.0981610351
 20
11.5929575796
 30
0.0
 10
15.1007630833
 20
11.5929575796
 30
0.0
  0
SPLINE
  5
2B9
100
AcDbEntity
  8
0
100
AcDbSpline
 62
7
  6
CONTINUOUS
 70
0
 71
3
 72
9
 73
5
 74
0
 42
0.0000001
 43
0.0000001
 44
0.0000000001
 40
0.0
 40
0.0
 40
0.0
 40
0.0
 40
0.4768440025
 40
1.0
 40
1.0
 40
1.0
 40
1.0
 10
14.5376266735
 20
11.5833204751
 30
0.0
 10
14.538018479
 20
11.5845875027
 30
0.0
 10
14.5394193756
 20
11.5870883955
 30
0.0
 10
14.5416217518
 20
11.5888772648
 30
0.0
 10
14.54286114
 20
11.5896395167
 30
0.0
  0
SPLINE
  5
2BA
100
AcDbEntity
  8
0
100
AcDbSpline
 62
7
  6
CONTINUOUS
 70
0
 71
3
 72
9
 73
5
 74
0
 42
0.0000001
 43
0.0000001
 44
0.0000000001
 40
0.0
 40
0.0
 40
0.0
 40
0.0
 40
0.4611808084
 40
1.0
 40
1.0
 40
1.0
 40
1.0
 10
14.54286114
 20
11.5896395167
 30
0.0
 10
14.5447581911
 20
11.5908062463
 30
0.0
 10
14.5493809209
 20
11.5925057314
 30
0.0
 10
14.5542273773
 20
11.5929575796
 30
0.0
 10
14.5568294254
 20
11.5929575796
 30
0.0
  0
SPLINE
  5
2BB
100
AcDbEntity
  8
0
100
AcDbSpline
 62
7
  6
CONTINUOUS
 70
0
 71
3
 72
10
 73
6
 74
0
 42
0.0000001
 43
0.0000001
 44
0.0000000001
 40
0.0
 40
0.0
 40
0.0
 40
0.0
 40
0.229150404
 40
0.4677870308
 40
1.0
 40
1.0
 40
1.0
 40
1.0
 10
13.9936922092
 20
11.583320721
 30
0.0
 10
13.9939375477
 20
11.5841150456
 30
0.0
 10
13.9946541655
 20
11.5856780679
 30
0.0
 10
13.9969524178
 20
11.5885223887
 30
0.0
 10
13.9994109109
 20
11.5900374256
 30
0.0
 10
14.001181029
 20
11.590808701
 30
0.0
  0
SPLINE
  5
2BC
100
AcDbEntity
  8
0
100
AcDbSpline
 62
7
  6
CONTINUOUS
 70
0
 71
3
 72
9
 73
5
 74
0
 42
0.0000001
 43
0.0000001
 44
0.0000000001
 40
0.0
 40
0.0
 40
0.0
 40
0.0
 40
0.2281625088
 40
1.0
 40
1.0
 40
1.0
 40
1.0
 10
14.001181029
 20
11.590808701
 30
0.0
 10
14.0020148346
 20
11.5911720066
 30
0.0
 10
14.0057776889
 20
11.5925153764
 30
0.0
 10
14.0098190133
 20
11.5929575796
 30
0.0
 10
14.0128957676
 20
11.5929575796
 30
0.0
  0
SPLINE
  5
2BD
100
AcDbEntity
  8
0
100
AcDbSpline
 62
7
  6
CONTINUOUS
 70
0
 71
3
 72
11
 73
7
 74
0
 42
0.0000001
 43
0.0000001
 44
0.0000000001
 40
0.0
 40
0.0
 40
0.0
 40
0.0
 40
0.2508598868
 40
0.5116789773
 40
0.7663593364
 40
1.0
 40
1.0
 40
1.0
 40
1.0
 10
16.4007532369
 20
11.5929575796
 30
0.0
 10
16.4036321843
 20
11.5929575796
 30
0.0
 10
16.4095132416
 20
11.592338291
 30
0.0
 10
16.4180063817
 20
11.5899012745
 30
0.0
 10
16.425781599
 20
11.5861362238
 30
0.0
 10
16.4303124453
 20
11.5827483385
 30
0.0
 10
16.432236277
 20
11.580880606
 30
0.0
  0
SPLINE
  5
2BE
100
AcDbEntity
  8
0
100
AcDbSpline
 62
7
  6
CONTINUOUS
 70
0
 71
3
 72
11
 73
7
 74
0
 42
0.0000001
 43
0.0000001
 44
0.0000000001
 40
0.0
 40
0.0
 40
0.0
 40
0.0
 40
0.2508598868
 40
0.5116789773
 40
0.7663593364
 40
1.0
 40
1.0
 40
1.0
 40
1.0
 10
15.8568195791
 20
11.5929575796
 30
0.0
 10
15.8596985264
 20
11.5929575796
 30
0.0
 10
15.8655795837
 20
11.592338291
 30
0.0
 10
15.8740727239
 20
11.5899012745
 30
0.0
 10
15.8818479411
 20
11.5861362238
 30
0.0
 10
15.8863787874
 20
11.5827483385
 30
0.0
 10
15.8883026191
 20
11.580880606
 30
0.0
  0
SPLINE
  5
2BF
100
AcDbEntity
  8
0
100
AcDbSpline
 62
7
  6
CONTINUOUS
 70
0
 71
3
 72
11
 73
7
 74
0
 42
0.0000001
 43
0.0000001
 44
0.0000000001
 40
0.0
 40
0.0
 40
0.0
 40
0.0
 40
0.2508598868
 40
0.5116789773
 40
0.7663593364
 40
1.0
 40
1.0
 40
1.0
 40
1.0
 10
15.3128859212
 20
11.5929575796
 30
0.0
 10
15.3157648686
 20
11.5929575796
 30
0.0
 10
15.3216459258
 20
11.592338291
 30
0.0
 10
15.330139066
 20
11.5899012745
 30
0.0
 10
15.3379142832
 20
11.5861362238
 30
0.0
 10
15.3424451296
 20
11.5827483385
 30
0.0
 10
15.3443689612
 20
11.580880606
 30
0.0
  0
SPLINE
  5
2C0
100
AcDbEntity
  8
0
100
AcDbSpline
 62
7
  6
CONTINUOUS
 70
0
 71
3
 72
11
 73
7
 74
0
 42
0.0000001
 43
0.0000001
 44
0.0000000001
 40
0.0
 40
0.0
 40
0.0
 40
0.0
 40
0.2508598868
 40
0.5116789773
 40
0.7663593364
 40
1.0
 40
1.0
 40
1.0
 40
1.0
 10
14.7689522633
 20
11.5929575796
 30
0.0
 10
14.7718312107
 20
11.5929575796
 30
0.0
 10
14.7777122679
 20
11.592338291
 30
0.0
 10
14.7862054081
 20
11.5899012745
 30
0.0
 10
14.7939806253
 20
11.5861362238
 30
0.0
 10
14.7985114717
 20
11.5827483385
 30
0.0
 10
14.8004353034
 20
11.580880606
 30
0.0
  0
SPLINE
  5
2C1
100
AcDbEntity
  8
0
100
AcDbSpline
 62
7
  6
CONTINUOUS
 70
0
 71
3
 72
11
 73
7
 74
0
 42
0.0000001
 43
0.0000001
 44
0.0000000001
 40
0.0
 40
0.0
 40
0.0
 40
0.0
 40
0.2508598868
 40
0.5116789773
 40
0.7663593364
 40
1.0
 40
1.0
 40
1.0
 40
1.0
 10
14.2250186054
 20
11.5929575796
 30
0.0
 10
14.2278975528
 20
11.5929575796
 30
0.0
 10
14.2337786101
 20
11.592338291
 30
0.0
 10
14.2422717502
 20
11.5899012745
 30
0.0
 10
14.2500469675
 20
11.5861362238
 30
0.0
 10
14.2545778138
 20
11.5827483385
 30
0.0
 10
14.2565016455
 20
11.580880606
 30
0.0
  0
SPLINE
  5
2C2
100
AcDbEntity
  8
0
100
AcDbSpline
 62
7
  6
CONTINUOUS
 70
0
 71
3
 72
11
 73
7
 74
0
 42
0.0000001
 43
0.0000001
 44
0.0000000001
 40
0.0
 40
0.0
 40
0.0
 40
0.0
 40
0.303705138
 40
0.569881307
 40
0.7976282298
 40
1.0
 40
1.0
 40
1.0
 40
1.0
 10
16.6901975339
 20
11.5048553794
 30
0.0
 10
16.6925082985
 20
11.5048553794
 30
0.0
 10
16.6968613136
 20
11.5052220588
 30
0.0
 10
16.7027094752
 20
11.5070603489
 30
0.0
 10
16.7071710848
 20
11.5101127225
 30
0.0
 10
16.7089453707
 20
11.5130214559
 30
0.0
 10
16.7094002706
 20
11.5144924868
 30
0.0
  0
SPLINE
  5
2C3
100
AcDbEntity
  8
0
100
AcDbSpline
 62
7
  6
CONTINUOUS
 70
0
 71
3
 72
11
 73
7
 74
0
 42
0.0000001
 43
0.0000001
 44
0.0000000001
 40
0.0
 40
0.0
 40
0.0
 40
0.0
 40
0.2336388538
 40
0.4883228364
 40
0.7491382232
 40
1.0
 40
1.0
 40
1.0
 40
1.0
 10
16.4981052806
 20
11.5169323529
 30
0.0
 10
16.5000290973
 20
11.515064635
 30
0.0
 10
16.5045599551
 20
11.5116767314
 30
0.0
 10
16.5123351564
 20
11.5079116922
 30
0.0
 10
16.520828315
 20
11.5054746725
 30
0.0
 10
16.5267093515
 20
11.5048553794
 30
0.0
 10
16.5295883206
 20
11.5048553794
 30
0.0
  0
SPLINE
  5
2C4
100
AcDbEntity
  8
0
100
AcDbSpline
 62
7
  6
CONTINUOUS
 70
0
 71
3
 72
11
 73
7
 74
0
 42
0.0000001
 43
0.0000001
 44
0.0000000001
 40
0.0
 40
0.0
 40
0.0
 40
0.0
 40
0.303705138
 40
0.569881307
 40
0.7976282298
 40
1.0
 40
1.0
 40
1.0
 40
1.0
 10
16.146263876
 20
11.5048553794
 30
0.0
 10
16.1485746406
 20
11.5048553794
 30
0.0
 10
16.1529276558
 20
11.5052220588
 30
0.0
 10
16.1587758173
 20
11.5070603489
 30
0.0
 10
16.1632374269
 20
11.5101127225
 30
0.0
 10
16.1650117129
 20
11.5130214559
 30
0.0
 10
16.1654666127
 20
11.5144924868
 30
0.0
  0
SPLINE
  5
2C5
100
AcDbEntity
  8
0
100
AcDbSpline
 62
7
  6
CONTINUOUS
 70
0
 71
3
 72
11
 73
7
 74
0
 42
0.0000001
 43
0.0000001
 44
0.0000000001
 40
0.0
 40
0.0
 40
0.0
 40
0.0
 40
0.2336388538
 40
0.4883228364
 40
0.7491382232
 40
1.0
 40
1.0
 40
1.0
 40
1.0
 10
15.9541716227
 20
11.5169323529
 30
0.0
 10
15.9560954394
 20
11.515064635
 30
0.0
 10
15.9606262972
 20
11.5116767314
 30
0.0
 10
15.9684014985
 20
11.5079116922
 30
0.0
 10
15.9768946571
 20
11.5054746725
 30
0.0
 10
15.9827756937
 20
11.5048553794
 30
0.0
 10
15.9856546627
 20
11.5048553794
 30
0.0
  0
SPLINE
  5
2C6
100
AcDbEntity
  8
0
100
AcDbSpline
 62
7
  6
CONTINUOUS
 70
0
 71
3
 72
11
 73
7
 74
0
 42
0.0000001
 43
0.0000001
 44
0.0000000001
 40
0.0
 40
0.0
 40
0.0
 40
0.0
 40
0.303705138
 40
0.569881307
 40
0.7976282298
 40
1.0
 40
1.0
 40
1.0
 40
1.0
 10
15.6023302181
 20
11.5048553794
 30
0.0
 10
15.6046409827
 20
11.5048553794
 30
0.0
 10
15.6089939979
 20
11.5052220588
 30
0.0
 10
15.6148421595
 20
11.5070603489
 30
0.0
 10
15.619303769
 20
11.5101127225
 30
0.0
 10
15.621078055
 20
11.5130214559
 30
0.0
 10
15.6215329549
 20
11.5144924868
 30
0.0
  0
SPLINE
  5
2C7
100
AcDbEntity
  8
0
100
AcDbSpline
 62
7
  6
CONTINUOUS
 70
0
 71
3
 72
11
 73
7
 74
0
 42
0.0000001
 43
0.0000001
 44
0.0000000001
 40
0.0
 40
0.0
 40
0.0
 40
0.0
 40
0.2336388538
 40
0.4883228364
 40
0.7491382232
 40
1.0
 40
1.0
 40
1.0
 40
1.0
 10
15.4102379648
 20
11.5169323529
 30
0.0
 10
15.4121617816
 20
11.515064635
 30
0.0
 10
15.4166926394
 20
11.5116767314
 30
0.0
 10
15.4244678406
 20
11.5079116922
 30
0.0
 10
15.4329609992
 20
11.5054746725
 30
0.0
 10
15.4388420358
 20
11.5048553794
 30
0.0
 10
15.4417210049
 20
11.5048553794
 30
0.0
  0
SPLINE
  5
2C8
100
AcDbEntity
  8
0
100
AcDbSpline
 62
7
  6
CONTINUOUS
 70
0
 71
3
 72
11
 73
7
 74
0
 42
0.0000001
 43
0.0000001
 44
0.0000000001
 40
0.0
 40
0.0
 40
0.0
 40
0.0
 40
0.303705138
 40
0.569881307
 40
0.7976282298
 40
1.0
 40
1.0
 40
1.0
 40
1.0
 10
15.0583965603
 20
11.5048553794
 30
0.0
 10
15.0607073249
 20
11.5048553794
 30
0.0
 10
15.06506034
 20
11.5052220588
 30
0.0
 10
15.0709085016
 20
11.5070603489
 30
0.0
 10
15.0753701112
 20
11.5101127225
 30
0.0
 10
15.0771443971
 20
11.5130214559
 30
0.0
 10
15.077599297
 20
11.5144924868
 30
0.0
  0
SPLINE
  5
2C9
100
AcDbEntity
  8
0
100
AcDbSpline
 62
7
  6
CONTINUOUS
 70
0
 71
3
 72
11
 73
7
 74
0
 42
0.0000001
 43
0.0000001
 44
0.0000000001
 40
0.0
 40
0.0
 40
0.0
 40
0.0
 40
0.2336388538
 40
0.4883228364
 40
0.7491382232
 40
1.0
 40
1.0
 40
1.0
 40
1.0
 10
14.8663043069
 20
11.5169323529
 30
0.0
 10
14.8682281237
 20
11.515064635
 30
0.0
 10
14.8727589815
 20
11.5116767314
 30
0.0
 10
14.8805341828
 20
11.5079116922
 30
0.0
 10
14.8890273413
 20
11.5054746725
 30
0.0
 10
14.8949083779
 20
11.5048553794
 30
0.0
 10
14.897787347
 20
11.5048553794
 30
0.0
  0
SPLINE
  5
2CA
100
AcDbEntity
  8
0
100
AcDbSpline
 62
7
  6
CONTINUOUS
 70
0
 71
3
 72
11
 73
7
 74
0
 42
0.0000001
 43
0.0000001
 44
0.0000000001
 40
0.0
 40
0.0
 40
0.0
 40
0.0
 40
0.303705138
 40
0.569881307
 40
0.7976282298
 40
1.0
 40
1.0
 40
1.0
 40
1.0
 10
14.5144629024
 20
11.5048553794
 30
0.0
 10
14.516773667
 20
11.5048553794
 30
0.0
 10
14.5211266821
 20
11.5052220588
 30
0.0
 10
14.5269748437
 20
11.5070603489
 30
0.0
 10
14.5314364533
 20
11.5101127225
 30
0.0
 10
14.5332107392
 20
11.5130214559
 30
0.0
 10
14.5336656391
 20
11.5144924868
 30
0.0
  0
SPLINE
  5
2CB
100
AcDbEntity
  8
0
100
AcDbSpline
 62
7
  6
CONTINUOUS
 70
0
 71
3
 72
11
 73
7
 74
0
 42
0.0000001
 43
0.0000001
 44
0.0000000001
 40
0.0
 40
0.0
 40
0.0
 40
0.0
 40
0.2336388538
 40
0.4883228364
 40
0.7491382232
 40
1.0
 40
1.0
 40
1.0
 40
1.0
 10
14.3223706491
 20
11.5169323529
 30
0.0
 10
14.3242944658
 20
11.515064635
 30
0.0
 10
14.3288253236
 20
11.5116767314
 30
0.0
 10
14.3366005249
 20
11.5079116922
 30
0.0
 10
14.3450936835
 20
11.5054746725
 30
0.0
 10
14.35097472
 20
11.5048553794
 30
0.0
 10
14.3538536891
 20
11.5048553794
 30
0.0
  0
SPLINE
  5
2CC
100
AcDbEntity
  8
0
100
AcDbSpline
 62
7
  6
CONTINUOUS
 70
0
 71
3
 72
11
 73
7
 74
0
 42
0.0000001
 43
0.0000001
 44
0.0000000001
 40
0.0
 40
0.0
 40
0.0
 40
0.0
 40
0.303789322
 40
0.5698926793
 40
0.7977146922
 40
1.0
 40
1.0
 40
1.0
 40
1.0
 10
13.9705292445
 20
11.5048553794
 30
0.0
 10
13.9728406851
 20
11.5048553794
 30
0.0
 10
13.9771939204
 20
11.5052216012
 30
0.0
 10
13.9830426639
 20
11.5070610563
 30
0.0
 10
13.9875031099
 20
11.5101135357
 30
0.0
 10
13.9892785908
 20
11.5130216586
 30
0.0
 10
13.9897328007
 20
11.5144922389
 30
0.0
  0
SPLINE
  5
2CD
100
AcDbEntity
  8
0
100
AcDbSpline
 62
7
  6
CONTINUOUS
 70
0
 71
3
 72
11
 73
7
 74
0
 42
0.0000001
 43
0.0000001
 44
0.0000000001
 40
0.0
 40
0.0
 40
0.0
 40
0.0
 40
0.2336532785
 40
0.4883239338
 40
0.7491250352
 40
1.0
 40
1.0
 40
1.0
 40
1.0
 10
13.7784369912
 20
11.5169323529
 30
0.0
 10
13.7803609246
 20
11.5150645217
 30
0.0
 10
13.7848917413
 20
11.5116764934
 30
0.0
 10
13.7926670785
 20
11.5079121647
 30
0.0
 10
13.8011598466
 20
11.505474527
 30
0.0
 10
13.807040914
 20
11.5048553794
 30
0.0
 10
13.8099200312
 20
11.5048553794
 30
0.0
  0
SPLINE
  5
2CE
100
AcDbEntity
  8
0
100
AcDbSpline
 62
7
  6
CONTINUOUS
 70
0
 71
3
 72
11
 73
7
 74
0
 42
0.0000001
 43
0.0000001
 44
0.0000000001
 40
0.0
 40
0.0
 40
0.0
 40
0.0
 40
0.2508752038
 40
0.5116780365
 40
0.7663469609
 40
1.0
 40
1.0
 40
1.0
 40
1.0
 10
13.6810849476
 20
11.5929575796
 30
0.0
 10
13.6839640676
 20
11.5929575796
 30
0.0
 10
13.6898451572
 20
11.5923384262
 30
0.0
 10
13.6983379273
 20
11.589900784
 30
0.0
 10
13.70611326
 20
11.5861364529
 30
0.0
 10
13.7106440561
 20
11.5827484353
 30
0.0
 10
13.7125679876
 20
11.580880606
 30
0.0
  0
ENDSEC
  0
SECTION
  2
OBJECTS
  0
DICTIONARY
  5
C
100
AcDbDictionary
280
0
281
1
  3
ACAD_GROUP
350
D
  3
ACAD_MLINESTYLE
350
17
  3
ACAD_LAYOUT
350
1A
  3
ACAD_PLOTSETTINGS
350
19
  3
ACAD_PLOTSTYLENAME
350
E
  0
DICTIONARY
  5
D
102
{ACAD_REACTORS
330
C
102
}
100
AcDbDictionary
280
0
281
1
  0
ACDBDICTIONARYWDFLT
  5
E
102
{ACAD_REACTORS
330
C
102
}
100
AcDbDictionary
281
1
  3
Normal
350
F
100
AcDbDictionaryWithDefault
340
F
  0
DICTIONARY
  5
17
102
{ACAD_REACTORS
330
C
102
}
100
AcDbDictionary
280
0
281
1
  3
Standard
350
18
  0
DICTIONARY
  5
19
102
{ACAD_REACTORS
330
C
102
}
100
AcDbDictionary
281
1
  0
DICTIONARY
  5
1A
102
{ACAD_REACTORS
330
C
102
}
100
AcDbDictionary
281
1
  3
Model
350
2CF
  3
Layout1
350
2D0
  0
ACDBPLACEHOLDER
  5
F
102
{ACAD_REACTORS
330
E
102
}
  0
MLINESTYLE
  5
18
102
{ACAD_REACTORS
330
17
102
}
100
AcDbMlineStyle
  2
STANDARD
 70
0
  3

 62
256
 51
90.0
 52
90.0
 71
2
 49
0.5
 62
256
  6
BYLAYER
 49
-0.5
 62
256
  6
BYLAYER
  0
LAYOUT
  5
2CF
102
{ACAD_REACTORS
330
1A
102
}
100
AcDbPlotSettings
  1

  2
none_device
  4
ANSI_C_(22.00_x_17.00_Inches)
  6

 40
0.0
 41
0.0
 42
0.0
 43
0.0
 44
558.8
 45
431.8
 46
0.0
 47
0.0
 48
0.0
 49
0.0
140
0.0
141
0.0
142
1.0
143
1.0
 70
1024
 72
0
 73
0
 74
0
  7

 75
0
147
1.0
148
0.0
149
0.0
100
AcDbLayout
  1
Model
 70
0
 71
0
 10
0.0
 20
0.0
 11
22.0
 21
17.0
 12
0.0
 22
0.0
 32
0.0
 14
0.0
 24
0.0
 34
0.0
 15
0.0
 25
0.0
 35
0.0
146
0.0
 13
0.0
 23
0.0
 33
0.0
 16
1.0
 26
0.0
 36
0.0
 17
0.0
 27
1.0
 37
0.0
 76
0
330
216
345
0
346
0
  0
LAYOUT
  5
2D0
102
{ACAD_REACTORS
330
1A
102
}
100
AcDbPlotSettings
  1

  2
none_device
  4
ANSI_C_(22.00_x_17.00_Inches)
  6

 40
0.0
 41
0.0
 42
0.0
 43
0.0
 44
558.8
 45
431.8
 46
0.0
 47
0.0
 48
0.0
 49
0.0
140
0.0
141
0.0
142
1.0
143
1.0
 70
0
 72
0
 73
0
 74
0
  7

 75
0
147
1.0
148
0.0
149
0.0
100
AcDbLayout
  1
Layout1
 70
0
 71
1
 10
0.0
 20
0.0
 11
22.0
 21
17.0
 12
0.0
 22
0.0
 32
0.0
 14
0.0
 24
0.0
 34
0.0
 15
0.0
 25
0.0
 35
0.0
146
0.0
 13
0.0
 23
0.0
 33
0.0
 16
1.0
 26
0.0
 36
0.0
 17
0.0
 27
1.0
 37
0.0
 76
0
330
217
345
0
346
0
  0
ENDSEC
  0
EOF