999
DXF file: _cgs_temp_output.dxf
999
Pro/ENGINEER 2016360 by Parametric Technology Corporation
  0
SECTION
  2
HEADER
  9
$ACADVER
  1
AC1021
  9
$DWGCODEPAGE
  3
ANSI_1252
  9
$EXTMAX
 10
22.0
 20
17.0
 30
0.0
  9
$EXTMIN
 10
0.0
 20
0.0
 30
0.0
  9
$LIMMIN
 10
0.0
 20
0.0
  9
$LIMMAX
 10
22.0
 20
17.0
  9
$VIEWCTR
 10
11.0
 20
8.5
  9
$VIEWSIZE
 40
17.0
  9
$CLAYER
  8
0
  9
$LTSCALE
 40
1.21
  9
$CELTYPE
  6
BYLAYER
  9
$DIMSCALE
 40
1.0
  9
$DIMASZ
 40
0.1875
  9
$DIMEXO
 40
0.0625
  9
$DIMDLI
 40
0.836
  9
$DIMEXE
 40
0.125
  9
$DIMCEN
 40
0.198
  9
$DIMLFAC
 40
1.0
  9
$DIMBLK
  1
_CLOSED
  9
$DIMALT
 70
0
  9
$DIMALTF
 40
25.4
  9
$DIMTXT
 40
0.15625
  9
$DIMTOL
 70
0
  9
$DIMLIM
 70
0
  9
$DIMTFAC
 40
1.0
  9
$DIMGAP
 40
0.09
  9
$DIMDSEP
 70
46
  9
$AUNITS
 70
0
  9
$PDMODE
 70
3
  9
$PDSIZE
 40
0.3125
  9
$HANDSEED
  5
39E
  9
$TILEMODE
 70
1
  9
$MEASUREMENT
 70
0
  9
$INSUNITS
 70
1
  0
ENDSEC
  0
SECTION
  2
CLASSES
  0
CLASS
  1
ACDBDICTIONARYWDFLT
  2
AcDbDictionaryWithDefault
  3
AutoCAD 2000
 90
0
 91
1
280
0
281
0
  0
CLASS
  1
ACDBPLACEHOLDER
  2
AcDbPlaceHolder
  3
AutoCAD 2000
 90
0
 91
1
280
0
281
0
  0
CLASS
  1
LAYOUT
  2
AcDbLayout
  3
AutoCAD 2000
 90
0
 91
0
280
0
281
0
  0
ENDSEC
  0
SECTION
  2
TABLES
  0
TABLE
  2
VPORT
  5
8
100
AcDbSymbolTable
 70
2
  0
VPORT
  5
1F4
100
AcDbSymbolTableRecord
100
AcDbViewportTableRecord
  2
*ACTIVE
 70
0
 10
0.0
 20
0.0
 11
1.0
 21
1.0
 12
11.0
 22
8.5
 13
0.0
 23
0.0
 14
1.0
 24
1.0
 15
0.0
 25
0.0
 16
0.0
 26
0.0
 36
1.0
 17
0.0
 27
0.0
 37
0.0
 40
17.0
 41
1.2941176471
 42
50.0
 43
0.0
 44
0.0
 50
0.0
 51
0.0
 71
0
 72
100
 73
1
 74
1
 75
0
 76
0
 77
0
 78
0
  0
ENDTAB
  0
TABLE
  2
LTYPE
  5
5
100
AcDbSymbolTable
 70
6
  0
LTYPE
  5
14
100
AcDbSymbolTableRecord
100
AcDbLinetypeTableRecord
  2
BYBLOCK
 70
0
  3

 72
65
 73
0
 40
0.0
  0
LTYPE
  5
15
100
AcDbSymbolTableRecord
100
AcDbLinetypeTableRecord
  2
BYLAYER
 70
0
  3

 72
65
 73
0
 40
0.0
  0
LTYPE
  5
16
100
AcDbSymbolTableRecord
100
AcDbLinetypeTableRecord
  2
CONTINUOUS
 70
64
  3
Solid line
 72
65
 73
0
 40
0.0
  0
LTYPE
  5
1F5
100
AcDbSymbolTableRecord
100
AcDbLinetypeTableRecord
  2
CENTER
 70
64
  3
____ _ ____ _ ____ _ ____ _ ____ _ ____ _ ____
 72
65
 73
4
 40
0.6
 49
0.375
 74
0
 49
-0.075
 74
0
 49
0.075
 74
0
 49
-0.075
 74
0
  0
LTYPE
  5
1F6
100
AcDbSymbolTableRecord
100
AcDbLinetypeTableRecord
  2
HIDDEN
 70
64
  3
- - - - - - - - - - - - - - - - - - - -
 72
65
 73
2
 40
0.2
 49
0.1
 74
0
 49
-0.1
 74
0
  0
LTYPE
  5
1F7
100
AcDbSymbolTableRecord
100
AcDbLinetypeTableRecord
  2
PHANTOM
 70
64
  3
_____ _ _ _____ _ _ _____ _ _ _____
 72
65
 73
6
 40
0.8
 49
0.45
 74
0
 49
-0.05
 74
0
 49
0.1
 74
0
 49
-0.05
 74
0
 49
0.1
 74
0
 49
-0.05
 74
0
  0
LTYPE
  5
1F8
100
AcDbSymbolTableRecord
100
AcDbLinetypeTableRecord
  2
DOT
 70
64
  3
. . . . . . . . . . . . . . . . . . . .
 72
65
 73
2
 40
0.2
 49
0.1
 74
0
 49
-0.1
 74
0
  0
LTYPE
  5
1F9
100
AcDbSymbolTableRecord
100
AcDbLinetypeTableRecord
  2
DASHED
 70
64
  3
- - - - - - - - - - - - - - - - - - - -
 72
65
 73
2
 40
0.2
 49
0.1
 74
0
 49
-0.1
 74
0
  0
ENDTAB
  0
TABLE
  2
LAYER
  5
2
100
AcDbSymbolTable
 70
36
  0
LAYER
  5
10
100
AcDbSymbolTableRecord
100
AcDbLayerTableRecord
  2
0
 70
0
 62
7
  6
CONTINUOUS
370
-3
390
F
  0
LAYER
  5
1FA
100
AcDbSymbolTableRecord
100
AcDbLayerTableRecord
  2
DEFAULT_1
 70
0
 62
7
  6
CENTER
370
-3
390
F
  0
LAYER
  5
1FB
100
AcDbSymbolTableRecord
100
AcDbLayerTableRecord
  2
DEFAULT_2
 70
0
 62
8
  6
HIDDEN
370
-3
390
F
  0
LAYER
  5
1FC
100
AcDbSymbolTableRecord
100
AcDbLayerTableRecord
  2
DEFAULT_3
 70
0
 62
7
  6
PHANTOM
370
-3
390
F
  0
LAYER
  5
1FD
100
AcDbSymbolTableRecord
100
AcDbLayerTableRecord
  2
01_ALL_DTM_PLN
 70
0
 62
7
  6
CONTINUOUS
370
-3
390
F
  0
LAYER
  5
1FE
100
AcDbSymbolTableRecord
100
AcDbLayerTableRecord
  2
01__ASM_ALL_DTM_PLN
 70
0
 62
7
  6
CONTINUOUS
370
-3
390
F
  0
LAYER
  5
1FF
100
AcDbSymbolTableRecord
100
AcDbLayerTableRecord
  2
01__ASM_DEF_DTM_PLN
 70
0
 62
7
  6
CONTINUOUS
370
-3
390
F
  0
LAYER
  5
200
100
AcDbSymbolTableRecord
100
AcDbLayerTableRecord
  2
01___PRT_ALL_DTM_PLN
 70
0
 62
7
  6
CONTINUOUS
370
-3
390
F
  0
LAYER
  5
201
100
AcDbSymbolTableRecord
100
AcDbLayerTableRecord
  2
01___PRT_DEF_DTM_PLN
 70
0
 62
7
  6
CONTINUOUS
370
-3
390
F
  0
LAYER
  5
202
100
AcDbSymbolTableRecord
100
AcDbLayerTableRecord
  2
02_ALL_AXES
 70
0
 62
7
  6
CONTINUOUS
370
-3
390
F
  0
LAYER
  5
203
100
AcDbSymbolTableRecord
100
AcDbLayerTableRecord
  2
02__ASM_ALL_AXES
 70
0
 62
7
  6
CONTINUOUS
370
-3
390
F
  0
LAYER
  5
204
100
AcDbSymbolTableRecord
100
AcDbLayerTableRecord
  2
02___PRT_ALL_AXES
 70
0
 62
7
  6
CONTINUOUS
370
-3
390
F
  0
LAYER
  5
205
100
AcDbSymbolTableRecord
100
AcDbLayerTableRecord
  2
03_ALL_CURVES
 70
0
 62
7
  6
CONTINUOUS
370
-3
390
F
  0
LAYER
  5
206
100
AcDbSymbolTableRecord
100
AcDbLayerTableRecord
  2
03__ASM_ALL_CURVES
 70
0
 62
7
  6
CONTINUOUS
370
-3
390
F
  0
LAYER
  5
207
100
AcDbSymbolTableRecord
100
AcDbLayerTableRecord
  2
03___PRT_ALL_CURVES
 70
0
 62
7
  6
CONTINUOUS
370
-3
390
F
  0
LAYER
  5
208
100
AcDbSymbolTableRecord
100
AcDbLayerTableRecord
  2
04_ALL_DTM_PNT
 70
0
 62
7
  6
CONTINUOUS
370
-3
390
F
  0
LAYER
  5
209
100
AcDbSymbolTableRecord
100
AcDbLayerTableRecord
  2
04__ASM_ALL_DTM_PNT
 70
0
 62
7
  6
CONTINUOUS
370
-3
390
F
  0
LAYER
  5
20A
100
AcDbSymbolTableRecord
100
AcDbLayerTableRecord
  2
04___PRT_ALL_DTM_PNT
 70
0
 62
7
  6
CONTINUOUS
370
-3
390
F
  0
LAYER
  5
20B
100
AcDbSymbolTableRecord
100
AcDbLayerTableRecord
  2
05_ALL_DTM_CSYS
 70
0
 62
7
  6
CONTINUOUS
370
-3
390
F
  0
LAYER
  5
20C
100
AcDbSymbolTableRecord
100
AcDbLayerTableRecord
  2
05__ASM_ALL_DTM_CSYS
 70
0
 62
7
  6
CONTINUOUS
370
-3
390
F
  0
LAYER
  5
20D
100
AcDbSymbolTableRecord
100
AcDbLayerTableRecord
  2
05__ASM_DEF_DTM_CSYS
 70
0
 62
7
  6
CONTINUOUS
370
-3
390
F
  0
LAYER
  5
20E
100
AcDbSymbolTableRecord
100
AcDbLayerTableRecord
  2
05___PRT_ALL_DTM_CSYS
 70
0
 62
7
  6
CONTINUOUS
370
-3
390
F
  0
LAYER
  5
20F
100
AcDbSymbolTableRecord
100
AcDbLayerTableRecord
  2
05___PRT_DEF_DTM_CSYS
 70
0
 62
7
  6
CONTINUOUS
370
-3
390
F
  0
LAYER
  5
210
100
AcDbSymbolTableRecord
100
AcDbLayerTableRecord
  2
06_ALL_SURFS
 70
0
 62
7
  6
CONTINUOUS
370
-3
390
F
  0
LAYER
  5
211
100
AcDbSymbolTableRecord
100
AcDbLayerTableRecord
  2
06__ASM_ALL_SURFS
 70
0
 62
7
  6
CONTINUOUS
370
-3
390
F
  0
LAYER
  5
212
100
AcDbSymbolTableRecord
100
AcDbLayerTableRecord
  2
06___PRT_ALL_SURFS
 70
0
 62
7
  6
CONTINUOUS
370
-3
390
F
  0
LAYER
  5
213
100
AcDbSymbolTableRecord
100
AcDbLayerTableRecord
  2
07__ASM_ALL_SKELETONS
 70
0
 62
7
  6
CONTINUOUS
370
-3
390
F
  0
ENDTAB
  0
TABLE
  2
STYLE
  5
3
100
AcDbSymbolTable
 70
1
  0
STYLE
  5
11
100
AcDbSymbolTableRecord
100
AcDbTextStyleTableRecord
  2
STANDARD
 70
0
 40
0.0
 41
0.8
 50
0.0
 71
0
 42
0.2
  3
txt
  4

  0
STYLE
  5
214
100
AcDbSymbolTableRecord
100
AcDbTextStyleTableRecord
  2
TEXTSTYLE_1
 70
0
 40
0.0
 41
0.8
 50
0.0
 71
0
 42
0.2
  3
gdt
  4

  0
ENDTAB
  0
TABLE
  2
VIEW
  5
6
100
AcDbSymbolTable
 70
0
  0
ENDTAB
  0
TABLE
  2
UCS
  5
7
100
AcDbSymbolTable
 70
0
  0
ENDTAB
  0
TABLE
  2
APPID
  5
9
100
AcDbSymbolTable
 70
1
  0
APPID
  5
215
100
AcDbSymbolTableRecord
100
AcDbRegAppTableRecord
  2
ACAD
 70
0
  0
ENDTAB
  0
TABLE
  2
BLOCK_RECORD
  5
1
100
AcDbSymbolTable
 70
0
  0
BLOCK_RECORD
  5
216
100
AcDbSymbolTableRecord
100
AcDbBlockTableRecord
  2
*Model_Space
  0
BLOCK_RECORD
  5
217
100
AcDbSymbolTableRecord
100
AcDbBlockTableRecord
  2
*Paper_Space
  0
ENDTAB
  0
TABLE
  2
DIMSTYLE
  5
A
100
AcDbSymbolTable
 70
1
100
AcDbDimStyleTable
 71
0
  0
DIMSTYLE
105
218
100
AcDbSymbolTableRecord
100
AcDbDimStyleTableRecord
  2
STANDARD
 70
0
  3

  4

 40
1.0
 41
0.1875
 42
0.0625
 43
0.38
 44
0.125
 45
0.0
 46
0.0
 47
0.0001
 48
0.0001
140
0.15625
141
0.09
142
0.0
143
25.4
144
1.0
145
0.0
146
1.0
147
0.09
 71
0.0
 72
0.0
 73
1
 74
1
 75
0
 76
0
 77
0
 78
4
 79
1
170
0
171
3
172
0
173
0
174
0
175
0
176
0
177
0
178
0
270
2
179
4
271
4
272
4
273
2
274
2
275
0
280
0
281
0
282
0
283
1
284
4
285
0
286
0
287
3
288
0
340
11
278
46
  0
ENDTAB
  0
ENDSEC
  0
SECTION
  2
BLOCKS
  0
BLOCK
  5
20
100
AcDbEntity
  8
0
100
AcDbBlockBegin
  2
*Model_Space
 70
0
 10
0.0
 20
0.0
 30
0.0
  3
*Model_Space
  1

  0
ENDBLK
  5
21
100
AcDbEntity
  8
0
100
AcDbBlockEnd
  0
BLOCK
  5
1C
100
AcDbEntity
  8
0
100
AcDbBlockBegin
  2
*Paper_Space
 70
0
 10
0.0
 20
0.0
 30
0.0
  3
*Paper_Space
  1

  0
ENDBLK
  5
1D
100
AcDbEntity
  8
0
100
AcDbBlockEnd
  0
ENDSEC
  0
SECTION
  2
ENTITIES
  0
MTEXT
  5
219
100
AcDbEntity
  8
0
100
AcDbMText
 62
7
  6
CONTINUOUS
  7
STANDARD
 71
1
 72
1
 10
15.9560215477
 20
0.9479130325
 30
0.0
 11
1.0
 21
0.0
 31
0.0
 44
0.9
  1
SCALE: 1:1.000
 40
0.3
 41
3.36
  0
LINE
  5
21A
100
AcDbEntity
  8
0
100
AcDbLine
 62
7
  6
CONTINUOUS
 10
0.0
 20
0.0
 11
0.0
 21
17.0
  0
LINE
  5
21B
100
AcDbEntity
  8
0
100
AcDbLine
 62
7
  6
CONTINUOUS
 10
0.0
 20
0.0
 11
22.0
 21
0.0
  0
LINE
  5
21C
100
AcDbEntity
  8
0
100
AcDbLine
 62
7
  6
CONTINUOUS
 10
0.0
 20
17.0
 11
22.0
 21
17.0
  0
LINE
  5
21D
100
AcDbEntity
  8
0
100
AcDbLine
 62
7
  6
CONTINUOUS
 10
22.0
 20
0.0
 11
22.0
 21
17.0
  0
LINE
  5
21E
100
AcDbEntity
  8
0
100
AcDbLine
 62
7
  6
CONTINUOUS
 10
5.4716172762
 20
7.9963064433
 11
5.5576847042
 21
8.0226198968
  0
LINE
  5
21F
100
AcDbEntity
  8
0
100
AcDbLine
 62
7
  6
CONTINUOUS
 10
5.5576847042
 20
3.0176198968
 11
5.4716172762
 21
3.0439333502
  0
LINE
  5
220
100
AcDbEntity
  8
0
100
AcDbLine
 62
7
  6
CONTINUOUS
 10
5.5966172762
 20
3.1618241391
 11
6.6641172762
 21
3.1618241391
  0
LINE
  5
221
100
AcDbEntity
  8
0
100
AcDbLine
 62
7
  6
CONTINUOUS
 10
5.5966172762
 20
3.2395611148
 11
6.6641172762
 21
3.2395611148
  0
LINE
  5
222
100
AcDbEntity
  8
0
100
AcDbLine
 62
7
  6
CONTINUOUS
 10
5.5966172762
 20
3.4165470303
 11
6.6641172762
 21
3.4165470303
  0
LINE
  5
223
100
AcDbEntity
  8
0
100
AcDbLine
 62
7
  6
CONTINUOUS
 10
5.5966172762
 20
3.6850321262
 11
6.6641172762
 21
3.6850321262
  0
LINE
  5
224
100
AcDbEntity
  8
0
100
AcDbLine
 62
7
  6
CONTINUOUS
 10
5.5966172762
 20
4.0332823154
 11
6.6641172762
 21
4.0332823154
  0
LINE
  5
225
100
AcDbEntity
  8
0
100
AcDbLine
 62
7
  6
CONTINUOUS
 10
5.5966172762
 20
4.4460773936
 11
6.6641172762
 21
4.4460773936
  0
LINE
  5
226
100
AcDbEntity
  8
0
100
AcDbLine
 62
7
  6
CONTINUOUS
 10
5.4716172762
 20
7.9963064433
 11
5.4716172762
 21
3.0439333502
  0
LINE
  5
227
100
AcDbEntity
  8
0
100
AcDbLine
 62
7
  6
CONTINUOUS
 10
5.5576847042
 20
8.0226198968
 11
5.5576847042
 21
3.0176198968
  0
LINE
  5
228
100
AcDbEntity
  8
0
100
AcDbLine
 62
7
  6
CONTINUOUS
 10
5.5966172762
 20
7.8952771918
 11
5.5966172762
 21
3.1449626017
  0
LINE
  5
229
100
AcDbEntity
  8
0
100
AcDbLine
 62
7
  6
CONTINUOUS
 10
5.7966172762
 20
5.590510095
 11
5.7966172762
 21
5.220510095
  0
LINE
  5
22A
100
AcDbEntity
  8
0
100
AcDbLine
 62
6
  6
CONTINUOUS
 10
5.7966172762
 20
5.186760095
 11
5.7966172762
 21
5.220510095
  0
LINE
  5
22B
100
AcDbEntity
  8
0
100
AcDbLine
 62
6
  6
CONTINUOUS
 10
5.7966172762
 20
5.590510095
 11
5.7966172762
 21
5.624260095
  0
LINE
  5
22C
100
AcDbEntity
  8
0
100
AcDbLine
 62
6
  6
CONTINUOUS
 10
5.7966172762
 20
5.186760095
 11
6.7866172762
 21
5.186760095
  0
LINE
  5
22D
100
AcDbEntity
  8
0
100
AcDbLine
 62
7
  6
CONTINUOUS
 10
6.7030498481
 20
8.0226198968
 11
6.6641172762
 21
7.8952771918
  0
LINE
  5
22E
100
AcDbEntity
  8
0
100
AcDbLine
 62
7
  6
CONTINUOUS
 10
6.6641172762
 20
3.1449626017
 11
6.7030498481
 21
3.0176198968
  0
LINE
  5
22F
100
AcDbEntity
  8
0
100
AcDbLine
 62
7
  6
CONTINUOUS
 10
5.5576847042
 20
3.0176198968
 11
5.5966172762
 21
3.1449626017
  0
LINE
  5
230
100
AcDbEntity
  8
0
100
AcDbLine
 62
6
  6
CONTINUOUS
 10
5.7966172762
 20
5.624260095
 11
6.7866172762
 21
5.624260095
  0
LINE
  5
231
100
AcDbEntity
  8
0
100
AcDbLine
 62
7
  6
CONTINUOUS
 10
5.5966172762
 20
7.8952771918
 11
5.5576847042
 21
8.0226198968
  0
LINE
  5
232
100
AcDbEntity
  8
0
100
AcDbLine
 62
7
  6
CONTINUOUS
 10
6.6641172762
 20
3.1449626017
 11
6.6641172762
 21
7.8952771918
  0
LINE
  5
233
100
AcDbEntity
  8
0
100
AcDbLine
 62
7
  6
CONTINUOUS
 10
6.7030498481
 20
3.0176198968
 11
6.7030498481
 21
8.0226198968
  0
LINE
  5
234
100
AcDbEntity
  8
0
100
AcDbLine
 62
7
  6
CONTINUOUS
 10
6.7866172762
 20
5.624260095
 11
6.7866172762
 21
5.186760095
  0
LINE
  5
235
100
AcDbEntity
  8
0
100
AcDbLine
 62
7
  6
CONTINUOUS
 10
6.7891172762
 20
3.0439333502
 11
6.7891172762
 21
7.9963064433
  0
LINE
  5
236
100
AcDbEntity
  8
0
100
AcDbLine
 62
7
  6
CONTINUOUS
 10
6.6641172762
 20
6.5941623999
 11
5.5966172762
 21
6.5941623999
  0
LINE
  5
237
100
AcDbEntity
  8
0
100
AcDbLine
 62
7
  6
CONTINUOUS
 10
6.6641172762
 20
7.0069574781
 11
5.5966172762
 21
7.0069574781
  0
LINE
  5
238
100
AcDbEntity
  8
0
100
AcDbLine
 62
7
  6
CONTINUOUS
 10
6.6641172762
 20
7.3552076673
 11
5.5966172762
 21
7.3552076673
  0
LINE
  5
239
100
AcDbEntity
  8
0
100
AcDbLine
 62
7
  6
CONTINUOUS
 10
6.6641172762
 20
7.6236927632
 11
5.5966172762
 21
7.6236927632
  0
LINE
  5
23A
100
AcDbEntity
  8
0
100
AcDbLine
 62
7
  6
CONTINUOUS
 10
6.7891172762
 20
3.0439333502
 11
6.7030498481
 21
3.0176198968
  0
LINE
  5
23B
100
AcDbEntity
  8
0
100
AcDbLine
 62
7
  6
CONTINUOUS
 10
6.6641172762
 20
7.8006786787
 11
5.5966172762
 21
7.8006786787
  0
LINE
  5
23C
100
AcDbEntity
  8
0
100
AcDbLine
 62
7
  6
CONTINUOUS
 10
6.6641172762
 20
7.8784156544
 11
5.5966172762
 21
7.8784156544
  0
LINE
  5
23D
100
AcDbEntity
  8
0
100
AcDbLine
 62
7
  6
CONTINUOUS
 10
6.7030498481
 20
8.0226198968
 11
6.7891172762
 21
7.9963064433
  0
LINE
  5
23E
100
AcDbEntity
  8
0
100
AcDbLine
 62
7
  6
CONTINUOUS
 10
5.4121220839
 20
15.0762343279
 11
5.4981895119
 21
15.1025477814
  0
LINE
  5
23F
100
AcDbEntity
  8
0
100
AcDbLine
 62
7
  6
CONTINUOUS
 10
5.4121220839
 20
10.1238612348
 11
5.4981895119
 21
10.0975477814
  0
LINE
  5
240
100
AcDbEntity
  8
0
100
AcDbLine
 62
7
  6
CONTINUOUS
 10
6.6046220839
 20
10.2382977814
 11
5.5371220839
 21
10.2382977814
  0
LINE
  5
241
100
AcDbEntity
  8
0
100
AcDbLine
 62
7
  6
CONTINUOUS
 10
5.5371220839
 20
10.2678921873
 11
6.6046220839
 21
10.2678921873
  0
LINE
  5
242
100
AcDbEntity
  8
0
100
AcDbLine
 62
7
  6
CONTINUOUS
 10
5.5371220839
 20
10.3959625286
 11
6.6046220839
 21
10.3959625286
  0
LINE
  5
243
100
AcDbEntity
  8
0
100
AcDbLine
 62
7
  6
CONTINUOUS
 10
5.5371220839
 20
10.6199249237
 11
6.6046220839
 21
10.6199249237
  0
LINE
  5
244
100
AcDbEntity
  8
0
100
AcDbLine
 62
7
  6
CONTINUOUS
 10
5.5371220839
 20
10.9299911415
 11
6.6046220839
 21
10.9299911415
  0
LINE
  5
245
100
AcDbEntity
  8
0
100
AcDbLine
 62
6
  6
CONTINUOUS
 10
5.7371220839
 20
11.0713017534
 11
6.7271220839
 21
11.0713017534
  0
LINE
  5
246
100
AcDbEntity
  8
0
100
AcDbLine
 62
7
  6
CONTINUOUS
 10
5.5371220839
 20
11.3126098002
 11
6.6046220839
 21
11.3126098002
  0
LINE
  5
247
100
AcDbEntity
  8
0
100
AcDbLine
 62
6
  6
CONTINUOUS
 10
5.7371220839
 20
11.5088017534
 11
6.7271220839
 21
11.5088017534
  0
LINE
  5
248
100
AcDbEntity
  8
0
100
AcDbLine
 62
7
  6
CONTINUOUS
 10
5.5371220839
 20
11.751082988
 11
6.6046220839
 21
11.751082988
  0
LINE
  5
249
100
AcDbEntity
  8
0
100
AcDbLine
 62
7
  6
CONTINUOUS
 10
5.4121220839
 20
15.0762343279
 11
5.4121220839
 21
10.1238612348
  0
LINE
  5
24A
100
AcDbEntity
  8
0
100
AcDbLine
 62
7
  6
CONTINUOUS
 10
5.4981895119
 20
15.1025477814
 11
5.4981895119
 21
10.0975477814
  0
LINE
  5
24B
100
AcDbEntity
  8
0
100
AcDbLine
 62
7
  6
CONTINUOUS
 10
5.5371220839
 20
14.9751849672
 11
5.5371220839
 21
10.2249105955
  0
LINE
  5
24C
100
AcDbEntity
  8
0
100
AcDbLine
 62
6
  6
CONTINUOUS
 10
5.7371220839
 20
11.0713017534
 11
5.7371220839
 21
11.105052818
  0
LINE
  5
24D
100
AcDbEntity
  8
0
100
AcDbLine
 62
7
  6
CONTINUOUS
 10
5.7371220839
 20
11.105052818
 11
5.7371220839
 21
11.4750506887
  0
LINE
  5
24E
100
AcDbEntity
  8
0
100
AcDbLine
 62
6
  6
CONTINUOUS
 10
5.7371220839
 20
11.4750506887
 11
5.7371220839
 21
11.5088017534
  0
LINE
  5
24F
100
AcDbEntity
  8
0
100
AcDbLine
 62
6
  6
CONTINUOUS
 10
5.7371220839
 20
13.6912938094
 11
5.7371220839
 21
13.725044874
  0
LINE
  5
250
100
AcDbEntity
  8
0
100
AcDbLine
 62
7
  6
CONTINUOUS
 10
5.7371220839
 20
13.725044874
 11
5.7371220839
 21
14.0950427447
  0
LINE
  5
251
100
AcDbEntity
  8
0
100
AcDbLine
 62
6
  6
CONTINUOUS
 10
5.7371220839
 20
14.0950427447
 11
5.7371220839
 21
14.1287938094
  0
LINE
  5
252
100
AcDbEntity
  8
0
100
AcDbLine
 62
7
  6
CONTINUOUS
 10
6.6435546558
 20
15.1025477814
 11
6.6046220839
 21
14.9752050764
  0
LINE
  5
253
100
AcDbEntity
  8
0
100
AcDbLine
 62
7
  6
CONTINUOUS
 10
6.6435546558
 20
10.0975477814
 11
6.6046220839
 21
10.2248904863
  0
LINE
  5
254
100
AcDbEntity
  8
0
100
AcDbLine
 62
7
  6
CONTINUOUS
 10
5.4981895119
 20
10.0975477814
 11
5.5371220839
 21
10.2248904863
  0
LINE
  5
255
100
AcDbEntity
  8
0
100
AcDbLine
 62
7
  6
CONTINUOUS
 10
5.4981895119
 20
15.1025477814
 11
5.5371220839
 21
14.9752050764
  0
LINE
  5
256
100
AcDbEntity
  8
0
100
AcDbLine
 62
7
  6
CONTINUOUS
 10
6.6046220839
 20
10.2249105955
 11
6.6046220839
 21
14.9751849672
  0
LINE
  5
257
100
AcDbEntity
  8
0
100
AcDbLine
 62
7
  6
CONTINUOUS
 10
6.6435546558
 20
10.0975477814
 11
6.6435546558
 21
15.1025477814
  0
LINE
  5
258
100
AcDbEntity
  8
0
100
AcDbLine
 62
7
  6
CONTINUOUS
 10
6.7271220839
 20
11.0713017534
 11
6.7271220839
 21
11.5088017534
  0
LINE
  5
259
100
AcDbEntity
  8
0
100
AcDbLine
 62
7
  6
CONTINUOUS
 10
6.7271220839
 20
13.6912938094
 11
6.7271220839
 21
14.1287938094
  0
LINE
  5
25A
100
AcDbEntity
  8
0
100
AcDbLine
 62
7
  6
CONTINUOUS
 10
6.7296220839
 20
10.1238612348
 11
6.7296220839
 21
15.0762343279
  0
LINE
  5
25B
100
AcDbEntity
  8
0
100
AcDbLine
 62
7
  6
CONTINUOUS
 10
6.6046220839
 20
13.4490125747
 11
5.5371220839
 21
13.4490125747
  0
LINE
  5
25C
100
AcDbEntity
  8
0
100
AcDbLine
 62
6
  6
CONTINUOUS
 10
5.7371220839
 20
13.6912938094
 11
6.7271220839
 21
13.6912938094
  0
LINE
  5
25D
100
AcDbEntity
  8
0
100
AcDbLine
 62
7
  6
CONTINUOUS
 10
6.6046220839
 20
13.8874857625
 11
5.5371220839
 21
13.8874857625
  0
LINE
  5
25E
100
AcDbEntity
  8
0
100
AcDbLine
 62
6
  6
CONTINUOUS
 10
5.7371220839
 20
14.1287938094
 11
6.7271220839
 21
14.1287938094
  0
LINE
  5
25F
100
AcDbEntity
  8
0
100
AcDbLine
 62
7
  6
CONTINUOUS
 10
6.6046220839
 20
14.2701044213
 11
5.5371220839
 21
14.2701044213
  0
LINE
  5
260
100
AcDbEntity
  8
0
100
AcDbLine
 62
7
  6
CONTINUOUS
 10
6.6046220839
 20
14.580170639
 11
5.5371220839
 21
14.580170639
  0
LINE
  5
261
100
AcDbEntity
  8
0
100
AcDbLine
 62
7
  6
CONTINUOUS
 10
6.6046220839
 20
14.8041330342
 11
5.5371220839
 21
14.8041330342
  0
LINE
  5
262
100
AcDbEntity
  8
0
100
AcDbLine
 62
7
  6
CONTINUOUS
 10
6.7296220839
 20
10.1238612348
 11
6.6435546558
 21
10.0975477814
  0
LINE
  5
263
100
AcDbEntity
  8
0
100
AcDbLine
 62
7
  6
CONTINUOUS
 10
6.6046220839
 20
14.9322033754
 11
5.5371220839
 21
14.9322033754
  0
LINE
  5
264
100
AcDbEntity
  8
0
100
AcDbLine
 62
7
  6
CONTINUOUS
 10
6.6046220839
 20
14.9617977814
 11
5.5371220839
 21
14.9617977814
  0
LINE
  5
265
100
AcDbEntity
  8
0
100
AcDbLine
 62
7
  6
CONTINUOUS
 10
6.7296220839
 20
15.0762343279
 11
6.6435546558
 21
15.1025477814
  0
LINE
  5
266
100
AcDbEntity
  8
0
100
AcDbLine
 62
7
  6
CONTINUOUS
 10
14.7397208523
 20
14.9662178804
 11
14.8176696746
 21
14.9923105804
  0
LINE
  5
267
100
AcDbEntity
  8
0
100
AcDbLine
 62
7
  6
CONTINUOUS
 10
14.7397208523
 20
10.0553921054
 11
14.8176696746
 21
10.0292994054
  0
LINE
  5
268
100
AcDbEntity
  8
0
100
AcDbLine
 62
7
  6
CONTINUOUS
 10
14.6851516469
 20
14.7483356645
 11
14.6863979533
 21
14.748857765
  0
LINE
  5
269
100
AcDbEntity
  8
0
100
AcDbLine
 62
7
  6
CONTINUOUS
 10
14.8700982963
 20
14.8647499398
 11
14.86968153
 21
14.8645903384
  0
LINE
  5
26A
100
AcDbEntity
  8
0
100
AcDbLine
 62
7
  6
CONTINUOUS
 10
14.869890314
 20
14.8692244746
 11
14.8694712989
 21
14.8690957931
  0
LINE
  5
26B
100
AcDbEntity
  8
0
100
AcDbLine
 62
7
  6
CONTINUOUS
 10
15.6776136254
 20
10.1490549929
 11
14.9794961629
 21
10.1490549929
  0
LINE
  5
26C
100
AcDbEntity
  8
0
100
AcDbLine
 62
7
  6
CONTINUOUS
 10
14.7963952452
 20
10.1965483681
 11
14.7956166537
 21
10.1967394113
  0
LINE
  5
26D
100
AcDbEntity
  8
0
100
AcDbLine
 62
7
  6
CONTINUOUS
 10
14.6808520155
 20
14.7587448557
 11
14.6798170459
 21
14.7578364642
  0
LINE
  5
26E
100
AcDbEntity
  8
0
100
AcDbLine
 62
7
  6
CONTINUOUS
 10
14.6812551866
 20
14.75570991
 11
14.6802057353
 21
14.7549218182
  0
LINE
  5
26F
100
AcDbEntity
  8
0
100
AcDbLine
 62
7
  6
CONTINUOUS
 10
14.7963952269
 20
10.1965375084
 11
15.6335867952
 21
10.1965375084
  0
LINE
  5
270
100
AcDbEntity
  8
0
100
AcDbLine
 62
7
  6
CONTINUOUS
 10
14.6138322666
 20
10.3446494533
 11
15.5149762839
 21
10.3446494533
  0
LINE
  5
271
100
AcDbEntity
  8
0
100
AcDbLine
 62
7
  6
CONTINUOUS
 10
15.9734231592
 20
10.1563887684
 11
15.9746951266
 21
10.1561337645
  0
LINE
  5
272
100
AcDbEntity
  8
0
100
AcDbLine
 62
7
  6
CONTINUOUS
 10
14.6138322671
 20
10.3446499695
 11
14.6122774079
 21
10.3454811508
  0
LINE
  5
273
100
AcDbEntity
  8
0
100
AcDbLine
 62
7
  6
CONTINUOUS
 10
16.0456242644
 20
10.5105549929
 11
16.0320208859
 21
10.5105549929
  0
LINE
  5
274
100
AcDbEntity
  8
0
100
AcDbLine
 62
7
  6
CONTINUOUS
 10
15.9735142699
 20
10.1593590656
 11
15.9747800377
 21
10.1589518979
  0
LINE
  5
275
100
AcDbEntity
  8
0
100
AcDbLine
 62
7
  6
CONTINUOUS
 10
14.6079071049
 20
10.3414264515
 11
14.6090407964
 21
10.3402045174
  0
LINE
  5
276
100
AcDbEntity
  8
0
100
AcDbLine
 62
7
  6
CONTINUOUS
 10
14.6070933725
 20
10.3366756319
 11
14.608221478
 21
10.3354037547
  0
LINE
  5
277
100
AcDbEntity
  8
0
100
AcDbLine
 62
7
  6
CONTINUOUS
 10
14.3522941571
 20
14.2531601946
 11
14.3508055226
 21
14.2499756233
  0
LINE
  5
278
100
AcDbEntity
  8
0
100
AcDbLine
 62
7
  6
CONTINUOUS
 10
14.5071410623
 20
14.5469767332
 11
14.5059556343
 21
14.545078349
  0
LINE
  5
279
100
AcDbEntity
  8
0
100
AcDbLine
 62
7
  6
CONTINUOUS
 10
14.5061308277
 20
14.5513313355
 11
14.5049288062
 21
14.5494892927
  0
LINE
  5
27A
100
AcDbEntity
  8
0
100
AcDbLine
 62
7
  6
CONTINUOUS
 10
14.4472505732
 20
10.5869957417
 11
15.3785767436
 21
10.5869957417
  0
LINE
  5
27B
100
AcDbEntity
  8
0
100
AcDbLine
 62
7
  6
CONTINUOUS
 10
15.9681857647
 20
10.518706447
 11
15.9666265131
 21
10.5191102155
  0
LINE
  5
27C
100
AcDbEntity
  8
0
100
AcDbLine
 62
7
  6
CONTINUOUS
 10
14.5258507112
 20
10.5712954765
 11
14.5162291842
 21
10.5869957417
  0
LINE
  5
27D
100
AcDbEntity
  8
0
100
AcDbLine
 62
7
  6
CONTINUOUS
 10
14.4388173711
 20
10.5837254911
 11
14.4400341858
 21
10.5814779534
  0
LINE
  5
27E
100
AcDbEntity
  8
0
100
AcDbLine
 62
7
  6
CONTINUOUS
 10
14.4395018
 20
10.5861648216
 11
14.4406759752
 21
10.5837731504
  0
LINE
  5
27F
100
AcDbEntity
  8
0
100
AcDbLine
 62
7
  6
CONTINUOUS
 10
14.2268986066
 20
13.8824056931
 11
14.2256332464
 21
13.8776813713
  0
LINE
  5
280
100
AcDbEntity
  8
0
100
AcDbLine
 62
7
  6
CONTINUOUS
 10
14.2252224252
 20
13.8854603326
 11
14.2239295894
 21
13.8807702146
  0
LINE
  5
281
100
AcDbEntity
  8
0
100
AcDbLine
 62
7
  6
CONTINUOUS
 10
14.3516538431
 20
14.2549389594
 11
14.3502330604
 21
14.2515592268
  0
LINE
  5
282
100
AcDbEntity
  8
0
100
AcDbLine
 62
7
  6
CONTINUOUS
 10
14.4164667224
 20
14.2501030629
 11
14.4355834282
 21
14.2906654286
  0
LINE
  5
283
100
AcDbEntity
  8
0
100
AcDbLine
 62
7
  6
CONTINUOUS
 10
14.3039305661
 20
10.9129846777
 11
15.2487760734
 21
10.9129846777
  0
LINE
  5
284
100
AcDbEntity
  8
0
100
AcDbLine
 62
7
  6
CONTINUOUS
 10
15.9681857647
 20
10.518706447
 11
15.9666376979
 21
10.5193921973
  0
LINE
  5
285
100
AcDbEntity
  8
0
100
AcDbLine
 62
7
  6
CONTINUOUS
 10
14.3787322902
 20
10.8558811616
 11
14.3560512337
 21
10.9129846777
  0
LINE
  5
286
100
AcDbEntity
  8
0
100
AcDbLine
 62
7
  6
CONTINUOUS
 10
14.2970621157
 20
10.9147436762
 11
14.2984755198
 21
10.9109515849
  0
LINE
  5
287
100
AcDbEntity
  8
0
100
AcDbLine
 62
7
  6
CONTINUOUS
 10
14.2956736756
 20
10.911496313
 11
14.2970542247
 21
10.9076125724
  0
LINE
  5
288
100
AcDbEntity
  8
0
100
AcDbLine
 62
7
  6
CONTINUOUS
 10
14.1146652514
 20
12.0787321687
 11
14.1072886678
 21
12.1911305401
  0
LINE
  5
289
100
AcDbEntity
  8
0
100
AcDbLine
 62
7
  6
CONTINUOUS
 10
14.0546277108
 20
12.4834901095
 11
14.0546337797
 21
12.4821670068
  0
LINE
  5
28A
100
AcDbEntity
  8
0
100
AcDbLine
 62
7
  6
CONTINUOUS
 10
14.0985812672
 20
12.5499099693
 11
14.1004661717
 21
12.663790548
  0
LINE
  5
28B
100
AcDbEntity
  8
0
100
AcDbLine
 62
7
  6
CONTINUOUS
 10
14.0546628122
 20
12.4834911461
 11
14.0546337797
 21
12.4821670068
  0
LINE
  5
28C
100
AcDbEntity
  8
0
100
AcDbLine
 62
7
  6
CONTINUOUS
 10
14.120997491
 20
13.0193786948
 11
14.1320615043
 21
13.1297643531
  0
LINE
  5
28D
100
AcDbEntity
  8
0
100
AcDbLine
 62
7
  6
CONTINUOUS
 10
14.1809342263
 20
13.4666203091
 11
14.2006937979
 21
13.568686664
  0
LINE
  5
28E
100
AcDbEntity
  8
0
100
AcDbLine
 62
7
  6
CONTINUOUS
 10
14.2785074622
 20
13.8809403277
 11
14.303363492
 21
13.9613744697
  0
LINE
  5
28F
100
AcDbEntity
  8
0
100
AcDbLine
 62
7
  6
CONTINUOUS
 10
14.2578701332
 20
11.2127949592
 11
14.233328431
 21
11.3077713441
  0
LINE
  5
290
100
AcDbEntity
  8
0
100
AcDbLine
 62
7
  6
CONTINUOUS
 10
14.181348852
 20
11.3105756444
 11
14.1825532963
 21
11.305309252
  0
LINE
  5
291
100
AcDbEntity
  8
0
100
AcDbLine
 62
7
  6
CONTINUOUS
 10
14.1825795385
 20
11.3124262268
 11
14.1836980785
 21
11.3070408275
  0
LINE
  5
292
100
AcDbEntity
  8
0
100
AcDbLine
 62
7
  6
CONTINUOUS
 10
14.1685464964
 20
11.6264380239
 11
14.1522308167
 21
11.7324418397
  0
LINE
  5
293
100
AcDbEntity
  8
0
100
AcDbLine
 62
7
  6
CONTINUOUS
 10
15.6683865161
 20
14.7526416283
 11
15.6690913679
 21
14.7534896736
  0
LINE
  5
294
100
AcDbEntity
  8
0
100
AcDbLine
 62
7
  6
CONTINUOUS
 10
15.6692842427
 20
14.747726507
 11
15.6699928923
 21
14.7485433834
  0
LINE
  5
295
100
AcDbEntity
  8
0
100
AcDbLine
 62
6
  6
CONTINUOUS
 10
14.8815632274
 20
11.1946572575
 11
15.7934136115
 21
11.1946572575
  0
LINE
  5
296
100
AcDbEntity
  8
0
100
AcDbLine
 62
7
  6
CONTINUOUS
 10
14.1901360173
 20
11.3083689808
 11
15.1464448149
 21
11.3083689808
  0
LINE
  5
297
100
AcDbEntity
  8
0
100
AcDbLine
 62
7
  6
CONTINUOUS
 10
15.5126331349
 20
14.4340576212
 11
15.5110355188
 21
14.4314991804
  0
LINE
  5
298
100
AcDbEntity
  8
0
100
AcDbLine
 62
7
  6
CONTINUOUS
 10
14.8905361306
 20
10.1672360265
 11
14.888200898
 21
10.1965375084
  0
LINE
  5
299
100
AcDbEntity
  8
0
100
AcDbLine
 62
7
  6
CONTINUOUS
 10
14.5998075793
 20
14.5828938807
 11
14.5963338257
 21
14.6500510702
  0
LINE
  5
29A
100
AcDbEntity
  8
0
100
AcDbLine
 62
7
  6
CONTINUOUS
 10
14.7027339359
 20
10.2659446753
 11
14.7029336773
 21
10.3336897704
  0
LINE
  5
29B
100
AcDbEntity
  8
0
100
AcDbLine
 62
7
  6
CONTINUOUS
 10
14.7761281804
 20
14.7488616276
 11
14.7779101007
 21
14.8078750006
  0
LINE
  5
29C
100
AcDbEntity
  8
0
100
AcDbLine
 62
7
  6
CONTINUOUS
 10
14.5270275786
 20
10.462764492
 11
14.5327079114
 21
10.5289225517
  0
LINE
  5
29D
100
AcDbEntity
  8
0
100
AcDbLine
 62
7
  6
CONTINUOUS
 10
14.9673034866
 20
14.8566593145
 11
14.9682966538
 21
14.8653059491
  0
LINE
  5
29E
100
AcDbEntity
  8
0
100
AcDbLine
 62
7
  6
CONTINUOUS
 10
14.3710962696
 20
10.7490935062
 11
14.3820089361
 21
10.8107731058
  0
LINE
  5
29F
100
AcDbEntity
  8
0
100
AcDbLine
 62
7
  6
CONTINUOUS
 10
14.2417549554
 20
11.112417766
 11
14.2574230196
 21
11.1669232111
  0
LINE
  5
2A0
100
AcDbEntity
  8
0
100
AcDbLine
 62
7
  6
CONTINUOUS
 10
14.144656472
 20
11.5368582578
 11
14.1643951644
 21
11.5818073988
  0
LINE
  5
2A1
100
AcDbEntity
  8
0
100
AcDbLine
 62
7
  6
CONTINUOUS
 10
15.5123722533
 20
14.434999037
 11
15.5108416082
 21
14.4321959031
  0
LINE
  5
2A2
100
AcDbEntity
  8
0
100
AcDbLine
 62
7
  6
CONTINUOUS
 10
14.0840444891
 20
12.0038648954
 11
14.1069911341
 21
12.0372932393
  0
LINE
  5
2A3
100
AcDbEntity
  8
0
100
AcDbLine
 62
7
  6
CONTINUOUS
 10
14.0625680412
 20
12.4930272479
 11
14.0877197603
 21
12.5134738155
  0
LINE
  5
2A4
100
AcDbEntity
  8
0
100
AcDbLine
 62
6
  6
CONTINUOUS
 10
14.8815632274
 20
11.6321572575
 11
15.7934136115
 21
11.6321572575
  0
LINE
  5
2A5
100
AcDbEntity
  8
0
100
AcDbLine
 62
7
  6
CONTINUOUS
 10
14.0947494762
 20
12.2238216492
 11
14.0688037678
 21
12.2360905913
  0
LINE
  5
2A6
100
AcDbEntity
  8
0
100
AcDbLine
 62
7
  6
CONTINUOUS
 10
14.090847815
 20
12.7024619922
 11
14.0664624328
 21
12.7283153247
  0
LINE
  5
2A7
100
AcDbEntity
  8
0
100
AcDbLine
 62
7
  6
CONTINUOUS
 10
14.1257843508
 20
13.1727260047
 11
14.1040250531
 21
13.2110338129
  0
LINE
  5
2A8
100
AcDbEntity
  8
0
100
AcDbLine
 62
7
  6
CONTINUOUS
 10
15.4531570382
 20
10.6300727924
 11
15.4517206418
 21
10.6329998604
  0
LINE
  5
2A9
100
AcDbEntity
  8
0
100
AcDbLine
 62
7
  6
CONTINUOUS
 10
15.4520903019
 20
10.6268611491
 11
15.450694867
 21
10.6299234193
  0
LINE
  5
2AA
100
AcDbEntity
  8
0
100
AcDbLine
 62
7
  6
CONTINUOUS
 10
14.1980321893
 20
13.6140608927
 11
14.1798499618
 21
13.6631489416
  0
LINE
  5
2AB
100
AcDbEntity
  8
0
100
AcDbLine
 62
7
  6
CONTINUOUS
 10
14.3044337533
 20
14.0071782039
 11
14.2906232467
 21
14.0649011102
  0
LINE
  5
2AC
100
AcDbEntity
  8
0
100
AcDbLine
 62
7
  6
CONTINUOUS
 10
14.440338784
 20
14.3348968253
 11
14.4315035836
 21
14.398731821
  0
LINE
  5
2AD
100
AcDbEntity
  8
0
100
AcDbLine
 62
7
  6
CONTINUOUS
 10
15.3784355477
 20
14.2075663907
 11
15.3792889754
 21
14.2099709148
  0
LINE
  5
2AE
100
AcDbEntity
  8
0
100
AcDbLine
 62
7
  6
CONTINUOUS
 10
15.3769145932
 20
14.2112559746
 11
15.3777869419
 21
14.2136242071
  0
LINE
  5
2AF
100
AcDbEntity
  8
0
100
AcDbLine
 62
7
  6
CONTINUOUS
 10
14.1109467304
 20
11.7558721954
 11
15.0707348194
 21
11.7558721954
  0
LINE
  5
2B0
100
AcDbEntity
  8
0
100
AcDbLine
 62
7
  6
CONTINUOUS
 10
14.0811657522
 20
12.9829665731
 11
14.1074232946
 21
12.9895377514
  0
LINE
  5
2B1
100
AcDbEntity
  8
0
100
AcDbLine
 62
6
  6
CONTINUOUS
 10
15.5157750717
 20
13.2469675379
 11
16.4276254558
 21
13.2469675379
  0
LINE
  5
2B2
100
AcDbEntity
  8
0
100
AcDbLine
 62
7
  6
CONTINUOUS
 10
15.715814695
 20
13.5265408183
 11
15.6316692786
 21
13.5230660677
  0
LINE
  5
2B3
100
AcDbEntity
  8
0
100
AcDbLine
 62
7
  6
CONTINUOUS
 10
15.0964348745
 20
13.4523331517
 11
14.1385884495
 21
13.4523331517
  0
LINE
  5
2B4
100
AcDbEntity
  8
0
100
AcDbLine
 62
6
  6
CONTINUOUS
 10
15.5157750717
 20
13.6844675379
 11
16.4276254558
 21
13.6844675379
  0
LINE
  5
2B5
100
AcDbEntity
  8
0
100
AcDbLine
 62
7
  6
CONTINUOUS
 10
15.1855501576
 20
13.8809403277
 11
14.2323851296
 21
13.8809403277
  0
LINE
  5
2B6
100
AcDbEntity
  8
0
100
AcDbLine
 62
7
  6
CONTINUOUS
 10
15.3004274385
 20
14.2501030629
 11
14.3588341468
 21
14.2501030629
  0
LINE
  5
2B7
100
AcDbEntity
  8
0
100
AcDbLine
 62
7
  6
CONTINUOUS
 10
16.0456242625
 20
14.5110549929
 11
16.0141372788
 21
14.5110549929
  0
LINE
  5
2B8
100
AcDbEntity
  8
0
100
AcDbLine
 62
7
  6
CONTINUOUS
 10
15.4307725943
 20
14.5436871743
 11
14.5124090725
 21
14.5436871743
  0
LINE
  5
2B9
100
AcDbEntity
  8
0
100
AcDbLine
 62
7
  6
CONTINUOUS
 10
15.5660323252
 20
14.7488616276
 11
14.6863979453
 21
14.7488616276
  0
LINE
  5
2BA
100
AcDbEntity
  8
0
100
AcDbLine
 62
7
  6
CONTINUOUS
 10
15.6595480516
 20
14.8566593145
 11
14.8731966166
 21
14.8566593145
  0
LINE
  5
2BB
100
AcDbEntity
  8
0
100
AcDbLine
 62
7
  6
CONTINUOUS
 10
14.9720000093
 20
14.8724765439
 11
15.6797220378
 21
14.8724765439
  0
LINE
  5
2BC
100
AcDbEntity
  8
0
100
AcDbLine
 62
7
  6
CONTINUOUS
 10
16.2025040847
 20
10.0553921054
 11
16.1245552623
 21
10.0292994054
  0
LINE
  5
2BD
100
AcDbEntity
  8
0
100
AcDbLine
 62
7
  6
CONTINUOUS
 10
14.8727446148
 20
14.8565917236
 11
14.8731966064
 21
14.8566472526
  0
LINE
  5
2BE
100
AcDbEntity
  8
0
100
AcDbLine
 62
7
  6
CONTINUOUS
 10
16.2025040847
 20
14.9662178804
 11
16.1245552623
 21
14.9923105804
  0
CIRCLE
  5
2BF
100
AcDbEntity
  8
0
100
AcDbCircle
 62
7
  6
CONTINUOUS
 10
15.5603552569
 20
5.4606247044
 40
2.5025
  0
CIRCLE
  5
2C0
100
AcDbEntity
  8
0
100
AcDbCircle
 62
7
  6
CONTINUOUS
 10
15.5603552569
 20
5.4606247044
 40
2.4761865466
  0
CIRCLE
  5
2C1
100
AcDbEntity
  8
0
100
AcDbCircle
 62
7
  6
CONTINUOUS
 10
15.5603552569
 20
5.4606247044
 40
2.3617067049
  0
CIRCLE
  5
2C2
100
AcDbEntity
  8
0
100
AcDbCircle
 62
7
  6
CONTINUOUS
 10
15.5603552569
 20
5.4606247044
 40
2.002
  0
CIRCLE
  5
2C3
100
AcDbEntity
  8
0
100
AcDbCircle
 62
7
  6
CONTINUOUS
 10
15.5603552569
 20
5.4606247044
 40
2.00025
  0
ARC
  5
2C4
100
AcDbEntity
  8
0
100
AcDbCircle
 62
7
  6
CONTINUOUS
 10
15.5603552569
 20
5.4606247044
 40
1.373
100
AcDbArc
 50
2.4961673813
 51
80.7199406109
  0
ARC
  5
2C5
100
AcDbEntity
  8
0
100
AcDbCircle
 62
7
  6
CONTINUOUS
 10
15.5603552569
 20
5.4606247044
 40
1.373
100
AcDbArc
 50
192.4961673813
 51
347.5038326187
  0
ARC
  5
2C6
100
AcDbEntity
  8
0
100
AcDbCircle
 62
7
  6
CONTINUOUS
 10
15.5603552569
 20
5.4606247044
 40
1.373
100
AcDbArc
 50
99.2800593891
 51
177.5038326187
  0
ARC
  5
2C7
100
AcDbEntity
  8
0
100
AcDbCircle
 62
7
  6
CONTINUOUS
 10
15.5603552569
 20
5.4606247044
 40
1.3267371429
100
AcDbArc
 50
80.2414976074
 51
99.7585023926
  0
CIRCLE
  5
2C8
100
AcDbEntity
  8
0
100
AcDbCircle
 62
7
  6
CONTINUOUS
 10
15.5603552569
 20
5.4606247044
 40
1.281
  0
ARC
  5
2C9
100
AcDbEntity
  8
0
100
AcDbCircle
 62
7
  6
CONTINUOUS
 10
15.5603552569
 20
6.7756247044
 40
0.225
100
AcDbArc
 50
358.0998259861
 51
181.899664967
  0
CIRCLE
  5
2CA
100
AcDbEntity
  8
0
100
AcDbCircle
 62
7
  6
CONTINUOUS
 10
14.2503592289
 20
5.3460149027
 40
0.21875
  0
CIRCLE
  5
2CB
100
AcDbEntity
  8
0
100
AcDbCircle
 62
7
  6
CONTINUOUS
 10
16.8703512849
 20
5.3460149027
 40
0.21875
  0
ARC
  5
2CC
100
AcDbEntity
  8
0
100
AcDbCircle
 62
7
  6
CONTINUOUS
 10
14.2503592289
 20
5.3460149027
 40
0.185
100
AcDbArc
 50
87.2160786038
 51
282.7830135043
  0
ARC
  5
2CD
100
AcDbEntity
  8
0
100
AcDbCircle
 62
7
  6
CONTINUOUS
 10
16.8703512849
 20
5.3460149027
 40
0.185
100
AcDbArc
 50
257.216076793
 51
92.7830134894
  0
ARC
  5
2CE
100
AcDbEntity
  8
0
100
AcDbCircle
 62
7
  6
CONTINUOUS
 10
13.7261435239
 20
52.806805871
 40
39.5274582435
100
AcDbArc
 50
272.6981981047
 51
274.010497139
  0
ARC
  5
2CF
100
AcDbEntity
  8
0
100
AcDbCircle
 62
7
  6
CONTINUOUS
 10
17.3586319028
 20
11.9944789508
 40
3.2487789238
100
AcDbArc
 50
196.0498516696
 51
199.4722743406
  0
ARC
  5
2D0
100
AcDbEntity
  8
0
100
AcDbCircle
 62
7
  6
CONTINUOUS
 10
17.3340062321
 20
11.9938157181
 40
3.2186891271
100
AcDbArc
 50
196.1133151082
 51
199.5597261825
  0
ARC
  5
2D1
100
AcDbEntity
  8
0
100
AcDbCircle
 62
7
  6
CONTINUOUS
 10
17.3074088854
 20
13.0448954182
 40
3.1945810412
100
AcDbArc
 50
161.2701786661
 51
162.843783733
  0
ARC
  5
2D2
100
AcDbEntity
  8
0
100
AcDbCircle
 62
7
  6
CONTINUOUS
 10
17.1807524799
 20
13.0875404979
 40
3.0609383682
100
AcDbArc
 50
161.0497957468
 51
161.2648740747
  0
ARC
  5
2D3
100
AcDbEntity
  8
0
100
AcDbCircle
 62
7
  6
CONTINUOUS
 10
13.8116787664
 20
12.8677616643
 40
3.0076395062
100
AcDbArc
 50
15.8941615501
 51
16.3055122416
  0
ARC
  5
2D4
100
AcDbEntity
  8
0
100
AcDbCircle
 62
7
  6
CONTINUOUS
 10
13.9734714917
 20
12.915495261
 40
2.8389527492
100
AcDbArc
 50
16.2976634926
 51
18.2921169817
  0
ARC
  5
2D5
100
AcDbEntity
  8
0
100
AcDbCircle
 62
7
  6
CONTINUOUS
 10
16.878945402
 20
13.194549725
 40
2.7407398989
100
AcDbArc
 50
157.3149231013
 51
161.1166658383
  0
ARC
  5
2D6
100
AcDbEntity
  8
0
100
AcDbCircle
 62
7
  6
CONTINUOUS
 10
16.8503979177
 20
13.1973918483
 40
2.7062305086
100
AcDbArc
 50
157.1688092872
 51
161.0377899024
  0
ARC
  5
2D7
100
AcDbEntity
  8
0
100
AcDbCircle
 62
7
  6
CONTINUOUS
 10
16.7821770768
 20
11.7896594339
 40
2.6370138899
100
AcDbArc
 50
199.5413456246
 51
203.3688317378
  0
ARC
  5
2D8
100
AcDbEntity
  8
0
100
AcDbCircle
 62
7
  6
CONTINUOUS
 10
16.5068355066
 20
11.6739407291
 40
2.3383606898
100
AcDbArc
 50
203.442032674
 51
203.7215142938
  0
ARC
  5
2D9
100
AcDbEntity
  8
0
100
AcDbCircle
 62
7
  6
CONTINUOUS
 10
17.1931055704
 20
13.5180065005
 40
1.9146338677
100
AcDbArc
 50
152.8176724359
 51
153.1506815597
  0
ARC
  5
2DA
100
AcDbEntity
  8
0
100
AcDbCircle
 62
7
  6
CONTINUOUS
 10
16.0967874617
 20
13.5426489509
 40
1.8842322278
100
AcDbArc
 50
152.4341545877
 51
152.7512179755
  0
ARC
  5
2DB
100
AcDbEntity
  8
0
100
AcDbCircle
 62
7
  6
CONTINUOUS
 10
17.1202481803
 20
13.5557246764
 40
1.8325925111
100
AcDbArc
 50
151.6978843635
 51
152.8260985145
  0
ARC
  5
2DC
100
AcDbEntity
  8
0
100
AcDbCircle
 62
7
  6
CONTINUOUS
 10
17.0651725302
 20
13.585297026
 40
1.7700797506
100
AcDbArc
 50
151.4156265069
 51
151.6954489012
  0
ARC
  5
2DD
100
AcDbEntity
  8
0
100
AcDbCircle
 62
7
  6
CONTINUOUS
 10
15.614079193
 20
11.1937695883
 40
1.3232449776
100
AcDbArc
 50
214.057700385
 51
214.4903501285
  0
ARC
  5
2DE
100
AcDbEntity
  8
0
100
AcDbCircle
 62
7
  6
CONTINUOUS
 10
16.5317327675
 20
11.097119835
 40
1.1373243921
100
AcDbArc
 50
217.1516164823
 51
217.3981833117
  0
ARC
  5
2DF
100
AcDbEntity
  8
0
100
AcDbCircle
 62
7
  6
CONTINUOUS
 10
16.5190956614
 20
11.0874608251
 40
1.1214186409
100
AcDbArc
 50
217.3982706808
 51
217.7713297425
  0
ARC
  5
2E0
100
AcDbEntity
  8
0
100
AcDbCircle
 62
7
  6
CONTINUOUS
 10
15.3637845433
 20
14.0160530105
 40
1.00994924
100
AcDbArc
 50
139.7112368445
 51
140.249666468
  0
ARC
  5
2E1
100
AcDbEntity
  8
0
100
AcDbCircle
 62
7
  6
CONTINUOUS
 10
16.3432874686
 20
14.0820834803
 40
0.8915687111
100
AcDbArc
 50
136.9765914018
 51
137.2468575058
  0
ARC
  5
2E2
100
AcDbEntity
  8
0
100
AcDbCircle
 62
7
  6
CONTINUOUS
 10
15.1271948088
 20
10.7714794494
 40
0.6766852363
100
AcDbArc
 50
230.2020390352
 51
230.8879976047
  0
ARC
  5
2E3
100
AcDbEntity
  8
0
100
AcDbCircle
 62
7
  6
CONTINUOUS
 10
14.9936777241
 20
14.4957026902
 40
0.5273767251
100
AcDbArc
 50
118.3814711542
 51
119.5257127283
  0
ARC
  5
2E4
100
AcDbEntity
  8
0
100
AcDbCircle
 62
7
  6
CONTINUOUS
 10
15.038012054
 20
14.3754457155
 40
0.5227251307
100
AcDbArc
 50
120.301806723
 51
121.1114285749
  0
ARC
  5
2E5
100
AcDbEntity
  8
0
100
AcDbCircle
 62
7
  6
CONTINUOUS
 10
15.0324753527
 20
14.3849495615
 40
0.5117261344
100
AcDbArc
 50
119.4288435358
 51
120.3034790912
  0
ARC
  5
2E6
100
AcDbEntity
  8
0
100
AcDbCircle
 62
7
  6
CONTINUOUS
 10
14.9845713735
 20
10.5255416961
 40
0.3903753214
100
AcDbArc
 50
255.3264334932
 51
256.155119486
  0
ARC
  5
2E7
100
AcDbEntity
  8
0
100
AcDbCircle
 62
7
  6
CONTINUOUS
 10
16.0485136898
 20
14.4939503841
 40
0.3787891306
100
AcDbArc
 50
101.6096329987
 51
102.5130667865
  0
ARC
  5
2E8
100
AcDbEntity
  8
0
100
AcDbCircle
 62
7
  6
CONTINUOUS
 10
16.0458349516
 20
14.5089476627
 40
0.3635598122
100
AcDbArc
 50
89.6440891944
 51
101.6717507169
  0
ARC
  5
2E9
100
AcDbEntity
  8
0
100
AcDbCircle
 62
7
  6
CONTINUOUS
 10
14.9794877033
 20
10.4961887494
 40
0.3605382493
100
AcDbArc
 50
270.0397569085
 51
271.2331887348
  0
ARC
  5
2EA
100
AcDbEntity
  8
0
100
AcDbCircle
 62
7
  6
CONTINUOUS
 10
16.0456317628
 20
14.5140676416
 40
0.3584412713
100
AcDbArc
 50
89.0919893104
 51
89.6065268936
  0
ARC
  5
2EB
100
AcDbEntity
  8
0
100
AcDbCircle
 62
7
  6
CONTINUOUS
 10
16.0757924429
 20
14.2040524956
 40
0.3070099555
100
AcDbArc
 50
95.6055740003
 51
96.2259276581
  0
ARC
  5
2EC
100
AcDbEntity
  8
0
100
AcDbCircle
 62
7
  6
CONTINUOUS
 10
16.0455315111
 20
14.2071682565
 40
0.3056361211
100
AcDbArc
 50
84.4043585497
 51
87.4297670166
  0
ARC
  5
2ED
100
AcDbEntity
  8
0
100
AcDbCircle
 62
7
  6
CONTINUOUS
 10
16.0756148676
 20
10.8155171419
 40
0.3049598508
100
AcDbArc
 50
264.4833221347
 51
269.9894560093
  0
ARC
  5
2EE
100
AcDbEntity
  8
0
100
AcDbCircle
 62
7
  6
CONTINUOUS
 10
16.0456065745
 20
10.8137103773
 40
0.3049030758
100
AcDbArc
 50
270.003324185
 51
275.6391036219
  0
ARC
  5
2EF
100
AcDbEntity
  8
0
100
AcDbCircle
 62
7
  6
CONTINUOUS
 10
16.0456038422
 20
14.2087094812
 40
0.3040932033
100
AcDbArc
 50
87.4303593241
 51
89.9961524805
  0
ARC
  5
2F0
100
AcDbEntity
  8
0
100
AcDbCircle
 62
7
  6
CONTINUOUS
 10
16.0755498321
 20
14.2069662156
 40
0.3040864741
100
AcDbArc
 50
89.9983206562
 51
95.61370633
  0
ARC
  5
2F1
100
AcDbEntity
  8
0
100
AcDbCircle
 62
7
  6
CONTINUOUS
 10
18.5339233435
 20
-36.5829463421
 40
50.2511950921
100
AcDbArc
 50
92.4459450904
 51
93.1782896587
  0
ARC
  5
2F2
100
AcDbEntity
  8
0
100
AcDbCircle
 62
7
  6
CONTINUOUS
 10
21.4356823178
 20
12.510843593
 40
6.4116138384
100
AcDbArc
 50
177.9580580757
 51
182.387718404
  0
ARC
  5
2F3
100
AcDbEntity
  8
0
100
AcDbCircle
 62
7
  6
CONTINUOUS
 10
21.3032419684
 20
12.5156045032
 40
6.2790879508
100
AcDbArc
 50
175.7824076452
 51
177.9584129984
  0
ARC
  5
2F4
100
AcDbEntity
  8
0
100
AcDbCircle
 62
7
  6
CONTINUOUS
 10
21.2207856543
 20
12.5012206238
 40
6.1965028798
100
AcDbArc
 50
182.3816000156
 51
184.7300841062
  0
ARC
  5
2F5
100
AcDbEntity
  8
0
100
AcDbCircle
 62
7
  6
CONTINUOUS
 10
20.134001794
 20
12.5109388242
 40
6.0794357047
100
AcDbArc
 50
177.9460782346
 51
180.1672695961
  0
ARC
  5
2F6
100
AcDbEntity
  8
0
100
AcDbCircle
 62
7
  6
CONTINUOUS
 10
20.1289021197
 20
12.5106157318
 40
6.0743349592
100
AcDbArc
 50
180.2683417767
 51
182.5137265915
  0
ARC
  5
2F7
100
AcDbEntity
  8
0
100
AcDbCircle
 62
7
  6
CONTINUOUS
 10
20.082639335
 20
12.5101880711
 40
6.0228495946
100
AcDbArc
 50
180.2550523322
 51
182.5254827218
  0
ARC
  5
2F8
100
AcDbEntity
  8
0
100
AcDbCircle
 62
7
  6
CONTINUOUS
 10
19.9741745373
 20
12.515901429
 40
5.914293418
100
AcDbArc
 50
175.5481243764
 51
177.8428065953
  0
ARC
  5
2F9
100
AcDbEntity
  8
0
100
AcDbCircle
 62
7
  6
CONTINUOUS
 10
19.9657640642
 20
12.5180458501
 40
5.9110495187
100
AcDbArc
 50
175.5537644209
 51
177.8582168523
  0
ARC
  5
2FA
100
AcDbEntity
  8
0
100
AcDbCircle
 62
7
  6
CONTINUOUS
 10
19.9566765421
 20
12.5030088844
 40
5.9019408156
100
AcDbArc
 50
182.5986029318
 51
184.8679461535
  0
ARC
  5
2FB
100
AcDbEntity
  8
0
100
AcDbCircle
 62
7
  6
CONTINUOUS
 10
20.9031695471
 20
12.5469985787
 40
5.8777903922
100
AcDbArc
 50
172.2947405231
 51
175.8007917556
  0
ARC
  5
2FC
100
AcDbEntity
  8
0
100
AcDbCircle
 62
7
  6
CONTINUOUS
 10
19.646836173
 20
12.544607807
 40
5.591019605
100
AcDbArc
 50
173.1316476132
 51
175.4873829744
  0
ARC
  5
2FD
100
AcDbEntity
  8
0
100
AcDbCircle
 62
7
  6
CONTINUOUS
 10
19.6357308172
 20
12.4758598823
 40
5.5798473671
100
AcDbArc
 50
184.9798371933
 51
187.3625566398
  0
ARC
  5
2FE
100
AcDbEntity
  8
0
100
AcDbCircle
 62
7
  6
CONTINUOUS
 10
19.5427163661
 20
12.4688430421
 40
5.4812457558
100
AcDbArc
 50
184.9805518994
 51
187.4019168508
  0
ARC
  5
2FF
100
AcDbEntity
  8
0
100
AcDbCircle
 62
7
  6
CONTINUOUS
 10
19.4826156383
 20
12.5637656972
 40
5.4256865635
100
AcDbArc
 50
173.0083190965
 51
173.1251164328
  0
ARC
  5
300
100
AcDbEntity
  8
0
100
AcDbCircle
 62
7
  6
CONTINUOUS
 10
20.4376959882
 20
12.6075463621
 40
5.4084021041
100
AcDbArc
 50
170.4588041943
 51
172.2692275948
  0
ARC
  5
301
100
AcDbEntity
  8
0
100
AcDbCircle
 62
7
  6
CONTINUOUS
 10
19.2494752722
 20
12.5899051788
 40
5.1856656893
100
AcDbArc
 50
170.4943172997
 51
172.9953767749
  0
ARC
  5
302
100
AcDbEntity
  8
0
100
AcDbCircle
 62
7
  6
CONTINUOUS
 10
19.2253724707
 20
12.5974965617
 40
5.1662508556
100
AcDbArc
 50
170.7248024175
 51
173.0323525766
  0
ARC
  5
303
100
AcDbEntity
  8
0
100
AcDbCircle
 62
7
  6
CONTINUOUS
 10
19.1929788747
 20
12.4195074866
 40
5.1335231055
100
AcDbArc
 50
187.4543599278
 51
189.9214149726
  0
ARC
  5
304
100
AcDbEntity
  8
0
100
AcDbCircle
 62
7
  6
CONTINUOUS
 10
19.0064222736
 20
12.6324916436
 40
4.9445229739
100
AcDbArc
 50
170.5095780528
 51
170.7160871778
  0
ARC
  5
305
100
AcDbEntity
  8
0
100
AcDbCircle
 62
7
  6
CONTINUOUS
 10
18.8829696834
 20
12.3679689506
 40
4.8192708792
100
AcDbArc
 50
189.9528725571
 51
190.0894795787
  0
ARC
  5
306
100
AcDbEntity
  8
0
100
AcDbCircle
 62
7
  6
CONTINUOUS
 10
18.663066874
 20
12.6935171794
 40
4.5958014247
100
AcDbArc
 50
167.7805678904
 51
170.4700882228
  0
ARC
  5
307
100
AcDbEntity
  8
0
100
AcDbCircle
 62
7
  6
CONTINUOUS
 10
18.6407711152
 20
12.3237805042
 40
4.5730767552
100
AcDbArc
 50
190.0760071992
 51
192.8005984085
  0
ARC
  5
308
100
AcDbEntity
  8
0
100
AcDbCircle
 62
7
  6
CONTINUOUS
 10
18.5130614932
 20
12.3031219404
 40
4.4380700629
100
AcDbArc
 50
190.0951343004
 51
192.8870701929
  0
ARC
  5
309
100
AcDbEntity
  8
0
100
AcDbCircle
 62
7
  6
CONTINUOUS
 10
18.4095047303
 20
12.7473305811
 40
4.3365941313
100
AcDbArc
 50
167.6174139143
 51
167.7663805974
  0
ARC
  5
30A
100
AcDbEntity
  8
0
100
AcDbCircle
 62
7
  6
CONTINUOUS
 10
18.1196279637
 20
12.8069670784
 40
4.0348165601
100
AcDbArc
 50
164.6252364645
 51
167.576948329
  0
ARC
  5
30B
100
AcDbEntity
  8
0
100
AcDbCircle
 62
7
  6
CONTINUOUS
 10
18.1007675229
 20
12.8176857275
 40
4.0199528592
100
AcDbArc
 50
164.6656081777
 51
167.6532366428
  0
ARC
  5
30C
100
AcDbEntity
  8
0
100
AcDbCircle
 62
7
  6
CONTINUOUS
 10
18.0388463277
 20
12.1885407683
 40
3.956146339
100
AcDbArc
 50
192.9003177645
 51
195.8615664822
  0
ARC
  5
30D
100
AcDbEntity
  8
0
100
AcDbCircle
 62
7
  6
CONTINUOUS
 10
17.6844752253
 20
12.0916850884
 40
3.5887978426
100
AcDbArc
 50
195.9204254136
 51
196.1030173851
  0
ARC
  5
30E
100
AcDbEntity
  8
0
100
AcDbCircle
 62
7
  6
CONTINUOUS
 10
17.5958024927
 20
12.9553031939
 40
3.4965700757
100
AcDbArc
 50
162.8350011256
 51
164.5724371887
  0
ARC
  5
30F
100
AcDbEntity
  8
0
100
AcDbCircle
 62
7
  6
CONTINUOUS
 10
18.4486214373
 20
13.0851640543
 40
3.2716151897
100
AcDbArc
 50
159.8669947675
 51
162.8472885364
  0
SPLINE
  5
310
100
AcDbEntity
  8
0
100
AcDbSpline
 62
7
  6
CONTINUOUS
 70
0
 71
3
 72
28
 73
24
 74
0
 42
0.0000001
 43
0.0000001
 44
0.0000000001
 40
0.0
 40
0.0
 40
0.0
 40
0.0
 40
0.1224961206
 40
0.1838053889
 40
0.2451995988
 40
0.3067623376
 40
0.3687144026
 40
0.400033806
 40
0.4318598063
 40
0.4481442152
 40
0.4648940616
 40
0.4821820407
 40
0.4999665709
 40
0.5178292822
 40
0.5351470495
 40
0.5681297469
 40
0.5999699036
 40
0.6312846439
 40
0.6932374985
 40
0.7548004932
 40
0.8161946932
 40
0.877503939
 40
1.0
 40
1.0
 40
1.0
 40
1.0
 10
14.2912920975
 20
5.1656001021
 30
0.0
 10
14.2885164515
 20
5.1803267847
 30
0.0
 10
14.2847306421
 20
5.2024981847
 30
0.0
 10
14.2804446847
 20
5.232188723
 30
0.0
 10
14.2776057302
 20
5.254553269
 30
0.0
 10
14.2751370175
 20
5.2770406593
 30
0.0
 10
14.2733841157
 20
5.2959024306
 30
0.0
 10
14.2721424931
 20
5.3111563013
 30
0.0
 10
14.2714158347
 20
5.3208464417
 30
0.0
 10
14.2708344015
 20
5.3287600075
 30
0.0
 10
14.2703916382
 20
5.3349003979
 30
0.0
 10
14.2699208841
 20
5.3412227999
 30
0.0
 10
14.2693797217
 20
5.347676265
 30
0.0
 10
14.2687820991
 20
5.354128356
 30
0.0
 10
14.2679630483
 20
5.3624270364
 30
0.0
 10
14.2669271873
 20
5.372422464
 30
0.0
 10
14.2657563764
 20
5.3841254133
 30
0.0
 10
14.2643317263
 20
5.3993645439
 30
0.0
 10
14.2627845468
 20
5.4182438478
 30
0.0
 10
14.2613096711
 20
5.4408183332
 30
0.0
 10
14.2602218619
 20
5.4633361218
 30
0.0
 10
14.2592869421
 20
5.4933198282
 30
0.0
 10
14.2591653044
 20
5.5158117855
 30
0.0
 10
14.2593415339
 20
5.5307967151
 30
0.0
  0
SPLINE
  5
311
100
AcDbEntity
  8
0
100
AcDbSpline
 62
7
  6
CONTINUOUS
 70
0
 71
3
 72
25
 73
21
 74
0
 42
0.0000001
 43
0.0000001
 44
0.0000000001
 40
0.0
 40
0.0
 40
0.0
 40
0.0
 40
0.1224995391
 40
0.1838105316
 40
0.2452064741
 40
0.306771236
 40
0.3687264271
 40
0.4000419174
 40
0.4318846285
 40
0.4648624403
 40
0.5000260017
 40
0.5351224255
 40
0.5681148946
 40
0.5999590868
 40
0.6312733643
 40
0.6932289695
 40
0.7547935359
 40
0.8161895132
 40
0.8775004912
 40
1.0
 40
1.0
 40
1.0
 40
1.0
 10
16.86136898
 20
5.5307967151
 30
0.0
 10
16.8615448808
 20
5.5158113595
 30
0.0
 10
16.8614236611
 20
5.4933187657
 30
0.0
 10
16.8604883266
 20
5.4633342333
 30
0.0
 10
16.8594012122
 20
5.4408157544
 30
0.0
 10
16.8579246105
 20
5.4182407136
 30
0.0
 10
16.8563815668
 20
5.3993604075
 30
0.0
 10
16.8549474197
 20
5.3841215181
 30
0.0
 10
16.8537935451
 20
5.3724170463
 30
0.0
 10
16.8525168421
 20
5.3602520538
 30
0.0
 10
16.8512905273
 20
5.3476811389
 30
0.0
 10
16.8503319294
 20
5.3350853052
 30
0.0
 10
16.8494440674
 20
5.3228920777
 30
0.0
 10
16.8485759975
 20
5.3111611087
 30
0.0
 10
16.8473222492
 20
5.2959061864
 30
0.0
 10
16.8455753034
 20
5.277043902
 30
0.0
 10
16.8431041604
 20
5.2545558559
 30
0.0
 10
16.8402663934
 20
5.2321905325
 30
0.0
 10
16.8359797697
 20
5.2024992386
 30
0.0
 10
16.8321945684
 20
5.1803271077
 30
0.0
 10
16.8294184164
 20
5.1656001021
 30
0.0
  0
SPLINE
  5
312
100
AcDbEntity
  8
0
100
AcDbSpline
 62
7
  6
CONTINUOUS
 70
0
 71
3
 72
19
 73
15
 74
0
 42
0.0000001
 43
0.0000001
 44
0.0000000001
 40
0.0
 40
0.0
 40
0.0
 40
0.0
 40
0.083548913
 40
0.1670341158
 40
0.2502152999
 40
0.3328725034
 40
0.4158723479
 40
0.4987550297
 40
0.5815709743
 40
0.6646127849
 40
0.7478374389
 40
0.8318708028
 40
0.9161467844
 40
1.0
 40
1.0
 40
1.0
 40
1.0
 10
14.2503592289
 20
5.5310149027
 30
0.0
 10
14.2664988786
 20
5.5309413261
 30
0.0
 10
14.2989257547
 20
5.5267775433
 30
0.0
 10
14.344053062
 20
5.5079816999
 30
0.0
 10
14.3826811493
 20
5.4783009901
 30
0.0
 10
14.4122874287
 20
5.4397425329
 30
0.0
 10
14.4309601609
 20
5.39491658
 30
0.0
 10
14.4374569925
 20
5.3467638375
 30
0.0
 10
14.4313432533
 20
5.2985538283
 30
0.0
 10
14.4129904467
 20
5.2534809821
 30
0.0
 10
14.3834799869
 20
5.2144814956
 30
0.0
 10
14.3446446817
 20
5.1843398634
 30
0.0
 10
14.2991977706
 20
5.165306142
 30
0.0
 10
14.2665577491
 20
5.1610663781
 30
0.0
 10
14.2503592289
 20
5.1610149027
 30
0.0
  0
SPLINE
  5
313
100
AcDbEntity
  8
0
100
AcDbSpline
 62
7
  6
CONTINUOUS
 70
0
 71
3
 72
19
 73
15
 74
0
 42
0.0000001
 43
0.0000001
 44
0.0000000001
 40
0.0
 40
0.0
 40
0.0
 40
0.0
 40
0.083548913
 40
0.1670341158
 40
0.2502152999
 40
0.3328725034
 40
0.4158723479
 40
0.4987550297
 40
0.5815709743
 40
0.6646127849
 40
0.7478374389
 40
0.8318708028
 40
0.9161467844
 40
1.0
 40
1.0
 40
1.0
 40
1.0
 10
14.2503592289
 20
5.1610149027
 30
0.0
 10
14.2342195792
 20
5.1610884794
 30
0.0
 10
14.2017927032
 20
5.1652522622
 30
0.0
 10
14.1566653959
 20
5.1840481056
 30
0.0
 10
14.1180373086
 20
5.2137288154
 30
0.0
 10
14.0884310292
 20
5.2522872725
 30
0.0
 10
14.069758297
 20
5.2971132255
 30
0.0
 10
14.0632614654
 20
5.3452659679
 30
0.0
 10
14.0693752046
 20
5.3934759772
 30
0.0
 10
14.0877280112
 20
5.4385488233
 30
0.0
 10
14.117238471
 20
5.4775483098
 30
0.0
 10
14.1560737762
 20
5.507689942
 30
0.0
 10
14.2015206873
 20
5.5267236635
 30
0.0
 10
14.2341607087
 20
5.5309634273
 30
0.0
 10
14.2503592289
 20
5.5310149027
 30
0.0
  0
SPLINE
  5
314
100
AcDbEntity
  8
0
100
AcDbSpline
 62
7
  6
CONTINUOUS
 70
0
 71
3
 72
19
 73
15
 74
0
 42
0.0000001
 43
0.0000001
 44
0.0000000001
 40
0.0
 40
0.0
 40
0.0
 40
0.0
 40
0.083548913
 40
0.1670341158
 40
0.2502152999
 40
0.3328725034
 40
0.4158723479
 40
0.4987550297
 40
0.5815709743
 40
0.6646127849
 40
0.7478374389
 40
0.8318708028
 40
0.9161467844
 40
1.0
 40
1.0
 40
1.0
 40
1.0
 10
16.8703512849
 20
5.5310149027
 30
0.0
 10
16.8864909346
 20
5.5309413261
 30
0.0
 10
16.9189178107
 20
5.5267775433
 30
0.0
 10
16.964045118
 20
5.5079816999
 30
0.0
 10
17.0026732053
 20
5.4783009901
 30
0.0
 10
17.0322794847
 20
5.4397425329
 30
0.0
 10
17.0509522169
 20
5.39491658
 30
0.0
 10
17.0574490485
 20
5.3467638375
 30
0.0
 10
17.0513353093
 20
5.2985538283
 30
0.0
 10
17.0329825027
 20
5.2534809821
 30
0.0
 10
17.0034720429
 20
5.2144814956
 30
0.0
 10
16.9646367377
 20
5.1843398634
 30
0.0
 10
16.9191898266
 20
5.165306142
 30
0.0
 10
16.8865498051
 20
5.1610663781
 30
0.0
 10
16.8703512849
 20
5.1610149027
 30
0.0
  0
SPLINE
  5
315
100
AcDbEntity
  8
0
100
AcDbSpline
 62
7
  6
CONTINUOUS
 70
0
 71
3
 72
19
 73
15
 74
0
 42
0.0000001
 43
0.0000001
 44
0.0000000001
 40
0.0
 40
0.0
 40
0.0
 40
0.0
 40
0.083548913
 40
0.1670341158
 40
0.2502152999
 40
0.3328725034
 40
0.4158723479
 40
0.4987550297
 40
0.5815709743
 40
0.6646127849
 40
0.7478374389
 40
0.8318708028
 40
0.9161467844
 40
1.0
 40
1.0
 40
1.0
 40
1.0
 10
16.8703512849
 20
5.1610149027
 30
0.0
 10
16.8542116352
 20
5.1610884794
 30
0.0
 10
16.8217847592
 20
5.1652522622
 30
0.0
 10
16.7766574519
 20
5.1840481056
 30
0.0
 10
16.7380293645
 20
5.2137288154
 30
0.0
 10
16.7084230852
 20
5.2522872725
 30
0.0
 10
16.689750353
 20
5.2971132255
 30
0.0
 10
16.6832535214
 20
5.3452659679
 30
0.0
 10
16.6893672606
 20
5.3934759772
 30
0.0
 10
16.7077200672
 20
5.4385488233
 30
0.0
 10
16.737230527
 20
5.4775483098
 30
0.0
 10
16.7760658322
 20
5.507689942
 30
0.0
 10
16.8215127433
 20
5.5267236635
 30
0.0
 10
16.8541527647
 20
5.5309634273
 30
0.0
 10
16.8703512849
 20
5.5310149027
 30
0.0
  0
SPLINE
  5
316
100
AcDbEntity
  8
0
100
AcDbSpline
 62
7
  6
CONTINUOUS
 70
0
 71
3
 72
23
 73
19
 74
0
 42
0.0000001
 43
0.0000001
 44
0.0000000001
 40
0.0
 40
0.0
 40
0.0
 40
0.0
 40
0.055715196
 40
0.1139180392
 40
0.1742841577
 40
0.2365128867
 40
0.3002799769
 40
0.3652344838
 40
0.4310168549
 40
0.4972615993
 40
0.5635967774
 40
0.6296497961
 40
0.6950508701
 40
0.7594370585
 40
0.8224545463
 40
0.8837649813
 40
0.9430459754
 40
1.0
 40
1.0
 40
1.0
 40
1.0
 10
16.6857187395
 20
11.2674296539
 30
0.0
 10
16.6991687178
 20
11.3109537994
 30
0.0
 10
16.7245277739
 20
11.4006179887
 30
0.0
 10
16.7574315022
 20
11.5393070735
 30
0.0
 10
16.7858480789
 20
11.6844148685
 30
0.0
 10
16.8095922352
 20
11.8349632878
 30
0.0
 10
16.8285111675
 20
11.9899720913
 30
0.0
 10
16.8424731025
 20
12.1484210941
 30
0.0
 10
16.8513907064
 20
12.3092618209
 30
0.0
 10
16.8551974112
 20
12.4714332075
 30
0.0
 10
16.8538761432
 20
12.6338650584
 30
0.0
 10
16.8474283997
 20
12.7954842908
 30
0.0
 10
16.8359015682
 20
12.9552239112
 30
0.0
 10
16.8193717982
 20
13.1120295421
 30
0.0
 10
16.7979460491
 20
13.2648664803
 30
0.0
 10
16.7717733103
 20
13.4127288219
 30
0.0
 10
16.741019237
 20
13.5546380771
 30
0.0
 10
16.7170872939
 20
13.6466500224
 30
0.0
 10
16.7043338715
 20
13.6914374757
 30
0.0
  0
SPLINE
  5
317
100
AcDbEntity
  8
0
100
AcDbSpline
 62
7
  6
CONTINUOUS
 70
0
 71
3
 72
23
 73
19
 74
0
 42
0.0000001
 43
0.0000001
 44
0.0000000001
 40
0.0
 40
0.0
 40
0.0
 40
0.0
 40
0.0875223258
 40
0.1717519813
 40
0.2525593698
 40
0.3298338241
 40
0.4034949664
 40
0.4734997162
 40
0.5398362029
 40
0.6025449288
 40
0.6617171017
 40
0.7175032208
 40
0.7701336682
 40
0.8199158703
 40
0.8672521754
 40
0.912641778
 40
0.956670708
 40
1.0
 40
1.0
 40
1.0
 40
1.0
 10
16.6689681804
 20
13.8065341567
 30
0.0
 10
16.660026899
 20
13.8335376777
 30
0.0
 10
16.6416298069
 20
13.8862527233
 30
0.0
 10
16.6118664988
 20
13.9627688385
 30
0.0
 10
16.5805402911
 20
14.0350457228
 30
0.0
 10
16.5477388156
 20
14.1028721086
 30
0.0
 10
16.5135538145
 20
14.1660507778
 30
0.0
 10
16.4780903503
 20
14.2244033598
 30
0.0
 10
16.4414399879
 20
14.2777578897
 30
0.0
 10
16.4037093118
 20
14.3259634506
 30
0.0
 10
16.3650027371
 20
14.3688834655
 30
0.0
 10
16.3254155375
 20
14.4063854592
 30
0.0
 10
16.2850596209
 20
14.4383645734
 30
0.0
 10
16.2440327192
 20
14.4647123048
 30
0.0
 10
16.2024438099
 20
14.4853308084
 30
0.0
 10
16.1604107208
 20
14.500143145
 30
0.0
 10
16.1180712361
 20
14.5090601852
 30
0.0
 10
16.0896410478
 20
14.5110519279
 30
0.0
 10
16.0755587449
 20
14.5110526896
 30
0.0
  0
SPLINE
  5
318
100
AcDbEntity
  8
0
100
AcDbSpline
 62
7
  6
CONTINUOUS
 70
0
 71
3
 72
15
 73
11
 74
0
 42
0.0000001
 43
0.0000001
 44
0.0000000001
 40
0.0
 40
0.0
 40
0.0
 40
0.0
 40
0.1574017632
 40
0.3040331684
 40
0.440132617
 40
0.5662351246
 40
0.6834213757
 40
0.7933253554
 40
0.8980209689
 40
1.0
 40
1.0
 40
1.0
 40
1.0
 10
16.3893596556
 20
13.6224631542
 30
0.0
 10
16.3907329308
 20
13.6246737472
 30
0.0
 10
16.3935309533
 20
13.6288563276
 30
0.0
 10
16.3980507316
 20
13.6345703475
 30
0.0
 10
16.4027213389
 20
13.6394721483
 30
0.0
 10
16.4075240169
 20
13.643529224
 30
0.0
 10
16.4124385766
 20
13.6467157918
 30
0.0
 10
16.4174433868
 20
13.6490147245
 30
0.0
 10
16.4225145301
 20
13.6504056932
 30
0.0
 10
16.4259393691
 20
13.6507156942
 30
0.0
 10
16.427625453
 20
13.6507152084
 30
0.0
  0
SPLINE
  5
319
100
AcDbEntity
  8
0
100
AcDbSpline
 62
7
  6
CONTINUOUS
 70
0
 71
3
 72
23
 73
19
 74
0
 42
0.0000001
 43
0.0000001
 44
0.0000000001
 40
0.0
 40
0.0
 40
0.0
 40
0.0
 40
0.0842577803
 40
0.1655036048
 40
0.2436532473
 40
0.3186377593
 40
0.3904357706
 40
0.4590700127
 40
0.5245856877
 40
0.5870571006
 40
0.6465956666
 40
0.7033490498
 40
0.7575081296
 40
0.8093224611
 40
0.8590966055
 40
0.9071865812
 40
0.9540024166
 40
1.0
 40
1.0
 40
1.0
 40
1.0
 10
15.715813872
 20
13.5265419508
 30
0.0
 10
15.7215452524
 20
13.5399274682
 30
0.0
 10
15.7332203828
 20
13.5660442075
 30
0.0
 10
15.7517234082
 20
13.603877238
 30
0.0
 10
15.7708627657
 20
13.6395857599
 30
0.0
 10
15.7906003034
 20
13.6730866793
 30
0.0
 10
15.8108962945
 20
13.7043100402
 30
0.0
 10
15.8317094636
 20
13.7331989672
 30
0.0
 10
15.8530032188
 20
13.7597001421
 30
0.0
 10
15.8747410639
 20
13.7837619123
 30
0.0
 10
15.8968801307
 20
13.8053405443
 30
0.0
 10
15.9193796282
 20
13.824393335
 30
0.0
 10
15.9422021669
 20
13.8408757624
 30
0.0
 10
15.9653047392
 20
13.8547534116
 30
0.0
 10
15.9886430123
 20
13.8659977411
 30
0.0
 10
16.0121753498
 20
13.874577051
 30
0.0
 10
16.0358500216
 20
13.8804631101
 30
0.0
 10
16.05178731
 20
13.8825954657
 30
0.0
 10
16.0597133662
 20
13.8831994035
 30
0.0
  0
SPLINE
  5
31A
100
AcDbEntity
  8
0
100
AcDbSpline
 62
7
  6
CONTINUOUS
 70
0
 71
3
 72
18
 73
14
 74
0
 42
0.0000001
 43
0.0000001
 44
0.0000000001
 40
0.0
 40
0.0
 40
0.0
 40
0.0
 40
0.1725686477
 40
0.331714196
 40
0.4761465812
 40
0.6055504396
 40
0.7203863706
 40
0.7728198222
 40
0.8222771924
 40
0.8691569584
 40
0.9139784532
 40
0.9573619271
 40
1.0
 40
1.0
 40
1.0
 40
1.0
 10
15.6057942712
 20
13.468084344
 30
0.0
 10
15.6077613868
 20
13.4744499325
 30
0.0
 10
15.6119287216
 20
13.4865725368
 30
0.0
 10
15.6191895325
 20
13.5034821971
 30
0.0
 10
15.627150499
 20
13.5182135318
 30
0.0
 10
15.6357056723
 20
13.530583522
 30
0.0
 10
15.6434966335
 20
13.5390539443
 30
0.0
 10
15.6499573792
 20
13.5443897429
 30
0.0
 10
15.6547403537
 20
13.5475899744
 30
0.0
 10
15.6595951329
 20
13.5500946163
 30
0.0
 10
15.6645068759
 20
13.5518924859
 30
0.0
 10
15.6694566273
 20
13.552976897
 30
0.0
 10
15.6727825034
 20
13.5532203764
 30
0.0
 10
15.6744286917
 20
13.5532209101
 30
0.0
  0
SPLINE
  5
31B
100
AcDbEntity
  8
0
100
AcDbSpline
 62
7
  6
CONTINUOUS
 70
0
 71
3
 72
17
 73
13
 74
0
 42
0.0000001
 43
0.0000001
 44
0.0000000001
 40
0.0
 40
0.0
 40
0.0
 40
0.0
 40
0.0545888444
 40
0.1120673777
 40
0.2341363799
 40
0.363244594
 40
0.4962607865
 40
0.6297730536
 40
0.7603462237
 40
0.8847842367
 40
0.9437502523
 40
1.0
 40
1.0
 40
1.0
 40
1.0
 10
15.6086218353
 20
13.1796683929
 30
0.0
 10
15.6068987586
 20
13.1847018388
 30
0.0
 10
15.6036468759
 20
13.1951345503
 30
0.0
 10
15.5979028809
 20
13.217225412
 30
0.0
 10
15.5922793431
 20
13.2468146507
 30
0.0
 10
15.5880717593
 20
13.2840512795
 30
0.0
 10
15.5864008042
 20
13.3226036197
 30
0.0
 10
15.5873239041
 20
13.3613235336
 30
0.0
 10
15.5908067698
 20
13.3990579374
 30
0.0
 10
15.5958434109
 20
13.4292762905
 30
0.0
 10
15.6011378864
 20
13.4520310649
 30
0.0
 10
15.604175703
 20
13.4628466554
 30
0.0
 10
15.6057942712
 20
13.468084344
 30
0.0
  0
SPLINE
  5
31C
100
AcDbEntity
  8
0
100
AcDbSpline
 62
7
  6
CONTINUOUS
 70
0
 71
3
 72
23
 73
19
 74
0
 42
0.0000001
 43
0.0000001
 44
0.0000000001
 40
0.0
 40
0.0
 40
0.0
 40
0.0
 40
0.0501579362
 40
0.1035248621
 40
0.1598271391
 40
0.2187930974
 40
0.2801137303
 40
0.3434389485
 40
0.4083974258
 40
0.4746020219
 40
0.5416493802
 40
0.6091282901
 40
0.6766234721
 40
0.7437177844
 40
0.8099941713
 40
0.8750589408
 40
0.9385343434
 40
1.0
 40
1.0
 40
1.0
 40
1.0
 10
15.7252762541
 20
11.4734884793
 30
0.0
 10
15.7133991039
 20
11.4999372859
 30
0.0
 10
15.6906911107
 20
11.5553494936
 30
0.0
 10
15.6604872052
 20
11.642700856
 30
0.0
 10
15.6332823406
 20
11.7363445557
 30
0.0
 10
15.6092702371
 20
11.8355877496
 30
0.0
 10
15.5886219978
 20
11.9397236493
 30
0.0
 10
15.5714921933
 20
12.0480014757
 30
0.0
 10
15.5580026588
 20
12.1596351362
 30
0.0
 10
15.5482578822
 20
12.2738159817
 30
0.0
 10
15.5423214542
 20
12.3897160424
 30
0.0
 10
15.5402446083
 20
12.5064951952
 30
0.0
 10
15.5420369278
 20
12.6233061516
 30
0.0
 10
15.547688912
 20
12.7392985793
 30
0.0
 10
15.5571556678
 20
12.8536331007
 30
0.0
 10
15.5703705629
 20
12.9654910662
 30
0.0
 10
15.5872415099
 20
13.0740426197
 30
0.0
 10
15.6010797662
 20
13.1449486183
 30
0.0
 10
15.6086218353
 20
13.1796683929
 30
0.0
  0
SPLINE
  5
31D
100
AcDbEntity
  8
0
100
AcDbSpline
 62
7
  6
CONTINUOUS
 70
0
 71
3
 72
13
 73
9
 74
0
 42
0.0000001
 43
0.0000001
 44
0.0000000001
 40
0.0
 40
0.0
 40
0.0
 40
0.0
 40
0.339860792
 40
0.6225376179
 40
0.7383297672
 40
0.8375298605
 40
0.9229114249
 40
1.0
 40
1.0
 40
1.0
 40
1.0
 10
14.1350127815
 20
13.4462941516
 30
0.0
 10
14.1351526457
 20
13.4471267317
 30
0.0
 10
14.1355018372
 20
13.4486373445
 30
0.0
 10
14.1361987198
 20
13.4503516681
 30
0.0
 10
14.1368957211
 20
13.4513785428
 30
0.0
 10
14.1374244202
 20
13.4519133441
 30
0.0
 10
14.1379910789
 20
13.4522497706
 30
0.0
 10
14.1383969618
 20
13.4523311773
 30
0.0
 10
14.1385884556
 20
13.4523319178
 30
0.0
  0
SPLINE
  5
31E
100
AcDbEntity
  8
0
100
AcDbSpline
 62
7
  6
CONTINUOUS
 70
0
 71
3
 72
12
 73
8
 74
0
 42
0.0000001
 43
0.0000001
 44
0.0000000001
 40
0.0
 40
0.0
 40
0.0
 40
0.0
 40
0.0963837979
 40
0.2056963843
 40
0.4542169562
 40
0.7268194012
 40
1.0
 40
1.0
 40
1.0
 40
1.0
 10
14.1040250531
 20
13.2110338129
 30
0.0
 10
14.1038423713
 20
13.2113554288
 30
0.0
 10
14.1035063802
 20
13.2120726093
 30
0.0
 10
14.1029396437
 20
13.2137232497
 30
0.0
 10
14.1024677217
 20
13.216107546
 30
0.0
 10
14.1022716251
 20
13.2191555693
 30
0.0
 10
14.1023857473
 20
13.2212536655
 30
0.0
 10
14.1025137596
 20
13.2222941645
 30
0.0
  0
SPLINE
  5
31F
100
AcDbEntity
  8
0
100
AcDbSpline
 62
7
  6
CONTINUOUS
 70
0
 71
3
 72
15
 73
11
 74
0
 42
0.0000001
 43
0.0000001
 44
0.0000000001
 40
0.0
 40
0.0
 40
0.0
 40
0.0
 40
0.1367892557
 40
0.2756838679
 40
0.4134941308
 40
0.5475417553
 40
0.6753508189
 40
0.794675978
 40
0.9034765326
 40
1.0
 40
1.0
 40
1.0
 40
1.0
 10
14.1320615043
 20
13.1297643531
 30
0.0
 10
14.1322615034
 20
13.1317597439
 30
0.0
 10
14.132536076
 20
13.1357950003
 30
0.0
 10
14.1325915902
 20
13.1418600619
 30
0.0
 10
14.1322875928
 20
13.1478778626
 30
0.0
 10
14.1316361339
 20
13.1537047428
 30
0.0
 10
14.1306500125
 20
13.1592097351
 30
0.0
 10
14.1293546922
 20
13.1642705613
 30
0.0
 10
14.1277759126
 20
13.1687670565
 30
0.0
 10
14.1264832533
 20
13.1714955686
 30
0.0
 10
14.1257843508
 20
13.1727260047
 30
0.0
  0
SPLINE
  5
320
100
AcDbEntity
  8
0
100
AcDbSpline
 62
7
  6
CONTINUOUS
 70
0
 71
3
 72
15
 73
11
 74
0
 42
0.0000001
 43
0.0000001
 44
0.0000000001
 40
0.0
 40
0.0
 40
0.0
 40
0.0
 40
0.0749023293
 40
0.1620724686
 40
0.2647960177
 40
0.3839774511
 40
0.5190830807
 40
0.668529011
 40
0.8300085919
 40
1.0
 40
1.0
 40
1.0
 40
1.0
 10
14.1074232946
 20
12.9895377514
 30
0.0
 10
14.1082525257
 20
12.9897452737
 30
0.0
 10
14.1099595315
 20
12.9905596823
 30
0.0
 10
14.1122195985
 20
12.9926055358
 30
0.0
 10
14.114305755
 20
12.9954724251
 30
0.0
 10
14.1161931182
 20
12.9990954258
 30
0.0
 10
14.1178458328
 20
13.0034047604
 30
0.0
 10
14.1192308388
 20
13.0083090425
 30
0.0
 10
14.1203100409
 20
13.013694861
 30
0.0
 10
14.1208040147
 20
13.0174483825
 30
0.0
 10
14.120997491
 20
13.0193786948
 30
0.0
  0
SPLINE
  5
321
100
AcDbEntity
  8
0
100
AcDbSpline
 62
7
  6
CONTINUOUS
 70
0
 71
3
 72
12
 73
8
 74
0
 42
0.0000001
 43
0.0000001
 44
0.0000000001
 40
0.0
 40
0.0
 40
0.0
 40
0.0
 40
0.3313466833
 40
0.6179052738
 40
0.7378974835
 40
0.8409331721
 40
1.0
 40
1.0
 40
1.0
 40
1.0
 10
14.0777252397
 20
12.9749791073
 30
0.0
 10
14.0778031669
 20
12.9759774319
 30
0.0
 10
14.0780631146
 20
12.9778323378
 30
0.0
 10
14.0786893536
 20
12.9799854412
 30
0.0
 10
14.0793768238
 20
12.9813727279
 30
0.0
 10
14.0800334518
 20
12.9823151325
 30
0.0
 10
14.0806994183
 20
12.982849869
 30
0.0
 10
14.0811657522
 20
12.9829665731
 30
0.0
  0
SPLINE
  5
322
100
AcDbEntity
  8
0
100
AcDbSpline
 62
7
  6
CONTINUOUS
 70
0
 71
3
 72
12
 73
8
 74
0
 42
0.0000001
 43
0.0000001
 44
0.0000000001
 40
0.0
 40
0.0
 40
0.0
 40
0.0
 40
0.0850033437
 40
0.1848022164
 40
0.4239850987
 40
0.7034460394
 40
1.0
 40
1.0
 40
1.0
 40
1.0
 10
14.0664624328
 20
12.7283153247
 30
0.0
 10
14.0662547233
 20
12.7285355379
 30
0.0
 10
14.0658616361
 20
12.7290694181
 30
0.0
 10
14.0651624381
 20
12.7304116257
 30
0.0
 10
14.0645099792
 20
12.7325324295
 30
0.0
 10
14.0640823038
 20
12.7354101178
 30
0.0
 10
14.0640326637
 20
12.7374673809
 30
0.0
 10
14.0640724746
 20
12.7385227262
 30
0.0
  0
SPLINE
  5
323
100
AcDbEntity
  8
0
100
AcDbSpline
 62
7
  6
CONTINUOUS
 70
0
 71
3
 72
15
 73
11
 74
0
 42
0.0000001
 43
0.0000001
 44
0.0000000001
 40
0.0
 40
0.0
 40
0.0
 40
0.0
 40
0.1500413558
 40
0.2983183889
 40
0.4414216493
 40
0.5766901399
 40
0.7018061279
 40
0.8148849294
 40
0.914501941
 40
1.0
 40
1.0
 40
1.0
 40
1.0
 10
14.1004661717
 20
12.663790548
 30
0.0
 10
14.1004997796
 20
12.6658210424
 30
0.0
 10
14.1004456158
 20
12.6698611129
 30
0.0
 10
14.10001378
 20
12.6758235299
 30
0.0
 10
14.0992342627
 20
12.6815494041
 30
0.0
 10
14.0981308199
 20
12.6869027941
 30
0.0
 10
14.0967264875
 20
12.6917644583
 30
0.0
 10
14.0950555092
 20
12.6960297522
 30
0.0
 10
14.0931508064
 20
12.6995988075
 30
0.0
 10
14.0916418274
 20
12.7016201819
 30
0.0
 10
14.090847815
 20
12.7024619922
 30
0.0
  0
SPLINE
  5
324
100
AcDbEntity
  8
0
100
AcDbSpline
 62
7
  6
CONTINUOUS
 70
0
 71
3
 72
15
 73
11
 74
0
 42
0.0000001
 43
0.0000001
 44
0.0000000001
 40
0.0
 40
0.0
 40
0.0
 40
0.0
 40
0.0814428765
 40
0.1772767515
 40
0.2875741134
 40
0.4113262128
 40
0.5468921872
 40
0.6920791926
 40
0.8442734999
 40
1.0
 40
1.0
 40
1.0
 40
1.0
 10
14.0877197603
 20
12.5134738155
 30
0.0
 10
14.0885393281
 20
12.5141400661
 30
0.0
 10
14.0901210426
 20
12.5158393842
 30
0.0
 10
14.0921380954
 20
12.5189906418
 30
0.0
 10
14.0939425054
 20
12.5228814122
 30
0.0
 10
14.0954999212
 20
12.5274217837
 30
0.0
 10
14.0967738361
 20
12.5325162746
 30
0.0
 10
14.0977375154
 20
12.5380522411
 30
0.0
 10
14.0983627015
 20
12.5438988344
 30
0.0
 10
14.0985478446
 20
12.5478906708
 30
0.0
 10
14.0985812672
 20
12.5499099693
 30
0.0
  0
SPLINE
  5
325
100
AcDbEntity
  8
0
100
AcDbSpline
 62
7
  6
CONTINUOUS
 70
0
 71
3
 72
13
 73
9
 74
0
 42
0.0000001
 43
0.0000001
 44
0.0000000001
 40
0.0
 40
0.0
 40
0.0
 40
0.0
 40
0.3063617462
 40
0.5882510163
 40
0.712663081
 40
0.8233728056
 40
0.9192211255
 40
1.0
 40
1.0
 40
1.0
 40
1.0
 10
14.0598494144
 20
12.4833774268
 30
0.0
 10
14.0598446744
 20
12.4844254657
 30
0.0
 10
14.0599582686
 20
12.4864399645
 30
0.0
 10
14.0604042544
 20
12.4888470016
 30
0.0
 10
14.0609533009
 20
12.4905309073
 30
0.0
 10
14.0614189138
 20
12.4915662342
 30
0.0
 10
14.0619412516
 20
12.4924025664
 30
0.0
 10
14.0623536143
 20
12.4928529339
 30
0.0
 10
14.0625680412
 20
12.4930272479
 30
0.0
  0
SPLINE
  5
326
100
AcDbEntity
  8
0
100
AcDbSpline
 62
7
  6
CONTINUOUS
 70
0
 71
3
 72
13
 73
9
 74
0
 42
0.0000001
 43
0.0000001
 44
0.0000000001
 40
0.0
 40
0.0
 40
0.0
 40
0.0
 40
0.0757717419
 40
0.1660130752
 40
0.2721789639
 40
0.3940966368
 40
0.6789742145
 40
1.0
 40
1.0
 40
1.0
 40
1.0
 10
14.0688037678
 20
12.2360905913
 30
0.0
 10
14.0685850982
 20
12.2361939935
 30
0.0
 10
14.0681492401
 20
12.2365118663
 30
0.0
 10
14.0675878265
 20
12.2371812426
 30
0.0
 10
14.0670754937
 20
12.2380634923
 30
0.0
 10
14.0664439465
 20
12.2395779097
 30
0.0
 10
14.0658872131
 20
12.2418463484
 30
0.0
 10
14.0656847898
 20
12.2437751212
 30
0.0
 10
14.0656395974
 20
12.2447989303
 30
0.0
  0
SPLINE
  5
327
100
AcDbEntity
  8
0
100
AcDbSpline
 62
7
  6
CONTINUOUS
 70
0
 71
3
 72
15
 73
11
 74
0
 42
0.0000001
 43
0.0000001
 44
0.0000000001
 40
0.0
 40
0.0
 40
0.0
 40
0.0
 40
0.1642490764
 40
0.3221191563
 40
0.4700806274
 40
0.605659236
 40
0.7269553029
 40
0.8328690856
 40
0.9233242261
 40
1.0
 40
1.0
 40
1.0
 40
1.0
 10
14.1072886678
 20
12.1911305401
 30
0.0
 10
14.107158935
 20
12.1931073032
 30
0.0
 10
14.1067872406
 20
12.1969774936
 30
0.0
 10
14.1058874944
 20
12.202579479
 30
0.0
 10
14.1046670512
 20
12.2077668782
 30
0.0
 10
14.1031602846
 20
12.2124183586
 30
0.0
 10
14.1013984282
 20
12.2164330444
 30
0.0
 10
14.0994188701
 20
12.2197304405
 30
0.0
 10
14.0972539099
 20
12.2222366312
 30
0.0
 10
14.0955855072
 20
12.2234263154
 30
0.0
 10
14.0947494762
 20
12.2238216492
 30
0.0
  0
SPLINE
  5
328
100
AcDbEntity
  8
0
100
AcDbSpline
 62
7
  6
CONTINUOUS
 70
0
 71
3
 72
15
 73
11
 74
0
 42
0.0000001
 43
0.0000001
 44
0.0000000001
 40
0.0
 40
0.0
 40
0.0
 40
0.0
 40
0.0919598638
 40
0.1970783359
 40
0.3139612357
 40
0.4407673366
 40
0.5753671133
 40
0.7153292878
 40
0.8579692015
 40
1.0
 40
1.0
 40
1.0
 40
1.0
 10
14.1069911341
 20
12.0372932393
 30
0.0
 10
14.10773305
 20
12.0383740517
 30
0.0
 10
14.1091193992
 20
12.0408309395
 30
0.0
 10
14.1108388974
 20
12.0449709695
 30
0.0
 10
14.1122942341
 20
12.0497327781
 30
0.0
 10
14.1134563362
 20
12.0550037308
 30
0.0
 10
14.1142958025
 20
12.0606678307
 30
0.0
 10
14.1147955332
 20
12.0665981041
 30
0.0
 10
14.1149386632
 20
12.072653197
 30
0.0
 10
14.1147978482
 20
12.0767117674
 30
0.0
 10
14.1146652514
 20
12.0787321687
 30
0.0
  0
SPLINE
  5
329
100
AcDbEntity
  8
0
100
AcDbSpline
 62
7
  6
CONTINUOUS
 70
0
 71
3
 72
12
 73
8
 74
0
 42
0.0000001
 43
0.0000001
 44
0.0000000001
 40
0.0
 40
0.0
 40
0.0
 40
0.0
 40
0.2824659932
 40
0.557911608
 40
0.8028325968
 40
0.908327828
 40
1.0
 40
1.0
 40
1.0
 40
1.0
 10
14.082166565
 20
11.9929744626
 30
0.0
 10
14.0820744851
 20
11.9940266579
 30
0.0
 10
14.0820276614
 20
11.9961188539
 30
0.0
 10
14.0823194841
 20
11.999112855
 30
0.0
 10
14.0828669326
 20
12.0014014526
 30
0.0
 10
14.0834898342
 20
12.0029354677
 30
0.0
 10
14.0838504933
 20
12.0035822851
 30
0.0
 10
14.0840444891
 20
12.0038648954
 30
0.0
  0
SPLINE
  5
32A
100
AcDbEntity
  8
0
100
AcDbSpline
 62
7
  6
CONTINUOUS
 70
0
 71
3
 72
14
 73
10
 74
0
 42
0.0000001
 43
0.0000001
 44
0.0000000001
 40
0.0
 40
0.0
 40
0.0
 40
0.0
 40
0.0745358534
 40
0.1575198104
 40
0.2553172171
 40
0.3710223817
 40
0.5051385638
 40
0.6567854309
 40
1.0
 40
1.0
 40
1.0
 40
1.0
 10
14.1109467304
 20
11.7558721954
 30
0.0
 10
14.110739511
 20
11.755857646
 30
0.0
 10
14.1102911395
 20
11.7559250451
 30
0.0
 10
14.1096666511
 20
11.7562903771
 30
0.0
 10
14.109087828
 20
11.7568902261
 30
0.0
 10
14.1085612247
 20
11.7577084386
 30
0.0
 10
14.1080908222
 20
11.7587267131
 30
0.0
 10
14.1075337181
 20
11.7603912328
 30
0.0
 10
14.1072699936
 20
11.761752333
 30
0.0
 10
14.1071466373
 20
11.7627008757
 30
0.0
  0
SPLINE
  5
32B
100
AcDbEntity
  8
0
100
AcDbSpline
 62
7
  6
CONTINUOUS
 70
0
 71
3
 72
13
 73
9
 74
0
 42
0.0000001
 43
0.0000001
 44
0.0000000001
 40
0.0
 40
0.0
 40
0.0
 40
0.0
 40
0.3099253588
 40
0.584670125
 40
0.7058516145
 40
0.8153830971
 40
0.9132293405
 40
1.0
 40
1.0
 40
1.0
 40
1.0
 10
14.1522308167
 20
11.7324418397
 30
0.0
 10
14.1518220372
 20
11.7350977014
 30
0.0
 10
14.1508165897
 20
11.7400757453
 30
0.0
 10
14.1489183427
 20
11.7459163849
 30
0.0
 10
14.1470640545
 20
11.7498929603
 30
0.0
 10
14.1456152973
 20
11.7523522719
 30
0.0
 10
14.144066546
 20
11.7543866643
 30
0.0
 10
14.142910915
 20
11.7555080114
 30
0.0
 10
14.1423202676
 20
11.7559739819
 30
0.0
  0
SPLINE
  5
32C
100
AcDbEntity
  8
0
100
AcDbSpline
 62
7
  6
CONTINUOUS
 70
0
 71
3
 72
15
 73
11
 74
0
 42
0.0000001
 43
0.0000001
 44
0.0000000001
 40
0.0
 40
0.0
 40
0.0
 40
0.0
 40
0.1032846362
 40
0.2173668526
 40
0.3400977861
 40
0.4692225736
 40
0.6023758833
 40
0.7370501665
 40
0.870601593
 40
1.0
 40
1.0
 40
1.0
 40
1.0
 10
14.1643951644
 20
11.5818073988
 30
0.0
 10
14.1650226402
 20
11.5832362927
 30
0.0
 10
14.1661647283
 20
11.5863227864
 30
0.0
 10
14.1675175496
 20
11.5912854822
 30
0.0
 10
14.1685618296
 20
11.5967201174
 30
0.0
 10
14.1692774077
 20
11.6024972144
 30
0.0
 10
14.1696451092
 20
11.608487385
 30
0.0
 10
14.1696586929
 20
11.6145556873
 30
0.0
 10
14.1693132097
 20
11.6205570944
 30
0.0
 10
14.1688439255
 20
11.6245056117
 30
0.0
 10
14.1685464964
 20
11.6264380239
 30
0.0
  0
SPLINE
  5
32D
100
AcDbEntity
  8
0
100
AcDbSpline
 62
7
  6
CONTINUOUS
 70
0
 71
3
 72
12
 73
8
 74
0
 42
0.0000001
 43
0.0000001
 44
0.0000000001
 40
0.0
 40
0.0
 40
0.0
 40
0.0
 40
0.2599962768
 40
0.5283547774
 40
0.7818174442
 40
0.8966205864
 40
1.0
 40
1.0
 40
1.0
 40
1.0
 10
14.1437013248
 20
11.5252031773
 30
0.0
 10
14.1435208301
 20
11.5262124998
 30
0.0
 10
14.1433071615
 20
11.5282925054
 30
0.0
 10
14.1433603789
 20
11.5313813666
 30
0.0
 10
14.1437170115
 20
11.5338761652
 30
0.0
 10
14.144196103
 20
11.5356751598
 30
0.0
 10
14.1444925495
 20
11.5364849719
 30
0.0
 10
14.144656472
 20
11.5368582578
 30
0.0
  0
SPLINE
  5
32E
100
AcDbEntity
  8
0
100
AcDbSpline
 62
7
  6
CONTINUOUS
 70
0
 71
3
 72
23
 73
19
 74
0
 42
0.0000001
 43
0.0000001
 44
0.0000000001
 40
0.0
 40
0.0
 40
0.0
 40
0.0
 40
0.0429976001
 40
0.0877407916
 40
0.1345833998
 40
0.1838118583
 40
0.2356558054
 40
0.2902901172
 40
0.3478367025
 40
0.408379887
 40
0.4719630694
 40
0.5385929943
 40
0.6082546585
 40
0.6809115014
 40
0.7565095075
 40
0.834976629
 40
0.9161896558
 40
1.0
 40
1.0
 40
1.0
 40
1.0
 10
14.7397209471
 20
14.9662160121
 30
0.0
 10
14.7241144584
 20
14.9609913215
 30
0.0
 10
14.6928592742
 20
14.9484871759
 30
0.0
 10
14.6472378364
 20
14.9243874012
 30
0.0
 10
14.6021677225
 20
14.8946877791
 30
0.0
 10
14.5577463734
 20
14.8594817401
 30
0.0
 10
14.5140678447
 20
14.8188510714
 30
0.0
 10
14.4712273204
 20
14.7728914363
 30
0.0
 10
14.4293091718
 20
14.7217146937
 30
0.0
 10
14.3884108952
 20
14.6654327692
 30
0.0
 10
14.3486223639
 20
14.6041764423
 30
0.0
 10
14.3100275971
 20
14.5380903812
 30
0.0
 10
14.27271998
 20
14.4673217154
 30
0.0
 10
14.2367804794
 20
14.3920292289
 30
0.0
 10
14.2022866862
 20
14.3123791197
 30
0.0
 10
14.1693263252
 20
14.2285547718
 30
0.0
 10
14.137974661
 20
14.140772845
 30
0.0
 10
14.1184943203
 20
14.0806765267
 30
0.0
 10
14.1090229724
 20
14.0500272336
 30
0.0
  0
SPLINE
  5
32F
100
AcDbEntity
  8
0
100
AcDbSpline
 62
7
  6
CONTINUOUS
 70
0
 71
3
 72
15
 73
11
 74
0
 42
0.0000001
 43
0.0000001
 44
0.0000000001
 40
0.0
 40
0.0
 40
0.0
 40
0.0
 40
0.1147545818
 40
0.2375196505
 40
0.3656766254
 40
0.4967383057
 40
0.6282262226
 40
0.7576473193
 40
0.8824747966
 40
1.0
 40
1.0
 40
1.0
 40
1.0
 10
14.2574230196
 20
11.1669232111
 30
0.0
 10
14.2579127468
 20
11.1686268548
 30
0.0
 10
14.2587711303
 20
11.1721986131
 30
0.0
 10
14.2596984594
 20
11.177774634
 30
0.0
 10
14.260285478
 20
11.1836499141
 30
0.0
 10
14.2605226853
 20
11.1896840956
 30
0.0
 10
14.2604021744
 20
11.1957412399
 30
0.0
 10
14.259929109
 20
11.2016848244
 30
0.0
 10
14.2591102779
 20
11.2073728151
 30
0.0
 10
14.2583243195
 20
11.2110372582
 30
0.0
 10
14.2578701332
 20
11.2127949592
 30
0.0
  0
SPLINE
  5
330
100
AcDbEntity
  8
0
100
AcDbSpline
 62
7
  6
CONTINUOUS
 70
0
 71
3
 72
11
 73
7
 74
0
 42
0.0000001
 43
0.0000001
 44
0.0000000001
 40
0.0
 40
0.0
 40
0.0
 40
0.0
 40
0.2386352973
 40
0.4997231961
 40
0.7609561613
 40
1.0
 40
1.0
 40
1.0
 40
1.0
 10
14.2417643297
 20
11.1005074209
 30
0.0
 10
14.2414977486
 20
11.1014269898
 30
0.0
 10
14.2411182392
 20
11.103405008
 30
0.0
 10
14.2409297589
 20
11.1064591403
 30
0.0
 10
14.2411136331
 20
11.1095152013
 30
0.0
 10
14.2414899926
 20
11.1114960238
 30
0.0
 10
14.2417549554
 20
11.112417766
 30
0.0
  0
SPLINE
  5
331
100
AcDbEntity
  8
0
100
AcDbSpline
 62
7
  6
CONTINUOUS
 70
0
 71
3
 72
20
 73
16
 74
0
 42
0.0000001
 43
0.0000001
 44
0.0000000001
 40
0.0
 40
0.0
 40
0.0
 40
0.0
 40
0.0604408753
 40
0.1199635226
 40
0.1788203481
 40
0.2372758772
 40
0.2956013866
 40
0.3540696181
 40
0.4129510553
 40
0.4725101802
 40
0.5329996286
 40
0.5946565036
 40
0.7222762024
 40
0.8569853014
 40
1.0
 40
1.0
 40
1.0
 40
1.0
 10
14.8176697879
 20
10.0293016359
 30
0.0
 10
14.8269118341
 20
10.0262080372
 30
0.0
 10
14.8454693298
 20
10.0206839066
 30
0.0
 10
14.8736389397
 20
10.0144174429
 30
0.0
 10
14.9018738037
 20
10.0102529097
 30
0.0
 10
14.9301464974
 20
10.008195878
 30
0.0
 10
14.9584314367
 20
10.0082451561
 30
0.0
 10
14.9867028448
 20
10.0104002661
 30
0.0
 10
15.0149352776
 20
10.0146596795
 30
0.0
 10
15.0431024331
 20
10.021022088
 30
0.0
 10
15.0711803882
 20
10.0294793252
 30
0.0
 10
15.1088915474
 20
10.0436924919
 30
0.0
 10
15.1558549838
 20
10.0669199448
 30
0.0
 10
15.2107216222
 20
10.1026712053
 30
0.0
 10
15.2455441208
 20
10.1309656547
 30
0.0
 10
15.2627709875
 20
10.1462969107
 30
0.0
  0
SPLINE
  5
332
100
AcDbEntity
  8
0
100
AcDbSpline
 62
7
  6
CONTINUOUS
 70
0
 71
3
 72
15
 73
11
 74
0
 42
0.0000001
 43
0.0000001
 44
0.0000000001
 40
0.0
 40
0.0
 40
0.0
 40
0.0
 40
0.1265077999
 40
0.2579512862
 40
0.3913704159
 40
0.5241426518
 40
0.6537568543
 40
0.7778120158
 40
0.8939859204
 40
1.0
 40
1.0
 40
1.0
 40
1.0
 10
14.3820089361
 20
10.8107731058
 30
0.0
 10
14.3823448091
 20
10.8126714974
 30
0.0
 10
14.3828913621
 20
10.8165676925
 30
0.0
 10
14.3833521591
 20
10.8225174693
 30
0.0
 10
14.383455646
 20
10.8285798422
 30
0.0
 10
14.3832039277
 20
10.8346099013
 30
0.0
 10
14.3826005483
 20
10.8404717407
 30
0.0
 10
14.3816620431
 20
10.8460337976
 30
0.0
 10
14.3804061483
 20
10.8511634384
 30
0.0
 10
14.3793286604
 20
10.8543796954
 30
0.0
 10
14.3787322902
 20
10.8558811616
 30
0.0
  0
SPLINE
  5
333
100
AcDbEntity
  8
0
100
AcDbSpline
 62
7
  6
CONTINUOUS
 70
0
 71
3
 72
12
 73
8
 74
0
 42
0.0000001
 43
0.0000001
 44
0.0000000001
 40
0.0
 40
0.0
 40
0.0
 40
0.0
 40
0.1031509733
 40
0.2177769419
 40
0.4710833559
 40
0.7395815974
 40
1.0
 40
1.0
 40
1.0
 40
1.0
 10
14.3720697557
 20
10.7374484357
 30
0.0
 10
14.371905189
 20
10.737820148
 30
0.0
 10
14.3716073991
 20
10.7386271531
 30
0.0
 10
14.371125371
 20
10.7404217623
 30
0.0
 10
14.3707649232
 20
10.7429135454
 30
0.0
 10
14.3707070383
 20
10.746001807
 30
0.0
 10
14.3709174693
 20
10.748082907
 30
0.0
 10
14.3710962696
 20
10.7490935062
 30
0.0
  0
SPLINE
  5
334
100
AcDbEntity
  8
0
100
AcDbSpline
 62
7
  6
CONTINUOUS
 70
0
 71
3
 72
9
 73
5
 74
0
 42
0.0000001
 43
0.0000001
 44
0.0000000001
 40
0.0
 40
0.0
 40
0.0
 40
0.0
 40
0.4890971631
 40
1.0
 40
1.0
 40
1.0
 40
1.0
 10
14.4449873837
 20
10.5888579326
 30
0.0
 10
14.4320661371
 20
10.6125544776
 30
0.0
 10
14.4067574439
 20
10.6616149801
 30
0.0
 10
14.3834833354
 20
10.7116682126
 30
0.0
 10
14.3720697557
 20
10.7374484357
 30
0.0
  0
SPLINE
  5
335
100
AcDbEntity
  8
0
100
AcDbSpline
 62
7
  6
CONTINUOUS
 70
0
 71
3
 72
15
 73
11
 74
0
 42
0.0000001
 43
0.0000001
 44
0.0000000001
 40
0.0
 40
0.0
 40
0.0
 40
0.0
 40
0.1389217668
 40
0.2793448946
 40
0.418038581
 40
0.5523200532
 40
0.6797291105
 40
0.7980640225
 40
0.9053596495
 40
1.0
 40
1.0
 40
1.0
 40
1.0
 10
14.5327079114
 20
10.5289225517
 30
0.0
 10
14.5328802705
 20
10.5309299941
 30
0.0
 10
14.5330998977
 20
10.5349783639
 30
0.0
 10
14.5330737556
 20
10.5410445806
 30
0.0
 10
14.5326889835
 20
10.5470315898
 30
0.0
 10
14.5319596161
 20
10.5527965436
 30
0.0
 10
14.5309002399
 20
10.5582099901
 30
0.0
 10
14.5295379814
 20
10.5631520894
 30
0.0
 10
14.5279000041
 20
10.5675056561
 30
0.0
 10
14.5265679141
 20
10.5701251555
 30
0.0
 10
14.5258507112
 20
10.5712954765
 30
0.0
  0
SPLINE
  5
336
100
AcDbEntity
  8
0
100
AcDbSpline
 62
7
  6
CONTINUOUS
 70
0
 71
3
 72
12
 73
8
 74
0
 42
0.0000001
 43
0.0000001
 44
0.0000000001
 40
0.0
 40
0.0
 40
0.0
 40
0.0
 40
0.0914499149
 40
0.1967613987
 40
0.4415045673
 40
0.7170848208
 40
1.0
 40
1.0
 40
1.0
 40
1.0
 10
14.5289226305
 20
10.4518936416
 30
0.0
 10
14.5287281321
 20
10.4521743214
 30
0.0
 10
14.5283663494
 20
10.4528176491
 30
0.0
 10
14.5277408562
 20
10.4543458115
 30
0.0
 10
14.5271898885
 20
10.456629461
 30
0.0
 10
14.5268935628
 20
10.4596203747
 30
0.0
 10
14.5269372057
 20
10.4617119306
 30
0.0
 10
14.5270275786
 20
10.462764492
 30
0.0
  0
SPLINE
  5
337
100
AcDbEntity
  8
0
100
AcDbSpline
 62
7
  6
CONTINUOUS
 70
0
 71
3
 72
9
 73
5
 74
0
 42
0.0000001
 43
0.0000001
 44
0.0000000001
 40
0.0
 40
0.0
 40
0.0
 40
0.0
 40
0.4866241528
 40
1.0
 40
1.0
 40
1.0
 40
1.0
 10
14.6122774079
 20
10.3454811508
 30
0.0
 10
14.5976552002
 20
10.3618335747
 30
0.0
 10
14.5687844085
 20
10.396502198
 30
0.0
 10
14.5421038637
 20
10.4328718568
 30
0.0
 10
14.5289226305
 20
10.4518936416
 30
0.0
  0
SPLINE
  5
338
100
AcDbEntity
  8
0
100
AcDbSpline
 62
7
  6
CONTINUOUS
 70
0
 71
3
 72
9
 73
5
 74
0
 42
0.0000001
 43
0.0000001
 44
0.0000000001
 40
0.0
 40
0.0
 40
0.0
 40
0.0
 40
0.4966070692
 40
1.0
 40
1.0
 40
1.0
 40
1.0
 10
16.0456242643
 20
10.508807302
 30
0.0
 10
16.0326755038
 20
10.508807995
 30
0.0
 10
16.0065747806
 20
10.5104859442
 30
0.0
 10
15.9809003726
 20
10.5154471984
 30
0.0
 10
15.9681857647
 20
10.518706447
 30
0.0
  0
SPLINE
  5
339
100
AcDbEntity
  8
0
100
AcDbSpline
 62
7
  6
CONTINUOUS
 70
0
 71
3
 72
38
 73
34
 74
0
 42
0.0000001
 43
0.0000001
 44
0.0000000001
 40
0.0
 40
0.0
 40
0.0
 40
0.0
 40
0.0077958558
 40
0.0157700251
 40
0.0323880187
 40
0.0501190836
 40
0.0691523926
 40
0.0896219819
 40
0.1116109675
 40
0.1351633054
 40
0.1602885225
 40
0.1869692812
 40
0.2151656921
 40
0.2448183275
 40
0.2758529533
 40
0.3081802276
 40
0.3417010435
 40
0.3763044031
 40
0.4118728049
 40
0.4482797279
 40
0.4853942389
 40
0.5611876222
 40
0.6381272385
 40
0.6766668729
 40
0.7150556719
 40
0.7531489925
 40
0.7908040711
 40
0.8278802612
 40
0.8642395041
 40
0.8997512129
 40
0.9342969329
 40
0.9677567764
 40
1.0
 40
1.0
 40
1.0
 40
1.0
 10
15.9666265131
 20
10.5191102155
 30
0.0
 10
15.9578988405
 20
10.521393042
 30
0.0
 10
15.9404259394
 20
10.5267393231
 30
0.0
 10
15.9055226296
 20
10.5404769192
 30
0.0
 10
15.862100666
 20
10.5635183013
 30
0.0
 10
15.8116985181
 20
10.599489892
 30
0.0
 10
15.7624368672
 20
10.6439480033
 30
0.0
 10
15.714519333
 20
10.6966879109
 30
0.0
 10
15.6681158785
 20
10.757466291
 30
0.0
 10
15.6234213174
 20
10.8260242492
 30
0.0
 10
15.5806159753
 20
10.9020611961
 30
0.0
 10
15.5398853091
 20
10.9852480054
 30
0.0
 10
15.5014064548
 20
11.0752203674
 30
0.0
 10
15.4653460538
 20
11.1715823497
 30
0.0
 10
15.4318687157
 20
11.2739095158
 30
0.0
 10
15.4011167902
 20
11.3817476366
 30
0.0
 10
15.3732359112
 20
11.4946193743
 30
0.0
 10
15.3483414252
 20
11.6120218505
 30
0.0
 10
15.3265551448
 20
11.7334334277
 30
0.0
 10
15.3079638807
 20
11.8583132436
 30
0.0
 10
15.2874198491
 20
12.0298929299
 30
0.0
 10
15.2703792628
 20
12.2490348476
 30
0.0
 10
15.2648203071
 20
12.4704095056
 30
0.0
 10
15.2672729524
 20
12.6484638961
 30
0.0
 10
15.2725823468
 20
12.7814759168
 30
0.0
 10
15.2813341095
 20
12.9132795058
 30
0.0
 10
15.2934895647
 20
13.0432881901
 30
0.0
 10
15.3089956095
 20
13.1709194106
 30
0.0
 10
15.3277767954
 20
13.2956033334
 30
0.0
 10
15.3497568077
 20
13.4167895739
 30
0.0
 10
15.3748343309
 20
13.5339461926
 30
0.0
 10
15.402899772
 20
13.6465291065
 30
0.0
 10
15.4239143164
 20
13.7196199393
 30
0.0
 10
15.4349304465
 20
13.7552681494
 30
0.0
  0
SPLINE
  5
33A
100
AcDbEntity
  8
0
100
AcDbSpline
 62
7
  6
CONTINUOUS
 70
0
 71
3
 72
9
 73
5
 74
0
 42
0.0000001
 43
0.0000001
 44
0.0000000001
 40
0.0
 40
0.0
 40
0.0
 40
0.0
 40
0.2518503869
 40
1.0
 40
1.0
 40
1.0
 40
1.0
 10
14.7029336773
 20
10.3336897704
 30
0.0
 10
14.7029364049
 20
10.3346148958
 30
0.0
 10
14.7028966712
 20
10.338288124
 30
0.0
 10
14.702661164
 20
10.3419597134
 30
0.0
 10
14.7023662924
 20
10.3446920482
 30
0.0
  0
SPLINE
  5
33B
100
AcDbEntity
  8
0
100
AcDbSpline
 62
7
  6
CONTINUOUS
 70
0
 71
3
 72
13
 73
9
 74
0
 42
0.0000001
 43
0.0000001
 44
0.0000000001
 40
0.0
 40
0.0
 40
0.0
 40
0.0
 40
0.0805904601
 40
0.1762521486
 40
0.2868198747
 40
0.4111599973
 40
0.6931623816
 40
1.0
 40
1.0
 40
1.0
 40
1.0
 10
14.7054677307
 20
10.2563231532
 30
0.0
 10
14.7052530522
 20
10.256495223
 30
0.0
 10
14.7048398284
 20
10.2569414773
 30
0.0
 10
14.7043161491
 20
10.2577725328
 30
0.0
 10
14.7038489245
 20
10.2588030976
 30
0.0
 10
14.7032970939
 20
10.2604819084
 30
0.0
 10
14.7028474186
 20
10.2628849961
 30
0.0
 10
14.7027308475
 20
10.2648971698
 30
0.0
 10
14.7027339359
 20
10.2659446753
 30
0.0
  0
SPLINE
  5
33C
100
AcDbEntity
  8
0
100
AcDbSpline
 62
7
  6
CONTINUOUS
 70
0
 71
3
 72
9
 73
5
 74
0
 42
0.0000001
 43
0.0000001
 44
0.0000000001
 40
0.0
 40
0.0
 40
0.0
 40
0.0
 40
0.4873429254
 40
1.0
 40
1.0
 40
1.0
 40
1.0
 10
14.7956166537
 20
10.1967394113
 30
0.0
 10
14.7800496957
 20
10.2048963767
 30
0.0
 10
14.7490019663
 20
10.223380802
 30
0.0
 10
14.7198932964
 20
10.2447607282
 30
0.0
 10
14.7054677307
 20
10.2563231532
 30
0.0
  0
SPLINE
  5
33D
100
AcDbEntity
  8
0
100
AcDbSpline
 62
7
  6
CONTINUOUS
 70
0
 71
3
 72
40
 73
36
 74
0
 42
0.0000001
 43
0.0000001
 44
0.0000000001
 40
0.0
 40
0.0
 40
0.0
 40
0.0
 40
0.0078889405
 40
0.0159831679
 40
0.0329073976
 40
0.051002454
 40
0.0704310897
 40
0.0913021254
 40
0.1136828438
 40
0.137601993
 40
0.1630608061
 40
0.1900339032
 40
0.2184773998
 40
0.2483286556
 40
0.2795118791
 40
0.3119378161
 40
0.3455073741
 40
0.3801118375
 40
0.4156349513
 40
0.4519538315
 40
0.4889399232
 40
0.5264604832
 40
0.5643788482
 40
0.6025562443
 40
0.640851824
 40
0.6791243107
 40
0.7172322152
 40
0.7550354007
 40
0.7923961189
 40
0.8291785916
 40
0.8652500236
 40
0.9004834518
 40
0.9347643816
 40
0.9679784002
 40
1.0
 40
1.0
 40
1.0
 40
1.0
 10
16.2025039726
 20
14.9662156733
 30
0.0
 10
16.2131414483
 20
14.9626549813
 30
0.0
 10
16.2344188381
 20
14.9545928136
 30
0.0
 10
16.2768613406
 20
14.9348099952
 30
0.0
 10
16.3295243362
 20
14.9030395251
 30
0.0
 10
16.3905302469
 20
14.8551077553
 30
0.0
 10
16.4500672704
 20
14.7970303041
 30
0.0
 10
16.5079208122
 20
14.7290880971
 30
0.0
 10
16.5638595488
 20
14.6515599048
 30
0.0
 10
16.6176747795
 20
14.5647831555
 30
0.0
 10
16.6691327485
 20
14.469117471
 30
0.0
 10
16.7180301055
 20
14.3649746789
 30
0.0
 10
16.7641477645
 20
14.2527952336
 30
0.0
 10
16.8072973481
 20
14.1330633453
 30
0.0
 10
16.8472839376
 20
14.006292085
 30
0.0
 10
16.8839409403
 20
13.873030243
 30
0.0
 10
16.9171031289
 20
13.7338529542
 30
0.0
 10
16.9466302697
 20
13.5893638593
 30
0.0
 10
16.9723903595
 20
13.4401888667
 30
0.0
 10
16.9942727744
 20
13.286975729
 30
0.0
 10
17.0121811315
 20
13.1303894021
 30
0.0
 10
17.0260367724
 20
12.9711103258
 30
0.0
 10
17.0357805922
 20
12.8098304208
 30
0.0
 10
17.0413674733
 20
12.6472507617
 30
0.0
 10
17.0427764278
 20
12.4840778335
 30
0.0
 10
17.0399968321
 20
12.3210213068
 30
0.0
 10
17.0330464956
 20
12.1587898162
 30
0.0
 10
17.0219493548
 20
11.998088259
 30
0.0
 10
17.0067605575
 20
11.8396142123
 30
0.0
 10
16.9875386546
 20
11.6840586424
 30
0.0
 10
16.9643786102
 20
11.5320983327
 30
0.0
 10
16.937370737
 20
11.384387726
 30
0.0
 10
16.906637304
 20
11.2415578621
 30
0.0
 10
16.8723078297
 20
11.1042522639
 30
0.0
 10
16.846645395
 20
11.015085709
 30
0.0
 10
16.8332019646
 20
10.9715827523
 30
0.0
  0
SPLINE
  5
33E
100
AcDbEntity
  8
0
100
AcDbSpline
 62
7
  6
CONTINUOUS
 70
0
 71
3
 72
12
 73
8
 74
0
 42
0.0000001
 43
0.0000001
 44
0.0000000001
 40
0.0
 40
0.0
 40
0.0
 40
0.0
 40
0.158839261
 40
0.2617156605
 40
0.3815976482
 40
0.6681946825
 40
1.0
 40
1.0
 40
1.0
 40
1.0
 10
14.8939891884
 20
10.1592843395
 30
0.0
 10
14.8935236253
 20
10.159395974
 30
0.0
 10
14.8928556806
 20
10.1599239659
 30
0.0
 10
14.892197646
 20
10.160859879
 30
0.0
 10
14.8915076801
 20
10.1622406625
 30
0.0
 10
14.8908781709
 20
10.164388029
 30
0.0
 10
14.8906155834
 20
10.1662390875
 30
0.0
 10
14.8905361306
 20
10.1672360265
 30
0.0
  0
SPLINE
  5
33F
100
AcDbEntity
  8
0
100
AcDbSpline
 62
7
  6
CONTINUOUS
 70
0
 71
3
 72
36
 73
32
 74
0
 42
0.0000001
 43
0.0000001
 44
0.0000000001
 40
0.0
 40
0.0
 40
0.0
 40
0.0
 40
0.018941731
 40
0.0374955122
 40
0.055876035
 40
0.0743049458
 40
0.0930022313
 40
0.1121758446
 40
0.132014961
 40
0.1526859739
 40
0.1743277114
 40
0.1970542979
 40
0.2209565321
 40
0.2461008213
 40
0.2725357345
 40
0.3002933413
 40
0.3293883122
 40
0.3598244378
 40
0.391594424
 40
0.4246787988
 40
0.4590516167
 40
0.4946790763
 40
0.5315186414
 40
0.5695238439
 40
0.6086422897
 40
0.6488152396
 40
0.7320696184
 40
0.8187517734
 40
0.8631978697
 40
0.9082753539
 40
1.0
 40
1.0
 40
1.0
 40
1.0
 10
16.1245551664
 20
10.0293012936
 30
0.0
 10
16.1097597981
 20
10.0243481473
 30
0.0
 10
16.0799116085
 20
10.0161170954
 30
0.0
 10
16.0343241562
 20
10.0090773298
 30
0.0
 10
15.9886368594
 20
10.0075249491
 30
0.0
 10
15.9429768096
 20
10.0114677944
 30
0.0
 10
15.8974652901
 20
10.0209005614
 30
0.0
 10
15.8522155226
 20
10.0357756225
 30
0.0
 10
15.8073313184
 20
10.0560444937
 30
0.0
 10
15.7629141039
 20
10.0816539804
 30
0.0
 10
15.7190490308
 20
10.1125253085
 30
0.0
 10
15.6758240885
 20
10.1485864326
 30
0.0
 10
15.633329518
 20
10.1897590399
 30
0.0
 10
15.5916431247
 20
10.2359449701
 30
0.0
 10
15.5508517491
 20
10.2870474455
 30
0.0
 10
15.5110429638
 20
10.3429592196
 30
0.0
 10
15.4722926721
 20
10.403555977
 30
0.0
 10
15.4346858288
 20
10.4687107804
 30
0.0
 10
15.3983049038
 20
10.5382853058
 30
0.0
 10
15.3632212611
 20
10.6121272112
 30
0.0
 10
15.3295141451
 20
10.6900798733
 30
0.0
 10
15.2972577922
 20
10.7719759957
 30
0.0
 10
15.2665162474
 20
10.8576370528
 30
0.0
 10
15.2373604008
 20
10.9468796547
 30
0.0
 10
15.2098536759
 20
11.0395115135
 30
0.0
 10
15.1750377093
 20
11.1688086385
 30
0.0
 10
15.1362245447
 20
11.3375392945
 30
0.0
 10
15.1043023568
 20
11.5112750917
 30
0.0
 10
15.0824832796
 20
11.6547765844
 30
0.0
 10
15.0630126218
 20
11.8028046357
 30
0.0
 10
15.0516226528
 20
11.9149493205
 30
0.0
 10
15.0453866613
 20
11.9902458525
 30
0.0
  0
SPLINE
  5
340
100
AcDbEntity
  8
0
100
AcDbSpline
 62
7
  6
CONTINUOUS
 70
0
 71
3
 72
11
 73
7
 74
0
 42
0.0000001
 43
0.0000001
 44
0.0000000001
 40
0.0
 40
0.0
 40
0.0
 40
0.0
 40
0.2614332242
 40
0.5158188418
 40
0.7623153873
 40
1.0
 40
1.0
 40
1.0
 40
1.0
 10
15.1041100574
 20
13.5040252737
 30
0.0
 10
15.1124713862
 20
13.553681251
 30
0.0
 10
15.1303963815
 20
13.6514213785
 30
0.0
 10
15.1613475577
 20
13.7949776915
 30
0.0
 10
15.1958951783
 20
13.9330018972
 30
0.0
 10
15.2217041256
 20
14.022644041
 30
0.0
 10
15.2352207762
 20
14.0663839385
 30
0.0
  0
SPLINE
  5
341
100
AcDbEntity
  8
0
100
AcDbSpline
 62
7
  6
CONTINUOUS
 70
0
 71
3
 72
27
 73
23
 74
0
 42
0.0000001
 43
0.0000001
 44
0.0000000001
 40
0.0
 40
0.0
 40
0.0
 40
0.0
 40
0.0157796712
 40
0.031865684
 40
0.048541901
 40
0.0660581931
 40
0.0846214165
 40
0.104386367
 40
0.1479092944
 40
0.1971980011
 40
0.2523159884
 40
0.2820127248
 40
0.3130632918
 40
0.3789551768
 40
0.4494081541
 40
0.5236835429
 40
0.6009663068
 40
0.6803462089
 40
0.7608897619
 40
0.8416774315
 40
0.9217507131
 40
1.0
 40
1.0
 40
1.0
 40
1.0
 10
15.7934136115
 20
11.2284078759
 30
0.0
 10
15.7919832802
 20
11.228407993
 30
0.0
 10
15.7890902223
 20
11.2286318662
 30
0.0
 10
15.7847893659
 20
11.2296292748
 30
0.0
 10
15.7805264447
 20
11.2312810523
 30
0.0
 10
15.7763189682
 20
11.2335789353
 30
0.0
 10
15.772181194
 20
11.2365125673
 30
0.0
 10
15.7665929792
 20
11.2414093844
 30
0.0
 10
15.7598896589
 20
11.2491686122
 30
0.0
 10
15.7525928369
 20
11.2604536532
 30
0.0
 10
15.7471275853
 20
11.271335093
 30
0.0
 10
15.7430363447
 20
11.2810101574
 30
0.0
 10
15.7389999307
 20
11.2917593171
 30
0.0
 10
15.734478858
 20
11.3062576864
 30
0.0
 10
15.7299773273
 20
11.3248221573
 30
0.0
 10
15.7263535377
 20
11.3446273937
 30
0.0
 10
15.7236670534
 20
11.3653962784
 30
0.0
 10
15.7219475278
 20
11.3868368912
 30
0.0
 10
15.72122694
 20
11.4086517807
 30
0.0
 10
15.7215108433
 20
11.430539714
 30
0.0
 10
15.7228017053
 20
11.4521826175
 30
0.0
 10
15.7243360049
 20
11.4664582547
 30
0.0
 10
15.7252762541
 20
11.4734884793
 30
0.0
  0
SPLINE
  5
342
100
AcDbEntity
  8
0
100
AcDbSpline
 62
7
  6
CONTINUOUS
 70
0
 71
3
 72
15
 73
11
 74
0
 42
0.0000001
 43
0.0000001
 44
0.0000000001
 40
0.0
 40
0.0
 40
0.0
 40
0.0
 40
0.1075770789
 40
0.2176862507
 40
0.3318007145
 40
0.4512121262
 40
0.5770024522
 40
0.7100409234
 40
0.8509131824
 40
1.0
 40
1.0
 40
1.0
 40
1.0
 10
16.0597133558
 20
11.1384097087
 30
0.0
 10
16.0502344107
 20
11.1391322623
 30
0.0
 10
16.0311304959
 20
11.1419087477
 30
0.0
 10
16.002844309
 20
11.149911475
 30
0.0
 10
15.974801326
 20
11.1617495982
 30
0.0
 10
15.9470858136
 20
11.1773693147
 30
0.0
 10
15.9197629369
 20
11.1967137375
 30
0.0
 10
15.8929085163
 20
11.2197266583
 30
0.0
 10
15.866590586
 20
11.2463217247
 30
0.0
 10
15.8499315118
 20
11.2658218169
 30
0.0
 10
15.8416974866
 20
11.2761063222
 30
0.0
  0
SPLINE
  5
343
100
AcDbEntity
  8
0
100
AcDbSpline
 62
7
  6
CONTINUOUS
 70
0
 71
3
 72
13
 73
9
 74
0
 42
0.0000001
 43
0.0000001
 44
0.0000000001
 40
0.0
 40
0.0
 40
0.0
 40
0.0
 40
0.0809850107
 40
0.1688880384
 40
0.2689484952
 40
0.3840994442
 40
0.6630934571
 40
1.0
 40
1.0
 40
1.0
 40
1.0
 10
14.1901359981
 20
11.3083713051
 30
0.0
 10
14.1899652713
 20
11.3083712901
 30
0.0
 10
14.1896069209
 20
11.3084326492
 30
0.0
 10
14.1890988708
 20
11.3086999582
 30
0.0
 10
14.1886185467
 20
11.3091285065
 30
0.0
 10
14.1879764476
 20
11.3099542662
 30
0.0
 10
14.1873043133
 20
11.3113570564
 30
0.0
 10
14.1869381335
 20
11.3126062523
 30
0.0
 10
14.1867795375
 20
11.3132985609
 30
0.0
  0
SPLINE
  5
344
100
AcDbEntity
  8
0
100
AcDbSpline
 62
7
  6
CONTINUOUS
 70
0
 71
3
 72
12
 73
8
 74
0
 42
0.0000001
 43
0.0000001
 44
0.0000000001
 40
0.0
 40
0.0
 40
0.0
 40
0.0
 40
0.0889030835
 40
0.1828237767
 40
0.400504287
 40
0.67294436
 40
1.0
 40
1.0
 40
1.0
 40
1.0
 10
14.3039305662
 20
10.9129846808
 30
0.0
 10
14.3037949968
 20
10.9129843713
 30
0.0
 10
14.3035148906
 20
10.9130225985
 30
0.0
 10
14.3029456262
 20
10.913258645
 30
0.0
 10
14.3022651689
 20
10.9138658519
 30
0.0
 10
14.3015862518
 20
10.914918781
 30
0.0
 10
14.3012254003
 20
10.9157632391
 30
0.0
 10
14.3010579581
 20
10.9162330234
 30
0.0
  0
SPLINE
  5
345
100
AcDbEntity
  8
0
100
AcDbSpline
 62
7
  6
CONTINUOUS
 70
0
 71
3
 72
11
 73
7
 74
0
 42
0.0000001
 43
0.0000001
 44
0.0000000001
 40
0.0
 40
0.0
 40
0.0
 40
0.0
 40
0.2003069176
 40
0.425432977
 40
0.6902917549
 40
1.0
 40
1.0
 40
1.0
 40
1.0
 10
14.4472505714
 20
10.5869952756
 30
0.0
 10
14.4470462047
 20
10.5869952803
 30
0.0
 10
14.4466088175
 20
10.5870883578
 30
0.0
 10
14.4460091974
 20
10.5874777038
 30
0.0
 10
14.445453121
 20
10.5880825042
 30
0.0
 10
14.4451386566
 20
10.58858051
 30
0.0
 10
14.4449873837
 20
10.5888579326
 30
0.0
  0
SPLINE
  5
346
100
AcDbEntity
  8
0
100
AcDbSpline
 62
7
  6
CONTINUOUS
 70
0
 71
3
 72
9
 73
5
 74
0
 42
0.0000001
 43
0.0000001
 44
0.0000000001
 40
0.0
 40
0.0
 40
0.0
 40
0.0
 40
0.4970205576
 40
1.0
 40
1.0
 40
1.0
 40
1.0
 10
14.9794961629
 20
10.1490550031
 30
0.0
 10
14.9652040413
 20
10.1490550311
 30
0.0
 10
14.9364228618
 20
10.1507848102
 30
0.0
 10
14.9080539753
 20
10.1559118307
 30
0.0
 10
14.8939891884
 20
10.1592843395
 30
0.0
  0
SPLINE
  5
347
100
AcDbEntity
  8
0
100
AcDbSpline
 62
7
  6
CONTINUOUS
 70
0
 71
3
 72
16
 73
12
 74
0
 42
0.0000001
 43
0.0000001
 44
0.0000000001
 40
0.0
 40
0.0
 40
0.0
 40
0.0
 40
0.1748868335
 40
0.3400793251
 40
0.4915116398
 40
0.5610943579
 40
0.6263258144
 40
0.7432709379
 40
0.842468952
 40
0.9262594892
 40
1.0
 40
1.0
 40
1.0
 40
1.0
 10
14.9682966538
 20
14.8653059491
 30
0.0
 10
14.9683536449
 20
14.8658021199
 30
0.0
 10
14.9684965859
 20
14.8667636712
 30
0.0
 10
14.9688022162
 20
14.8681348608
 30
0.0
 10
14.969131196
 20
14.8691894783
 30
0.0
 10
14.9694368619
 20
14.8699481269
 30
0.0
 10
14.969744675
 20
14.8705981355
 30
0.0
 10
14.970157485
 20
14.8712913104
 30
0.0
 10
14.9707256936
 20
14.8719407813
 30
0.0
 10
14.9713392809
 20
14.8723606412
 30
0.0
 10
14.9717894709
 20
14.8724721372
 30
0.0
 10
14.9720000093
 20
14.8724765439
 30
0.0
  0
SPLINE
  5
348
100
AcDbEntity
  8
0
100
AcDbSpline
 62
7
  6
CONTINUOUS
 70
0
 71
3
 72
9
 73
5
 74
0
 42
0.0000001
 43
0.0000001
 44
0.0000000001
 40
0.0
 40
0.0
 40
0.0
 40
0.0
 40
0.5100211338
 40
1.0
 40
1.0
 40
1.0
 40
1.0
 10
14.7809519645
 20
14.816866134
 30
0.0
 10
14.7957625166
 20
14.8252747559
 30
0.0
 10
14.8256578959
 20
14.8403116118
 30
0.0
 10
14.8570732429
 20
14.8518888873
 30
0.0
 10
14.8727446148
 20
14.8565917236
 30
0.0
  0
SPLINE
  5
349
100
AcDbEntity
  8
0
100
AcDbSpline
 62
7
  6
CONTINUOUS
 70
0
 71
3
 72
13
 73
9
 74
0
 42
0.0000001
 43
0.0000001
 44
0.0000000001
 40
0.0
 40
0.0
 40
0.0
 40
0.0
 40
0.3168561198
 40
0.6009995032
 40
0.7236956971
 40
0.8311967937
 40
0.9229988552
 40
1.0
 40
1.0
 40
1.0
 40
1.0
 10
14.7779101007
 20
14.8078750006
 30
0.0
 10
14.777941272
 20
14.8089073267
 30
0.0
 10
14.7781189878
 20
14.8108634279
 30
0.0
 10
14.7786447966
 20
14.8131748543
 30
0.0
 10
14.7792535061
 20
14.8147401931
 30
0.0
 10
14.7797531477
 20
14.8156673956
 30
0.0
 10
14.780303824
 20
14.8163852836
 30
0.0
 10
14.7807337019
 20
14.8167422165
 30
0.0
 10
14.7809519645
 20
14.816866134
 30
0.0
  0
SPLINE
  5
34A
100
AcDbEntity
  8
0
100
AcDbSpline
 62
7
  6
CONTINUOUS
 70
0
 71
3
 72
9
 73
5
 74
0
 42
0.0000001
 43
0.0000001
 44
0.0000000001
 40
0.0
 40
0.0
 40
0.0
 40
0.0
 40
0.5137694065
 40
1.0
 40
1.0
 40
1.0
 40
1.0
 10
14.5985812538
 20
14.6604697865
 30
0.0
 10
14.6123257691
 20
14.6765300939
 30
0.0
 10
14.6400936646
 20
14.7069403082
 30
0.0
 10
14.6700396039
 20
14.7352264302
 30
0.0
 10
14.6851516469
 20
14.7483356645
 30
0.0
  0
SPLINE
  5
34B
100
AcDbEntity
  8
0
100
AcDbSpline
 62
7
  6
CONTINUOUS
 70
0
 71
3
 72
12
 73
8
 74
0
 42
0.0000001
 43
0.0000001
 44
0.0000000001
 40
0.0
 40
0.0
 40
0.0
 40
0.0
 40
0.2924792681
 40
0.5708222836
 40
0.8117070563
 40
0.9131399657
 40
1.0
 40
1.0
 40
1.0
 40
1.0
 10
14.5963338257
 20
14.6500510702
 30
0.0
 10
14.5962791965
 20
14.6511072029
 30
0.0
 10
14.5963016737
 20
14.653177562
 30
0.0
 10
14.5966912693
 20
14.6560928075
 30
0.0
 10
14.597314526
 20
14.658264621
 30
0.0
 10
14.5979927327
 20
14.6596639326
 30
0.0
 10
14.5983770449
 20
14.6602311709
 30
0.0
 10
14.5985812538
 20
14.6604697865
 30
0.0
  0
SPLINE
  5
34C
100
AcDbEntity
  8
0
100
AcDbSpline
 62
7
  6
CONTINUOUS
 70
0
 71
3
 72
13
 73
9
 74
0
 42
0.0000001
 43
0.0000001
 44
0.0000000001
 40
0.0
 40
0.0
 40
0.0
 40
0.0
 40
0.0939278907
 40
0.2000617224
 40
0.3171547712
 40
0.4435696676
 40
0.7163804562
 40
1.0
 40
1.0
 40
1.0
 40
1.0
 10
14.5924412099
 20
14.5434220894
 30
0.0
 10
14.5931289282
 20
14.5444938568
 30
0.0
 10
14.594417313
 20
14.5468909658
 30
0.0
 10
14.5960232625
 20
14.550886245
 30
0.0
 10
14.5973891312
 20
14.5554314153
 30
0.0
 10
14.5988942786
 20
14.5622730674
 30
0.0
 10
14.5999692761
 20
14.5714927805
 30
0.0
 10
14.6000062095
 20
14.5790538136
 30
0.0
 10
14.5998075793
 20
14.5828938807
 30
0.0
  0
SPLINE
  5
34D
100
AcDbEntity
  8
0
100
AcDbSpline
 62
7
  6
CONTINUOUS
 70
0
 71
3
 72
11
 73
7
 74
0
 42
0.0000001
 43
0.0000001
 44
0.0000000001
 40
0.0
 40
0.0
 40
0.0
 40
0.0
 40
0.3003958691
 40
0.5619265787
 40
0.7908990865
 40
1.0
 40
1.0
 40
1.0
 40
1.0
 10
14.5104229468
 20
14.5422887781
 30
0.0
 10
14.5105616216
 20
14.5424999285
 30
0.0
 10
14.5108477408
 20
14.542878888
 30
0.0
 10
14.5113408538
 20
14.543331983
 30
0.0
 10
14.5118624757
 20
14.543619686
 30
0.0
 10
14.5122332253
 20
14.5436875076
 30
0.0
 10
14.5124090678
 20
14.5436875854
 30
0.0
  0
SPLINE
  5
34E
100
AcDbEntity
  8
0
100
AcDbSpline
 62
7
  6
CONTINUOUS
 70
0
 71
3
 72
9
 73
5
 74
0
 42
0.0000001
 43
0.0000001
 44
0.0000000001
 40
0.0
 40
0.0
 40
0.0
 40
0.0
 40
0.5120322724
 40
1.0
 40
1.0
 40
1.0
 40
1.0
 10
14.4328583524
 20
14.4101227723
 30
0.0
 10
14.4450543404
 20
14.4332693195
 30
0.0
 10
14.469838851
 20
14.4779744076
 30
0.0
 10
14.4967356578
 20
14.5214480971
 30
0.0
 10
14.5104229468
 20
14.5422887781
 30
0.0
  0
SPLINE
  5
34F
100
AcDbEntity
  8
0
100
AcDbSpline
 62
7
  6
CONTINUOUS
 70
0
 71
3
 72
12
 73
8
 74
0
 42
0.0000001
 43
0.0000001
 44
0.0000000001
 40
0.0
 40
0.0
 40
0.0
 40
0.0
 40
0.2693742901
 40
0.5407739198
 40
0.790739685
 40
0.9016296193
 40
1.0
 40
1.0
 40
1.0
 40
1.0
 10
14.4315035836
 20
14.398731821
 30
0.0
 10
14.4313605668
 20
14.3997651284
 30
0.0
 10
14.4312181252
 20
14.4018613079
 30
0.0
 10
14.4313737292
 20
14.404925647
 30
0.0
 10
14.4318132934
 20
14.4073451261
 30
0.0
 10
14.4323556604
 20
14.4090408612
 30
0.0
 10
14.4326807754
 20
14.409785752
 30
0.0
 10
14.4328583524
 20
14.4101227723
 30
0.0
  0
SPLINE
  5
350
100
AcDbEntity
  8
0
100
AcDbSpline
 62
7
  6
CONTINUOUS
 70
0
 71
3
 72
15
 73
11
 74
0
 42
0.0000001
 43
0.0000001
 44
0.0000000001
 40
0.0
 40
0.0
 40
0.0
 40
0.0
 40
0.1013840808
 40
0.213997662
 40
0.3357911579
 40
0.4645623534
 40
0.5979746845
 40
0.7335260098
 40
0.8685601059
 40
1.0
 40
1.0
 40
1.0
 40
1.0
 10
14.4355834282
 20
14.2906654286
 30
0.0
 10
14.4362318299
 20
14.2920412256
 30
0.0
 10
14.4374176422
 20
14.2950323182
 30
0.0
 10
14.4388360727
 20
14.2998714374
 30
0.0
 10
14.4399525687
 20
14.3052092976
 30
0.0
 10
14.4407453351
 20
14.310918824
 30
0.0
 10
14.4411933882
 20
14.3168723753
 30
0.0
 10
14.4412886234
 20
14.3229358979
 30
0.0
 10
14.4410241015
 20
14.3289645087
 30
0.0
 10
14.4406091208
 20
14.3329436216
 30
0.0
 10
14.440338784
 20
14.3348968253
 30
0.0
  0
SPLINE
  5
351
100
AcDbEntity
  8
0
100
AcDbSpline
 62
7
  6
CONTINUOUS
 70
0
 71
3
 72
13
 73
9
 74
0
 42
0.0000001
 43
0.0000001
 44
0.0000000001
 40
0.0
 40
0.0
 40
0.0
 40
0.0
 40
0.166720315
 40
0.3209372939
 40
0.5279128312
 40
0.7061416804
 40
0.860072441
 40
1.0
 40
1.0
 40
1.0
 40
1.0
 10
14.3561949972
 20
14.2474563022
 30
0.0
 10
14.3562800694
 20
14.2476576471
 30
0.0
 10
14.3564566671
 20
14.2480400785
 30
0.0
 10
14.3567950951
 20
14.2486445017
 30
0.0
 10
14.3572076825
 20
14.2492222992
 30
0.0
 10
14.3577183668
 20
14.249718663
 30
0.0
 10
14.3582628702
 20
14.2500301077
 30
0.0
 10
14.3586506985
 20
14.2501035561
 30
0.0
 10
14.3588341512
 20
14.2501034666
 30
0.0
  0
SPLINE
  5
352
100
AcDbEntity
  8
0
100
AcDbSpline
 62
7
  6
CONTINUOUS
 70
0
 71
3
 72
11
 73
7
 74
0
 42
0.0000001
 43
0.0000001
 44
0.0000000001
 40
0.0
 40
0.0
 40
0.0
 40
0.0
 40
0.2476520772
 40
0.5118870171
 40
0.7699094004
 40
1.0
 40
1.0
 40
1.0
 40
1.0
 10
14.2906232467
 20
14.0649011102
 30
0.0
 10
14.2903927532
 20
14.0658644892
 30
0.0
 10
14.2900831804
 20
14.0678965621
 30
0.0
 10
14.2899967339
 20
14.0709819468
 30
0.0
 10
14.2902811476
 20
14.073984586
 30
0.0
 10
14.2907260506
 20
14.0758964333
 30
0.0
 10
14.2910261465
 20
14.0767664573
 30
0.0
  0
SPLINE
  5
353
100
AcDbEntity
  8
0
100
AcDbSpline
 62
7
  6
CONTINUOUS
 70
0
 71
3
 72
15
 73
11
 74
0
 42
0.0000001
 43
0.0000001
 44
0.0000000001
 40
0.0
 40
0.0
 40
0.0
 40
0.0
 40
0.1128315024
 40
0.2341581931
 40
0.3614283484
 40
0.4921854825
 40
0.6239638997
 40
0.7542628938
 40
0.8805309062
 40
1.0
 40
1.0
 40
1.0
 40
1.0
 10
14.303363492
 20
13.9613744697
 30
0.0
 10
14.3038774686
 20
13.9630376988
 30
0.0
 10
14.3047854196
 20
13.9665393515
 30
0.0
 10
14.3057870423
 20
13.9720291283
 30
0.0
 10
14.3064526624
 20
13.9778481532
 30
0.0
 10
14.306770919
 20
13.9838574517
 30
0.0
 10
14.3067319971
 20
13.9899217148
 30
0.0
 10
14.3063391455
 20
13.9959042336
 30
0.0
 10
14.3055972351
 20
14.0016620218
 30
0.0
 10
14.3048626539
 20
14.0053855554
 30
0.0
 10
14.3044337533
 20
14.0071782039
 30
0.0
  0
SPLINE
  5
354
100
AcDbEntity
  8
0
100
AcDbSpline
 62
7
  6
CONTINUOUS
 70
0
 71
3
 72
13
 73
9
 74
0
 42
0.0000001
 43
0.0000001
 44
0.0000000001
 40
0.0
 40
0.0
 40
0.0
 40
0.0
 40
0.3336357665
 40
0.6099886317
 40
0.724989302
 40
0.826010946
 40
0.916058607
 40
1.0
 40
1.0
 40
1.0
 40
1.0
 10
14.2292082994
 20
13.8767238307
 30
0.0
 10
14.2293737725
 20
13.8773232045
 30
0.0
 10
14.2297424917
 20
13.8784018347
 30
0.0
 10
14.2303891785
 20
13.8796027258
 30
0.0
 10
14.2309892931
 20
13.8803018771
 30
0.0
 10
14.2314354394
 20
13.8806636307
 30
0.0
 10
14.2319023254
 20
13.8808885846
 30
0.0
 10
14.2322286814
 20
13.8809391169
 30
0.0
 10
14.2323851219
 20
13.8809386024
 30
0.0
  0
SPLINE
  5
355
100
AcDbEntity
  8
0
100
AcDbSpline
 62
7
  6
CONTINUOUS
 70
0
 71
3
 72
11
 73
7
 74
0
 42
0.0000001
 43
0.0000001
 44
0.0000000001
 40
0.0
 40
0.0
 40
0.0
 40
0.0
 40
0.2265274464
 40
0.4832445931
 40
0.7487213304
 40
1.0
 40
1.0
 40
1.0
 40
1.0
 10
14.1798499618
 20
13.6631489416
 30
0.0
 10
14.1795361936
 20
13.6639960475
 30
0.0
 10
14.179064471
 20
13.6658761359
 30
0.0
 10
14.1787405958
 20
13.6688510958
 30
0.0
 10
14.178786112
 20
13.6719424035
 30
0.0
 10
14.179067504
 20
13.6739915905
 30
0.0
 10
14.1792833839
 20
13.6749701119
 30
0.0
  0
SPLINE
  5
356
100
AcDbEntity
  8
0
100
AcDbSpline
 62
7
  6
CONTINUOUS
 70
0
 71
3
 72
15
 73
11
 74
0
 42
0.0000001
 43
0.0000001
 44
0.0000000001
 40
0.0
 40
0.0
 40
0.0
 40
0.0
 40
0.1245144071
 40
0.2544983851
 40
0.3870430451
 40
0.5195431328
 40
0.6494877287
 40
0.7744544423
 40
0.8920790382
 40
1.0
 40
1.0
 40
1.0
 40
1.0
 10
14.2006937979
 20
13.568686664
 30
0.0
 10
14.2010561612
 20
13.5705584203
 30
0.0
 10
14.2016561031
 20
13.5744122749
 30
0.0
 10
14.2021966504
 20
13.5803173016
 30
0.0
 10
14.2023816454
 20
13.5863666318
 30
0.0
 10
14.2022112198
 20
13.592415661
 30
0.0
 10
14.2016870226
 20
13.598328028
 30
0.0
 10
14.2008237228
 20
13.6039708815
 30
0.0
 10
14.199637315
 20
13.6092095907
 30
0.0
 10
14.1986061455
 20
13.6125113361
 30
0.0
 10
14.1980321893
 20
13.6140608927
 30
0.0
  0
SPLINE
  5
357
100
AcDbEntity
  8
0
100
AcDbSpline
 62
7
  6
CONTINUOUS
 70
0
 71
3
 72
10
 73
6
 74
0
 42
0.0000001
 43
0.0000001
 44
0.0000000001
 40
0.0
 40
0.0
 40
0.0
 40
0.0
 40
0.2195080198
 40
0.4611037288
 40
1.0
 40
1.0
 40
1.0
 40
1.0
 10
14.1760899234
 20
13.4519706138
 30
0.0
 10
14.1766285585
 20
13.4529668956
 30
0.0
 10
14.1776446177
 20
13.4551231467
 30
0.0
 10
14.1794324767
 20
13.4599673122
 30
0.0
 10
14.1804057525
 20
13.4638905237
 30
0.0
 10
14.1809342263
 20
13.4666203091
 30
0.0
  0
SPLINE
  5
358
100
AcDbEntity
  8
0
100
AcDbSpline
 62
7
  6
CONTINUOUS
 70
0
 71
3
 72
26
 73
22
 74
0
 42
0.0000001
 43
0.0000001
 44
0.0000000001
 40
0.0
 40
0.0
 40
0.0
 40
0.0
 40
0.0212795144
 40
0.0426528218
 40
0.0642123974
 40
0.0860473704
 40
0.1308545241
 40
0.1777176621
 40
0.2020942927
 40
0.2271681105
 40
0.2795787328
 40
0.3352793894
 40
0.3944870333
 40
0.4573483369
 40
0.5239373395
 40
0.5942699653
 40
0.6683243034
 40
0.7460417842
 40
0.8273369796
 40
0.912059161
 40
1.0
 40
1.0
 40
1.0
 40
1.0
 10
16.0755587466
 20
10.5105572962
 30
0.0
 10
16.0828650007
 20
10.5105569011
 30
0.0
 10
16.0975152606
 20
10.511085937
 30
0.0
 10
16.1194511601
 20
10.5134689688
 30
0.0
 10
16.1413510576
 20
10.5174400444
 30
0.0
 10
16.1707219149
 20
10.5249041801
 30
0.0
 10
16.2074295425
 20
10.5383490786
 30
0.0
 10
16.2429230589
 20
10.5566665971
 30
0.0
 10
16.270951614
 20
10.5742398448
 30
0.0
 10
16.299561435
 20
10.5943815532
 30
0.0
 10
16.3348853562
 20
10.6235422459
 30
0.0
 10
16.3757913795
 20
10.6639703456
 30
0.0
 10
16.4157271223
 20
10.7102037242
 30
0.0
 10
16.4545654409
 20
10.7621020679
 30
0.0
 10
16.4921968172
 20
10.8194999428
 30
0.0
 10
16.5285105838
 20
10.8822167322
 30
0.0
 10
16.563389005
 20
10.9500641726
 30
0.0
 10
16.5967348478
 20
11.0228354567
 30
0.0
 10
16.6284363833
 20
11.1003077726
 30
0.0
 10
16.6583916714
 20
11.1822160995
 30
0.0
 10
16.6768039786
 20
11.2385814771
 30
0.0
 10
16.6857187395
 20
11.2674296539
 30
0.0
  0
SPLINE
  5
359
100
AcDbEntity
  8
0
100
AcDbSpline
 62
7
  6
CONTINUOUS
 70
0
 71
3
 72
40
 73
36
 74
0
 42
0.0000001
 43
0.0000001
 44
0.0000000001
 40
0.0
 40
0.0
 40
0.0
 40
0.0
 40
0.0320215998
 40
0.0652356184
 40
0.0995165482
 40
0.1347499764
 40
0.1708214084
 40
0.2076038811
 40
0.2449645993
 40
0.2827677848
 40
0.3208756893
 40
0.359148176
 40
0.3974437557
 40
0.4356211518
 40
0.4735395168
 40
0.5110600768
 40
0.5480461685
 40
0.5843650487
 40
0.6198881625
 40
0.6544926259
 40
0.6880621839
 40
0.7204881209
 40
0.7516713444
 40
0.7815226002
 40
0.8099660968
 40
0.8369391939
 40
0.862398007
 40
0.8863171562
 40
0.9086978746
 40
0.9295689103
 40
0.948997546
 40
0.9670926024
 40
0.9840168321
 40
0.9921110595
 40
1.0
 40
1.0
 40
1.0
 40
1.0
 10
14.1090229724
 20
14.0500272336
 30
0.0
 10
14.095579542
 20
14.0065242768
 30
0.0
 10
14.0699171072
 20
13.917357722
 30
0.0
 10
14.035587633
 20
13.7800521237
 30
0.0
 10
14.0048542
 20
13.6372222598
 30
0.0
 10
13.9778463267
 20
13.4895116531
 30
0.0
 10
13.9546862824
 20
13.3375513434
 30
0.0
 10
13.9354643795
 20
13.1819957735
 30
0.0
 10
13.9202755822
 20
13.0235217268
 30
0.0
 10
13.9091784413
 20
12.8628201696
 30
0.0
 10
13.9022281048
 20
12.700588679
 30
0.0
 10
13.8994485091
 20
12.5375321523
 30
0.0
 10
13.9008574637
 20
12.3743592241
 30
0.0
 10
13.9064443447
 20
12.211779565
 30
0.0
 10
13.9161881645
 20
12.05049966
 30
0.0
 10
13.9300438054
 20
11.8912205837
 30
0.0
 10
13.9479521625
 20
11.7346342568
 30
0.0
 10
13.9698345774
 20
11.5814211191
 30
0.0
 10
13.9955946672
 20
11.4322461265
 30
0.0
 10
14.025121808
 20
11.2877570316
 30
0.0
 10
14.0582839966
 20
11.1485797428
 30
0.0
 10
14.0949409993
 20
11.0153179008
 30
0.0
 10
14.1349275888
 20
10.8885466405
 30
0.0
 10
14.1780771724
 20
10.7688147522
 30
0.0
 10
14.2241948314
 20
10.6566353069
 30
0.0
 10
14.2730921884
 20
10.5524925148
 30
0.0
 10
14.3245501574
 20
10.4568268303
 30
0.0
 10
14.3783653882
 20
10.370050081
 30
0.0
 10
14.4343041247
 20
10.2925218887
 30
0.0
 10
14.4921576665
 20
10.2245796817
 30
0.0
 10
14.55169469
 20
10.1665022305
 30
0.0
 10
14.6127006007
 20
10.1185704608
 30
0.0
 10
14.6653635963
 20
10.0867999906
 30
0.0
 10
14.7078060989
 20
10.0670171722
 30
0.0
 10
14.7290834887
 20
10.0589550046
 30
0.0
 10
14.7397209643
 20
10.0553943125
 30
0.0
  0
SPLINE
  5
35A
100
AcDbEntity
  8
0
100
AcDbSpline
 62
7
  6
CONTINUOUS
 70
0
 71
3
 72
20
 73
16
 74
0
 42
0.0000001
 43
0.0000001
 44
0.0000000001
 40
0.0
 40
0.0
 40
0.0
 40
0.0
 40
0.143201615
 40
0.2780309713
 40
0.4057080709
 40
0.4673693464
 40
0.5278495417
 40
0.5873875713
 40
0.6462368826
 40
0.7046634334
 40
0.7629405157
 40
0.821343193
 40
0.8801444795
 40
0.9396115644
 40
1.0
 40
1.0
 40
1.0
 40
1.0
 10
15.2647464578
 20
14.8735493791
 30
0.0
 10
15.2474565714
 20
14.8890449639
 30
0.0
 10
15.2125023817
 20
14.9176456727
 30
0.0
 10
15.1574065712
 20
14.9538091904
 30
0.0
 10
15.110235746
 20
14.9773316447
 30
0.0
 10
15.0723514067
 20
14.9917348317
 30
0.0
 10
15.0441467306
 20
15.0003130065
 30
0.0
 10
15.0158514466
 20
15.0067792897
 30
0.0
 10
14.9874894071
 20
15.0111245769
 30
0.0
 10
14.9590868957
 20
15.013342767
 30
0.0
 10
14.9306702798
 20
15.0134349412
 30
0.0
 10
14.902265713
 20
15.0114015873
 30
0.0
 10
14.873898674
 20
15.0072441398
 30
0.0
 10
14.8455972186
 20
15.0009642094
 30
0.0
 10
14.8269541864
 20
14.9954168994
 30
0.0
 10
14.8176697705
 20
14.9923086922
 30
0.0
  0
SPLINE
  5
35B
100
AcDbEntity
  8
0
100
AcDbSpline
 62
7
  6
CONTINUOUS
 70
0
 71
3
 72
23
 73
19
 74
0
 42
0.0000001
 43
0.0000001
 44
0.0000000001
 40
0.0
 40
0.0
 40
0.0
 40
0.0
 40
0.0847398797
 40
0.1667547115
 40
0.2458839419
 40
0.3219941931
 40
0.395009404
 40
0.4648746344
 40
0.5315551226
 40
0.5950418946
 40
0.6553515
 40
0.7125421453
 40
0.7667214664
 40
0.8180418052
 40
0.8667169245
 40
0.9130260543
 40
0.9573138735
 40
1.0
 40
1.0
 40
1.0
 40
1.0
 10
15.4349304465
 20
13.7552681494
 30
0.0
 10
15.4428614252
 20
13.7809328058
 30
0.0
 10
15.4591889193
 20
13.8312181163
 30
0.0
 10
15.4855290578
 20
13.9045899726
 30
0.0
 10
15.5132611227
 20
13.9745147734
 30
0.0
 10
15.5423176122
 20
14.0407978059
 30
0.0
 10
15.5726189315
 20
14.103275064
 30
0.0
 10
15.6040945164
 20
14.1617988423
 30
0.0
 10
15.6366720289
 20
14.2162280787
 30
0.0
 10
15.6702667463
 20
14.2664334067
 30
0.0
 10
15.7048023116
 20
14.3122879243
 30
0.0
 10
15.7401992787
 20
14.3536759904
 30
0.0
 10
15.7763693324
 20
14.390501116
 30
0.0
 10
15.81323664
 20
14.4226664415
 30
0.0
 10
15.8507172402
 20
14.4500874369
 30
0.0
 10
15.8887253621
 20
14.472694697
 30
0.0
 10
15.9271712603
 20
14.4904065976
 30
0.0
 10
15.9534340715
 20
14.4990425931
 30
0.0
 10
15.9665238229
 20
14.5024710903
 30
0.0
  0
SPLINE
  5
35C
100
AcDbEntity
  8
0
100
AcDbSpline
 62
7
  6
CONTINUOUS
 70
0
 71
3
 72
9
 73
5
 74
0
 42
0.0000001
 43
0.0000001
 44
0.0000000001
 40
0.0
 40
0.0
 40
0.0
 40
0.0
 40
0.5035430629
 40
1.0
 40
1.0
 40
1.0
 40
1.0
 10
15.9665238229
 20
14.5024710903
 30
0.0
 10
15.9795033056
 20
14.5058707056
 30
0.0
 10
16.0057214681
 20
14.5110533793
 30
0.0
 10
16.0323957627
 20
14.5128033918
 30
0.0
 10
16.0456242626
 20
14.5128026838
 30
0.0
  0
SPLINE
  5
35D
100
AcDbEntity
  8
0
100
AcDbSpline
 62
7
  6
CONTINUOUS
 70
0
 71
3
 72
23
 73
19
 74
0
 42
0.0000001
 43
0.0000001
 44
0.0000000001
 40
0.0
 40
0.0
 40
0.0
 40
0.0
 40
0.0838103442
 40
0.165023371
 40
0.2434904925
 40
0.3190884986
 40
0.3917453415
 40
0.4614070057
 40
0.5280369306
 40
0.591620113
 40
0.6521632975
 40
0.7097098828
 40
0.7643441946
 40
0.8161881417
 40
0.8654166002
 40
0.9122592084
 40
0.9570023999
 40
1.0
 40
1.0
 40
1.0
 40
1.0
 10
16.8332019646
 20
10.9715827523
 30
0.0
 10
16.8237306166
 20
10.9409334591
 30
0.0
 10
16.804250276
 20
10.8808371408
 30
0.0
 10
16.7728986117
 20
10.793055214
 30
0.0
 10
16.7399382508
 20
10.7092308661
 30
0.0
 10
16.7054444576
 20
10.6295807569
 30
0.0
 10
16.669504957
 20
10.5542882704
 30
0.0
 10
16.6321973399
 20
10.4835196046
 30
0.0
 10
16.5936025731
 20
10.4174335435
 30
0.0
 10
16.5538140418
 20
10.3561772166
 30
0.0
 10
16.5129157652
 20
10.2998952921
 30
0.0
 10
16.4709976165
 20
10.2487185495
 30
0.0
 10
16.4281570922
 20
10.2027589144
 30
0.0
 10
16.3844785636
 20
10.1621282457
 30
0.0
 10
16.3400572144
 20
10.1269222067
 30
0.0
 10
16.2949871005
 20
10.0972225846
 30
0.0
 10
16.2493656627
 20
10.0731228099
 30
0.0
 10
16.2181104786
 20
10.0606186643
 30
0.0
 10
16.2025039898
 20
10.0553939737
 30
0.0
  0
SPLINE
  5
35E
100
AcDbEntity
  8
0
100
AcDbSpline
 62
7
  6
CONTINUOUS
 70
0
 71
3
 72
31
 73
27
 74
0
 42
0.0000001
 43
0.0000001
 44
0.0000000001
 40
0.0
 40
0.0
 40
0.0
 40
0.0
 40
0.0912662175
 40
0.1786585231
 40
0.2619088269
 40
0.3408559906
 40
0.4154004316
 40
0.4854922843
 40
0.5511396863
 40
0.5823307078
 40
0.6124571592
 40
0.6415471688
 40
0.6696364326
 40
0.6967707999
 40
0.7230046177
 40
0.77300632
 40
0.7969578389
 40
0.8203240537
 40
0.8432087616
 40
0.8657242849
 40
0.8879907693
 40
0.910133424
 40
0.932279691
 40
0.9545571265
 40
0.9770908015
 40
1.0
 40
1.0
 40
1.0
 40
1.0
 10
15.2352207762
 20
14.0663839385
 30
0.0
 10
15.2479477427
 20
14.107568417
 30
0.0
 10
15.2743370093
 20
14.1877443341
 30
0.0
 10
15.3177257583
 20
14.3036256656
 30
0.0
 10
15.3639303163
 20
14.4121242176
 30
0.0
 10
15.4127439503
 20
14.5127774621
 30
0.0
 10
15.463980285
 20
14.605184667
 30
0.0
 10
15.5174253523
 20
14.6889782044
 30
0.0
 10
15.5644131162
 20
14.7523933766
 30
0.0
 10
15.6029990429
 20
14.798317534
 30
0.0
 10
15.6318567615
 20
14.8298102626
 30
0.0
 10
15.6610977302
 20
14.8589072857
 30
0.0
 10
15.6906944267
 20
14.8855754428
 30
0.0
 10
15.7206188237
 20
14.9097910277
 30
0.0
 10
15.7602655339
 20
14.9383119711
 30
0.0
 10
15.8011357658
 20
14.9624747589
 30
0.0
 10
15.8429582165
 20
14.9816230394
 30
0.0
 10
15.8740542122
 20
14.9932221197
 30
0.0
 10
15.9052884353
 20
15.002244905
 30
0.0
 10
15.9366293804
 20
15.0086761841
 30
0.0
 10
15.9680412113
 20
15.0125066982
 30
0.0
 10
15.9994879404
 20
15.0137349468
 30
0.0
 10
16.0309336493
 20
15.0123593339
 30
0.0
 10
16.062342806
 20
15.0083785491
 30
0.0
 10
16.0936766893
 20
15.0017969889
 30
0.0
 10
16.1142944356
 20
14.995742928
 30
0.0
 10
16.1245551491
 20
14.9923083499
 30
0.0
  0
LINE
  5
35F
100
AcDbEntity
  8
0
100
AcDbLine
 62
7
  6
CONTINUOUS
 10
15.7434300809
 20
11.2817176799
 11
15.8416957528
 21
11.2761023017
  0
SPLINE
  5
360
100
AcDbEntity
  8
0
100
AcDbSpline
 62
7
  6
CONTINUOUS
 70
0
 71
3
 72
15
 73
11
 74
0
 42
0.0000001
 43
0.0000001
 44
0.0000000001
 40
0.0
 40
0.0
 40
0.0
 40
0.0
 40
0.1668269354
 40
0.3208327263
 40
0.4615551231
 40
0.5891505505
 40
0.7046134783
 40
0.8096548608
 40
0.9069318919
 40
1.0
 40
1.0
 40
1.0
 40
1.0
 10
15.8416974866
 20
11.2761063222
 30
0.0
 10
15.8401237585
 20
11.272457126
 30
0.0
 10
15.8368688153
 20
11.265533735
 30
0.0
 10
15.8314311353
 20
11.2559633301
 30
0.0
 10
15.8256696871
 20
11.2476950857
 30
0.0
 10
15.8196237435
 20
11.240807098
 30
0.0
 10
15.8133387917
 20
11.2353506658
 30
0.0
 10
15.8068415839
 20
11.2313830808
 30
0.0
 10
15.8001811086
 20
11.2289594956
 30
0.0
 10
15.7956306361
 20
11.2284076944
 30
0.0
 10
15.7934136115
 20
11.2284078759
 30
0.0
  0
SPLINE
  5
361
100
AcDbEntity
  8
0
100
AcDbSpline
 62
7
  6
CONTINUOUS
 70
0
 71
3
 72
24
 73
20
 74
0
 42
0.0000001
 43
0.0000001
 44
0.0000000001
 40
0.0
 40
0.0
 40
0.0
 40
0.0
 40
0.0887926896
 40
0.1742245714
 40
0.2560719833
 40
0.3341720585
 40
0.4084370727
 40
0.4788102332
 40
0.5452773095
 40
0.6078686075
 40
0.6666785245
 40
0.7218879868
 40
0.7737597535
 40
0.8226655942
 40
0.8690899055
 40
0.9136313097
 40
0.9569981376
 40
0.9784979307
 40
1.0
 40
1.0
 40
1.0
 40
1.0
 10
16.4943812287
 20
11.6573345065
 30
0.0
 10
16.4880646276
 20
11.6368939778
 30
0.0
 10
16.4750058297
 20
11.5969875899
 30
0.0
 10
16.4537078856
 20
11.5390656155
 30
0.0
 10
16.4311360863
 20
11.4844025342
 30
0.0
 10
16.4073669458
 20
11.4331989018
 30
0.0
 10
16.3824863587
 20
11.3856218195
 30
0.0
 10
16.3565677459
 20
11.3418254782
 30
0.0
 10
16.3296994795
 20
11.3019498216
 30
0.0
 10
16.3019668045
 20
11.2661270102
 30
0.0
 10
16.273450632
 20
11.2344816093
 30
0.0
 10
16.2442451898
 20
11.2071134263
 30
0.0
 10
16.2144289458
 20
11.1841241039
 30
0.0
 10
16.1840918901
 20
11.1655997944
 30
0.0
 10
16.1533254563
 20
11.1516178838
 30
0.0
 10
16.1222327337
 20
11.1422643539
 30
0.0
 10
16.0960566118
 20
11.1383585497
 30
0.0
 10
16.0752443471
 20
11.1376119586
 30
0.0
 10
16.0648792125
 20
11.1380159299
 30
0.0
 10
16.0597133558
 20
11.1384097087
 30
0.0
  0
SPLINE
  5
362
100
AcDbEntity
  8
0
100
AcDbSpline
 62
7
  6
CONTINUOUS
 70
0
 71
3
 72
42
 73
38
 74
0
 42
0.0000001
 43
0.0000001
 44
0.0000000001
 40
0.0
 40
0.0
 40
0.0
 40
0.0
 40
0.0327482946
 40
0.066764228
 40
0.1019074947
 40
0.1380497461
 40
0.1750625093
 40
0.2128033552
 40
0.2511232736
 40
0.2898702729
 40
0.3288903539
 40
0.3680270658
 40
0.4071226182
 40
0.4460200578
 40
0.4845634169
 40
0.5225997147
 40
0.5599790451
 40
0.5965567002
 40
0.6321937179
 40
0.6667584476
 40
0.7001281108
 40
0.7321896477
 40
0.7628428651
 40
0.7920004711
 40
0.8195933913
 40
0.845570391
 40
0.8699061592
 40
0.8926016599
 40
0.9136956749
 40
0.9332674704
 40
0.9425265473
 40
0.9514603038
 40
0.9684506211
 40
0.9765843222
 40
0.9845244525
 40
0.9923141107
 40
1.0
 40
1.0
 40
1.0
 40
1.0
 10
15.4653987521
 20
13.7541803319
 30
0.0
 10
15.454056906
 20
13.7174781045
 30
0.0
 10
15.4324552463
 20
13.6421760279
 30
0.0
 10
15.4037175313
 20
13.5261171585
 30
0.0
 10
15.3781536379
 20
13.4052460293
 30
0.0
 10
15.3558804728
 20
13.280155684
 30
0.0
 10
15.3370082643
 20
13.1514281294
 30
0.0
 10
15.3216165386
 20
13.0196671651
 30
0.0
 10
15.3097887959
 20
12.8854970395
 30
0.0
 10
15.3015741972
 20
12.7495545639
 30
0.0
 10
15.2970178634
 20
12.6124820447
 30
0.0
 10
15.2961356029
 20
12.4749279442
 30
0.0
 10
15.2989367247
 20
12.3375433629
 30
0.0
 10
15.305404062
 20
12.2009790643
 30
0.0
 10
15.3155095507
 20
12.0658811995
 30
0.0
 10
15.3292032495
 20
11.9328891565
 30
0.0
 10
15.3464206594
 20
11.8026318088
 30
0.0
 10
15.3670802039
 20
11.6757253026
 30
0.0
 10
15.3910820373
 20
11.5527688912
 30
0.0
 10
15.4183147101
 20
11.4343435921
 30
0.0
 10
15.4486449225
 20
11.3210071437
 30
0.0
 10
15.4819340936
 20
11.2132943208
 30
0.0
 10
15.5180181604
 20
11.111709682
 30
0.0
 10
15.5567352756
 20
11.0167312729
 30
0.0
 10
15.5978949406
 20
10.9287992807
 30
0.0
 10
15.6413177915
 20
10.8483257576
 30
0.0
 10
15.6867938291
 20
10.7756771251
 30
0.0
 10
15.734136587
 20
10.711192276
 30
0.0
 10
15.7831242531
 20
10.6551643496
 30
0.0
 10
15.8259381171
 20
10.6150240389
 30
0.0
 10
15.8608125063
 20
10.5876639934
 30
0.0
 10
15.894814818
 20
10.5642421378
 30
0.0
 10
15.9299268114
 20
10.5448465769
 30
0.0
 10
15.9658356535
 20
10.5301015342
 30
0.0
 10
15.9925254152
 20
10.5215534128
 30
0.0
 10
16.0193214831
 20
10.515378468
 30
0.0
 10
16.0373233278
 20
10.5128359372
 30
0.0
 10
16.0462974023
 20
10.5119697867
 30
0.0
  0
SPLINE
  5
363
100
AcDbEntity
  8
0
100
AcDbSpline
 62
7
  6
CONTINUOUS
 70
0
 71
3
 72
9
 73
5
 74
0
 42
0.0000001
 43
0.0000001
 44
0.0000000001
 40
0.0
 40
0.0
 40
0.0
 40
0.0
 40
0.4922509273
 40
1.0
 40
1.0
 40
1.0
 40
1.0
 10
14.8176697705
 20
14.9923086922
 30
0.0
 10
14.8049787281
 20
14.9880600255
 30
0.0
 10
14.7795855693
 20
14.9782311331
 30
0.0
 10
14.7551401734
 20
14.9662516255
 30
0.0
 10
14.7429946218
 20
14.9596899663
 30
0.0
  0
SPLINE
  5
364
100
AcDbEntity
  8
0
100
AcDbSpline
 62
7
  6
CONTINUOUS
 70
0
 71
3
 72
22
 73
18
 74
0
 42
0.0000001
 43
0.0000001
 44
0.0000000001
 40
0.0
 40
0.0
 40
0.0
 40
0.0
 40
0.091085043
 40
0.139806976
 40
0.1908395582
 40
0.2442966429
 40
0.3002607889
 40
0.3587908676
 40
0.419916903
 40
0.4836443993
 40
0.5499643054
 40
0.6188533363
 40
0.6902746486
 40
0.7641824437
 40
0.8405100671
 40
0.9191537499
 40
1.0
 40
1.0
 40
1.0
 40
1.0
 10
14.7337790372
 20
14.9545914378
 30
0.0
 10
14.7055533334
 20
14.9386078107
 30
0.0
 10
14.6643939124
 20
14.9101037027
 30
0.0
 10
14.6129626789
 20
14.8656419785
 30
0.0
 10
14.5741274199
 20
14.8272549604
 30
0.0
 10
14.5359846232
 20
14.7846684802
 30
0.0
 10
14.4985882737
 20
14.7379541358
 30
0.0
 10
14.4620109315
 20
14.687193901
 30
0.0
 10
14.4263147112
 20
14.6324810058
 30
0.0
 10
14.3915599301
 20
14.5739180091
 30
0.0
 10
14.3578120379
 20
14.5116084581
 30
0.0
 10
14.3251317849
 20
14.4456619004
 30
0.0
 10
14.2935724417
 20
14.3761940231
 30
0.0
 10
14.2631925666
 20
14.3033249587
 30
0.0
 10
14.2340518656
 20
14.2271920438
 30
0.0
 10
14.2062031162
 20
14.147954721
 30
0.0
 10
14.1887700528
 20
14.0938913547
 30
0.0
 10
14.1802696182
 20
14.0663839385
 30
0.0
  0
SPLINE
  5
365
100
AcDbEntity
  8
0
100
AcDbSpline
 62
7
  6
CONTINUOUS
 70
0
 71
3
 72
23
 73
19
 74
0
 42
0.0000001
 43
0.0000001
 44
0.0000000001
 40
0.0
 40
0.0
 40
0.0
 40
0.0
 40
0.0556612141
 40
0.1139474007
 40
0.1745089364
 40
0.2370199266
 40
0.3011299463
 40
0.366458091
 40
0.4326135403
 40
0.499198904
 40
0.5658107833
 40
0.6320455464
 40
0.6975049668
 40
0.7617968153
 40
0.8245380939
 40
0.8853759536
 40
0.9439814842
 40
1.0
 40
1.0
 40
1.0
 40
1.0
 10
16.4906648541
 20
13.3761654931
 30
0.0
 10
16.5004017382
 20
13.3453641963
 30
0.0
 10
16.5187356015
 20
13.281795191
 30
0.0
 10
16.5424332904
 20
13.1832986185
 30
0.0
 10
16.5628161189
 20
13.0800084368
 30
0.0
 10
16.5797423561
 20
12.9726762374
 30
0.0
 10
16.5930936784
 20
12.8620555769
 30
0.0
 10
16.6027706613
 20
12.7489314998
 30
0.0
 10
16.6087070871
 20
12.6341118114
 30
0.0
 10
16.6108548883
 20
12.5184140956
 30
0.0
 10
16.6092060018
 20
12.4026621832
 30
0.0
 10
16.6037648934
 20
12.2876802713
 30
0.0
 10
16.594576096
 20
12.1742871329
 30
0.0
 10
16.5817023253
 20
12.0632925923
 30
0.0
 10
16.5652394272
 20
11.9554844229
 30
0.0
 10
16.5453025148
 20
11.8516194979
 30
0.0
 10
16.5220308037
 20
11.7524537009
 30
0.0
 10
16.5039800248
 20
11.688396222
 30
0.0
 10
16.4943812287
 20
11.6573345065
 30
0.0
  0
SPLINE
  5
366
100
AcDbEntity
  8
0
100
AcDbSpline
 62
7
  6
CONTINUOUS
 70
0
 71
3
 72
22
 73
18
 74
0
 42
0.0000001
 43
0.0000001
 44
0.0000000001
 40
0.0
 40
0.0
 40
0.0
 40
0.0
 40
0.0556544599
 40
0.1102586919
 40
0.1642703015
 40
0.2181645901
 40
0.2724206536
 40
0.3275068453
 40
0.3838637965
 40
0.4418963224
 40
0.5019676132
 40
0.5643892471
 40
0.697220666
 40
0.7681037691
 40
0.8421315988
 40
0.919406234
 40
1.0
 40
1.0
 40
1.0
 40
1.0
 10
16.2025039898
 20
10.0553939737
 30
0.0
 10
16.1899257481
 20
10.05118307
 30
0.0
 10
16.1646009324
 20
10.0439911629
 30
0.0
 10
16.1260069126
 20
10.0370445874
 30
0.0
 10
16.0873203516
 20
10.0340776725
 30
0.0
 10
16.048616943
 20
10.035095083
 30
0.0
 10
16.0099676244
 20
10.0400994259
 30
0.0
 10
15.9714450399
 20
10.0490802524
 30
0.0
 10
15.933115219
 20
10.0620081182
 30
0.0
 10
15.8950421789
 20
10.0788556476
 30
0.0
 10
15.8572878863
 20
10.0995952439
 30
0.0
 10
15.8064040183
 20
10.1330644573
 30
0.0
 10
15.7574595338
 20
10.1737742899
 30
0.0
 10
15.7105921794
 20
10.2205501971
 30
0.0
 10
15.6752670993
 20
10.2600407887
 30
0.0
 10
15.6405948923
 20
10.3031080489
 30
0.0
 10
15.6184175133
 20
10.3335222184
 30
0.0
 10
15.6074365462
 20
10.3492821839
 30
0.0
  0
SPLINE
  5
367
100
AcDbEntity
  8
0
100
AcDbSpline
 62
7
  6
CONTINUOUS
 70
0
 71
3
 72
11
 73
7
 74
0
 42
0.0000001
 43
0.0000001
 44
0.0000000001
 40
0.0
 40
0.0
 40
0.0
 40
0.0
 40
0.2328887932
 40
0.4772337733
 40
0.732991673
 40
1.0
 40
1.0
 40
1.0
 40
1.0
 10
15.6074365462
 20
10.3492821839
 30
0.0
 10
15.5933021725
 20
10.3695679421
 30
0.0
 10
15.5654834283
 20
10.411944292
 30
0.0
 10
15.525996142
 20
10.4790291855
 30
0.0
 10
15.4878439769
 20
10.5510064366
 30
0.0
 10
15.4638633549
 20
10.6010750263
 30
0.0
 10
15.4520903019
 20
10.6268611491
 30
0.0
  0
SPLINE
  5
368
100
AcDbEntity
  8
0
100
AcDbSpline
 62
7
  6
CONTINUOUS
 70
0
 71
3
 72
29
 73
25
 74
0
 42
0.0000001
 43
0.0000001
 44
0.0000000001
 40
0.0
 40
0.0
 40
0.0
 40
0.0
 40
0.0248177713
 40
0.05056715
 40
0.0772155709
 40
0.1047273633
 40
0.1330619987
 40
0.1621743418
 40
0.1920173229
 40
0.2225399007
 40
0.2854026794
 40
0.3503113137
 40
0.4167800598
 40
0.4843007041
 40
0.5523512992
 40
0.6204025286
 40
0.6879245721
 40
0.7543964109
 40
0.787080527
 40
0.8193124995
 40
0.8821767861
 40
0.9425525991
 40
0.9716724649
 40
1.0
 40
1.0
 40
1.0
 40
1.0
 10
15.450694867
 20
10.6299234193
 30
0.0
 10
15.4387670449
 20
10.6561494035
 30
0.0
 10
15.4154562184
 20
10.7100419967
 30
0.0
 10
15.3826669191
 20
10.7934854792
 30
0.0
 10
15.3514654206
 20
10.8808636276
 30
0.0
 10
15.3219288045
 20
10.9719771831
 30
0.0
 10
15.2941241975
 20
11.0666181809
 30
0.0
 10
15.2681110552
 20
11.1645688939
 30
0.0
 10
15.243954466
 20
11.2656070243
 30
0.0
 10
15.2139991639
 20
11.4055031361
 30
0.0
 10
15.1817087592
 20
11.5864739113
 30
0.0
 10
15.1514819116
 20
11.8099940631
 30
0.0
 10
15.1296886457
 20
12.0399242458
 30
0.0
 10
15.1165271165
 20
12.274159479
 30
0.0
 10
15.1121190092
 20
12.5105590322
 30
0.0
 10
15.1165082223
 20
12.7469610854
 30
0.0
 10
15.1296527141
 20
12.9812017393
 30
0.0
 10
15.147899199
 20
13.1738909045
 30
0.0
 10
15.1668510931
 20
13.3252470139
 30
0.0
 10
15.1882978374
 20
13.4720381165
 30
0.0
 10
15.2199978163
 20
13.6497804481
 30
0.0
 10
15.2589224175
 20
13.8223943755
 30
0.0
 10
15.2940182746
 20
13.9546092335
 30
0.0
 10
15.3128114684
 20
14.0186077216
 30
0.0
 10
15.322520832
 20
14.0500272336
 30
0.0
  0
SPLINE
  5
369
100
AcDbEntity
  8
0
100
AcDbSpline
 62
7
  6
CONTINUOUS
 70
0
 71
3
 72
14
 73
10
 74
0
 42
0.0000001
 43
0.0000001
 44
0.0000000001
 40
0.0
 40
0.0
 40
0.0
 40
0.0
 40
0.1057410604
 40
0.2136760038
 40
0.325852097
 40
0.4440528973
 40
0.569748866
 40
0.703954094
 40
1.0
 40
1.0
 40
1.0
 40
1.0
 10
15.6744286917
 20
13.5532209101
 30
0.0
 10
15.6762287673
 20
13.5532214937
 30
0.0
 10
15.6798726683
 20
13.5529312806
 30
0.0
 10
15.6852861319
 20
13.5516314907
 30
0.0
 10
15.6906483923
 20
13.5494786377
 30
0.0
 10
15.6959375364
 20
13.5464851784
 30
0.0
 10
15.701133794
 20
13.5426634627
 30
0.0
 10
15.7081433041
 20
13.5362857507
 30
0.0
 10
15.7128512345
 20
13.5306189018
 30
0.0
 10
15.715813872
 20
13.5265419508
 30
0.0
  0
SPLINE
  5
36A
100
AcDbEntity
  8
0
100
AcDbSpline
 62
7
  6
CONTINUOUS
 70
0
 71
3
 72
23
 73
19
 74
0
 42
0.0000001
 43
0.0000001
 44
0.0000000001
 40
0.0
 40
0.0
 40
0.0
 40
0.0
 40
0.0424304602
 40
0.0860267652
 40
0.1313650461
 40
0.1789405909
 40
0.229154766
 40
0.2823264643
 40
0.3386904515
 40
0.3984102095
 40
0.4615925407
 40
0.5282811238
 40
0.5984793853
 40
0.6721588251
 40
0.7492613945
 40
0.8297058855
 40
0.9133480596
 40
1.0
 40
1.0
 40
1.0
 40
1.0
 10
16.0424974524
 20
14.5092517033
 30
0.0
 10
16.0284810909
 20
14.5077226535
 30
0.0
 10
16.0002442243
 20
14.5026512809
 30
0.0
 10
15.9585558364
 20
14.4893341468
 30
0.0
 10
15.9172638379
 20
14.4702989061
 30
0.0
 10
15.8764990531
 20
14.4456252021
 30
0.0
 10
15.8363578648
 20
14.4154132014
 30
0.0
 10
15.7969500717
 20
14.3797510853
 30
0.0
 10
15.7583719862
 20
14.3387506829
 30
0.0
 10
15.7207207275
 20
14.2925306613
 30
0.0
 10
15.6841046178
 20
14.2412168331
 30
0.0
 10
15.6486144241
 20
14.1849617064
 30
0.0
 10
15.6143517234
 20
14.1239221086
 30
0.0
 10
15.5814138058
 20
14.058265873
 30
0.0
 10
15.5498849998
 20
13.9881737705
 30
0.0
 10
15.5198634916
 20
13.913842338
 30
0.0
 10
15.4914352418
 20
13.835505726
 30
0.0
 10
15.4739001594
 20
13.7816908963
 30
0.0
 10
15.4653987521
 20
13.7541803319
 30
0.0
  0
SPLINE
  5
36B
100
AcDbEntity
  8
0
100
AcDbSpline
 62
7
  6
CONTINUOUS
 70
0
 71
3
 72
27
 73
23
 74
0
 42
0.0000001
 43
0.0000001
 44
0.0000000001
 40
0.0
 40
0.0
 40
0.0
 40
0.0
 40
0.0155280091
 40
0.0314133466
 40
0.0479862128
 40
0.0655278477
 40
0.0842565386
 40
0.1043366877
 40
0.1258864395
 40
0.148972364
 40
0.1998219326
 40
0.2568643952
 40
0.3196845638
 40
0.3876504106
 40
0.4599375285
 40
0.5356080813
 40
0.6136257251
 40
0.6928901114
 40
0.7722601233
 40
0.8506418142
 40
0.9269544883
 40
1.0
 40
1.0
 40
1.0
 40
1.0
 10
16.427625453
 20
13.6507152084
 30
0.0
 10
16.4291877807
 20
13.6507147582
 30
0.0
 10
16.4323542935
 20
13.6504477001
 30
0.0
 10
16.4370535266
 20
13.6492581196
 30
0.0
 10
16.4417009404
 20
13.647285058
 30
0.0
 10
16.4462741296
 20
13.6445443979
 30
0.0
 10
16.4507586376
 20
13.641055719
 30
0.0
 10
16.4551386033
 20
13.636834922
 30
0.0
 10
16.4593966209
 20
13.6318982103
 30
0.0
 10
16.4650756779
 20
13.6241390185
 30
0.0
 10
16.4717006349
 20
13.6127032438
 30
0.0
 10
16.4786732798
 20
13.5969799453
 30
0.0
 10
16.4848092855
 20
13.5790839899
 30
0.0
 10
16.4899998501
 20
13.5593061876
 30
0.0
 10
16.4941632388
 20
13.5379705251
 30
0.0
 10
16.4972257609
 20
13.5154298313
 30
0.0
 10
16.4991353153
 20
13.4920589405
 30
0.0
 10
16.499861263
 20
13.4682494606
 30
0.0
 10
16.4993893194
 20
13.4443971094
 30
0.0
 10
16.4977290526
 20
13.4208948714
 30
0.0
 10
16.4949027157
 20
13.3981455485
 30
0.0
 10
16.4922128022
 20
13.3833499935
 30
0.0
 10
16.4906648541
 20
13.3761654931
 30
0.0
  0
SPLINE
  5
36C
100
AcDbEntity
  8
0
100
AcDbSpline
 62
7
  6
CONTINUOUS
 70
0
 71
3
 72
37
 73
33
 74
0
 42
0.0000001
 43
0.0000001
 44
0.0000000001
 40
0.0
 40
0.0
 40
0.0
 40
0.0
 40
0.0314295481
 40
0.0639924882
 40
0.0975738153
 40
0.1320684338
 40
0.1673727875
 40
0.2033727708
 40
0.2399476111
 40
0.2769740347
 40
0.3143266651
 40
0.3518783518
 40
0.4270569626
 40
0.5014850429
 40
0.5381031047
 40
0.5741564505
 40
0.609526006
 40
0.6440958013
 40
0.6777564251
 40
0.7104032803
 40
0.74194022
 40
0.7722784666
 40
0.801339606
 40
0.8290562607
 40
0.8553739105
 40
0.8802542505
 40
0.9036759305
 40
0.9256412085
 40
0.9461765466
 40
0.9653425649
 40
0.9832357913
 40
1.0
 40
1.0
 40
1.0
 40
1.0
 10
14.1802696182
 20
14.0663839385
 30
0.0
 10
14.1671807908
 20
14.0240284773
 30
0.0
 10
14.1421486905
 20
13.9372833428
 30
0.0
 10
14.1085092586
 20
13.803804688
 30
0.0
 10
14.0782378586
 20
13.6650938424
 30
0.0
 10
14.0514548819
 20
13.5217342694
 30
0.0
 10
14.0282715021
 20
13.3742955561
 30
0.0
 10
14.0087737283
 20
13.2233664963
 30
0.0
 10
13.9930464929
 20
13.0695569485
 30
0.0
 10
13.9811526712
 20
12.9134909681
 30
0.0
 10
13.9731393246
 20
12.755797567
 30
0.0
 10
13.9676751154
 20
12.5441562072
 30
0.0
 10
13.9706493369
 20
12.2800699622
 30
0.0
 10
13.9866374634
 20
12.0177648833
 30
0.0
 10
14.0072795661
 20
11.8112883736
 30
0.0
 10
14.0264595159
 20
11.6600879475
 30
0.0
 10
14.0493313857
 20
11.5123243742
 30
0.0
 10
14.0758125811
 20
11.3685936241
 30
0.0
 10
14.1057866653
 20
11.229474938
 30
0.0
 10
14.1391395212
 20
11.0955295486
 30
0.0
 10
14.1757304827
 20
10.9672961193
 30
0.0
 10
14.2154149672
 20
10.8452903809
 30
0.0
 10
14.258032027
 20
10.730001944
 30
0.0
 10
14.3034087252
 20
10.6218912948
 30
0.0
 10
14.3513684744
 20
10.5213913604
 30
0.0
 10
14.4017142803
 20
10.4288981726
 30
0.0
 10
14.4542596505
 20
10.3447821091
 30
0.0
 10
14.5087919529
 20
10.2693674595
 30
0.0
 10
14.5651212243
 20
10.2029609031
 30
0.0
 10
14.623036231
 20
10.1458139437
 30
0.0
 10
14.6823353489
 20
10.0981856254
 30
0.0
 10
14.7238875182
 20
10.0721465865
 30
0.0
 10
14.7447335048
 20
10.0609849039
 30
0.0
  0
SPLINE
  5
36D
100
AcDbEntity
  8
0
100
AcDbSpline
 62
7
  6
CONTINUOUS
 70
0
 71
3
 72
9
 73
5
 74
0
 42
0.0000001
 43
0.0000001
 44
0.0000000001
 40
0.0
 40
0.0
 40
0.0
 40
0.0
 40
0.5075444209
 40
1.0
 40
1.0
 40
1.0
 40
1.0
 10
14.7447335048
 20
10.0609849039
 30
0.0
 10
14.7566043538
 20
10.0546288291
 30
0.0
 10
14.7804920171
 20
10.0430107414
 30
0.0
 10
14.8052803724
 20
10.0334487565
 30
0.0
 10
14.8176697879
 20
10.0293016359
 30
0.0
  0
LINE
  5
36E
100
AcDbEntity
  8
0
100
AcDbLine
 62
7
  6
CONTINUOUS
 10
14.1306907143
 20
13.4544094729
 11
14.1295741029
 21
13.4477580783
  0
LINE
  5
36F
100
AcDbEntity
  8
0
100
AcDbLine
 62
7
  6
CONTINUOUS
 10
14.0731485488
 20
12.9845015342
 11
14.0725037416
 21
12.9762916166
  0
LINE
  5
370
100
AcDbEntity
  8
0
100
AcDbLine
 62
7
  6
CONTINUOUS
 10
14.0588439722
 20
12.7389563273
 11
14.0584718829
 21
12.7288259224
  0
LINE
  5
371
100
AcDbEntity
  8
0
100
AcDbLine
 62
7
  6
CONTINUOUS
 10
14.0545919966
 20
12.4931905133
 11
14.0546277108
 21
12.4834901095
  0
LINE
  5
372
100
AcDbEntity
  8
0
100
AcDbLine
 62
7
  6
CONTINUOUS
 10
14.0604122329
 20
12.2442031009
 11
14.0608048363
 21
12.2354229748
  0
LINE
  5
373
100
AcDbEntity
  8
0
100
AcDbLine
 62
7
  6
CONTINUOUS
 10
14.0760244617
 20
12.0021730832
 11
14.07694566
 21
11.991500288
  0
LINE
  5
374
100
AcDbEntity
  8
0
100
AcDbLine
 62
7
  6
CONTINUOUS
 10
14.101888623
 20
11.7608163797
 11
14.102841637
 21
11.7535026995
  0
SPLINE
  5
375
100
AcDbEntity
  8
0
100
AcDbSpline
 62
7
  6
CONTINUOUS
 70
0
 71
3
 72
9
 73
5
 74
0
 42
0.0000001
 43
0.0000001
 44
0.0000000001
 40
0.0
 40
0.0
 40
0.0
 40
0.0
 40
0.5107947414
 40
1.0
 40
1.0
 40
1.0
 40
1.0
 10
14.3660391717
 20
10.7332379236
 30
0.0
 10
14.3774316371
 20
10.7073122843
 30
0.0
 10
14.4006655874
 20
10.6569592002
 30
0.0
 10
14.4259219046
 20
10.6075850251
 30
0.0
 10
14.4388173711
 20
10.5837254911
 30
0.0
  0
SPLINE
  5
376
100
AcDbEntity
  8
0
100
AcDbSpline
 62
7
  6
CONTINUOUS
 70
0
 71
3
 72
9
 73
5
 74
0
 42
0.0000001
 43
0.0000001
 44
0.0000000001
 40
0.0
 40
0.0
 40
0.0
 40
0.0
 40
0.5120577548
 40
1.0
 40
1.0
 40
1.0
 40
1.0
 10
14.4400341858
 20
10.5814779534
 30
0.0
 10
14.4522781582
 20
10.5589011703
 30
0.0
 10
14.4771452877
 20
10.5153204034
 30
0.0
 10
14.5040990784
 20
10.4729916687
 30
0.0
 10
14.5178051196
 20
10.4527159961
 30
0.0
  0
SPLINE
  5
377
100
AcDbEntity
  8
0
100
AcDbSpline
 62
7
  6
CONTINUOUS
 70
0
 71
3
 72
9
 73
5
 74
0
 42
0.0000001
 43
0.0000001
 44
0.0000000001
 40
0.0
 40
0.0
 40
0.0
 40
0.0
 40
0.5133522296
 40
1.0
 40
1.0
 40
1.0
 40
1.0
 10
14.5234321372
 20
10.4444590584
 30
0.0
 10
14.536659729
 20
10.4252066829
 30
0.0
 10
14.5634353446
 20
10.3883827133
 30
0.0
 10
14.5924147663
 20
10.3532548895
 30
0.0
 10
14.6070933725
 20
10.3366756319
 30
0.0
  0
SPLINE
  5
378
100
AcDbEntity
  8
0
100
AcDbSpline
 62
7
  6
CONTINUOUS
 70
0
 71
3
 72
9
 73
5
 74
0
 42
0.0000001
 43
0.0000001
 44
0.0000000001
 40
0.0
 40
0.0
 40
0.0
 40
0.0
 40
0.5135050789
 40
1.0
 40
1.0
 40
1.0
 40
1.0
 10
14.608221478
 20
10.3354037547
 30
0.0
 10
14.6218721003
 20
10.3200412469
 30
0.0
 10
14.6494380766
 20
10.2909778159
 30
0.0
 10
14.6791013996
 20
10.2640402071
 30
0.0
 10
14.6940605274
 20
10.251577917
 30
0.0
  0
SPLINE
  5
379
100
AcDbEntity
  8
0
100
AcDbSpline
 62
7
  6
CONTINUOUS
 70
0
 71
3
 72
9
 73
5
 74
0
 42
0.0000001
 43
0.0000001
 44
0.0000000001
 40
0.0
 40
0.0
 40
0.0
 40
0.0
 40
0.2597613604
 40
1.0
 40
1.0
 40
1.0
 40
1.0
 10
14.7003158035
 20
10.2464297147
 30
0.0
 10
14.7075573276
 20
10.2405425733
 30
0.0
 10
14.7359024225
 20
10.218467465
 30
0.0
 10
14.7662051473
 20
10.1988486532
 30
0.0
 10
14.7896192198
 20
10.1862359485
 30
0.0
  0
SPLINE
  5
37A
100
AcDbEntity
  8
0
100
AcDbSpline
 62
7
  6
CONTINUOUS
 70
0
 71
3
 72
9
 73
5
 74
0
 42
0.0000001
 43
0.0000001
 44
0.0000000001
 40
0.0
 40
0.0
 40
0.0
 40
0.0
 40
0.5098234918
 40
1.0
 40
1.0
 40
1.0
 40
1.0
 10
14.7896192198
 20
10.1862359485
 30
0.0
 10
14.8051217896
 20
10.1778850162
 30
0.0
 10
14.8364357456
 20
10.1631166566
 30
0.0
 10
14.8693067519
 20
10.1521870866
 30
0.0
 10
14.88568475
 20
10.1478985746
 30
0.0
  0
SPLINE
  5
37B
100
AcDbEntity
  8
0
100
AcDbSpline
 62
7
  6
CONTINUOUS
 70
0
 71
3
 72
9
 73
5
 74
0
 42
0.0000001
 43
0.0000001
 44
0.0000000001
 40
0.0
 40
0.0
 40
0.0
 40
0.0
 40
0.5031445099
 40
1.0
 40
1.0
 40
1.0
 40
1.0
 10
14.8911568677
 20
10.146507896
 30
0.0
 10
14.9057164901
 20
10.1429198773
 30
0.0
 10
14.9350975194
 20
10.1374653116
 30
0.0
 10
14.9649300967
 20
10.1356403328
 30
0.0
 10
14.9797378768
 20
10.1356505869
 30
0.0
  0
SPLINE
  5
37C
100
AcDbEntity
  8
0
100
AcDbSpline
 62
7
  6
CONTINUOUS
 70
0
 71
3
 72
9
 73
5
 74
0
 42
0.0000001
 43
0.0000001
 44
0.0000000001
 40
0.0
 40
0.0
 40
0.0
 40
0.0
 40
0.4968340203
 40
1.0
 40
1.0
 40
1.0
 40
1.0
 10
14.9872470424
 20
10.1357340063
 30
0.0
 10
15.0008599937
 20
10.1360270343
 30
0.0
 10
15.0282474038
 20
10.1381752463
 30
0.0
 10
15.0552193088
 20
10.1433696048
 30
0.0
 10
15.0686016584
 20
10.1466962854
 30
0.0
  0
SPLINE
  5
37D
100
AcDbEntity
  8
0
100
AcDbSpline
 62
7
  6
CONTINUOUS
 70
0
 71
3
 72
11
 73
7
 74
0
 42
0.0000001
 43
0.0000001
 44
0.0000000001
 40
0.0
 40
0.0
 40
0.0
 40
0.0
 40
0.2502734975
 40
0.4978966374
 40
0.7465852542
 40
1.0
 40
1.0
 40
1.0
 40
1.0
 10
15.0617553707
 20
14.876548463
 30
0.0
 10
15.0459706018
 20
14.8801685762
 30
0.0
 10
15.0140681087
 20
14.8853829122
 30
0.0
 10
14.9656381957
 20
14.8867707268
 30
0.0
 10
14.9172556898
 20
14.8816606574
 30
0.0
 10
14.8855682171
 20
14.8740299208
 30
0.0
 10
14.869890314
 20
14.8692244746
 30
0.0
  0
SPLINE
  5
37E
100
AcDbEntity
  8
0
100
AcDbSpline
 62
7
  6
CONTINUOUS
 70
0
 71
3
 72
9
 73
5
 74
0
 42
0.0000001
 43
0.0000001
 44
0.0000000001
 40
0.0
 40
0.0
 40
0.0
 40
0.0
 40
0.4903701305
 40
1.0
 40
1.0
 40
1.0
 40
1.0
 10
14.8694712989
 20
14.8690957931
 30
0.0
 10
14.8543849567
 20
14.8644537447
 30
0.0
 10
14.8241555926
 20
14.8531725423
 30
0.0
 10
14.7953303922
 20
14.8387058557
 30
0.0
 10
14.7810426706
 20
14.8306459188
 30
0.0
  0
SPLINE
  5
37F
100
AcDbEntity
  8
0
100
AcDbSpline
 62
7
  6
CONTINUOUS
 70
0
 71
3
 72
9
 73
5
 74
0
 42
0.0000001
 43
0.0000001
 44
0.0000000001
 40
0.0
 40
0.0
 40
0.0
 40
0.0
 40
0.2407558412
 40
1.0
 40
1.0
 40
1.0
 40
1.0
 10
14.7679178279
 20
14.8229841735
 30
0.0
 10
14.7604778425
 20
14.8184944325
 30
0.0
 10
14.73003601
 20
14.7990854124
 30
0.0
 10
14.7014651981
 20
14.776802067
 30
0.0
 10
14.6808520155
 20
14.7587448557
 30
0.0
  0
SPLINE
  5
380
100
AcDbEntity
  8
0
100
AcDbSpline
 62
7
  6
CONTINUOUS
 70
0
 71
3
 72
9
 73
5
 74
0
 42
0.0000001
 43
0.0000001
 44
0.0000000001
 40
0.0
 40
0.0
 40
0.0
 40
0.0
 40
0.4863116103
 40
1.0
 40
1.0
 40
1.0
 40
1.0
 10
14.6798170459
 20
14.7578364642
 30
0.0
 10
14.6647314793
 20
14.7445702907
 30
0.0
 10
14.6348429041
 20
14.7159868
 30
0.0
 10
14.6071219009
 20
14.685313052
 30
0.0
 10
14.5934001478
 20
14.6691267816
 30
0.0
  0
SPLINE
  5
381
100
AcDbEntity
  8
0
100
AcDbSpline
 62
7
  6
CONTINUOUS
 70
0
 71
3
 72
9
 73
5
 74
0
 42
0.0000001
 43
0.0000001
 44
0.0000000001
 40
0.0
 40
0.0
 40
0.0
 40
0.0
 40
0.4870855841
 40
1.0
 40
1.0
 40
1.0
 40
1.0
 10
14.5872970787
 20
14.6618584647
 30
0.0
 10
14.5730539188
 20
14.6447340791
 30
0.0
 10
14.5449515324
 20
14.6086194102
 30
0.0
 10
14.5189639767
 20
14.5709637696
 30
0.0
 10
14.5061308277
 20
14.5513313355
 30
0.0
  0
SPLINE
  5
382
100
AcDbEntity
  8
0
100
AcDbSpline
 62
7
  6
CONTINUOUS
 70
0
 71
3
 72
9
 73
5
 74
0
 42
0.0000001
 43
0.0000001
 44
0.0000000001
 40
0.0
 40
0.0
 40
0.0
 40
0.0
 40
0.4879298352
 40
1.0
 40
1.0
 40
1.0
 40
1.0
 10
14.5049288062
 20
14.5494892927
 30
0.0
 10
14.4910717075
 20
14.5282174189
 30
0.0
 10
14.4638493419
 20
14.4838466743
 30
0.0
 10
14.4387837759
 20
14.4382293894
 30
0.0
 10
14.4264540355
 20
14.4146107238
 30
0.0
  0
SPLINE
  5
383
100
AcDbEntity
  8
0
100
AcDbSpline
 62
7
  6
CONTINUOUS
 70
0
 71
3
 72
9
 73
5
 74
0
 42
0.0000001
 43
0.0000001
 44
0.0000000001
 40
0.0
 40
0.0
 40
0.0
 40
0.0
 40
0.4896948247
 40
1.0
 40
1.0
 40
1.0
 40
1.0
 10
14.4216543732
 20
14.4053541288
 30
0.0
 10
14.4092525806
 20
14.3812740203
 30
0.0
 10
14.384971949
 20
14.33155717
 30
0.0
 10
14.3626119305
 20
14.2809511194
 30
0.0
 10
14.3516538431
 20
14.2549389594
 30
0.0
  0
SPLINE
  5
384
100
AcDbEntity
  8
0
100
AcDbSpline
 62
7
  6
CONTINUOUS
 70
0
 71
3
 72
11
 73
7
 74
0
 42
0.0000001
 43
0.0000001
 44
0.0000000001
 40
0.0
 40
0.0
 40
0.0
 40
0.0
 40
0.2631959375
 40
0.5177385963
 40
0.7633947912
 40
1.0
 40
1.0
 40
1.0
 40
1.0
 10
15.3777869419
 20
14.2136242071
 30
0.0
 10
15.387372114
 20
14.2396115772
 30
0.0
 10
15.4069469772
 20
14.2904705835
 30
0.0
 10
15.4380865371
 20
14.3645440679
 30
0.0
 10
15.470461168
 20
14.4350187988
 30
0.0
 10
15.4932594031
 20
14.4803783588
 30
0.0
 10
15.5048701314
 20
14.5024059889
 30
0.0
  0
SPLINE
  5
385
100
AcDbEntity
  8
0
100
AcDbSpline
 62
7
  6
CONTINUOUS
 70
0
 71
3
 72
11
 73
7
 74
0
 42
0.0000001
 43
0.0000001
 44
0.0000000001
 40
0.0
 40
0.0
 40
0.0
 40
0.0
 40
0.2684312259
 40
0.5245673886
 40
0.7683901982
 40
1.0
 40
1.0
 40
1.0
 40
1.0
 10
15.5048701314
 20
14.5024059889
 30
0.0
 10
15.5173626442
 20
14.5261065222
 30
0.0
 10
15.542744472
 20
14.5719211252
 30
0.0
 10
15.583009136
 20
14.6372269324
 30
0.0
 10
15.6244825541
 20
14.6973611224
 30
0.0
 10
15.653619903
 20
14.734856461
 30
0.0
 10
15.6683865161
 20
14.7526416283
 30
0.0
  0
SPLINE
  5
386
100
AcDbEntity
  8
0
100
AcDbSpline
 62
7
  6
CONTINUOUS
 70
0
 71
3
 72
22
 73
18
 74
0
 42
0.0000001
 43
0.0000001
 44
0.0000000001
 40
0.0
 40
0.0
 40
0.0
 40
0.0
 40
0.0774829093
 40
0.1520433224
 40
0.2927592703
 40
0.3592603987
 40
0.4234124458
 40
0.4854361769
 40
0.5455913975
 40
0.6041719709
 40
0.6615019015
 40
0.7179334613
 40
0.7738423932
 40
0.8296163996
 40
0.885646491
 40
0.9423182752
 40
1.0
 40
1.0
 40
1.0
 40
1.0
 10
15.6690913679
 20
14.7534896736
 30
0.0
 10
15.6792194758
 20
14.7656625552
 30
0.0
 10
15.6996298538
 20
14.7891132561
 30
0.0
 10
15.741079632
 20
14.8322795465
 30
0.0
 10
15.7841840289
 20
14.8706962874
 30
0.0
 10
15.8288931029
 20
14.9035681404
 30
0.0
 10
15.862122747
 20
14.9247558896
 30
0.0
 10
15.8956393918
 20
14.9429050325
 30
0.0
 10
15.9294017075
 20
14.9579922174
 30
0.0
 10
15.9633662705
 20
14.9699971332
 30
0.0
 10
15.9974899472
 20
14.9788991025
 30
0.0
 10
16.0317277803
 20
14.9846766709
 30
0.0
 10
16.0660309022
 20
14.9873239228
 30
0.0
 10
16.1003507223
 20
14.9868383164
 30
0.0
 10
16.134639443
 20
14.9832181701
 30
0.0
 10
16.1688445245
 20
14.9764663181
 30
0.0
 10
16.1913250939
 20
14.9699575898
 30
0.0
 10
16.2025039726
 20
14.9662156733
 30
0.0
  0
SPLINE
  5
387
100
AcDbEntity
  8
0
100
AcDbSpline
 62
7
  6
CONTINUOUS
 70
0
 71
3
 72
46
 73
42
 74
0
 42
0.0000001
 43
0.0000001
 44
0.0000000001
 40
0.0
 40
0.0
 40
0.0
 40
0.0
 40
0.0329951976
 40
0.0672813646
 40
0.1027148435
 40
0.1391646281
 40
0.1764961372
 40
0.2145601291
 40
0.2532024435
 40
0.2922655884
 40
0.331589777
 40
0.3710122348
 40
0.4103698292
 40
0.4494998935
 40
0.4882414177
 40
0.5264362408
 40
0.5639300571
 40
0.6005740874
 40
0.6362258529
 40
0.670751073
 40
0.7040247277
 40
0.7359331593
 40
0.7663758263
 40
0.7952677443
 40
0.8225424323
 40
0.8481551051
 40
0.8603332379
 40
0.8720919621
 40
0.8834338136
 40
0.8943638573
 40
0.9048906524
 40
0.9150254508
 40
0.9341716212
 40
0.9432316586
 40
0.9519811356
 40
0.9604508178
 40
0.9686763266
 40
0.9766980797
 40
0.9845603418
 40
0.992310802
 40
1.0
 40
1.0
 40
1.0
 40
1.0
 10
16.7660436852
 20
11.042744563
 30
0.0
 10
16.7796301718
 20
11.0867104497
 30
0.0
 10
16.805486593
 20
11.1769420185
 30
0.0
 10
16.8398168329
 20
11.3160501229
 30
0.0
 10
16.870288197
 20
11.4609808874
 30
0.0
 10
16.8967576977
 20
11.6110073398
 30
0.0
 10
16.9190917653
 20
11.7654111548
 30
0.0
 10
16.9371907969
 20
11.9234453207
 30
0.0
 10
16.9509546882
 20
12.0843389632
 30
0.0
 10
16.9603253781
 20
12.2473079238
 30
0.0
 10
16.9652490199
 20
12.4115599309
 30
0.0
 10
16.9657093339
 20
12.5762955773
 30
0.0
 10
16.9616962785
 20
12.7407122663
 30
0.0
 10
16.9532367282
 20
12.9040096203
 30
0.0
 10
16.9403655789
 20
13.0653924415
 30
0.0
 10
16.923151997
 20
13.2240757037
 30
0.0
 10
16.9016747482
 20
13.379286935
 30
0.0
 10
16.8760440056
 20
13.5302719621
 30
0.0
 10
16.8463808561
 20
13.6762965755
 30
0.0
 10
16.8128341437
 20
13.8166524228
 30
0.0
 10
16.7755646141
 20
13.9506582309
 30
0.0
 10
16.7347564869
 20
14.0776660107
 30
0.0
 10
16.6906063162
 20
14.1970615417
 30
0.0
 10
16.6433282528
 20
14.3082721645
 30
0.0
 10
16.5931498434
 20
14.4107600999
 30
0.0
 10
16.5483900195
 20
14.489778514
 30
0.0
 10
16.5112238012
 20
14.548053674
 30
0.0
 10
16.4832503143
 20
14.5885446578
 30
0.0
 10
16.4547415977
 20
14.6265066246
 30
0.0
 10
16.4257297174
 20
14.6618910555
 30
0.0
 10
16.3962490161
 20
14.6946603065
 30
0.0
 10
16.3571132785
 20
14.7340584561
 30
0.0
 10
16.3164616142
 20
14.7690172089
 30
0.0
 10
16.27435732
 20
14.798797391
 30
0.0
 10
16.2430659922
 20
14.8179370206
 30
0.0
 10
16.2115203379
 20
14.8342605115
 30
0.0
 10
16.1797561938
 20
14.8477431782
 30
0.0
 10
16.1478148325
 20
14.8583690041
 30
0.0
 10
16.1157352229
 20
14.8661216818
 30
0.0
 10
16.0835619536
 20
14.8709837665
 30
0.0
 10
16.0620345429
 20
14.8722939613
 30
0.0
 10
16.0513120221
 20
14.8724639022
 30
0.0
  0
SPLINE
  5
388
100
AcDbEntity
  8
0
100
AcDbSpline
 62
7
  6
CONTINUOUS
 70
0
 71
3
 72
14
 73
10
 74
0
 42
0.0000001
 43
0.0000001
 44
0.0000000001
 40
0.0
 40
0.0
 40
0.0
 40
0.0
 40
0.1110031403
 40
0.2247615043
 40
0.3420030122
 40
0.4633787456
 40
0.58944778
 40
0.720678331
 40
1.0
 40
1.0
 40
1.0
 40
1.0
 10
15.9664443804
 20
14.8637419928
 30
0.0
 10
15.9545290008
 20
14.8610976398
 30
0.0
 10
15.9306472372
 20
14.8545754316
 30
0.0
 10
15.8953835542
 20
14.8413802755
 30
0.0
 10
15.8603615287
 20
14.8246999598
 30
0.0
 10
15.8256401872
 20
14.8045610291
 30
0.0
 10
15.7912652483
 20
14.7809991661
 30
0.0
 10
15.7450030437
 20
14.7443191737
 30
0.0
 10
15.7124391106
 20
14.7128513801
 30
0.0
 10
15.6914838684
 20
14.6903982288
 30
0.0
  0
SPLINE
  5
389
100
AcDbEntity
  8
0
100
AcDbSpline
 62
7
  6
CONTINUOUS
 70
0
 71
3
 72
11
 73
7
 74
0
 42
0.0000001
 43
0.0000001
 44
0.0000000001
 40
0.0
 40
0.0
 40
0.0
 40
0.0
 40
0.2291249591
 40
0.4720215032
 40
0.7289641042
 40
1.0
 40
1.0
 40
1.0
 40
1.0
 10
15.6886216895
 20
14.6873168933
 30
0.0
 10
15.6726273565
 20
14.670016376
 30
0.0
 10
15.641068977
 20
14.6330713306
 30
0.0
 10
15.596328887
 20
14.5728675983
 30
0.0
 10
15.5529553966
 20
14.5064658739
 30
0.0
 10
15.5257517395
 20
14.459448462
 30
0.0
 10
15.5123722533
 20
14.434999037
 30
0.0
  0
SPLINE
  5
38A
100
AcDbEntity
  8
0
100
AcDbSpline
 62
7
  6
CONTINUOUS
 70
0
 71
3
 72
11
 73
7
 74
0
 42
0.0000001
 43
0.0000001
 44
0.0000000001
 40
0.0
 40
0.0
 40
0.0
 40
0.0
 40
0.2327181641
 40
0.4773069546
 40
0.7333083637
 40
1.0
 40
1.0
 40
1.0
 40
1.0
 10
15.4848742378
 20
14.3827426232
 30
0.0
 10
15.4696414814
 20
14.3526522804
 30
0.0
 10
15.4400021987
 20
14.2901153947
 30
0.0
 10
15.3989172012
 20
14.1920703628
 30
0.0
 10
15.3602399005
 20
14.0877856921
 30
0.0
 10
15.3366161198
 20
14.0157923322
 30
0.0
 10
15.3252048418
 20
13.9788654228
 30
0.0
  0
SPLINE
  5
38B
100
AcDbEntity
  8
0
100
AcDbSpline
 62
7
  6
CONTINUOUS
 70
0
 71
3
 72
34
 73
30
 74
0
 42
0.0000001
 43
0.0000001
 44
0.0000000001
 40
0.0
 40
0.0
 40
0.0
 40
0.0
 40
0.029550364
 40
0.0600402427
 40
0.091387358
 40
0.1235145196
 40
0.1898113214
 40
0.2583007794
 40
0.293154336
 40
0.3282942792
 40
0.3636309135
 40
0.3990728833
 40
0.4699019085
 40
0.5400541816
 40
0.6088108137
 40
0.6424500351
 40
0.6754832185
 40
0.7078296449
 40
0.7394130289
 40
0.7701595336
 40
0.8000012241
 40
0.8288745535
 40
0.8567214238
 40
0.8834918308
 40
0.9091412506
 40
0.933635779
 40
0.9569503813
 40
0.9790713501
 40
1.0
 40
1.0
 40
1.0
 40
1.0
 10
15.3252048418
 20
13.9788654228
 30
0.0
 10
15.3145118617
 20
13.9442629265
 30
0.0
 10
15.2939284277
 20
13.8736002619
 30
0.0
 10
15.265825103
 20
13.7651635706
 30
0.0
 10
15.2400879384
 20
13.6528979702
 30
0.0
 10
15.2087150201
 20
13.496958849
 30
0.0
 10
15.1761347143
 20
13.2949096927
 30
0.0
 10
15.1527430219
 20
13.0882421362
 30
0.0
 10
15.1393035138
 20
12.919038529
 30
0.0
 10
15.1319180141
 20
12.7901462871
 30
0.0
 10
15.1273132227
 20
12.6604033696
 30
0.0
 10
15.1248928338
 20
12.486854655
 30
0.0
 10
15.1288353868
 20
12.2705923303
 30
0.0
 10
15.1446171174
 20
12.0139444269
 30
0.0
 10
15.1669751913
 20
11.8035720819
 30
0.0
 10
15.1903509997
 20
11.6392306162
 30
0.0
 10
15.2103538694
 20
11.5195196232
 30
0.0
 10
15.2328979347
 20
11.402826117
 30
0.0
 10
15.2579069466
 20
11.2895031328
 30
0.0
 10
15.2853119942
 20
11.1798961083
 30
0.0
 10
15.3150249716
 20
11.0743371827
 30
0.0
 10
15.3469549807
 20
10.9731462402
 30
0.0
 10
15.3810102809
 20
10.8766313011
 30
0.0
 10
15.4170788758
 20
10.7850819905
 30
0.0
 10
15.4550606898
 20
10.6987770882
 30
0.0
 10
15.4948351022
 20
10.6179750516
 30
0.0
 10
15.5362847534
 20
10.5429170739
 30
0.0
 10
15.5792889818
 20
10.4738345433
 30
0.0
 10
15.6097486351
 20
10.430703983
 30
0.0
 10
15.6252395195
 20
10.410259759
 30
0.0
  0
SPLINE
  5
38C
100
AcDbEntity
  8
0
100
AcDbSpline
 62
7
  6
CONTINUOUS
 70
0
 71
3
 72
10
 73
6
 74
0
 42
0.0000001
 43
0.0000001
 44
0.0000000001
 40
0.0
 40
0.0
 40
0.0
 40
0.0
 40
0.2686579679
 40
0.5245720739
 40
1.0
 40
1.0
 40
1.0
 40
1.0
 10
15.6326572812
 20
10.4005789093
 30
0.0
 10
15.6447135441
 20
10.3850204584
 30
0.0
 10
15.6690707159
 20
10.3552539858
 30
0.0
 10
15.718779955
 20
10.3014112335
 30
0.0
 10
15.7589251668
 20
10.2655499956
 30
0.0
 10
15.7867472275
 20
10.2445932774
 30
0.0
  0
SPLINE
  5
38D
100
AcDbEntity
  8
0
100
AcDbSpline
 62
7
  6
CONTINUOUS
 70
0
 71
3
 72
11
 73
7
 74
0
 42
0.0000001
 43
0.0000001
 44
0.0000000001
 40
0.0
 40
0.0
 40
0.0
 40
0.0
 40
0.2671962882
 40
0.5213640473
 40
0.7647380049
 40
1.0
 40
1.0
 40
1.0
 40
1.0
 10
15.7867472275
 20
10.2445932774
 30
0.0
 10
15.8015510016
 20
10.2334424671
 30
0.0
 10
15.831432833
 20
10.2129581228
 30
0.0
 10
15.8781011765
 20
10.187533571
 30
0.0
 10
15.9252858509
 20
10.1683373506
 30
0.0
 10
15.9574285957
 20
10.1596240298
 30
0.0
 10
15.9734231592
 20
10.1563887684
 30
0.0
  0
SPLINE
  5
38E
100
AcDbEntity
  8
0
100
AcDbSpline
 62
7
  6
CONTINUOUS
 70
0
 71
3
 72
27
 73
23
 74
0
 42
0.0000001
 43
0.0000001
 44
0.0000000001
 40
0.0
 40
0.0
 40
0.0
 40
0.0
 40
0.0220449241
 40
0.0439173185
 40
0.0657298362
 40
0.0875959321
 40
0.1096281182
 40
0.1319361887
 40
0.1546245324
 40
0.1777906876
 40
0.2258846586
 40
0.2768695719
 40
0.3312248859
 40
0.3893068214
 40
0.4513523155
 40
0.5175079363
 40
0.5878311728
 40
0.6623133856
 40
0.7408990866
 40
0.823493413
 40
0.9099417002
 40
1.0
 40
1.0
 40
1.0
 40
1.0
 10
15.9746951266
 20
10.1561337645
 30
0.0
 10
15.983974794
 20
10.1542900121
 30
0.0
 10
16.0026087524
 20
10.1513146608
 30
0.0
 10
16.0307538949
 20
10.1490411176
 30
0.0
 10
16.0589157279
 20
10.1489797151
 30
0.0
 10
16.0870635088
 20
10.1511302791
 30
0.0
 10
16.115169312
 20
10.1554910691
 30
0.0
 10
16.1432036349
 20
10.1620602249
 30
0.0
 10
16.1711400047
 20
10.1708275235
 30
0.0
 10
16.2086828444
 20
10.1856113374
 30
0.0
 10
16.2554017116
 20
10.2098379606
 30
0.0
 10
16.3098427158
 20
10.2471282885
 30
0.0
 10
16.3632153374
 20
10.2928146435
 30
0.0
 10
16.4153291807
 20
10.346722287
 30
0.0
 10
16.4660309377
 20
10.4086381448
 30
0.0
 10
16.5151379291
 20
10.4783435932
 30
0.0
 10
16.5624883282
 20
10.5555768649
 30
0.0
 10
16.6079110857
 20
10.6400589207
 30
0.0
 10
16.6512434405
 20
10.7314886178
 30
0.0
 10
16.6923303905
 20
10.8295369415
 30
0.0
 10
16.7310079942
 20
10.9338225153
 30
0.0
 10
16.7546322319
 20
11.0058170867
 30
0.0
 10
16.7660436852
 20
11.042744563
 30
0.0
  0
SPLINE
  5
38F
100
AcDbEntity
  8
0
100
AcDbSpline
 62
7
  6
CONTINUOUS
 70
0
 71
3
 72
21
 73
17
 74
0
 42
0.0000001
 43
0.0000001
 44
0.0000000001
 40
0.0
 40
0.0
 40
0.0
 40
0.0
 40
0.0494758544
 40
0.0990809003
 40
0.1492758827
 40
0.2005004088
 40
0.2531632397
 40
0.3076331383
 40
0.3642263712
 40
0.4232115428
 40
0.5491530697
 40
0.6165032469
 40
0.6869099345
 40
0.7604551216
 40
0.8371670711
 40
1.0
 40
1.0
 40
1.0
 40
1.0
 10
16.0597133662
 20
13.8831994035
 30
0.0
 10
16.0670102508
 20
13.8837554006
 30
0.0
 10
16.0816935373
 20
13.8841025958
 30
0.0
 10
16.1037371501
 20
13.8822839339
 30
0.0
 10
16.1257270218
 20
13.8781343855
 30
0.0
 10
16.147619035
 20
13.8716675732
 30
0.0
 10
16.1693745599
 20
13.8628971019
 30
0.0
 10
16.1909537533
 20
13.8518395235
 30
0.0
 10
16.2123242337
 20
13.8385231319
 30
0.0
 10
16.2411188104
 20
13.8173311362
 30
0.0
 10
16.2686940445
 20
13.7920035656
 30
0.0
 10
16.2950332042
 20
13.7632217495
 30
0.0
 10
16.3148610634
 20
13.739041671
 30
0.0
 10
16.3342813962
 20
13.7127940924
 30
0.0
 10
16.3601044286
 20
13.6743382749
 30
0.0
 10
16.3779616311
 20
13.6436802193
 30
0.0
 10
16.3893596556
 20
13.6224631542
 30
0.0
  0
SPLINE
  5
390
100
AcDbEntity
  8
0
100
AcDbSpline
 62
7
  6
CONTINUOUS
 70
0
 71
3
 72
20
 73
16
 74
0
 42
0.0000001
 43
0.0000001
 44
0.0000000001
 40
0.0
 40
0.0
 40
0.0
 40
0.0
 40
0.0925284006
 40
0.1938871028
 40
0.2992539807
 40
0.4034531252
 40
0.5014097308
 40
0.5886185864
 40
0.6617146618
 40
0.7193924604
 40
0.7643187667
 40
0.8057638911
 40
0.8556997039
 40
0.9202619825
 40
1.0
 40
1.0
 40
1.0
 40
1.0
 10
15.8601415198
 20
11.2774300769
 30
0.0
 10
15.8646905047
 20
11.2921505975
 30
0.0
 10
15.8719851924
 20
11.3237007049
 30
0.0
 10
15.8779703051
 20
11.3732431617
 30
0.0
 10
15.87928456
 20
11.4250771619
 30
0.0
 10
15.8758497142
 20
11.4762449783
 30
0.0
 10
15.8678659679
 20
11.5238544673
 30
0.0
 10
15.8558424432
 20
11.5652695198
 30
0.0
 10
15.8403519184
 20
11.5983313874
 30
0.0
 10
15.8221902077
 20
11.6216731763
 30
0.0
 10
15.8001492048
 20
11.6340385347
 30
0.0
 10
15.7762009907
 20
11.6301904083
 30
0.0
 10
15.7561697254
 20
11.6123932292
 30
0.0
 10
15.7391437765
 20
11.584679983
 30
0.0
 10
15.7306058729
 20
11.5620701121
 30
0.0
 10
15.7266857031
 20
11.549384438
 30
0.0
  0
SPLINE
  5
391
100
AcDbEntity
  8
0
100
AcDbSpline
 62
7
  6
CONTINUOUS
 70
0
 71
3
 72
20
 73
16
 74
0
 42
0.0000001
 43
0.0000001
 44
0.0000000001
 40
0.0
 40
0.0
 40
0.0
 40
0.0
 40
0.0925284006
 40
0.1938871028
 40
0.2992539807
 40
0.4034531252
 40
0.5014097308
 40
0.5886185864
 40
0.6617146618
 40
0.7193924604
 40
0.7643187667
 40
0.8057638911
 40
0.8556997039
 40
0.9202619825
 40
1.0
 40
1.0
 40
1.0
 40
1.0
 10
15.7266857031
 20
11.549384438
 30
0.0
 10
15.7221367182
 20
11.5346639175
 30
0.0
 10
15.7148420306
 20
11.5031138101
 30
0.0
 10
15.7088569178
 20
11.4535713532
 30
0.0
 10
15.7075426629
 20
11.4017373531
 30
0.0
 10
15.7109775087
 20
11.3505695367
 30
0.0
 10
15.718961255
 20
11.3029600476
 30
0.0
 10
15.7309847797
 20
11.2615449952
 30
0.0
 10
15.7464753045
 20
11.2284831275
 30
0.0
 10
15.7646370153
 20
11.2051413387
 30
0.0
 10
15.7866780181
 20
11.1927759802
 30
0.0
 10
15.8106262322
 20
11.1966241066
 30
0.0
 10
15.8306574975
 20
11.2144212857
 30
0.0
 10
15.8476834465
 20
11.2421345319
 30
0.0
 10
15.85622135
 20
11.2647444029
 30
0.0
 10
15.8601415198
 20
11.2774300769
 30
0.0
  0
SPLINE
  5
392
100
AcDbEntity
  8
0
100
AcDbSpline
 62
6
  6
CONTINUOUS
 70
0
 71
3
 72
20
 73
16
 74
0
 42
0.0000001
 43
0.0000001
 44
0.0000000001
 40
0.0
 40
0.0
 40
0.0
 40
0.0
 40
0.092824465
 40
0.1943183143
 40
0.2995909351
 40
0.4028269521
 40
0.5005029529
 40
0.5876441294
 40
0.6606149569
 40
0.7183524334
 40
0.7633823943
 40
0.8046668461
 40
0.8547656321
 40
0.919778783
 40
1.0
 40
1.0
 40
1.0
 40
1.0
 10
14.8148353191
 20
11.549384438
 30
0.0
 10
14.8102718016
 20
11.53461689
 30
0.0
 10
14.8029677802
 20
11.502994612
 30
0.0
 10
14.7969939177
 20
11.4533945128
 30
0.0
 10
14.7957008698
 20
11.4017140217
 30
0.0
 10
14.7991151657
 20
11.3507704494
 30
0.0
 10
14.8070242913
 20
11.3033709776
 30
0.0
 10
14.818968509
 20
11.2620178499
 30
0.0
 10
14.8343646439
 20
11.2289376673
 30
0.0
 10
14.8524103471
 20
11.2055175434
 30
0.0
 10
14.874278415
 20
11.192905629
 30
0.0
 10
14.8983057944
 20
11.1963515474
 30
0.0
 10
14.9185676939
 20
11.2140752899
 30
0.0
 10
14.9357426552
 20
11.2419129044
 30
0.0
 10
14.9443472301
 20
11.2646675937
 30
0.0
 10
14.9482911357
 20
11.2774300769
 30
0.0
  0
SPLINE
  5
393
100
AcDbEntity
  8
0
100
AcDbSpline
 62
6
  6
CONTINUOUS
 70
0
 71
3
 72
20
 73
16
 74
0
 42
0.0000001
 43
0.0000001
 44
0.0000000001
 40
0.0
 40
0.0
 40
0.0
 40
0.0
 40
0.092824465
 40
0.1943183143
 40
0.2995909351
 40
0.4028269521
 40
0.5005029529
 40
0.5876441294
 40
0.6606149569
 40
0.7183524334
 40
0.7633823943
 40
0.8046668461
 40
0.8547656321
 40
0.919778783
 40
1.0
 40
1.0
 40
1.0
 40
1.0
 10
14.9482911357
 20
11.2774300769
 30
0.0
 10
14.9528546532
 20
11.2921976249
 30
0.0
 10
14.9601586746
 20
11.3238199029
 30
0.0
 10
14.9661325371
 20
11.3734200021
 30
0.0
 10
14.967425585
 20
11.4251004933
 30
0.0
 10
14.9640112891
 20
11.4760440655
 30
0.0
 10
14.9561021635
 20
11.5234435374
 30
0.0
 10
14.9441579458
 20
11.5647966651
 30
0.0
 10
14.9287618109
 20
11.5978768477
 30
0.0
 10
14.9107161077
 20
11.6212969716
 30
0.0
 10
14.8888480398
 20
11.633908886
 30
0.0
 10
14.8648206604
 20
11.6304629675
 30
0.0
 10
14.8445587609
 20
11.6127392251
 30
0.0
 10
14.8273837996
 20
11.5849016106
 30
0.0
 10
14.8187792247
 20
11.5621469212
 30
0.0
 10
14.8148353191
 20
11.549384438
 30
0.0
  0
SPLINE
  5
394
100
AcDbEntity
  8
0
100
AcDbSpline
 62
7
  6
CONTINUOUS
 70
0
 71
3
 72
19
 73
15
 74
0
 42
0.0000001
 43
0.0000001
 44
0.0000000001
 40
0.0
 40
0.0
 40
0.0
 40
0.0
 40
0.0859318615
 40
0.1538288423
 40
0.2050561235
 40
0.2492601839
 40
0.3020377378
 40
0.371542861
 40
0.4585147408
 40
0.5601513002
 40
0.6713060463
 40
0.7866218659
 40
0.8986013361
 40
1.0
 40
1.0
 40
1.0
 40
1.0
 10
14.8251304821
 20
11.5284051016
 30
0.0
 10
14.8287324927
 20
11.5399527071
 30
0.0
 10
14.8365105355
 20
11.5603288079
 30
0.0
 10
14.8522647829
 20
11.5847167586
 30
0.0
 10
14.8716267844
 20
11.5992255168
 30
0.0
 10
14.8941243688
 20
11.5981517665
 30
0.0
 10
14.912807178
 20
11.582330793
 30
0.0
 10
14.92818195
 20
11.557038528
 30
0.0
 10
14.9406612301
 20
11.5226929723
 30
0.0
 10
14.9494213163
 20
11.4813249865
 30
0.0
 10
14.9539097039
 20
11.4352676232
 30
0.0
 10
14.9537132082
 20
11.3875445478
 30
0.0
 10
14.9488207814
 20
11.3414536457
 30
0.0
 10
14.9421851404
 20
11.3120543913
 30
0.0
 10
14.9379959727
 20
11.2984094133
 30
0.0
  0
SPLINE
  5
395
100
AcDbEntity
  8
0
100
AcDbSpline
 62
7
  6
CONTINUOUS
 70
0
 71
3
 72
19
 73
15
 74
0
 42
0.0000001
 43
0.0000001
 44
0.0000000001
 40
0.0
 40
0.0
 40
0.0
 40
0.0
 40
0.0859318615
 40
0.1538288423
 40
0.2050561235
 40
0.2492601839
 40
0.3020377378
 40
0.371542861
 40
0.4585147408
 40
0.5601513002
 40
0.6713060463
 40
0.7866218659
 40
0.8986013361
 40
1.0
 40
1.0
 40
1.0
 40
1.0
 10
14.9379959727
 20
11.2984094133
 30
0.0
 10
14.9343939621
 20
11.2868618079
 30
0.0
 10
14.9266159193
 20
11.2664857071
 30
0.0
 10
14.9108616719
 20
11.2420977563
 30
0.0
 10
14.8914996704
 20
11.2275889982
 30
0.0
 10
14.869002086
 20
11.2286627484
 30
0.0
 10
14.8503192768
 20
11.244483722
 30
0.0
 10
14.8349445048
 20
11.2697759869
 30
0.0
 10
14.8224652247
 20
11.3041215426
 30
0.0
 10
14.8137051385
 20
11.3454895284
 30
0.0
 10
14.8092167509
 20
11.3915468917
 30
0.0
 10
14.8094132466
 20
11.4392699671
 30
0.0
 10
14.8143056734
 20
11.4853608692
 30
0.0
 10
14.8209413144
 20
11.5147601236
 30
0.0
 10
14.8251304821
 20
11.5284051016
 30
0.0
  0
SPLINE
  5
396
100
AcDbEntity
  8
0
100
AcDbSpline
 62
7
  6
CONTINUOUS
 70
0
 71
3
 72
20
 73
16
 74
0
 42
0.0000001
 43
0.0000001
 44
0.0000000001
 40
0.0
 40
0.0
 40
0.0
 40
0.0
 40
0.0925284006
 40
0.1938871028
 40
0.2992539807
 40
0.4034531252
 40
0.5014097308
 40
0.5886185864
 40
0.6617146618
 40
0.7193924604
 40
0.7643187667
 40
0.8057638911
 40
0.8556997039
 40
0.9202619825
 40
1.0
 40
1.0
 40
1.0
 40
1.0
 10
16.4943533641
 20
13.3297403574
 30
0.0
 10
16.498902349
 20
13.3444608779
 30
0.0
 10
16.5061970367
 20
13.3760109853
 30
0.0
 10
16.5121821494
 20
13.4255534422
 30
0.0
 10
16.5134964044
 20
13.4773874423
 30
0.0
 10
16.5100615586
 20
13.5285552587
 30
0.0
 10
16.5020778123
 20
13.5761647478
 30
0.0
 10
16.4900542876
 20
13.6175798002
 30
0.0
 10
16.4745637628
 20
13.6506416679
 30
0.0
 10
16.456402052
 20
13.6739834567
 30
0.0
 10
16.4343610492
 20
13.6863488152
 30
0.0
 10
16.4104128351
 20
13.6825006888
 30
0.0
 10
16.3903815698
 20
13.6647035097
 30
0.0
 10
16.3733556208
 20
13.6369902635
 30
0.0
 10
16.3648177173
 20
13.6143803925
 30
0.0
 10
16.3608975475
 20
13.6016947185
 30
0.0
  0
SPLINE
  5
397
100
AcDbEntity
  8
0
100
AcDbSpline
 62
7
  6
CONTINUOUS
 70
0
 71
3
 72
20
 73
16
 74
0
 42
0.0000001
 43
0.0000001
 44
0.0000000001
 40
0.0
 40
0.0
 40
0.0
 40
0.0
 40
0.0925284006
 40
0.1938871028
 40
0.2992539807
 40
0.4034531252
 40
0.5014097308
 40
0.5886185864
 40
0.6617146618
 40
0.7193924604
 40
0.7643187667
 40
0.8057638911
 40
0.8556997039
 40
0.9202619825
 40
1.0
 40
1.0
 40
1.0
 40
1.0
 10
16.3608975475
 20
13.6016947185
 30
0.0
 10
16.3563485626
 20
13.5869741979
 30
0.0
 10
16.3490538749
 20
13.5554240905
 30
0.0
 10
16.3430687622
 20
13.5058816337
 30
0.0
 10
16.3417545072
 20
13.4540476335
 30
0.0
 10
16.345189353
 20
13.4028798171
 30
0.0
 10
16.3531730994
 20
13.3552703281
 30
0.0
 10
16.3651966241
 20
13.3138552756
 30
0.0
 10
16.3806871488
 20
13.280793408
 30
0.0
 10
16.3988488596
 20
13.2574516191
 30
0.0
 10
16.4208898624
 20
13.2450862607
 30
0.0
 10
16.4448380765
 20
13.2489343871
 30
0.0
 10
16.4648693419
 20
13.2667315662
 30
0.0
 10
16.4818952908
 20
13.2944448124
 30
0.0
 10
16.4904331944
 20
13.3170546833
 30
0.0
 10
16.4943533641
 20
13.3297403574
 30
0.0
  0
SPLINE
  5
398
100
AcDbEntity
  8
0
100
AcDbSpline
 62
6
  6
CONTINUOUS
 70
0
 71
3
 72
20
 73
16
 74
0
 42
0.0000001
 43
0.0000001
 44
0.0000000001
 40
0.0
 40
0.0
 40
0.0
 40
0.0
 40
0.092824465
 40
0.1943183143
 40
0.2995909351
 40
0.4028269521
 40
0.5005029529
 40
0.5876441294
 40
0.6606149569
 40
0.7183524334
 40
0.7633823943
 40
0.8046668461
 40
0.8547656321
 40
0.919778783
 40
1.0
 40
1.0
 40
1.0
 40
1.0
 10
15.4490471634
 20
13.6016947185
 30
0.0
 10
15.4444836459
 20
13.5869271705
 30
0.0
 10
15.4371796246
 20
13.5553048925
 30
0.0
 10
15.4312057621
 20
13.5057047933
 30
0.0
 10
15.4299127141
 20
13.4540243021
 30
0.0
 10
15.43332701
 20
13.4030807299
 30
0.0
 10
15.4412361357
 20
13.355681258
 30
0.0
 10
15.4531803533
 20
13.3143281303
 30
0.0
 10
15.4685764883
 20
13.2812479477
 30
0.0
 10
15.4866221915
 20
13.2578278238
 30
0.0
 10
15.5084902593
 20
13.2452159094
 30
0.0
 10
15.5325176388
 20
13.2486618279
 30
0.0
 10
15.5527795382
 20
13.2663855703
 30
0.0
 10
15.5699544996
 20
13.2942231848
 30
0.0
 10
15.5785590745
 20
13.3169778742
 30
0.0
 10
15.5825029801
 20
13.3297403574
 30
0.0
  0
SPLINE
  5
399
100
AcDbEntity
  8
0
100
AcDbSpline
 62
6
  6
CONTINUOUS
 70
0
 71
3
 72
20
 73
16
 74
0
 42
0.0000001
 43
0.0000001
 44
0.0000000001
 40
0.0
 40
0.0
 40
0.0
 40
0.0
 40
0.092824465
 40
0.1943183143
 40
0.2995909351
 40
0.4028269521
 40
0.5005029529
 40
0.5876441294
 40
0.6606149569
 40
0.7183524334
 40
0.7633823943
 40
0.8046668461
 40
0.8547656321
 40
0.919778783
 40
1.0
 40
1.0
 40
1.0
 40
1.0
 10
15.5825029801
 20
13.3297403574
 30
0.0
 10
15.5870664976
 20
13.3445079054
 30
0.0
 10
15.5943705189
 20
13.3761301834
 30
0.0
 10
15.6003443814
 20
13.4257302826
 30
0.0
 10
15.6016374294
 20
13.4774107737
 30
0.0
 10
15.5982231334
 20
13.528354346
 30
0.0
 10
15.5903140078
 20
13.5757538178
 30
0.0
 10
15.5783697902
 20
13.6171069455
 30
0.0
 10
15.5629736552
 20
13.6501871281
 30
0.0
 10
15.544927952
 20
13.673607252
 30
0.0
 10
15.5230598842
 20
13.6862191664
 30
0.0
 10
15.4990325047
 20
13.682773248
 30
0.0
 10
15.4787706052
 20
13.6650495055
 30
0.0
 10
15.4615956439
 20
13.637211891
 30
0.0
 10
15.452991069
 20
13.6144572017
 30
0.0
 10
15.4490471634
 20
13.6016947185
 30
0.0
  0
SPLINE
  5
39A
100
AcDbEntity
  8
0
100
AcDbSpline
 62
7
  6
CONTINUOUS
 70
0
 71
3
 72
19
 73
15
 74
0
 42
0.0000001
 43
0.0000001
 44
0.0000000001
 40
0.0
 40
0.0
 40
0.0
 40
0.0
 40
0.0859318615
 40
0.1538288423
 40
0.2050561235
 40
0.2492601839
 40
0.3020377378
 40
0.371542861
 40
0.4585147408
 40
0.5601513002
 40
0.6713060463
 40
0.7866218659
 40
0.8986013361
 40
1.0
 40
1.0
 40
1.0
 40
1.0
 10
15.4593423264
 20
13.5807153821
 30
0.0
 10
15.4629443371
 20
13.5922629875
 30
0.0
 10
15.4707223799
 20
13.6126390883
 30
0.0
 10
15.4864766273
 20
13.6370270391
 30
0.0
 10
15.5058386287
 20
13.6515357972
 30
0.0
 10
15.5283362132
 20
13.650462047
 30
0.0
 10
15.5470190223
 20
13.6346410734
 30
0.0
 10
15.5623937943
 20
13.6093488085
 30
0.0
 10
15.5748730745
 20
13.5750032528
 30
0.0
 10
15.5836331607
 20
13.533635267
 30
0.0
 10
15.5881215483
 20
13.4875779037
 30
0.0
 10
15.5879250525
 20
13.4398548283
 30
0.0
 10
15.5830326257
 20
13.3937639262
 30
0.0
 10
15.5763969847
 20
13.3643646718
 30
0.0
 10
15.5722078171
 20
13.3507196938
 30
0.0
  0
SPLINE
  5
39B
100
AcDbEntity
  8
0
100
AcDbSpline
 62
7
  6
CONTINUOUS
 70
0
 71
3
 72
19
 73
15
 74
0
 42
0.0000001
 43
0.0000001
 44
0.0000000001
 40
0.0
 40
0.0
 40
0.0
 40
0.0
 40
0.0859318615
 40
0.1538288423
 40
0.2050561235
 40
0.2492601839
 40
0.3020377378
 40
0.371542861
 40
0.4585147408
 40
0.5601513002
 40
0.6713060463
 40
0.7866218659
 40
0.8986013361
 40
1.0
 40
1.0
 40
1.0
 40
1.0
 10
15.5722078171
 20
13.3507196938
 30
0.0
 10
15.5686058064
 20
13.3391720883
 30
0.0
 10
15.5608277636
 20
13.3187959875
 30
0.0
 10
15.5450735162
 20
13.2944080368
 30
0.0
 10
15.5257115148
 20
13.2798992786
 30
0.0
 10
15.5032139303
 20
13.2809730289
 30
0.0
 10
15.4845311212
 20
13.2967940024
 30
0.0
 10
15.4691563492
 20
13.3220862674
 30
0.0
 10
15.456677069
 20
13.3564318231
 30
0.0
 10
15.4479169828
 20
13.3977998089
 30
0.0
 10
15.4434285952
 20
13.4438571722
 30
0.0
 10
15.443625091
 20
13.4915802476
 30
0.0
 10
15.4485175178
 20
13.5376711497
 30
0.0
 10
15.4551531588
 20
13.5670704041
 30
0.0
 10
15.4593423264
 20
13.5807153821
 30
0.0
  0
ENDSEC
  0
SECTION
  2
OBJECTS
  0
DICTIONARY
  5
C
100
AcDbDictionary
280
0
281
1
  3
ACAD_GROUP
350
D
  3
ACAD_MLINESTYLE
350
17
  3
ACAD_LAYOUT
350
1A
  3
ACAD_PLOTSETTINGS
350
19
  3
ACAD_PLOTSTYLENAME
350
E
  0
DICTIONARY
  5
D
102
{ACAD_REACTORS
330
C
102
}
100
AcDbDictionary
280
0
281
1
  0
ACDBDICTIONARYWDFLT
  5
E
102
{ACAD_REACTORS
330
C
102
}
100
AcDbDictionary
281
1
  3
Normal
350
F
100
AcDbDictionaryWithDefault
340
F
  0
DICTIONARY
  5
17
102
{ACAD_REACTORS
330
C
102
}
100
AcDbDictionary
280
0
281
1
  3
Standard
350
18
  0
DICTIONARY
  5
19
102
{ACAD_REACTORS
330
C
102
}
100
AcDbDictionary
281
1
  0
DICTIONARY
  5
1A
102
{ACAD_REACTORS
330
C
102
}
100
AcDbDictionary
281
1
  3
Model
350
39C
  3
Layout1
350
39D
  0
ACDBPLACEHOLDER
  5
F
102
{ACAD_REACTORS
330
E
102
}
  0
MLINESTYLE
  5
18
102
{ACAD_REACTORS
330
17
102
}
100
AcDbMlineStyle
  2
STANDARD
 70
0
  3

 62
256
 51
90.0
 52
90.0
 71
2
 49
0.5
 62
256
  6
BYLAYER
 49
-0.5
 62
256
  6
BYLAYER
  0
LAYOUT
  5
39C
102
{ACAD_REACTORS
330
1A
102
}
100
AcDbPlotSettings
  1

  2
none_device
  4
ANSI_C_(22.00_x_17.00_Inches)
  6

 40
0.0
 41
0.0
 42
0.0
 43
0.0
 44
558.8
 45
431.8
 46
0.0
 47
0.0
 48
0.0
 49
0.0
140
0.0
141
0.0
142
1.0
143
1.0
 70
1024
 72
0
 73
0
 74
0
  7

 75
0
147
1.0
148
0.0
149
0.0
100
AcDbLayout
  1
Model
 70
0
 71
0
 10
0.0
 20
0.0
 11
22.0
 21
17.0
 12
0.0
 22
0.0
 32
0.0
 14
0.0
 24
0.0
 34
0.0
 15
0.0
 25
0.0
 35
0.0
146
0.0
 13
0.0
 23
0.0
 33
0.0
 16
1.0
 26
0.0
 36
0.0
 17
0.0
 27
1.0
 37
0.0
 76
0
330
216
345
0
346
0
  0
LAYOUT
  5
39D
102
{ACAD_REACTORS
330
1A
102
}
100
AcDbPlotSettings
  1

  2
none_device
  4
ANSI_C_(22.00_x_17.00_Inches)
  6

 40
0.0
 41
0.0
 42
0.0
 43
0.0
 44
558.8
 45
431.8
 46
0.0
 47
0.0
 48
0.0
 49
0.0
140
0.0
141
0.0
142
1.0
143
1.0
 70
0
 72
0
 73
0
 74
0
  7

 75
0
147
1.0
148
0.0
149
0.0
100
AcDbLayout
  1
Layout1
 70
0
 71
1
 10
0.0
 20
0.0
 11
22.0
 21
17.0
 12
0.0
 22
0.0
 32
0.0
 14
0.0
 24
0.0
 34
0.0
 15
0.0
 25
0.0
 35
0.0
146
0.0
 13
0.0
 23
0.0
 33
0.0
 16
1.0
 26
0.0
 36
0.0
 17
0.0
 27
1.0
 37
0.0
 76
0
330
217
345
0
346
0
  0
ENDSEC
  0
EOF