999
DXF file: _cgs_temp_output.dxf
999
Pro/ENGINEER 2016360 by Parametric Technology Corporation
  0
SECTION
  2
HEADER
  9
$ACADVER
  1
AC1021
  9
$DWGCODEPAGE
  3
ANSI_1252
  9
$EXTMAX
 10
22.0
 20
17.0
 30
0.0
  9
$EXTMIN
 10
0.0
 20
0.0
 30
0.0
  9
$LIMMIN
 10
0.0
 20
0.0
  9
$LIMMAX
 10
22.0
 20
17.0
  9
$VIEWCTR
 10
11.0
 20
8.5
  9
$VIEWSIZE
 40
17.0
  9
$CLAYER
  8
0
  9
$LTSCALE
 40
1.21
  9
$CELTYPE
  6
BYLAYER
  9
$DIMSCALE
 40
1.0
  9
$DIMASZ
 40
0.1875
  9
$DIMEXO
 40
0.0625
  9
$DIMDLI
 40
0.836
  9
$DIMEXE
 40
0.125
  9
$DIMCEN
 40
0.198
  9
$DIMLFAC
 40
1.0
  9
$DIMBLK
  1
_CLOSED
  9
$DIMALT
 70
0
  9
$DIMALTF
 40
25.4
  9
$DIMTXT
 40
0.15625
  9
$DIMTOL
 70
0
  9
$DIMLIM
 70
0
  9
$DIMTFAC
 40
1.0
  9
$DIMGAP
 40
0.09
  9
$DIMDSEP
 70
46
  9
$AUNITS
 70
0
  9
$PDMODE
 70
3
  9
$PDSIZE
 40
0.3125
  9
$HANDSEED
  5
3CC
  9
$TILEMODE
 70
1
  9
$MEASUREMENT
 70
0
  9
$INSUNITS
 70
1
  0
ENDSEC
  0
SECTION
  2
CLASSES
  0
CLASS
  1
ACDBDICTIONARYWDFLT
  2
AcDbDictionaryWithDefault
  3
AutoCAD 2000
 90
0
 91
1
280
0
281
0
  0
CLASS
  1
ACDBPLACEHOLDER
  2
AcDbPlaceHolder
  3
AutoCAD 2000
 90
0
 91
1
280
0
281
0
  0
CLASS
  1
LAYOUT
  2
AcDbLayout
  3
AutoCAD 2000
 90
0
 91
0
280
0
281
0
  0
ENDSEC
  0
SECTION
  2
TABLES
  0
TABLE
  2
VPORT
  5
8
100
AcDbSymbolTable
 70
2
  0
VPORT
  5
1F4
100
AcDbSymbolTableRecord
100
AcDbViewportTableRecord
  2
*ACTIVE
 70
0
 10
0.0
 20
0.0
 11
1.0
 21
1.0
 12
11.0
 22
8.5
 13
0.0
 23
0.0
 14
1.0
 24
1.0
 15
0.0
 25
0.0
 16
0.0
 26
0.0
 36
1.0
 17
0.0
 27
0.0
 37
0.0
 40
17.0
 41
1.2941176471
 42
50.0
 43
0.0
 44
0.0
 50
0.0
 51
0.0
 71
0
 72
100
 73
1
 74
1
 75
0
 76
0
 77
0
 78
0
  0
ENDTAB
  0
TABLE
  2
LTYPE
  5
5
100
AcDbSymbolTable
 70
6
  0
LTYPE
  5
14
100
AcDbSymbolTableRecord
100
AcDbLinetypeTableRecord
  2
BYBLOCK
 70
0
  3

 72
65
 73
0
 40
0.0
  0
LTYPE
  5
15
100
AcDbSymbolTableRecord
100
AcDbLinetypeTableRecord
  2
BYLAYER
 70
0
  3

 72
65
 73
0
 40
0.0
  0
LTYPE
  5
16
100
AcDbSymbolTableRecord
100
AcDbLinetypeTableRecord
  2
CONTINUOUS
 70
64
  3
Solid line
 72
65
 73
0
 40
0.0
  0
LTYPE
  5
1F5
100
AcDbSymbolTableRecord
100
AcDbLinetypeTableRecord
  2
CENTER
 70
64
  3
____ _ ____ _ ____ _ ____ _ ____ _ ____ _ ____
 72
65
 73
4
 40
0.6
 49
0.375
 74
0
 49
-0.075
 74
0
 49
0.075
 74
0
 49
-0.075
 74
0
  0
LTYPE
  5
1F6
100
AcDbSymbolTableRecord
100
AcDbLinetypeTableRecord
  2
HIDDEN
 70
64
  3
- - - - - - - - - - - - - - - - - - - -
 72
65
 73
2
 40
0.2
 49
0.1
 74
0
 49
-0.1
 74
0
  0
LTYPE
  5
1F7
100
AcDbSymbolTableRecord
100
AcDbLinetypeTableRecord
  2
PHANTOM
 70
64
  3
_____ _ _ _____ _ _ _____ _ _ _____
 72
65
 73
6
 40
0.8
 49
0.45
 74
0
 49
-0.05
 74
0
 49
0.1
 74
0
 49
-0.05
 74
0
 49
0.1
 74
0
 49
-0.05
 74
0
  0
LTYPE
  5
1F8
100
AcDbSymbolTableRecord
100
AcDbLinetypeTableRecord
  2
DOT
 70
64
  3
. . . . . . . . . . . . . . . . . . . .
 72
65
 73
2
 40
0.2
 49
0.1
 74
0
 49
-0.1
 74
0
  0
LTYPE
  5
1F9
100
AcDbSymbolTableRecord
100
AcDbLinetypeTableRecord
  2
DASHED
 70
64
  3
- - - - - - - - - - - - - - - - - - - -
 72
65
 73
2
 40
0.2
 49
0.1
 74
0
 49
-0.1
 74
0
  0
ENDTAB
  0
TABLE
  2
LAYER
  5
2
100
AcDbSymbolTable
 70
36
  0
LAYER
  5
10
100
AcDbSymbolTableRecord
100
AcDbLayerTableRecord
  2
0
 70
0
 62
7
  6
CONTINUOUS
370
-3
390
F
  0
LAYER
  5
1FA
100
AcDbSymbolTableRecord
100
AcDbLayerTableRecord
  2
DEFAULT_1
 70
0
 62
7
  6
CENTER
370
-3
390
F
  0
LAYER
  5
1FB
100
AcDbSymbolTableRecord
100
AcDbLayerTableRecord
  2
DEFAULT_2
 70
0
 62
8
  6
HIDDEN
370
-3
390
F
  0
LAYER
  5
1FC
100
AcDbSymbolTableRecord
100
AcDbLayerTableRecord
  2
DEFAULT_3
 70
0
 62
7
  6
PHANTOM
370
-3
390
F
  0
LAYER
  5
1FD
100
AcDbSymbolTableRecord
100
AcDbLayerTableRecord
  2
01_ALL_DTM_PLN
 70
0
 62
7
  6
CONTINUOUS
370
-3
390
F
  0
LAYER
  5
1FE
100
AcDbSymbolTableRecord
100
AcDbLayerTableRecord
  2
01__ASM_ALL_DTM_PLN
 70
0
 62
7
  6
CONTINUOUS
370
-3
390
F
  0
LAYER
  5
1FF
100
AcDbSymbolTableRecord
100
AcDbLayerTableRecord
  2
01__ASM_DEF_DTM_PLN
 70
0
 62
7
  6
CONTINUOUS
370
-3
390
F
  0
LAYER
  5
200
100
AcDbSymbolTableRecord
100
AcDbLayerTableRecord
  2
01___PRT_ALL_DTM_PLN
 70
0
 62
7
  6
CONTINUOUS
370
-3
390
F
  0
LAYER
  5
201
100
AcDbSymbolTableRecord
100
AcDbLayerTableRecord
  2
01___PRT_DEF_DTM_PLN
 70
0
 62
7
  6
CONTINUOUS
370
-3
390
F
  0
LAYER
  5
202
100
AcDbSymbolTableRecord
100
AcDbLayerTableRecord
  2
02_ALL_AXES
 70
0
 62
7
  6
CONTINUOUS
370
-3
390
F
  0
LAYER
  5
203
100
AcDbSymbolTableRecord
100
AcDbLayerTableRecord
  2
02__ASM_ALL_AXES
 70
0
 62
7
  6
CONTINUOUS
370
-3
390
F
  0
LAYER
  5
204
100
AcDbSymbolTableRecord
100
AcDbLayerTableRecord
  2
02___PRT_ALL_AXES
 70
0
 62
7
  6
CONTINUOUS
370
-3
390
F
  0
LAYER
  5
205
100
AcDbSymbolTableRecord
100
AcDbLayerTableRecord
  2
03_ALL_CURVES
 70
0
 62
7
  6
CONTINUOUS
370
-3
390
F
  0
LAYER
  5
206
100
AcDbSymbolTableRecord
100
AcDbLayerTableRecord
  2
03__ASM_ALL_CURVES
 70
0
 62
7
  6
CONTINUOUS
370
-3
390
F
  0
LAYER
  5
207
100
AcDbSymbolTableRecord
100
AcDbLayerTableRecord
  2
03___PRT_ALL_CURVES
 70
0
 62
7
  6
CONTINUOUS
370
-3
390
F
  0
LAYER
  5
208
100
AcDbSymbolTableRecord
100
AcDbLayerTableRecord
  2
04_ALL_DTM_PNT
 70
0
 62
7
  6
CONTINUOUS
370
-3
390
F
  0
LAYER
  5
209
100
AcDbSymbolTableRecord
100
AcDbLayerTableRecord
  2
04__ASM_ALL_DTM_PNT
 70
0
 62
7
  6
CONTINUOUS
370
-3
390
F
  0
LAYER
  5
20A
100
AcDbSymbolTableRecord
100
AcDbLayerTableRecord
  2
04___PRT_ALL_DTM_PNT
 70
0
 62
7
  6
CONTINUOUS
370
-3
390
F
  0
LAYER
  5
20B
100
AcDbSymbolTableRecord
100
AcDbLayerTableRecord
  2
05_ALL_DTM_CSYS
 70
0
 62
7
  6
CONTINUOUS
370
-3
390
F
  0
LAYER
  5
20C
100
AcDbSymbolTableRecord
100
AcDbLayerTableRecord
  2
05__ASM_ALL_DTM_CSYS
 70
0
 62
7
  6
CONTINUOUS
370
-3
390
F
  0
LAYER
  5
20D
100
AcDbSymbolTableRecord
100
AcDbLayerTableRecord
  2
05__ASM_DEF_DTM_CSYS
 70
0
 62
7
  6
CONTINUOUS
370
-3
390
F
  0
LAYER
  5
20E
100
AcDbSymbolTableRecord
100
AcDbLayerTableRecord
  2
05___PRT_ALL_DTM_CSYS
 70
0
 62
7
  6
CONTINUOUS
370
-3
390
F
  0
LAYER
  5
20F
100
AcDbSymbolTableRecord
100
AcDbLayerTableRecord
  2
05___PRT_DEF_DTM_CSYS
 70
0
 62
7
  6
CONTINUOUS
370
-3
390
F
  0
LAYER
  5
210
100
AcDbSymbolTableRecord
100
AcDbLayerTableRecord
  2
06_ALL_SURFS
 70
0
 62
7
  6
CONTINUOUS
370
-3
390
F
  0
LAYER
  5
211
100
AcDbSymbolTableRecord
100
AcDbLayerTableRecord
  2
06__ASM_ALL_SURFS
 70
0
 62
7
  6
CONTINUOUS
370
-3
390
F
  0
LAYER
  5
212
100
AcDbSymbolTableRecord
100
AcDbLayerTableRecord
  2
06___PRT_ALL_SURFS
 70
0
 62
7
  6
CONTINUOUS
370
-3
390
F
  0
LAYER
  5
213
100
AcDbSymbolTableRecord
100
AcDbLayerTableRecord
  2
07__ASM_ALL_SKELETONS
 70
0
 62
7
  6
CONTINUOUS
370
-3
390
F
  0
ENDTAB
  0
TABLE
  2
STYLE
  5
3
100
AcDbSymbolTable
 70
1
  0
STYLE
  5
11
100
AcDbSymbolTableRecord
100
AcDbTextStyleTableRecord
  2
STANDARD
 70
0
 40
0.0
 41
0.8
 50
0.0
 71
0
 42
0.2
  3
txt
  4

  0
STYLE
  5
214
100
AcDbSymbolTableRecord
100
AcDbTextStyleTableRecord
  2
TEXTSTYLE_1
 70
0
 40
0.0
 41
0.8
 50
0.0
 71
0
 42
0.2
  3
gdt
  4

  0
ENDTAB
  0
TABLE
  2
VIEW
  5
6
100
AcDbSymbolTable
 70
0
  0
ENDTAB
  0
TABLE
  2
UCS
  5
7
100
AcDbSymbolTable
 70
0
  0
ENDTAB
  0
TABLE
  2
APPID
  5
9
100
AcDbSymbolTable
 70
1
  0
APPID
  5
215
100
AcDbSymbolTableRecord
100
AcDbRegAppTableRecord
  2
ACAD
 70
0
  0
ENDTAB
  0
TABLE
  2
BLOCK_RECORD
  5
1
100
AcDbSymbolTable
 70
0
  0
BLOCK_RECORD
  5
216
100
AcDbSymbolTableRecord
100
AcDbBlockTableRecord
  2
*Model_Space
  0
BLOCK_RECORD
  5
217
100
AcDbSymbolTableRecord
100
AcDbBlockTableRecord
  2
*Paper_Space
  0
ENDTAB
  0
TABLE
  2
DIMSTYLE
  5
A
100
AcDbSymbolTable
 70
1
100
AcDbDimStyleTable
 71
0
  0
DIMSTYLE
105
218
100
AcDbSymbolTableRecord
100
AcDbDimStyleTableRecord
  2
STANDARD
 70
0
  3

  4

 40
1.0
 41
0.1875
 42
0.0625
 43
0.38
 44
0.125
 45
0.0
 46
0.0
 47
0.0001
 48
0.0001
140
0.15625
141
0.09
142
0.0
143
25.4
144
1.0
145
0.0
146
1.0
147
0.09
 71
0.0
 72
0.0
 73
1
 74
1
 75
0
 76
0
 77
0
 78
4
 79
1
170
0
171
3
172
0
173
0
174
0
175
0
176
0
177
0
178
0
270
2
179
4
271
4
272
4
273
2
274
2
275
0
280
0
281
0
282
0
283
1
284
4
285
0
286
0
287
3
288
0
340
11
278
46
  0
ENDTAB
  0
ENDSEC
  0
SECTION
  2
BLOCKS
  0
BLOCK
  5
20
100
AcDbEntity
  8
0
100
AcDbBlockBegin
  2
*Model_Space
 70
0
 10
0.0
 20
0.0
 30
0.0
  3
*Model_Space
  1

  0
ENDBLK
  5
21
100
AcDbEntity
  8
0
100
AcDbBlockEnd
  0
BLOCK
  5
1C
100
AcDbEntity
  8
0
100
AcDbBlockBegin
  2
*Paper_Space
 70
0
 10
0.0
 20
0.0
 30
0.0
  3
*Paper_Space
  1

  0
ENDBLK
  5
1D
100
AcDbEntity
  8
0
100
AcDbBlockEnd
  0
ENDSEC
  0
SECTION
  2
ENTITIES
  0
MTEXT
  5
219
100
AcDbEntity
  8
0
100
AcDbMText
 62
7
  6
CONTINUOUS
  7
STANDARD
 71
1
 72
1
 10
15.9560215477
 20
0.9479130325
 30
0.0
 11
1.0
 21
0.0
 31
0.0
 44
0.9
  1
SCALE: 1:0.500
 40
0.3
 41
3.36
  0
LINE
  5
21A
100
AcDbEntity
  8
0
100
AcDbLine
 62
7
  6
CONTINUOUS
 10
0.0
 20
0.0
 11
0.0
 21
17.0
  0
LINE
  5
21B
100
AcDbEntity
  8
0
100
AcDbLine
 62
7
  6
CONTINUOUS
 10
0.0
 20
0.0
 11
22.0
 21
0.0
  0
LINE
  5
21C
100
AcDbEntity
  8
0
100
AcDbLine
 62
7
  6
CONTINUOUS
 10
0.0
 20
17.0
 11
22.0
 21
17.0
  0
LINE
  5
21D
100
AcDbEntity
  8
0
100
AcDbLine
 62
7
  6
CONTINUOUS
 10
22.0
 20
0.0
 11
22.0
 21
17.0
  0
LINE
  5
21E
100
AcDbEntity
  8
0
100
AcDbLine
 62
7
  6
CONTINUOUS
 10
5.9097422762
 20
6.83696317
 11
5.9527759902
 21
6.8501198968
  0
LINE
  5
21F
100
AcDbEntity
  8
0
100
AcDbLine
 62
7
  6
CONTINUOUS
 10
5.9527759902
 20
4.1901198968
 11
5.9097422762
 21
4.2032766235
  0
LINE
  5
220
100
AcDbEntity
  8
0
100
AcDbLine
 62
7
  6
CONTINUOUS
 10
5.9722422762
 20
4.2619898451
 11
6.5059922762
 21
4.2619898451
  0
LINE
  5
221
100
AcDbEntity
  8
0
100
AcDbLine
 62
7
  6
CONTINUOUS
 10
5.9722422762
 20
4.2984722211
 11
6.5059922762
 21
4.2984722211
  0
LINE
  5
222
100
AcDbEntity
  8
0
100
AcDbLine
 62
7
  6
CONTINUOUS
 10
5.9722422762
 20
4.3817161146
 11
6.5059922762
 21
4.3817161146
  0
LINE
  5
223
100
AcDbEntity
  8
0
100
AcDbLine
 62
7
  6
CONTINUOUS
 10
5.9097422762
 20
4.4101198968
 11
5.6922422762
 21
4.4101198968
  0
LINE
  5
224
100
AcDbEntity
  8
0
100
AcDbLine
 62
7
  6
CONTINUOUS
 10
5.9722422762
 20
4.5085160798
 11
6.5059922762
 21
4.5085160798
  0
LINE
  5
225
100
AcDbEntity
  8
0
100
AcDbLine
 62
7
  6
CONTINUOUS
 10
5.9722422762
 20
4.6739992652
 11
6.5059922762
 21
4.6739992652
  0
LINE
  5
226
100
AcDbEntity
  8
0
100
AcDbLine
 62
7
  6
CONTINUOUS
 10
5.9722422762
 20
4.8718062448
 11
6.5059922762
 21
4.8718062448
  0
LINE
  5
227
100
AcDbEntity
  8
0
100
AcDbLine
 62
7
  6
CONTINUOUS
 10
5.6922422762
 20
4.4101198968
 11
5.6922422762
 21
6.6301198968
  0
LINE
  5
228
100
AcDbEntity
  8
0
100
AcDbLine
 62
7
  6
CONTINUOUS
 10
5.9722422762
 20
5.0943401661
 11
6.5059922762
 21
5.0943401661
  0
LINE
  5
229
100
AcDbEntity
  8
0
100
AcDbLine
 62
7
  6
CONTINUOUS
 10
5.9097422762
 20
6.83696317
 11
5.9097422762
 21
4.2032766235
  0
LINE
  5
22A
100
AcDbEntity
  8
0
100
AcDbLine
 62
7
  6
CONTINUOUS
 10
5.9527759902
 20
6.8501198968
 11
5.9527759902
 21
4.1901198968
  0
LINE
  5
22B
100
AcDbEntity
  8
0
100
AcDbLine
 62
6
  6
CONTINUOUS
 10
5.9737422762
 20
5.3243058558
 11
6.5672422762
 21
5.3243058558
  0
LINE
  5
22C
100
AcDbEntity
  8
0
100
AcDbLine
 62
7
  6
CONTINUOUS
 10
5.9722422762
 20
6.7864485443
 11
5.9722422762
 21
4.2537912492
  0
LINE
  5
22D
100
AcDbEntity
  8
0
100
AcDbLine
 62
7
  6
CONTINUOUS
 10
5.9737422762
 20
5.5543058558
 11
5.9737422762
 21
5.3443058558
  0
LINE
  5
22E
100
AcDbEntity
  8
0
100
AcDbLine
 62
6
  6
CONTINUOUS
 10
5.9737422762
 20
5.3243058558
 11
5.9737422762
 21
5.3443058558
  0
LINE
  5
22F
100
AcDbEntity
  8
0
100
AcDbLine
 62
6
  6
CONTINUOUS
 10
5.9737422762
 20
5.5543058558
 11
5.9737422762
 21
5.5743058558
  0
LINE
  5
230
100
AcDbEntity
  8
0
100
AcDbLine
 62
7
  6
CONTINUOUS
 10
6.5254585621
 20
6.8501198968
 11
6.5059922762
 21
6.7864485443
  0
LINE
  5
231
100
AcDbEntity
  8
0
100
AcDbLine
 62
7
  6
CONTINUOUS
 10
6.5059922762
 20
4.2537912492
 11
6.5254585621
 21
4.1901198968
  0
LINE
  5
232
100
AcDbEntity
  8
0
100
AcDbLine
 62
6
  6
CONTINUOUS
 10
5.9737422762
 20
5.5743058558
 11
6.5672422762
 21
5.5743058558
  0
LINE
  5
233
100
AcDbEntity
  8
0
100
AcDbLine
 62
7
  6
CONTINUOUS
 10
5.9527759902
 20
4.1901198968
 11
5.9722422762
 21
4.2537912492
  0
LINE
  5
234
100
AcDbEntity
  8
0
100
AcDbLine
 62
7
  6
CONTINUOUS
 10
5.9722422762
 20
6.7864485443
 11
5.9527759902
 21
6.8501198968
  0
LINE
  5
235
100
AcDbEntity
  8
0
100
AcDbLine
 62
7
  6
CONTINUOUS
 10
6.5059922762
 20
4.2537912492
 11
6.5059922762
 21
6.7864485443
  0
LINE
  5
236
100
AcDbEntity
  8
0
100
AcDbLine
 62
7
  6
CONTINUOUS
 10
6.5254585621
 20
4.1901198968
 11
6.5254585621
 21
6.8501198968
  0
LINE
  5
237
100
AcDbEntity
  8
0
100
AcDbLine
 62
7
  6
CONTINUOUS
 10
6.5672422762
 20
5.5743058558
 11
6.5672422762
 21
5.3243058558
  0
LINE
  5
238
100
AcDbEntity
  8
0
100
AcDbLine
 62
7
  6
CONTINUOUS
 10
6.5684922762
 20
4.2032766235
 11
6.5684922762
 21
6.83696317
  0
LINE
  5
239
100
AcDbEntity
  8
0
100
AcDbLine
 62
7
  6
CONTINUOUS
 10
6.5059922762
 20
5.9458996274
 11
5.9722422762
 21
5.9458996274
  0
LINE
  5
23A
100
AcDbEntity
  8
0
100
AcDbLine
 62
7
  6
CONTINUOUS
 10
6.5059922762
 20
6.1684335487
 11
5.9722422762
 21
6.1684335487
  0
LINE
  5
23B
100
AcDbEntity
  8
0
100
AcDbLine
 62
7
  6
CONTINUOUS
 10
6.5059922762
 20
6.3662405283
 11
5.9722422762
 21
6.3662405283
  0
LINE
  5
23C
100
AcDbEntity
  8
0
100
AcDbLine
 62
7
  6
CONTINUOUS
 10
6.5059922762
 20
6.5317237137
 11
5.9722422762
 21
6.5317237137
  0
LINE
  5
23D
100
AcDbEntity
  8
0
100
AcDbLine
 62
7
  6
CONTINUOUS
 10
5.6922422762
 20
6.6301198968
 11
5.9097422762
 21
6.6301198968
  0
LINE
  5
23E
100
AcDbEntity
  8
0
100
AcDbLine
 62
7
  6
CONTINUOUS
 10
6.5059922762
 20
6.6585236789
 11
5.9722422762
 21
6.6585236789
  0
LINE
  5
23F
100
AcDbEntity
  8
0
100
AcDbLine
 62
7
  6
CONTINUOUS
 10
6.5059922762
 20
6.7417675724
 11
5.9722422762
 21
6.7417675724
  0
LINE
  5
240
100
AcDbEntity
  8
0
100
AcDbLine
 62
7
  6
CONTINUOUS
 10
6.5684922762
 20
4.2032766235
 11
6.5254585621
 21
4.1901198968
  0
LINE
  5
241
100
AcDbEntity
  8
0
100
AcDbLine
 62
7
  6
CONTINUOUS
 10
6.5059922762
 20
6.7782499484
 11
5.9722422762
 21
6.7782499484
  0
LINE
  5
242
100
AcDbEntity
  8
0
100
AcDbLine
 62
7
  6
CONTINUOUS
 10
6.5254585621
 20
6.8501198968
 11
6.5684922762
 21
6.83696317
  0
LINE
  5
243
100
AcDbEntity
  8
0
100
AcDbLine
 62
7
  6
CONTINUOUS
 10
5.8502470839
 20
13.9168910547
 11
5.8932807979
 21
13.9300477814
  0
LINE
  5
244
100
AcDbEntity
  8
0
100
AcDbLine
 62
7
  6
CONTINUOUS
 10
5.8502470839
 20
11.2832045081
 11
5.8932807979
 21
11.2700477814
  0
LINE
  5
245
100
AcDbEntity
  8
0
100
AcDbLine
 62
7
  6
CONTINUOUS
 10
5.9127470839
 20
11.3419177297
 11
6.4464970839
 21
11.3419177297
  0
LINE
  5
246
100
AcDbEntity
  8
0
100
AcDbLine
 62
7
  6
CONTINUOUS
 10
5.9127470839
 20
11.3784001057
 11
6.4464970839
 21
11.3784001057
  0
LINE
  5
247
100
AcDbEntity
  8
0
100
AcDbLine
 62
7
  6
CONTINUOUS
 10
5.9127470839
 20
11.4616439992
 11
6.4464970839
 21
11.4616439992
  0
LINE
  5
248
100
AcDbEntity
  8
0
100
AcDbLine
 62
7
  6
CONTINUOUS
 10
5.8502470839
 20
11.4900477814
 11
5.6327470839
 21
11.4900477814
  0
LINE
  5
249
100
AcDbEntity
  8
0
100
AcDbLine
 62
7
  6
CONTINUOUS
 10
5.9127470839
 20
11.5884439644
 11
6.4464970839
 21
11.5884439644
  0
LINE
  5
24A
100
AcDbEntity
  8
0
100
AcDbLine
 62
6
  6
CONTINUOUS
 10
5.9142470839
 20
11.6656395892
 11
6.5077470839
 21
11.6656395892
  0
LINE
  5
24B
100
AcDbEntity
  8
0
100
AcDbLine
 62
7
  6
CONTINUOUS
 10
5.9127470839
 20
11.7539271499
 11
6.4464970839
 21
11.7539271499
  0
LINE
  5
24C
100
AcDbEntity
  8
0
100
AcDbLine
 62
6
  6
CONTINUOUS
 10
5.9142470839
 20
11.9156395892
 11
6.5077470839
 21
11.9156395892
  0
LINE
  5
24D
100
AcDbEntity
  8
0
100
AcDbLine
 62
7
  6
CONTINUOUS
 10
5.9127470839
 20
11.9517341294
 11
6.4464970839
 21
11.9517341294
  0
LINE
  5
24E
100
AcDbEntity
  8
0
100
AcDbLine
 62
7
  6
CONTINUOUS
 10
5.6327470839
 20
11.4900483958
 11
5.6327470839
 21
13.710047167
  0
LINE
  5
24F
100
AcDbEntity
  8
0
100
AcDbLine
 62
7
  6
CONTINUOUS
 10
5.9127470839
 20
12.1742680508
 11
6.4464970839
 21
12.1742680508
  0
LINE
  5
250
100
AcDbEntity
  8
0
100
AcDbLine
 62
7
  6
CONTINUOUS
 10
5.8502470839
 20
13.9168910547
 11
5.8502470839
 21
11.2832045081
  0
LINE
  5
251
100
AcDbEntity
  8
0
100
AcDbLine
 62
7
  6
CONTINUOUS
 10
5.8932807979
 20
13.9300477814
 11
5.8932807979
 21
11.2700477814
  0
LINE
  5
252
100
AcDbEntity
  8
0
100
AcDbLine
 62
7
  6
CONTINUOUS
 10
5.9127470839
 20
13.8663656395
 11
5.9127470839
 21
11.3337299232
  0
LINE
  5
253
100
AcDbEntity
  8
0
100
AcDbLine
 62
6
  6
CONTINUOUS
 10
5.9142470839
 20
11.6656395892
 11
5.9142470839
 21
11.6856409619
  0
LINE
  5
254
100
AcDbEntity
  8
0
100
AcDbLine
 62
7
  6
CONTINUOUS
 10
5.9142470839
 20
11.6856409619
 11
5.9142470839
 21
11.8956382164
  0
LINE
  5
255
100
AcDbEntity
  8
0
100
AcDbLine
 62
6
  6
CONTINUOUS
 10
5.9142470839
 20
11.8956382164
 11
5.9142470839
 21
11.9156395892
  0
LINE
  5
256
100
AcDbEntity
  8
0
100
AcDbLine
 62
6
  6
CONTINUOUS
 10
5.9142470839
 20
13.2844559736
 11
5.9142470839
 21
13.3044573463
  0
LINE
  5
257
100
AcDbEntity
  8
0
100
AcDbLine
 62
7
  6
CONTINUOUS
 10
5.9142470839
 20
13.3044573463
 11
5.9142470839
 21
13.5144546008
  0
LINE
  5
258
100
AcDbEntity
  8
0
100
AcDbLine
 62
6
  6
CONTINUOUS
 10
5.9142470839
 20
13.5144546008
 11
5.9142470839
 21
13.5344559736
  0
LINE
  5
259
100
AcDbEntity
  8
0
100
AcDbLine
 62
7
  6
CONTINUOUS
 10
6.4659633698
 20
13.9300477814
 11
6.4464970839
 21
13.8663764289
  0
LINE
  5
25A
100
AcDbEntity
  8
0
100
AcDbLine
 62
7
  6
CONTINUOUS
 10
6.4659633698
 20
11.2700477814
 11
6.4464970839
 21
11.3337191338
  0
LINE
  5
25B
100
AcDbEntity
  8
0
100
AcDbLine
 62
7
  6
CONTINUOUS
 10
5.8932807979
 20
11.2700477814
 11
5.9127470839
 21
11.3337191338
  0
LINE
  5
25C
100
AcDbEntity
  8
0
100
AcDbLine
 62
7
  6
CONTINUOUS
 10
5.8932807979
 20
13.9300477814
 11
5.9127470839
 21
13.8663764289
  0
LINE
  5
25D
100
AcDbEntity
  8
0
100
AcDbLine
 62
7
  6
CONTINUOUS
 10
6.4464970839
 20
11.3337299232
 11
6.4464970839
 21
13.8663656395
  0
LINE
  5
25E
100
AcDbEntity
  8
0
100
AcDbLine
 62
7
  6
CONTINUOUS
 10
6.4659633698
 20
11.2700477814
 11
6.4659633698
 21
13.9300477814
  0
LINE
  5
25F
100
AcDbEntity
  8
0
100
AcDbLine
 62
7
  6
CONTINUOUS
 10
6.5077470839
 20
11.6656395892
 11
6.5077470839
 21
11.9156395892
  0
LINE
  5
260
100
AcDbEntity
  8
0
100
AcDbLine
 62
7
  6
CONTINUOUS
 10
6.5077470839
 20
13.2844559736
 11
6.5077470839
 21
13.5344559736
  0
LINE
  5
261
100
AcDbEntity
  8
0
100
AcDbLine
 62
7
  6
CONTINUOUS
 10
6.5089970839
 20
11.2832045081
 11
6.5089970839
 21
13.9168910547
  0
LINE
  5
262
100
AcDbEntity
  8
0
100
AcDbLine
 62
7
  6
CONTINUOUS
 10
6.4464970839
 20
13.025827512
 11
5.9127470839
 21
13.025827512
  0
LINE
  5
263
100
AcDbEntity
  8
0
100
AcDbLine
 62
7
  6
CONTINUOUS
 10
6.4464970839
 20
13.2483614333
 11
5.9127470839
 21
13.2483614333
  0
LINE
  5
264
100
AcDbEntity
  8
0
100
AcDbLine
 62
6
  6
CONTINUOUS
 10
5.9142470839
 20
13.2844559736
 11
6.5077470839
 21
13.2844559736
  0
LINE
  5
265
100
AcDbEntity
  8
0
100
AcDbLine
 62
7
  6
CONTINUOUS
 10
6.4464970839
 20
13.4461684129
 11
5.9127470839
 21
13.4461684129
  0
LINE
  5
266
100
AcDbEntity
  8
0
100
AcDbLine
 62
6
  6
CONTINUOUS
 10
5.9142470839
 20
13.5344559736
 11
6.5077470839
 21
13.5344559736
  0
LINE
  5
267
100
AcDbEntity
  8
0
100
AcDbLine
 62
7
  6
CONTINUOUS
 10
6.4464970839
 20
13.6116515983
 11
5.9127470839
 21
13.6116515983
  0
LINE
  5
268
100
AcDbEntity
  8
0
100
AcDbLine
 62
7
  6
CONTINUOUS
 10
5.8502470839
 20
13.7100477814
 11
5.6327470839
 21
13.7100477814
  0
LINE
  5
269
100
AcDbEntity
  8
0
100
AcDbLine
 62
7
  6
CONTINUOUS
 10
6.4464970839
 20
13.7384515635
 11
5.9127470839
 21
13.7384515635
  0
LINE
  5
26A
100
AcDbEntity
  8
0
100
AcDbLine
 62
7
  6
CONTINUOUS
 10
6.4464970839
 20
13.821695457
 11
5.9127470839
 21
13.821695457
  0
LINE
  5
26B
100
AcDbEntity
  8
0
100
AcDbLine
 62
7
  6
CONTINUOUS
 10
6.5089970839
 20
11.2832045081
 11
6.4659633698
 21
11.2700477814
  0
LINE
  5
26C
100
AcDbEntity
  8
0
100
AcDbLine
 62
7
  6
CONTINUOUS
 10
6.4464970839
 20
13.858177833
 11
5.9127470839
 21
13.858177833
  0
LINE
  5
26D
100
AcDbEntity
  8
0
100
AcDbLine
 62
7
  6
CONTINUOUS
 10
6.5089970839
 20
13.9168910547
 11
6.4659633698
 21
13.9300477814
  0
LINE
  5
26E
100
AcDbEntity
  8
0
100
AcDbLine
 62
7
  6
CONTINUOUS
 10
15.2032829199
 20
13.756865722
 11
15.2029806985
 21
13.7567499966
  0
LINE
  5
26F
100
AcDbEntity
  8
0
100
AcDbLine
 62
7
  6
CONTINUOUS
 10
15.1611522519
 20
13.8166007733
 11
15.2001266631
 21
13.8296471233
  0
LINE
  5
270
100
AcDbEntity
  8
0
100
AcDbLine
 62
7
  6
CONTINUOUS
 10
15.6288323921
 20
11.2510549929
 11
15.2850039105
 21
11.2510549929
  0
LINE
  5
271
100
AcDbEntity
  8
0
100
AcDbLine
 62
7
  6
CONTINUOUS
 10
15.2850039105
 20
11.2510549937
 11
15.269784567
 21
11.251661379
  0
LINE
  5
272
100
AcDbEntity
  8
0
100
AcDbLine
 62
7
  6
CONTINUOUS
 10
15.2204668473
 20
11.2620538259
 11
15.2202096775
 21
11.2620915119
  0
LINE
  5
273
100
AcDbEntity
  8
0
100
AcDbLine
 62
7
  6
CONTINUOUS
 10
15.219128683
 20
11.2587310312
 11
15.219372723
 21
11.2586525287
  0
LINE
  5
274
100
AcDbEntity
  8
0
100
AcDbLine
 62
7
  6
CONTINUOUS
 10
15.1611522519
 20
11.2050092125
 11
15.2001266631
 21
11.1919628625
  0
LINE
  5
275
100
AcDbEntity
  8
0
100
AcDbLine
 62
7
  6
CONTINUOUS
 10
15.2189786707
 20
11.2558796343
 11
15.2192229564
 21
11.2557950448
  0
LINE
  5
276
100
AcDbEntity
  8
0
100
AcDbLine
 62
7
  6
CONTINUOUS
 10
15.1114221982
 20
13.6890581345
 11
15.1121111529
 21
13.6893805669
  0
LINE
  5
277
100
AcDbEntity
  8
0
100
AcDbLine
 62
7
  6
CONTINUOUS
 10
15.2031070871
 20
13.7595470031
 11
15.2028051916
 21
13.7594162045
  0
LINE
  5
278
100
AcDbEntity
  8
0
100
AcDbLine
 62
7
  6
CONTINUOUS
 10
15.2204668485
 20
11.2620477075
 11
15.6179921121
 21
11.2620477075
  0
LINE
  5
279
100
AcDbEntity
  8
0
100
AcDbLine
 62
7
  6
CONTINUOUS
 10
15.1272164927
 20
11.318277853
 11
15.5658542876
 21
11.318277853
  0
LINE
  5
27A
100
AcDbEntity
  8
0
100
AcDbLine
 62
7
  6
CONTINUOUS
 10
15.1272164965
 20
11.3182796892
 11
15.1265877323
 21
11.3185457265
  0
LINE
  5
27B
100
AcDbEntity
  8
0
100
AcDbLine
 62
7
  6
CONTINUOUS
 10
15.108707021
 20
13.6923425487
 11
15.108250111
 21
13.6918172507
  0
LINE
  5
27C
100
AcDbEntity
  8
0
100
AcDbLine
 62
7
  6
CONTINUOUS
 10
15.1085637882
 20
13.6933024579
 11
15.1080967123
 21
13.6928421735
  0
LINE
  5
27D
100
AcDbEntity
  8
0
100
AcDbLine
 62
7
  6
CONTINUOUS
 10
15.7789589352
 20
13.7663979323
 11
15.7783074126
 21
13.7661484731
  0
LINE
  5
27E
100
AcDbEntity
  8
0
100
AcDbLine
 62
7
  6
CONTINUOUS
 10
15.040029819
 20
11.4201440004
 11
15.4985093552
 21
11.4201440004
  0
LINE
  5
27F
100
AcDbEntity
  8
0
100
AcDbLine
 62
7
  6
CONTINUOUS
 10
15.1229644431
 20
11.3147940119
 11
15.1233975944
 21
11.3144075987
  0
LINE
  5
280
100
AcDbEntity
  8
0
100
AcDbLine
 62
7
  6
CONTINUOUS
 10
15.123024894
 20
11.3152401873
 11
15.1234484005
 21
11.3147837156
  0
LINE
  5
281
100
AcDbEntity
  8
0
100
AcDbLine
 62
7
  6
CONTINUOUS
 10
15.0233487068
 20
13.5841720027
 11
15.0227182056
 21
13.5831567785
  0
LINE
  5
282
100
AcDbEntity
  8
0
100
AcDbLine
 62
7
  6
CONTINUOUS
 10
15.0239608487
 20
13.5816608632
 11
15.0233308497
 21
13.5806519833
  0
LINE
  5
283
100
AcDbEntity
  8
0
100
AcDbLine
 62
7
  6
CONTINUOUS
 10
15.0645549398
 20
13.5802160516
 11
15.0658339999
 21
13.5820416661
  0
LINE
  5
284
100
AcDbEntity
  8
0
100
AcDbLine
 62
7
  6
CONTINUOUS
 10
14.9622573621
 20
11.5637314909
 11
15.4322860211
 21
11.5637314909
  0
LINE
  5
285
100
AcDbEntity
  8
0
100
AcDbLine
 62
7
  6
CONTINUOUS
 10
15.0365177331
 20
11.4169961635
 11
15.0371257359
 21
11.4160868228
  0
LINE
  5
286
100
AcDbEntity
  8
0
100
AcDbLine
 62
7
  6
CONTINUOUS
 10
15.0370924891
 20
11.4195261492
 11
15.0376967656
 21
11.4186086596
  0
LINE
  5
287
100
AcDbEntity
  8
0
100
AcDbLine
 62
7
  6
CONTINUOUS
 10
14.9467247135
 20
13.4322099012
 11
14.9460072503
 21
13.4304693865
  0
LINE
  5
288
100
AcDbEntity
  8
0
100
AcDbLine
 62
7
  6
CONTINUOUS
 10
14.9468820849
 20
13.4317812668
 11
14.9461225869
 21
13.4301565017
  0
LINE
  5
289
100
AcDbEntity
  8
0
100
AcDbLine
 62
7
  6
CONTINUOUS
 10
14.9583180382
 20
11.5636749306
 11
14.9590599959
 21
11.562163581
  0
LINE
  5
28A
100
AcDbEntity
  8
0
100
AcDbLine
 62
7
  6
CONTINUOUS
 10
15.0008566028
 20
11.54546196
 11
14.9918912192
 21
11.5637314909
  0
LINE
  5
28B
100
AcDbEntity
  8
0
100
AcDbLine
 62
7
  6
CONTINUOUS
 10
14.9580359704
 20
11.5628571315
 11
14.9587451609
 21
11.5612472399
  0
LINE
  5
28C
100
AcDbEntity
  8
0
100
AcDbLine
 62
7
  6
CONTINUOUS
 10
14.8847060273
 20
13.2456430953
 11
14.8840770205
 21
13.2432946628
  0
LINE
  5
28D
100
AcDbEntity
  8
0
100
AcDbLine
 62
7
  6
CONTINUOUS
 10
14.8838370541
 20
13.2472381854
 11
14.8831912886
 21
13.2449127853
  0
LINE
  5
28E
100
AcDbEntity
  8
0
100
AcDbLine
 62
7
  6
CONTINUOUS
 10
14.9104604356
 20
13.2449379132
 11
14.9228773978
 21
13.2851192175
  0
LINE
  5
28F
100
AcDbEntity
  8
0
100
AcDbLine
 62
7
  6
CONTINUOUS
 10
14.9787887958
 20
13.4301457844
 11
14.9886615637
 21
13.4516586816
  0
LINE
  5
290
100
AcDbEntity
  8
0
100
AcDbLine
 62
6
  6
CONTINUOUS
 10
15.112056284
 20
11.7077550613
 11
15.658705984
 21
11.7077550613
  0
LINE
  5
291
100
AcDbEntity
  8
0
100
AcDbLine
 62
7
  6
CONTINUOUS
 10
14.8968878742
 20
11.7435223378
 11
15.3729471233
 21
11.7435223378
  0
LINE
  5
292
100
AcDbEntity
  8
0
100
AcDbLine
 62
7
  6
CONTINUOUS
 10
14.9329776143
 20
11.7063625244
 11
14.9206985207
 21
11.7435223378
  0
LINE
  5
293
100
AcDbEntity
  8
0
100
AcDbLine
 62
7
  6
CONTINUOUS
 10
14.8927361992
 20
11.7434087099
 11
14.8933852159
 21
11.7412258564
  0
LINE
  5
294
100
AcDbEntity
  8
0
100
AcDbLine
 62
7
  6
CONTINUOUS
 10
14.8935374552
 20
11.7449761592
 11
14.8941635952
 21
11.7427554125
  0
LINE
  5
295
100
AcDbEntity
  8
0
100
AcDbLine
 62
7
  6
CONTINUOUS
 10
14.8428553658
 20
11.955022702
 11
14.8434830379
 21
11.9520005038
  0
LINE
  5
296
100
AcDbEntity
  8
0
100
AcDbLine
 62
7
  6
CONTINUOUS
 10
14.8182642264
 20
12.3441597665
 11
14.8157263614
 21
12.4007776219
  0
LINE
  5
297
100
AcDbEntity
  8
0
100
AcDbLine
 62
7
  6
CONTINUOUS
 10
14.8145721691
 20
12.5811884805
 11
14.816384426
 21
12.6379898561
  0
LINE
  5
298
100
AcDbEntity
  8
0
100
AcDbLine
 62
7
  6
CONTINUOUS
 10
14.8289585398
 20
12.8155123965
 11
14.8350512746
 21
12.8703144475
  0
LINE
  5
299
100
AcDbEntity
  8
0
100
AcDbLine
 62
7
  6
CONTINUOUS
 10
14.8357717378
 20
13.0331078981
 11
14.8352043194
 21
13.0298776609
  0
LINE
  5
29A
100
AcDbEntity
  8
0
100
AcDbLine
 62
7
  6
CONTINUOUS
 10
14.8364500639
 20
13.0323192301
 11
14.8358305937
 21
13.0291549292
  0
LINE
  5
29B
100
AcDbEntity
  8
0
100
AcDbLine
 62
7
  6
CONTINUOUS
 10
14.8608704784
 20
13.0381265779
 11
14.8710095507
 21
13.088823292
  0
LINE
  5
29C
100
AcDbEntity
  8
0
100
AcDbLine
 62
7
  6
CONTINUOUS
 10
15.6169971792
 20
13.6597152357
 11
15.6158146386
 21
13.6583456904
  0
LINE
  5
29D
100
AcDbEntity
  8
0
100
AcDbLine
 62
7
  6
CONTINUOUS
 10
15.6054916606
 20
13.6872511614
 11
15.6057881217
 21
13.6875928987
  0
LINE
  5
29E
100
AcDbEntity
  8
0
100
AcDbLine
 62
7
  6
CONTINUOUS
 10
15.6174643038
 20
13.6570460874
 11
15.6162830376
 21
13.6556880681
  0
LINE
  5
29F
100
AcDbEntity
  8
0
100
AcDbLine
 62
7
  6
CONTINUOUS
 10
15.6288970392
 20
11.348644973
 11
15.6301034028
 21
11.3473549162
  0
LINE
  5
2A0
100
AcDbEntity
  8
0
100
AcDbLine
 62
7
  6
CONTINUOUS
 10
15.6293374825
 20
11.351350799
 11
15.6305396378
 21
11.350055067
  0
LINE
  5
2A1
100
AcDbEntity
  8
0
100
AcDbLine
 62
7
  6
CONTINUOUS
 10
15.618755943
 20
11.3182083961
 11
15.6184557348
 21
11.3185321678
  0
LINE
  5
2A2
100
AcDbEntity
  8
0
100
AcDbLine
 62
7
  6
CONTINUOUS
 10
15.6183981866
 20
11.3162277957
 11
15.6181025652
 21
11.3165802112
  0
LINE
  5
2A3
100
AcDbEntity
  8
0
100
AcDbLine
 62
7
  6
CONTINUOUS
 10
14.8786267989
 20
11.8981773616
 11
14.867844701
 21
11.9479914661
  0
LINE
  5
2A4
100
AcDbEntity
  8
0
100
AcDbLine
 62
7
  6
CONTINUOUS
 10
14.8420894905
 20
11.9540599442
 11
14.8426782699
 21
11.9509819098
  0
LINE
  5
2A5
100
AcDbEntity
  8
0
100
AcDbLine
 62
7
  6
CONTINUOUS
 10
14.839892828
 20
12.1135351351
 11
14.8331023698
 21
12.1677936778
  0
LINE
  5
2A6
100
AcDbEntity
  8
0
100
AcDbLine
 62
7
  6
CONTINUOUS
 10
15.6051506407
 20
13.6890055052
 11
15.6054416322
 21
13.6893782125
  0
LINE
  5
2A7
100
AcDbEntity
  8
0
100
AcDbLine
 62
7
  6
CONTINUOUS
 10
14.8464334678
 20
11.9526072796
 11
15.3248580029
 21
11.9526072796
  0
LINE
  5
2A8
100
AcDbEntity
  8
0
100
AcDbLine
 62
6
  6
CONTINUOUS
 10
15.112056284
 20
11.9577550613
 11
15.658705984
 21
11.9577550613
  0
LINE
  5
2A9
100
AcDbEntity
  8
0
100
AcDbLine
 62
7
  6
CONTINUOUS
 10
15.523356318
 20
13.5581672457
 11
15.5243523551
 21
13.5601115854
  0
LINE
  5
2AA
100
AcDbEntity
  8
0
100
AcDbLine
 62
7
  6
CONTINUOUS
 10
14.79610213
 20
12.5545545339
 11
14.8088670757
 21
12.5635319589
  0
LINE
  5
2AB
100
AcDbEntity
  8
0
100
AcDbLine
 62
7
  6
CONTINUOUS
 10
14.8097984898
 20
12.417943379
 11
14.7969255961
 21
12.4258392105
  0
LINE
  5
2AC
100
AcDbEntity
  8
0
100
AcDbLine
 62
7
  6
CONTINUOUS
 10
15.2679670368
 20
11.2553382433
 11
15.2672514646
 21
11.2620477075
  0
LINE
  5
2AD
100
AcDbEntity
  8
0
100
AcDbLine
 62
7
  6
CONTINUOUS
 10
15.0697413228
 20
13.6026743567
 11
15.0676558075
 21
13.6362363888
  0
LINE
  5
2AE
100
AcDbEntity
  8
0
100
AcDbLine
 62
7
  6
CONTINUOUS
 10
15.1729143897
 20
11.2879967969
 11
15.1720761202
 21
11.318277853
  0
LINE
  5
2AF
100
AcDbEntity
  8
0
100
AcDbLine
 62
7
  6
CONTINUOUS
 10
15.1568287592
 20
13.6895363793
 11
15.1573330828
 21
13.7234983253
  0
LINE
  5
2B0
100
AcDbEntity
  8
0
100
AcDbLine
 62
7
  6
CONTINUOUS
 10
15.0821692801
 20
11.3676471837
 11
15.0838243546
 21
11.4013670215
  0
LINE
  5
2B1
100
AcDbEntity
  8
0
100
AcDbLine
 62
7
  6
CONTINUOUS
 10
15.2509204932
 20
13.7534472553
 11
15.2519166763
 21
13.7641571372
  0
LINE
  5
2B2
100
AcDbEntity
  8
0
100
AcDbLine
 62
7
  6
CONTINUOUS
 10
14.9992189916
 20
11.491228484
 11
15.0034040193
 21
11.5234712475
  0
LINE
  5
2B3
100
AcDbEntity
  8
0
100
AcDbLine
 62
7
  6
CONTINUOUS
 10
14.9272512572
 20
11.6539915378
 11
14.93380541
 21
11.6835181556
  0
LINE
  5
2B4
100
AcDbEntity
  8
0
100
AcDbLine
 62
7
  6
CONTINUOUS
 10
14.8690317567
 20
11.8496814522
 11
14.8777031621
 21
11.8753572329
  0
LINE
  5
2B5
100
AcDbEntity
  8
0
100
AcDbLine
 62
7
  6
CONTINUOUS
 10
15.460811284
 20
13.409151007
 11
15.461206446
 21
13.4102643721
  0
LINE
  5
2B6
100
AcDbEntity
  8
0
100
AcDbLine
 62
7
  6
CONTINUOUS
 10
15.4599750169
 20
13.4111630186
 11
15.4603772008
 21
13.4122640715
  0
LINE
  5
2B7
100
AcDbEntity
  8
0
100
AcDbLine
 62
7
  6
CONTINUOUS
 10
15.5237816944
 20
13.5567339219
 11
15.5247422717
 21
13.5587910722
  0
LINE
  5
2B8
100
AcDbEntity
  8
0
100
AcDbLine
 62
7
  6
CONTINUOUS
 10
14.8267978328
 20
12.0707779734
 11
14.8372532535
 21
12.0916162112
  0
LINE
  5
2B9
100
AcDbEntity
  8
0
100
AcDbLine
 62
7
  6
CONTINUOUS
 10
14.8021725115
 20
12.3087844863
 11
14.8140101516
 21
12.3239843794
  0
LINE
  5
2BA
100
AcDbEntity
  8
0
100
AcDbLine
 62
7
  6
CONTINUOUS
 10
14.825984288
 20
12.1816598619
 11
14.8127588833
 21
12.1829549307
  0
LINE
  5
2BB
100
AcDbEntity
  8
0
100
AcDbLine
 62
7
  6
CONTINUOUS
 10
14.8118745694
 20
12.6577955159
 11
14.7998488849
 21
12.6719886776
  0
LINE
  5
2BC
100
AcDbEntity
  8
0
100
AcDbLine
 62
7
  6
CONTINUOUS
 10
14.8321327442
 20
12.8919988894
 11
14.8214164093
 21
12.9119439461
  0
LINE
  5
2BD
100
AcDbEntity
  8
0
100
AcDbLine
 62
7
  6
CONTINUOUS
 10
15.4705895466
 20
11.5822082747
 11
15.4701087818
 21
11.5834513074
  0
LINE
  5
2BE
100
AcDbEntity
  8
0
100
AcDbLine
 62
7
  6
CONTINUOUS
 10
15.4713696647
 20
11.5842005767
 11
15.4708989093
 21
11.5854638131
  0
LINE
  5
2BF
100
AcDbEntity
  8
0
100
AcDbLine
 62
7
  6
CONTINUOUS
 10
14.869794504
 20
13.1115531953
 11
14.8607993413
 21
13.1364836696
  0
LINE
  5
2C0
100
AcDbEntity
  8
0
100
AcDbLine
 62
7
  6
CONTINUOUS
 10
14.9234125285
 20
13.3080210846
 11
14.916484217
 21
13.3369789124
  0
LINE
  5
2C1
100
AcDbEntity
  8
0
100
AcDbLine
 62
7
  6
CONTINUOUS
 10
14.990926307
 20
13.4738524067
 11
14.9863310979
 21
13.5057247549
  0
LINE
  5
2C2
100
AcDbEntity
  8
0
100
AcDbLine
 62
7
  6
CONTINUOUS
 10
14.8088199698
 20
12.7986433112
 11
14.8220216714
 21
12.8010532707
  0
LINE
  5
2C3
100
AcDbEntity
  8
0
100
AcDbLine
 62
6
  6
CONTINUOUS
 10
15.5039172145
 20
12.975817497
 11
16.0505669144
 21
12.975817497
  0
LINE
  5
2C4
100
AcDbEntity
  8
0
100
AcDbLine
 62
7
  6
CONTINUOUS
 10
15.3181840073
 20
13.0317098729
 11
14.8395938024
 21
13.0317098729
  0
LINE
  5
2C5
100
AcDbEntity
  8
0
100
AcDbLine
 62
7
  6
CONTINUOUS
 10
15.6100405063
 20
13.1291207131
 11
15.5595871553
 21
13.1269806438
  0
LINE
  5
2C6
100
AcDbEntity
  8
0
100
AcDbLine
 62
6
  6
CONTINUOUS
 10
15.5039172145
 20
13.225817497
 11
16.0505669144
 21
13.225817497
  0
LINE
  5
2C7
100
AcDbEntity
  8
0
100
AcDbLine
 62
7
  6
CONTINUOUS
 10
15.364039253
 20
13.2449379132
 11
14.8873464292
 21
13.2449379132
  0
LINE
  5
2C8
100
AcDbEntity
  8
0
100
AcDbLine
 62
7
  6
CONTINUOUS
 10
16.0958737369
 20
11.6103363337
 11
16.0961784235
 21
11.610975708
  0
LINE
  5
2C9
100
AcDbEntity
  8
0
100
AcDbLine
 62
7
  6
CONTINUOUS
 10
15.4217101363
 20
13.4301457844
 11
14.95038081
 21
13.4301457844
  0
LINE
  5
2CA
100
AcDbEntity
  8
0
100
AcDbLine
 62
7
  6
CONTINUOUS
 10
16.1562631028
 20
13.2735273004
 11
16.1555039397
 21
13.27564345
  0
LINE
  5
2CB
100
AcDbEntity
  8
0
100
AcDbLine
 62
7
  6
CONTINUOUS
 10
16.155971895
 20
13.2728401597
 11
16.155261763
 21
13.2750690673
  0
LINE
  5
2CC
100
AcDbEntity
  8
0
100
AcDbLine
 62
7
  6
CONTINUOUS
 10
16.096318466
 20
11.6088127324
 11
16.0966334783
 21
11.6094196433
  0
LINE
  5
2CD
100
AcDbEntity
  8
0
100
AcDbLine
 62
7
  6
CONTINUOUS
 10
15.4871290298
 20
13.5802160516
 11
15.0262745689
 21
13.5802160516
  0
LINE
  5
2CE
100
AcDbEntity
  8
0
100
AcDbLine
 62
7
  6
CONTINUOUS
 10
16.0819700861
 20
13.4358059179
 11
16.0816970418
 21
13.4362850798
  0
LINE
  5
2CF
100
AcDbEntity
  8
0
100
AcDbLine
 62
7
  6
CONTINUOUS
 10
16.0826017016
 20
13.4381529191
 11
16.0823288771
 21
13.4386366899
  0
LINE
  5
2D0
100
AcDbEntity
  8
0
100
AcDbLine
 62
7
  6
CONTINUOUS
 10
15.7789589352
 20
13.7663979323
 11
15.7783038093
 21
13.7662622361
  0
LINE
  5
2D1
100
AcDbEntity
  8
0
100
AcDbLine
 62
7
  6
CONTINUOUS
 10
15.5552215157
 20
13.6893815989
 11
15.1121111512
 21
13.6893815989
  0
LINE
  5
2D2
100
AcDbEntity
  8
0
100
AcDbLine
 62
7
  6
CONTINUOUS
 10
15.204271475
 20
13.7533790834
 11
15.2045919106
 21
13.7534413357
  0
LINE
  5
2D3
100
AcDbEntity
  8
0
100
AcDbLine
 62
7
  6
CONTINUOUS
 10
15.6107992054
 20
13.7534472553
 11
15.2045919054
 21
13.7534472553
  0
LINE
  5
2D4
100
AcDbEntity
  8
0
100
AcDbLine
 62
7
  6
CONTINUOUS
 10
15.6311836811
 20
13.7705549929
 11
15.2850039105
 21
13.7705549929
  0
LINE
  5
2D5
100
AcDbEntity
  8
0
100
AcDbLine
 62
7
  6
CONTINUOUS
 10
15.9004718746
 20
11.2050092125
 11
15.8614974635
 21
11.1919628625
  0
LINE
  5
2D6
100
AcDbEntity
  8
0
100
AcDbLine
 62
7
  6
CONTINUOUS
 10
15.9004718746
 20
13.8166007733
 11
15.8614974635
 21
13.8296471233
  0
CIRCLE
  5
2D7
100
AcDbEntity
  8
0
100
AcDbCircle
 62
7
  6
CONTINUOUS
 10
15.5603552569
 20
5.4606247044
 40
1.33
  0
CIRCLE
  5
2D8
100
AcDbEntity
  8
0
100
AcDbCircle
 62
7
  6
CONTINUOUS
 10
15.5603552569
 20
5.4606247044
 40
1.3168432733
  0
CIRCLE
  5
2D9
100
AcDbEntity
  8
0
100
AcDbCircle
 62
7
  6
CONTINUOUS
 10
15.5603552569
 20
5.4606247044
 40
1.2596033525
  0
CIRCLE
  5
2DA
100
AcDbEntity
  8
0
100
AcDbCircle
 62
7
  6
CONTINUOUS
 10
15.5603552569
 20
5.4606247044
 40
1.12725
  0
ARC
  5
2DB
100
AcDbEntity
  8
0
100
AcDbCircle
 62
7
  6
CONTINUOUS
 10
15.5603552569
 20
5.4606247044
 40
0.84275
100
AcDbArc
 50
98.7627492048
 51
178.0336812527
  0
ARC
  5
2DC
100
AcDbEntity
  8
0
100
AcDbCircle
 62
7
  6
CONTINUOUS
 10
15.5603552569
 20
5.4606247044
 40
0.84275
100
AcDbArc
 50
191.9663187473
 51
348.0336812527
  0
ARC
  5
2DD
100
AcDbEntity
  8
0
100
AcDbCircle
 62
7
  6
CONTINUOUS
 10
15.5603552569
 20
5.4606247044
 40
0.84275
100
AcDbArc
 50
1.9663187473
 51
81.2372507952
  0
ARC
  5
2DE
100
AcDbEntity
  8
0
100
AcDbCircle
 62
7
  6
CONTINUOUS
 10
15.5603552569
 20
5.4606247044
 40
0.8144
100
AcDbArc
 50
80.8345840091
 51
99.1654159909
  0
CIRCLE
  5
2DF
100
AcDbEntity
  8
0
100
AcDbCircle
 62
7
  6
CONTINUOUS
 10
15.5603552569
 20
5.4606247044
 40
0.7815
  0
ARC
  5
2E0
100
AcDbEntity
  8
0
100
AcDbCircle
 62
7
  6
CONTINUOUS
 10
15.5603552569
 20
6.2731247044
 40
0.13
100
AcDbArc
 50
356.2517978418
 51
183.747794982
  0
CIRCLE
  5
2E1
100
AcDbEntity
  8
0
100
AcDbCircle
 62
7
  6
CONTINUOUS
 10
14.7509470647
 20
5.3898106635
 40
0.125
  0
CIRCLE
  5
2E2
100
AcDbEntity
  8
0
100
AcDbCircle
 62
7
  6
CONTINUOUS
 10
16.3697634491
 20
5.3898106635
 40
0.125
  0
ARC
  5
2E3
100
AcDbEntity
  8
0
100
AcDbCircle
 62
7
  6
CONTINUOUS
 10
14.7509470647
 20
5.3898106635
 40
0.105
100
AcDbArc
 50
85.1086747191
 51
284.8910424438
  0
ARC
  5
2E4
100
AcDbEntity
  8
0
100
AcDbCircle
 62
7
  6
CONTINUOUS
 10
16.3697634491
 20
5.3898106635
 40
0.105
100
AcDbArc
 50
255.1086730569
 51
94.8910422329
  0
ARC
  5
2E5
100
AcDbEntity
  8
0
100
AcDbCircle
 62
7
  6
CONTINUOUS
 10
14.321194322
 20
12.6492358243
 40
1.9391906455
100
AcDbArc
 50
12.5269807407
 51
14.9424086557
  0
ARC
  5
2E6
100
AcDbEntity
  8
0
100
AcDbCircle
 62
7
  6
CONTINUOUS
 10
14.392071249
 20
12.3544274112
 40
1.8660833014
100
AcDbArc
 50
345.4159925068
 51
346.0937926197
  0
ARC
  5
2E7
100
AcDbEntity
  8
0
100
AcDbCircle
 62
7
  6
CONTINUOUS
 10
14.4266667027
 20
12.3454544551
 40
1.8303431476
100
AcDbArc
 50
345.2374275444
 51
345.4151389901
  0
ARC
  5
2E8
100
AcDbEntity
  8
0
100
AcDbCircle
 62
7
  6
CONTINUOUS
 10
14.4888633427
 20
12.6927626428
 40
1.7659683597
100
AcDbArc
 50
14.98063277
 51
15.7169664168
  0
ARC
  5
2E9
100
AcDbEntity
  8
0
100
AcDbCircle
 62
7
  6
CONTINUOUS
 10
14.5343072579
 20
12.7054395002
 40
1.7187895474
100
AcDbArc
 50
15.7205402006
 51
15.9131844613
  0
ARC
  5
2EA
100
AcDbEntity
  8
0
100
AcDbCircle
 62
7
  6
CONTINUOUS
 10
14.564602492
 20
12.3078856054
 40
1.687387951
100
AcDbArc
 50
342.8420715906
 51
345.2775190572
  0
ARC
  5
2EB
100
AcDbEntity
  8
0
100
AcDbCircle
 62
7
  6
CONTINUOUS
 10
14.8443969859
 20
12.8041117952
 40
1.3933210776
100
AcDbArc
 50
19.4810870361
 51
19.6883635274
  0
ARC
  5
2EC
100
AcDbEntity
  8
0
100
AcDbCircle
 62
7
  6
CONTINUOUS
 10
14.9234619385
 20
12.8327707974
 40
1.3092225476
100
AcDbArc
 50
19.7715984107
 51
21.8879717936
  0
ARC
  5
2ED
100
AcDbEntity
  8
0
100
AcDbCircle
 62
7
  6
CONTINUOUS
 10
15.0338561826
 20
12.8764580955
 40
1.1904999648
100
AcDbArc
 50
21.917624186
 51
22.9586669435
  0
ARC
  5
2EE
100
AcDbEntity
  8
0
100
AcDbCircle
 62
7
  6
CONTINUOUS
 10
15.3124084073
 20
12.0160602055
 40
0.8833829772
100
AcDbArc
 50
332.1894018094
 51
332.5477665734
  0
ARC
  5
2EF
100
AcDbEntity
  8
0
100
AcDbCircle
 62
7
  6
CONTINUOUS
 10
15.3850289936
 20
11.9768819784
 40
0.8008722142
100
AcDbArc
 50
329.3036322149
 51
332.2446163384
  0
ARC
  5
2F0
100
AcDbEntity
  8
0
100
AcDbCircle
 62
7
  6
CONTINUOUS
 10
15.3889051576
 20
13.0472676121
 40
0.796245069
100
AcDbArc
 50
29.440428519
 51
29.8453321401
  0
ARC
  5
2F1
100
AcDbEntity
  8
0
100
AcDbCircle
 62
7
  6
CONTINUOUS
 10
15.3797573183
 20
11.6022011566
 40
0.3854159312
100
AcDbArc
 50
228.3061028186
 51
228.7469127385
  0
ARC
  5
2F2
100
AcDbEntity
  8
0
100
AcDbCircle
 62
7
  6
CONTINUOUS
 10
15.3354637421
 20
13.4752016078
 40
0.3141410617
100
AcDbArc
 50
124.7275441805
 51
125.4350360475
  0
ARC
  5
2F3
100
AcDbEntity
  8
0
100
AcDbCircle
 62
7
  6
CONTINUOUS
 10
15.3198309001
 20
11.5226723802
 40
0.2857148658
100
AcDbArc
 50
238.1248115017
 51
238.8669665183
  0
ARC
  5
2F4
100
AcDbEntity
  8
0
100
AcDbCircle
 62
7
  6
CONTINUOUS
 10
15.2926949238
 20
13.5674795489
 40
0.2782690743
100
AcDbArc
 50
117.8329476103
 51
119.5301072403
  0
ARC
  5
2F5
100
AcDbEntity
  8
0
100
AcDbCircle
 62
7
  6
CONTINUOUS
 10
15.2848589496
 20
13.5817920522
 40
0.1953400622
100
AcDbArc
 50
77.5168939884
 51
89.9902524752
  0
ARC
  5
2F6
100
AcDbEntity
  8
0
100
AcDbCircle
 62
7
  6
CONTINUOUS
 10
15.2850745682
 20
13.5830746362
 40
0.1940575611
100
AcDbArc
 50
90.0538497626
 51
99.3653424444
  0
ARC
  5
2F7
100
AcDbEntity
  8
0
100
AcDbCircle
 62
7
  6
CONTINUOUS
 10
15.2850709397
 20
13.5776111334
 40
0.1929438699
100
AcDbArc
 50
90.0199047031
 51
99.3614757124
  0
ARC
  5
2F8
100
AcDbEntity
  8
0
100
AcDbCircle
 62
7
  6
CONTINUOUS
 10
15.285010967
 20
11.4371511799
 40
0.1926733341
100
AcDbArc
 50
265.5036639352
 51
270.0311265746
  0
ARC
  5
2F9
100
AcDbEntity
  8
0
100
AcDbCircle
 62
7
  6
CONTINUOUS
 10
14.5074423908
 20
36.1435063821
 40
23.1494039029
100
AcDbArc
 50
272.5435597431
 51
273.9097945517
  0
ARC
  5
2FA
100
AcDbEntity
  8
0
100
AcDbCircle
 62
7
  6
CONTINUOUS
 10
16.4674630858
 20
12.8152820255
 40
1.6413024895
100
AcDbArc
 50
161.1592405208
 51
161.3596820537
  0
ARC
  5
2FB
100
AcDbEntity
  8
0
100
AcDbCircle
 62
7
  6
CONTINUOUS
 10
16.3697420146
 20
12.1720604085
 40
1.5377462874
100
AcDbArc
 50
199.8134791975
 51
200.0255605923
  0
ARC
  5
2FC
100
AcDbEntity
  8
0
100
AcDbCircle
 62
7
  6
CONTINUOUS
 10
16.3028985176
 20
12.8735320412
 40
1.4667454676
100
AcDbArc
 50
157.8740203334
 51
161.2367669899
  0
ARC
  5
2FD
100
AcDbEntity
  8
0
100
AcDbCircle
 62
7
  6
CONTINUOUS
 10
16.1852674075
 20
12.9206570762
 40
1.3400277344
100
AcDbArc
 50
157.638497915
 51
157.8462093072
  0
ARC
  5
2FE
100
AcDbEntity
  8
0
100
AcDbCircle
 62
7
  6
CONTINUOUS
 10
15.9176598879
 20
13.0420495165
 40
1.0461015417
100
AcDbArc
 50
153.1734642754
 51
153.4630172986
  0
ARC
  5
2FF
100
AcDbEntity
  8
0
100
AcDbCircle
 62
7
  6
CONTINUOUS
 10
15.8430993474
 20
11.9408000451
 40
0.9620646782
100
AcDbArc
 50
208.1056579753
 51
208.4144705049
  0
ARC
  5
300
100
AcDbEntity
  8
0
100
AcDbCircle
 62
7
  6
CONTINUOUS
 10
16.3746222041
 20
11.8962829196
 40
0.9549655145
100
AcDbArc
 50
208.5347478362
 51
209.4710500017
  0
ARC
  5
301
100
AcDbEntity
  8
0
100
AcDbCircle
 62
7
  6
CONTINUOUS
 10
15.4401326608
 20
13.0769283914
 40
0.7370508104
100
AcDbArc
 50
29.8272171758
 51
32.8065481211
  0
ARC
  5
302
100
AcDbEntity
  8
0
100
AcDbCircle
 62
7
  6
CONTINUOUS
 10
15.4584299177
 20
11.9333399935
 40
0.7155282094
100
AcDbArc
 50
327.669663487
 51
329.3012910654
  0
ARC
  5
303
100
AcDbEntity
  8
0
100
AcDbCircle
 62
7
  6
CONTINUOUS
 10
15.505822535
 20
13.118469037
 40
0.6593316104
100
AcDbArc
 50
32.8652877957
 51
33.7185396579
  0
ARC
  5
304
100
AcDbEntity
  8
0
100
AcDbCircle
 62
7
  6
CONTINUOUS
 10
15.5281988496
 20
13.1333571914
 40
0.6324549457
100
AcDbArc
 50
33.7219648518
 51
34.5188165214
  0
ARC
  5
305
100
AcDbEntity
  8
0
100
AcDbCircle
 62
7
  6
CONTINUOUS
 10
15.5307692241
 20
13.2802502417
 40
0.5910544207
100
AcDbArc
 50
141.8487844989
 51
142.3237702759
  0
ARC
  5
306
100
AcDbEntity
  8
0
100
AcDbCircle
 62
7
  6
CONTINUOUS
 10
15.4863792027
 20
11.7053206372
 40
0.5338730633
100
AcDbArc
 50
220.0404057647
 51
220.5492676659
  0
ARC
  5
307
100
AcDbEntity
  8
0
100
AcDbCircle
 62
7
  6
CONTINUOUS
 10
15.8187622327
 20
13.5728367099
 40
0.1976113593
100
AcDbArc
 50
97.8137677322
 51
101.6201326352
  0
ARC
  5
308
100
AcDbEntity
  8
0
100
AcDbCircle
 62
7
  6
CONTINUOUS
 10
15.8184833363
 20
11.4472730859
 40
0.1960854886
100
AcDbArc
 50
258.229843287
 51
266.910840656
  0
ARC
  5
309
100
AcDbEntity
  8
0
100
AcDbCircle
 62
7
  6
CONTINUOUS
 10
15.8184342337
 20
13.575128814
 40
0.1952959447
100
AcDbArc
 50
97.3052653686
 51
97.8098559129
  0
ARC
  5
30A
100
AcDbEntity
  8
0
100
AcDbCircle
 62
7
  6
CONTINUOUS
 10
15.8180753564
 20
13.5785371236
 40
0.1918696835
100
AcDbArc
 50
81.7025273696
 51
97.3283849894
  0
ARC
  5
30B
100
AcDbEntity
  8
0
100
AcDbCircle
 62
7
  6
CONTINUOUS
 10
15.8180798477
 20
11.4428446435
 40
0.1916418077
100
AcDbArc
 50
266.9599482514
 51
267.524133924
  0
ARC
  5
30C
100
AcDbEntity
  8
0
100
AcDbCircle
 62
7
  6
CONTINUOUS
 10
15.8331461374
 20
13.4652430498
 40
0.1728150755
100
AcDbArc
 50
95.0140542085
 51
96.2134598364
  0
ARC
  5
30D
100
AcDbEntity
  8
0
100
AcDbCircle
 62
7
  6
CONTINUOUS
 10
15.8330611764
 20
11.5552724501
 40
0.1717161597
100
AcDbArc
 50
265.0139183073
 51
269.9913333964
  0
ARC
  5
30E
100
AcDbEntity
  8
0
100
AcDbCircle
 62
7
  6
CONTINUOUS
 10
15.8330288708
 20
13.4667630531
 40
0.1712906405
100
AcDbArc
 50
89.9978824247
 51
95.0194163228
  0
ARC
  5
30F
100
AcDbEntity
  8
0
100
AcDbCircle
 62
7
  6
CONTINUOUS
 10
17.2978554481
 20
-15.9121809606
 40
29.1284109774
100
AcDbArc
 50
92.4984156979
 51
93.2839698684
  0
ARC
  5
310
100
AcDbEntity
  8
0
100
AcDbCircle
 62
7
  6
CONTINUOUS
 10
18.6862558121
 20
12.5107912571
 40
3.4096324935
100
AcDbArc
 50
179.3386104495
 51
181.3586306547
  0
ARC
  5
311
100
AcDbEntity
  8
0
100
AcDbCircle
 62
7
  6
CONTINUOUS
 10
18.6707822076
 20
12.511089931
 40
3.3941564744
100
AcDbArc
 50
177.182371088
 51
179.3406368036
  0
ARC
  5
312
100
AcDbEntity
  8
0
100
AcDbCircle
 62
7
  6
CONTINUOUS
 10
18.6307821272
 20
12.5090629667
 40
3.354133451
100
AcDbArc
 50
181.3515842089
 51
183.5296603986
  0
ARC
  5
313
100
AcDbEntity
  8
0
100
AcDbCircle
 62
7
  6
CONTINUOUS
 10
18.5764003515
 20
12.5155315377
 40
3.2996703901
100
AcDbArc
 50
175.12315262
 51
177.1788409739
  0
ARC
  5
314
100
AcDbEntity
  8
0
100
AcDbCircle
 62
7
  6
CONTINUOUS
 10
18.0397977545
 20
12.5108035068
 40
3.2479252496
100
AcDbArc
 50
179.3085186419
 51
181.4227592246
  0
ARC
  5
315
100
AcDbEntity
  8
0
100
AcDbCircle
 62
7
  6
CONTINUOUS
 10
18.0252972623
 20
12.5108009607
 40
3.2308634079
100
AcDbArc
 50
179.3068312897
 51
181.4262669565
  0
ARC
  5
316
100
AcDbEntity
  8
0
100
AcDbCircle
 62
7
  6
CONTINUOUS
 10
18.505881489
 20
12.5008987969
 40
3.2289671452
100
AcDbArc
 50
183.5215131822
 51
185.6097413256
  0
ARC
  5
317
100
AcDbEntity
  8
0
100
AcDbCircle
 62
7
  6
CONTINUOUS
 10
18.009716023
 20
12.5115111638
 40
3.2178367312
100
AcDbArc
 50
177.1355578272
 51
179.2307874232
  0
ARC
  5
318
100
AcDbEntity
  8
0
100
AcDbCircle
 62
7
  6
CONTINUOUS
 10
17.9965620667
 20
12.5096241874
 40
3.2046734081
100
AcDbArc
 50
181.5031598218
 51
183.6013514037
  0
ARC
  5
319
100
AcDbEntity
  8
0
100
AcDbCircle
 62
7
  6
CONTINUOUS
 10
18.4133961759
 20
12.5292096874
 40
3.1360935035
100
AcDbArc
 50
172.845936149
 51
175.1189678269
  0
ARC
  5
31A
100
AcDbEntity
  8
0
100
AcDbCircle
 62
7
  6
CONTINUOUS
 10
17.908041141
 20
12.5160468549
 40
3.113482183
100
AcDbArc
 50
174.8636878471
 51
177.0332010212
  0
ARC
  5
31B
100
AcDbEntity
  8
0
100
AcDbCircle
 62
7
  6
CONTINUOUS
 10
17.90148005
 20
12.517504066
 40
3.1094354886
100
AcDbArc
 50
174.8723301709
 51
177.0514716397
  0
ARC
  5
31C
100
AcDbEntity
  8
0
100
AcDbCircle
 62
7
  6
CONTINUOUS
 10
17.875242747
 20
12.5021169616
 40
3.0831216533
100
AcDbArc
 50
183.7008952013
 51
185.8842706881
  0
ARC
  5
31D
100
AcDbEntity
  8
0
100
AcDbCircle
 62
7
  6
CONTINUOUS
 10
17.8329002542
 20
12.4997351239
 40
3.0381222902
100
AcDbArc
 50
183.7035628754
 51
185.9146757609
  0
ARC
  5
31E
100
AcDbEntity
  8
0
100
AcDbCircle
 62
7
  6
CONTINUOUS
 10
18.309769615
 20
12.4807700591
 40
3.0318269872
100
AcDbArc
 50
185.5934513747
 51
187.9272543655
  0
ARC
  5
31F
100
AcDbEntity
  8
0
100
AcDbCircle
 62
7
  6
CONTINUOUS
 10
17.7221754277
 20
12.5344253659
 40
2.9293348868
100
AcDbArc
 50
172.5694276598
 51
174.8110507889
  0
ARC
  5
320
100
AcDbEntity
  8
0
100
AcDbCircle
 62
7
  6
CONTINUOUS
 10
17.6839351875
 20
12.4826907803
 40
2.8908300332
100
AcDbArc
 50
185.9656654237
 51
188.2208360999
  0
ARC
  5
321
100
AcDbEntity
  8
0
100
AcDbCircle
 62
7
  6
CONTINUOUS
 10
17.5525681462
 20
12.4647286539
 40
2.7582446801
100
AcDbArc
 50
188.2417430739
 51
188.357570207
  0
ARC
  5
322
100
AcDbEntity
  8
0
100
AcDbCircle
 62
7
  6
CONTINUOUS
 10
17.5117730117
 20
12.5604619998
 40
2.7146526285
100
AcDbArc
 50
170.066234438
 51
172.4401382819
  0
ARC
  5
323
100
AcDbEntity
  8
0
100
AcDbCircle
 62
7
  6
CONTINUOUS
 10
17.4839893728
 20
12.5667990968
 40
2.688959653
100
AcDbArc
 50
170.0833845887
 51
172.4790614611
  0
ARC
  5
324
100
AcDbEntity
  8
0
100
AcDbCircle
 62
7
  6
CONTINUOUS
 10
17.4381223311
 20
12.4474543959
 40
2.642503471
100
AcDbArc
 50
188.3476816228
 51
190.7611241965
  0
ARC
  5
325
100
AcDbEntity
  8
0
100
AcDbCircle
 62
7
  6
CONTINUOUS
 10
17.3809855406
 20
12.4400455347
 40
2.5821879779
100
AcDbArc
 50
188.3500486262
 51
190.8178207658
  0
ARC
  5
326
100
AcDbEntity
  8
0
100
AcDbCircle
 62
7
  6
CONTINUOUS
 10
17.2108476363
 20
12.6158818
 40
2.4114442022
100
AcDbArc
 50
167.4993314746
 51
170.0365928206
  0
ARC
  5
327
100
AcDbEntity
  8
0
100
AcDbCircle
 62
7
  6
CONTINUOUS
 10
17.1602845869
 20
12.3952933478
 40
2.3598117922
100
AcDbArc
 50
190.8525741099
 51
193.3980548899
  0
ARC
  5
328
100
AcDbEntity
  8
0
100
AcDbCircle
 62
7
  6
CONTINUOUS
 10
17.0838662615
 20
12.643505489
 40
2.2814939969
100
AcDbArc
 50
167.3455673731
 51
167.4863625106
  0
ARC
  5
329
100
AcDbEntity
  8
0
100
AcDbCircle
 62
7
  6
CONTINUOUS
 10
16.9826264395
 20
12.3545830022
 40
2.1775562029
100
AcDbArc
 50
193.4391982194
 51
193.5862253953
  0
ARC
  5
32A
100
AcDbEntity
  8
0
100
AcDbCircle
 62
7
  6
CONTINUOUS
 10
16.9800795352
 20
12.6643989338
 40
2.1727654606
100
AcDbArc
 50
165.4555650039
 51
167.2914708838
  0
ARC
  5
32B
100
AcDbEntity
  8
0
100
AcDbCircle
 62
7
  6
CONTINUOUS
 10
16.956087623
 20
12.6730875432
 40
2.1503388464
100
AcDbArc
 50
165.3925486658
 51
167.3687745088
  0
ARC
  5
32C
100
AcDbEntity
  8
0
100
AcDbCircle
 62
7
  6
CONTINUOUS
 10
16.8447201151
 20
12.3204544757
 40
2.0354908557
100
AcDbArc
 50
193.6523306025
 51
196.4687407521
  0
ARC
  5
32D
100
AcDbEntity
  8
0
100
AcDbCircle
 62
7
  6
CONTINUOUS
 10
16.817792422
 20
12.7090143688
 40
2.0074532767
100
AcDbArc
 50
164.5168860586
 51
165.3893564024
  0
ARC
  5
32E
100
AcDbEntity
  8
0
100
AcDbCircle
 62
7
  6
CONTINUOUS
 10
16.8168360266
 20
12.7060866727
 40
2.0042842556
100
AcDbArc
 50
164.4663249953
 51
165.3381091659
  0
ARC
  5
32F
100
AcDbEntity
  8
0
100
AcDbCircle
 62
7
  6
CONTINUOUS
 10
16.7841318589
 20
12.3073295153
 40
1.9705835086
100
AcDbArc
 50
193.6061134563
 51
196.5657788743
  0
ARC
  5
330
100
AcDbEntity
  8
0
100
AcDbCircle
 62
7
  6
CONTINUOUS
 10
16.675232278
 20
12.7492042699
 40
1.8593371478
100
AcDbArc
 50
162.8341168494
 51
164.4632961431
  0
ARC
  5
331
100
AcDbEntity
  8
0
100
AcDbCircle
 62
7
  6
CONTINUOUS
 10
17.1004576723
 20
12.8144938638
 40
1.7456223597
100
AcDbArc
 50
160.0128832179
 51
162.8453674089
  0
ARC
  5
332
100
AcDbEntity
  8
0
100
AcDbCircle
 62
7
  6
CONTINUOUS
 10
16.5417853045
 20
12.2317076943
 40
1.7198242019
100
AcDbArc
 50
196.5703859629
 51
199.7402051507
  0
ARC
  5
333
100
AcDbEntity
  8
0
100
AcDbCircle
 62
7
  6
CONTINUOUS
 10
16.530903031
 20
12.794029264
 40
1.7082075559
100
AcDbArc
 50
161.3643491785
 51
162.8418655016
  0
SPLINE
  5
334
100
AcDbEntity
  8
0
100
AcDbSpline
 62
7
  6
CONTINUOUS
 70
0
 71
3
 72
19
 73
15
 74
0
 42
0.0000001
 43
0.0000001
 44
0.0000000001
 40
0.0
 40
0.0
 40
0.0
 40
0.0
 40
0.1217468811
 40
0.2439025483
 40
0.3053700182
 40
0.367501893
 40
0.4314022039
 40
0.5000002089
 40
0.5685979431
 40
0.6324981267
 40
0.6946299783
 40
0.7560974489
 40
0.878253119
 40
1.0
 40
1.0
 40
1.0
 40
1.0
 10
14.7779293936
 20
5.2883367558
 30
0.0
 10
14.7764680536
 20
5.2966115871
 30
0.0
 10
14.7737988324
 20
5.3132357886
 30
0.0
 10
14.7711065088
 20
5.3341430205
 30
0.0
 10
14.7693232595
 20
5.3510113443
 30
0.0
 10
14.7681479604
 20
5.363899459
 30
0.0
 10
14.7671004505
 20
5.3772917616
 30
0.0
 10
14.7660570058
 20
5.3911326368
 30
0.0
 10
14.764681159
 20
5.4049444218
 30
0.0
 10
14.7633872028
 20
5.4183151342
 30
0.0
 10
14.7623066629
 20
5.4312115278
 30
0.0
 10
14.761133603
 20
5.4481332406
 30
0.0
 10
14.7601550071
 20
5.4691903609
 30
0.0
 10
14.7598955375
 20
5.4860255099
 30
0.0
 10
14.7598987122
 20
5.4944283867
 30
0.0
  0
SPLINE
  5
335
100
AcDbEntity
  8
0
100
AcDbSpline
 62
7
  6
CONTINUOUS
 70
0
 71
3
 72
19
 73
15
 74
0
 42
0.0000001
 43
0.0000001
 44
0.0000000001
 40
0.0
 40
0.0
 40
0.0
 40
0.0
 40
0.1217467403
 40
0.2439022781
 40
0.3053696866
 40
0.3675013975
 40
0.4314014929
 40
0.5000002858
 40
0.5685982888
 40
0.6324984695
 40
0.6946302928
 40
0.7560976944
 40
0.8782532349
 40
1.0
 40
1.0
 40
1.0
 40
1.0
 10
16.3608118016
 20
5.4944283867
 30
0.0
 10
16.3608150607
 20
5.4860255197
 30
0.0
 10
16.360555468
 20
5.4691903894
 30
0.0
 10
16.3595769183
 20
5.4481332922
 30
0.0
 10
16.3584038566
 20
5.4312116023
 30
0.0
 10
16.3573233184
 20
5.4183152288
 30
0.0
 10
16.3560293561
 20
5.4049444594
 30
0.0
 10
16.3546535048
 20
5.3911326078
 30
0.0
 10
16.3536100581
 20
5.3772916686
 30
0.0
 10
16.3525625473
 20
5.3638993787
 30
0.0
 10
16.3513872455
 20
5.3510112817
 30
0.0
 10
16.3496040108
 20
5.3341429726
 30
0.0
 10
16.3469115862
 20
5.3132357804
 30
0.0
 10
16.344242659
 20
5.2966115439
 30
0.0
 10
16.3427811203
 20
5.2883367558
 30
0.0
  0
SPLINE
  5
336
100
AcDbEntity
  8
0
100
AcDbSpline
 62
7
  6
CONTINUOUS
 70
0
 71
3
 72
20
 73
16
 74
0
 42
0.0000001
 43
0.0000001
 44
0.0000000001
 40
0.0
 40
0.0
 40
0.0
 40
0.0
 40
0.0774216473
 40
0.1544600285
 40
0.2312722157
 40
0.3072662114
 40
0.3837207821
 40
0.4604259487
 40
0.5370550269
 40
0.6136792611
 40
0.6903203867
 40
0.7669533128
 40
0.8445715226
 40
0.9223145714
 40
1.0
 40
1.0
 40
1.0
 40
1.0
 10
14.7509470647
 20
5.4948106635
 30
0.0
 10
14.7594392051
 20
5.4947713841
 30
0.0
 10
14.7764538424
 20
5.4927528708
 30
0.0
 10
14.8003773858
 20
5.4836040142
 30
0.0
 10
14.8213060433
 20
5.469111437
 30
0.0
 10
14.8381371564
 20
5.4501056078
 30
0.0
 10
14.849978338
 20
5.4276592508
 30
0.0
 10
14.8561471364
 20
5.402967768
 30
0.0
 10
14.8562483668
 20
5.3774995636
 30
0.0
 10
14.8502766868
 20
5.3527483274
 30
0.0
 10
14.8385752205
 20
5.3301345506
 30
0.0
 10
14.8217485456
 20
5.31087899
 30
0.0
 10
14.8006833581
 20
5.2961547795
 30
0.0
 10
14.7765897131
 20
5.2868934663
 30
0.0
 10
14.7594681814
 20
5.2848392999
 30
0.0
 10
14.7509470647
 20
5.2848106635
 30
0.0
  0
SPLINE
  5
337
100
AcDbEntity
  8
0
100
AcDbSpline
 62
7
  6
CONTINUOUS
 70
0
 71
3
 72
20
 73
16
 74
0
 42
0.0000001
 43
0.0000001
 44
0.0000000001
 40
0.0
 40
0.0
 40
0.0
 40
0.0
 40
0.0774216473
 40
0.1544600285
 40
0.2312722157
 40
0.3072662114
 40
0.3837207821
 40
0.4604259487
 40
0.5370550269
 40
0.6136792611
 40
0.6903203867
 40
0.7669533128
 40
0.8445715226
 40
0.9223145714
 40
1.0
 40
1.0
 40
1.0
 40
1.0
 10
14.7509470647
 20
5.2848106635
 30
0.0
 10
14.7424549244
 20
5.2848499428
 30
0.0
 10
14.7254402871
 20
5.2868684561
 30
0.0
 10
14.7015167437
 20
5.2960173128
 30
0.0
 10
14.6805880862
 20
5.3105098899
 30
0.0
 10
14.6637569731
 20
5.3295157191
 30
0.0
 10
14.6519157914
 20
5.3519620761
 30
0.0
 10
14.6457469931
 20
5.376653559
 30
0.0
 10
14.6456457627
 20
5.4021217633
 30
0.0
 10
14.6516174427
 20
5.4268729995
 30
0.0
 10
14.663318909
 20
5.4494867763
 30
0.0
 10
14.6801455838
 20
5.4687423369
 30
0.0
 10
14.7012107714
 20
5.4834665475
 30
0.0
 10
14.7253044163
 20
5.4927278607
 30
0.0
 10
14.742425948
 20
5.494782027
 30
0.0
 10
14.7509470647
 20
5.4948106635
 30
0.0
  0
SPLINE
  5
338
100
AcDbEntity
  8
0
100
AcDbSpline
 62
7
  6
CONTINUOUS
 70
0
 71
3
 72
20
 73
16
 74
0
 42
0.0000001
 43
0.0000001
 44
0.0000000001
 40
0.0
 40
0.0
 40
0.0
 40
0.0
 40
0.0774216473
 40
0.1544600285
 40
0.2312722157
 40
0.3072662114
 40
0.3837207821
 40
0.4604259487
 40
0.5370550269
 40
0.6136792611
 40
0.6903203867
 40
0.7669533128
 40
0.8445715226
 40
0.9223145714
 40
1.0
 40
1.0
 40
1.0
 40
1.0
 10
16.3697634491
 20
5.4948106635
 30
0.0
 10
16.3782555895
 20
5.4947713841
 30
0.0
 10
16.3952702268
 20
5.4927528708
 30
0.0
 10
16.4191937702
 20
5.4836040142
 30
0.0
 10
16.4401224277
 20
5.469111437
 30
0.0
 10
16.4569535408
 20
5.4501056078
 30
0.0
 10
16.4687947224
 20
5.4276592508
 30
0.0
 10
16.4749635208
 20
5.402967768
 30
0.0
 10
16.4750647512
 20
5.3774995636
 30
0.0
 10
16.4690930712
 20
5.3527483274
 30
0.0
 10
16.4573916049
 20
5.3301345506
 30
0.0
 10
16.44056493
 20
5.31087899
 30
0.0
 10
16.4194997425
 20
5.2961547795
 30
0.0
 10
16.3954060975
 20
5.2868934663
 30
0.0
 10
16.3782845658
 20
5.2848392999
 30
0.0
 10
16.3697634491
 20
5.2848106635
 30
0.0
  0
SPLINE
  5
339
100
AcDbEntity
  8
0
100
AcDbSpline
 62
7
  6
CONTINUOUS
 70
0
 71
3
 72
20
 73
16
 74
0
 42
0.0000001
 43
0.0000001
 44
0.0000000001
 40
0.0
 40
0.0
 40
0.0
 40
0.0
 40
0.0774216473
 40
0.1544600285
 40
0.2312722157
 40
0.3072662114
 40
0.3837207821
 40
0.4604259487
 40
0.5370550269
 40
0.6136792611
 40
0.6903203867
 40
0.7669533128
 40
0.8445715226
 40
0.9223145714
 40
1.0
 40
1.0
 40
1.0
 40
1.0
 10
16.3697634491
 20
5.2848106635
 30
0.0
 10
16.3612713088
 20
5.2848499428
 30
0.0
 10
16.3442566715
 20
5.2868684561
 30
0.0
 10
16.3203331281
 20
5.2960173128
 30
0.0
 10
16.2994044706
 20
5.3105098899
 30
0.0
 10
16.2825733575
 20
5.3295157191
 30
0.0
 10
16.2707321758
 20
5.3519620761
 30
0.0
 10
16.2645633775
 20
5.376653559
 30
0.0
 10
16.2644621471
 20
5.4021217633
 30
0.0
 10
16.2704338271
 20
5.4268729995
 30
0.0
 10
16.2821352934
 20
5.4494867763
 30
0.0
 10
16.2989619682
 20
5.4687423369
 30
0.0
 10
16.3200271558
 20
5.4834665475
 30
0.0
 10
16.3441208007
 20
5.4927278607
 30
0.0
 10
16.3612423324
 20
5.494782027
 30
0.0
 10
16.3697634491
 20
5.4948106635
 30
0.0
  0
SPLINE
  5
33A
100
AcDbEntity
  8
0
100
AcDbSpline
 62
7
  6
CONTINUOUS
 70
0
 71
3
 72
18
 73
14
 74
0
 42
0.0000001
 43
0.0000001
 44
0.0000000001
 40
0.0
 40
0.0
 40
0.0
 40
0.0
 40
0.0576122374
 40
0.1169651755
 40
0.1778554381
 40
0.2400659081
 40
0.3674808639
 40
0.4972664124
 40
0.6274080634
 40
0.7558785686
 40
0.8806972504
 40
0.9411517819
 40
1.0
 40
1.0
 40
1.0
 40
1.0
 10
16.2034604882
 20
11.9059456255
 30
0.0
 10
16.2088762612
 20
11.9278148267
 30
0.0
 10
16.2190846896
 20
11.9724121431
 30
0.0
 10
16.2323800186
 20
12.0406927216
 30
0.0
 10
16.2438474228
 20
12.1111269837
 30
0.0
 10
16.256729586
 20
12.2082545716
 30
0.0
 10
16.267846133
 20
12.3327377131
 30
0.0
 10
16.2732188818
 20
12.4841843204
 30
0.0
 10
16.2706283248
 20
12.6361203621
 30
0.0
 10
16.2601221237
 20
12.7857660143
 30
0.0
 10
16.244776319
 20
12.9075707455
 30
0.0
 10
16.2285765691
 20
13.0016645165
 30
0.0
 10
16.2192168663
 20
13.0473807339
 30
0.0
 10
16.2142205501
 20
13.0698449769
 30
0.0
  0
SPLINE
  5
33B
100
AcDbEntity
  8
0
100
AcDbSpline
 62
7
  6
CONTINUOUS
 70
0
 71
3
 72
9
 73
5
 74
0
 42
0.0000001
 43
0.0000001
 44
0.0000000001
 40
0.0
 40
0.0
 40
0.0
 40
0.0
 40
0.2561760724
 40
1.0
 40
1.0
 40
1.0
 40
1.0
 10
16.1872297694
 20
13.1766981119
 30
0.0
 10
16.1849673266
 20
13.1846334201
 30
0.0
 10
16.1759113207
 20
13.21554467
 30
0.0
 10
16.1659429158
 20
13.2461911191
 30
0.0
 10
16.157952699
 20
13.2687783571
 30
0.0
  0
SPLINE
  5
33C
100
AcDbEntity
  8
0
100
AcDbSpline
 62
7
  6
CONTINUOUS
 70
0
 71
3
 72
9
 73
5
 74
0
 42
0.0000001
 43
0.0000001
 44
0.0000000001
 40
0.0
 40
0.0
 40
0.0
 40
0.0
 40
0.5148530902
 40
1.0
 40
1.0
 40
1.0
 40
1.0
 10
16.1300524623
 20
13.3408328174
 30
0.0
 10
16.1227993247
 20
13.3579479947
 30
0.0
 10
16.1079064588
 20
13.3908576484
 30
0.0
 10
16.0912007469
 20
13.4228928347
 30
0.0
 10
16.0826017016
 20
13.4381529191
 30
0.0
  0
SPLINE
  5
33D
100
AcDbEntity
  8
0
100
AcDbSpline
 62
7
  6
CONTINUOUS
 70
0
 71
3
 72
15
 73
11
 74
0
 42
0.0000001
 43
0.0000001
 44
0.0000000001
 40
0.0
 40
0.0
 40
0.0
 40
0.0
 40
0.1546972786
 40
0.2991635385
 40
0.433860892
 40
0.5595606346
 40
0.6773569033
 40
0.7887352553
 40
0.8955542269
 40
1.0
 40
1.0
 40
1.0
 40
1.0
 10
16.0493038602
 20
13.4917547727
 30
0.0
 10
16.0413731016
 20
13.5032843188
 30
0.0
 10
16.0252749618
 20
13.5250739693
 30
0.0
 10
15.9994839372
 20
13.5547178624
 30
0.0
 10
15.9729685616
 20
13.5800668753
 30
0.0
 10
15.9458296699
 20
13.6010162685
 30
0.0
 10
15.9181548215
 20
13.6174580484
 30
0.0
 10
15.890046167
 20
13.6293013928
 30
0.0
 10
15.8616302355
 20
13.6364528916
 30
0.0
 10
15.8424833101
 20
13.6380531807
 30
0.0
 10
15.8330352014
 20
13.6380536935
 30
0.0
  0
SPLINE
  5
33E
100
AcDbEntity
  8
0
100
AcDbSpline
 62
7
  6
CONTINUOUS
 70
0
 71
3
 72
13
 73
9
 74
0
 42
0.0000001
 43
0.0000001
 44
0.0000000001
 40
0.0
 40
0.0
 40
0.0
 40
0.0
 40
0.3063560561
 40
0.5691011812
 40
0.6860819698
 40
0.7953723913
 40
0.8991327647
 40
1.0
 40
1.0
 40
1.0
 40
1.0
 10
16.0280957496
 20
13.1885397767
 30
0.0
 10
16.0296347612
 20
13.1911393319
 30
0.0
 10
16.0328049048
 20
13.1957971863
 30
0.0
 10
16.0376012447
 20
13.2006548295
 30
0.0
 10
16.0416094432
 20
13.2033625392
 30
0.0
 10
16.0445580237
 20
13.2047722248
 30
0.0
 10
16.0475495389
 20
13.205625694
 30
0.0
 10
16.0495722641
 20
13.205816169
 30
0.0
 10
16.0505669127
 20
13.2058159699
 30
0.0
  0
SPLINE
  5
33F
100
AcDbEntity
  8
0
100
AcDbSpline
 62
7
  6
CONTINUOUS
 70
0
 71
3
 72
20
 73
16
 74
0
 42
0.0000001
 43
0.0000001
 44
0.0000000001
 40
0.0
 40
0.0
 40
0.0
 40
0.0
 40
0.1658782548
 40
0.3193155435
 40
0.3912442936
 40
0.459980197
 40
0.5880176123
 40
0.6475543056
 40
0.7042680737
 40
0.7583496222
 40
0.8100499909
 40
0.8596770121
 40
0.9075917075
 40
0.9542111102
 40
1.0
 40
1.0
 40
1.0
 40
1.0
 10
15.6100400777
 20
13.1291213331
 30
0.0
 10
15.6169795287
 20
13.1456247033
 30
0.0
 10
15.6313237244
 20
13.1769934803
 30
0.0
 10
15.651687474
 20
13.2140415156
 30
0.0
 10
15.6688140233
 20
13.2407810354
 30
0.0
 10
15.6856131441
 20
13.2644280492
 30
0.0
 10
15.7033624128
 20
13.2857439811
 30
0.0
 10
15.7221374527
 20
13.3042794602
 30
0.0
 10
15.7361074737
 20
13.3162555436
 30
0.0
 10
15.7502825898
 20
13.3266150184
 30
0.0
 10
15.7646361437
 20
13.335335891
 30
0.0
 10
15.7791397661
 20
13.3423997513
 30
0.0
 10
15.793767053
 20
13.3477862069
 30
0.0
 10
15.8084850763
 20
13.3514769272
 30
0.0
 10
15.8183948126
 20
13.3528092234
 30
0.0
 10
15.8233224936
 20
13.3531841937
 30
0.0
  0
SPLINE
  5
340
100
AcDbEntity
  8
0
100
AcDbSpline
 62
7
  6
CONTINUOUS
 70
0
 71
3
 72
16
 73
12
 74
0
 42
0.0000001
 43
0.0000001
 44
0.0000000001
 40
0.0
 40
0.0
 40
0.0
 40
0.0
 40
0.1726141262
 40
0.3318122064
 40
0.4762948775
 40
0.6057386908
 40
0.7206075991
 40
0.8223993984
 40
0.9139513235
 40
0.9573480144
 40
1.0
 40
1.0
 40
1.0
 40
1.0
 10
15.5455332426
 20
13.096672388
 30
0.0
 10
15.5466697462
 20
13.100350115
 30
0.0
 10
15.5490775595
 20
13.1073541263
 30
0.0
 10
15.5532727407
 20
13.1171243388
 30
0.0
 10
15.557872127
 20
13.125635529
 30
0.0
 10
15.5628160777
 20
13.1327841778
 30
0.0
 10
15.5680631281
 20
13.138487144
 30
0.0
 10
15.5735653106
 20
13.1426783708
 30
0.0
 10
15.5784356634
 20
13.1448724477
 30
0.0
 10
15.5823158243
 20
13.1457210044
 30
0.0
 10
15.584237539
 20
13.1458617866
 30
0.0
 10
15.5851886861
 20
13.1458621197
 30
0.0
  0
SPLINE
  5
341
100
AcDbEntity
  8
0
100
AcDbSpline
 62
7
  6
CONTINUOUS
 70
0
 71
3
 72
16
 73
12
 74
0
 42
0.0000001
 43
0.0000001
 44
0.0000000001
 40
0.0
 40
0.0
 40
0.0
 40
0.0
 40
0.0540113023
 40
0.1110301783
 40
0.232518188
 40
0.3614526233
 40
0.4946208154
 40
0.628506123
 40
0.7595572527
 40
0.8844647006
 40
1.0
 40
1.0
 40
1.0
 40
1.0
 10
15.5478835832
 20
12.9279828431
 30
0.0
 10
15.5468473261
 20
12.9308836394
 30
0.0
 10
15.5448894314
 20
12.9369093347
 30
0.0
 10
15.5414210895
 20
12.9497128064
 30
0.0
 10
15.5380075923
 20
12.9669347255
 30
0.0
 10
15.5354194752
 20
12.9886762724
 30
0.0
 10
15.5343364734
 20
13.0112523065
 30
0.0
 10
15.5347968293
 20
13.0339694157
 30
0.0
 10
15.5367816532
 20
13.0561333903
 30
0.0
 10
15.5402322744
 20
13.0770569232
 30
0.0
 10
15.5435878213
 20
13.0903770023
 30
0.0
 10
15.5455332426
 20
13.096672388
 30
0.0
  0
SPLINE
  5
342
100
AcDbEntity
  8
0
100
AcDbSpline
 62
7
  6
CONTINUOUS
 70
0
 71
3
 72
23
 73
19
 74
0
 42
0.0000001
 43
0.0000001
 44
0.0000000001
 40
0.0
 40
0.0
 40
0.0
 40
0.0
 40
0.0499097286
 40
0.103097344
 40
0.159286036
 40
0.2181993677
 40
0.2795215366
 40
0.3428937371
 40
0.4079347391
 40
0.4742466442
 40
0.5414145969
 40
0.6090155465
 40
0.67662223
 40
0.7438056054
 40
0.8101369603
 40
0.8752119519
 40
0.9386430808
 40
1.0
 40
1.0
 40
1.0
 40
1.0
 10
15.6203332058
 20
11.8690197014
 30
0.0
 10
15.6128800102
 20
11.8853092021
 30
0.0
 10
15.5986303658
 20
11.9194898338
 30
0.0
 10
15.579687748
 20
11.9734586988
 30
0.0
 10
15.5626245027
 20
12.031426534
 30
0.0
 10
15.5475654154
 20
12.092953044
 30
0.0
 10
15.5346206731
 20
12.1575884687
 30
0.0
 10
15.5238897862
 20
12.2248543918
 30
0.0
 10
15.5154511255
 20
12.294249405
 30
0.0
 10
15.5093718591
 20
12.36525736
 30
0.0
 10
15.5056926822
 20
12.4373495283
 30
0.0
 10
15.504446291
 20
12.5099893039
 30
0.0
 10
15.5056384188
 20
12.5826354976
 30
0.0
 10
15.5092624437
 20
12.6547450791
 30
0.0
 10
15.5152888416
 20
12.725782226
 30
0.0
 10
15.5236740243
 20
12.7952246504
 30
0.0
 10
15.5343579692
 20
12.8625433581
 30
0.0
 10
15.5431136996
 20
12.9064833552
 30
0.0
 10
15.5478835832
 20
12.9279828431
 30
0.0
  0
SPLINE
  5
343
100
AcDbEntity
  8
0
100
AcDbSpline
 62
7
  6
CONTINUOUS
 70
0
 71
3
 72
13
 73
9
 74
0
 42
0.0000001
 43
0.0000001
 44
0.0000000001
 40
0.0
 40
0.0
 40
0.0
 40
0.0
 40
0.3395947586
 40
0.6217868792
 40
0.7374684971
 40
0.8367488354
 40
0.9224263866
 40
1.0
 40
1.0
 40
1.0
 40
1.0
 10
14.8378189066
 20
13.0287656803
 30
0.0
 10
14.837890384
 20
13.0291726167
 30
0.0
 10
14.8380665547
 20
13.0299103177
 30
0.0
 10
14.8384138121
 20
13.0307464139
 30
0.0
 10
14.8387589091
 20
13.0312460413
 30
0.0
 10
14.8390201139
 20
13.0315061632
 30
0.0
 10
14.839299667
 20
13.0316695068
 30
0.0
 10
14.8394994234
 20
13.0317088165
 30
0.0
 10
14.8395938022
 20
13.0317091641
 30
0.0
  0
SPLINE
  5
344
100
AcDbEntity
  8
0
100
AcDbSpline
 62
7
  6
CONTINUOUS
 70
0
 71
3
 72
11
 73
7
 74
0
 42
0.0000001
 43
0.0000001
 44
0.0000000001
 40
0.0
 40
0.0
 40
0.0
 40
0.0
 40
0.208056145
 40
0.457627112
 40
0.7293926978
 40
1.0
 40
1.0
 40
1.0
 40
1.0
 10
14.8214164093
 20
12.9119439461
 30
0.0
 10
14.8212267567
 20
12.9122969241
 30
0.0
 10
14.8209251306
 20
12.9131339684
 30
0.0
 10
14.8206653471
 20
12.9145178269
 30
0.0
 10
14.8205815417
 20
12.9160447775
 30
0.0
 10
14.8206476385
 20
12.9170904084
 30
0.0
 10
14.8207162834
 20
12.9176070383
 30
0.0
  0
SPLINE
  5
345
100
AcDbEntity
  8
0
100
AcDbSpline
 62
7
  6
CONTINUOUS
 70
0
 71
3
 72
13
 73
9
 74
0
 42
0.0000001
 43
0.0000001
 44
0.0000000001
 40
0.0
 40
0.0
 40
0.0
 40
0.0
 40
0.2729105804
 40
0.5438671143
 40
0.6719983994
 40
0.7920852413
 40
0.9020347735
 40
1.0
 40
1.0
 40
1.0
 40
1.0
 10
14.8350512746
 20
12.8703144475
 30
0.0
 10
14.835273911
 20
12.8723169851
 30
0.0
 10
14.8354631928
 20
12.8763386857
 30
0.0
 10
14.835126294
 20
12.881301363
 30
0.0
 10
14.834494904
 20
12.8850846818
 30
0.0
 10
14.8338727498
 20
12.8876576917
 30
0.0
 10
14.8331062029
 20
12.8899578388
 30
0.0
 10
14.8324750685
 20
12.8913617614
 30
0.0
 10
14.8321327442
 20
12.8919988894
 30
0.0
  0
SPLINE
  5
346
100
AcDbEntity
  8
0
100
AcDbSpline
 62
7
  6
CONTINUOUS
 70
0
 71
3
 72
15
 73
11
 74
0
 42
0.0000001
 43
0.0000001
 44
0.0000000001
 40
0.0
 40
0.0
 40
0.0
 40
0.0
 40
0.0747188606
 40
0.1609994449
 40
0.2627169494
 40
0.381155586
 40
0.516001662
 40
0.6657951813
 40
0.8282975822
 40
1.0
 40
1.0
 40
1.0
 40
1.0
 10
14.8220216714
 20
12.8010532707
 30
0.0
 10
14.8224337106
 20
12.8011284882
 30
0.0
 10
14.8232905885
 20
12.8014757296
 30
0.0
 10
14.824435279
 20
12.8024258226
 30
0.0
 10
14.8254938814
 20
12.8037911629
 30
0.0
 10
14.8264557793
 20
12.8055399304
 30
0.0
 10
14.8273034923
 20
12.8076388978
 30
0.0
 10
14.8280203761
 20
12.8100439266
 30
0.0
 10
14.8285868581
 20
12.8126996568
 30
0.0
 10
14.8288521866
 20
12.8145557853
 30
0.0
 10
14.8289585398
 20
12.8155123965
 30
0.0
  0
SPLINE
  5
347
100
AcDbEntity
  8
0
100
AcDbSpline
 62
7
  6
CONTINUOUS
 70
0
 71
3
 72
12
 73
8
 74
0
 42
0.0000001
 43
0.0000001
 44
0.0000000001
 40
0.0
 40
0.0
 40
0.0
 40
0.0
 40
0.334305168
 40
0.6209699442
 40
0.7401967666
 40
0.8421938391
 40
1.0
 40
1.0
 40
1.0
 40
1.0
 10
14.8070610613
 20
12.7947830179
 30
0.0
 10
14.807105454
 20
12.7952757044
 30
0.0
 10
14.8072445172
 20
12.7961868009
 30
0.0
 10
14.8075682582
 20
12.7972400674
 30
0.0
 10
14.8079194731
 20
12.7979093062
 30
0.0
 10
14.8082518205
 20
12.7983575548
 30
0.0
 10
14.808590255
 20
12.798601377
 30
0.0
 10
14.8088199698
 20
12.7986433112
 30
0.0
  0
SPLINE
  5
348
100
AcDbEntity
  8
0
100
AcDbSpline
 62
7
  6
CONTINUOUS
 70
0
 71
3
 72
11
 73
7
 74
0
 42
0.0000001
 43
0.0000001
 44
0.0000000001
 40
0.0
 40
0.0
 40
0.0
 40
0.0
 40
0.1882523001
 40
0.4293649022
 40
0.707684169
 40
1.0
 40
1.0
 40
1.0
 40
1.0
 10
14.7998488849
 20
12.6719886776
 30
0.0
 10
14.7996293212
 20
12.6722478148
 30
0.0
 10
14.7992623706
 20
12.6729465217
 30
0.0
 10
14.7989088824
 20
12.6741763803
 30
0.0
 10
14.7987155726
 20
12.6756333026
 30
0.0
 10
14.7987046473
 20
12.6766655152
 30
0.0
 10
14.7987319767
 20
12.6771922068
 30
0.0
  0
SPLINE
  5
349
100
AcDbEntity
  8
0
100
AcDbSpline
 62
7
  6
CONTINUOUS
 70
0
 71
3
 72
13
 73
9
 74
0
 42
0.0000001
 43
0.0000001
 44
0.0000000001
 40
0.0
 40
0.0
 40
0.0
 40
0.0
 40
0.2939066287
 40
0.5710286952
 40
0.6967479507
 40
0.8110920756
 40
0.9124843521
 40
1.0
 40
1.0
 40
1.0
 40
1.0
 10
14.816384426
 20
12.6379898561
 30
0.0
 10
14.8164489704
 20
12.6400128643
 30
0.0
 10
14.8163434645
 20
12.6439537381
 30
0.0
 10
14.8156435145
 20
12.6487164978
 30
0.0
 10
14.8147276718
 20
12.6521620314
 30
0.0
 10
14.8139247737
 20
12.6543765163
 30
0.0
 10
14.8130003155
 20
12.6562539595
 30
0.0
 10
14.8122641767
 20
12.6573356867
 30
0.0
 10
14.8118745694
 20
12.6577955159
 30
0.0
  0
SPLINE
  5
34A
100
AcDbEntity
  8
0
100
AcDbSpline
 62
7
  6
CONTINUOUS
 70
0
 71
3
 72
14
 73
10
 74
0
 42
0.0000001
 43
0.0000001
 44
0.0000000001
 40
0.0
 40
0.0
 40
0.0
 40
0.0
 40
0.0797569141
 40
0.1738716088
 40
0.2828428614
 40
0.4059062943
 40
0.5415633874
 40
0.6876967409
 40
1.0
 40
1.0
 40
1.0
 40
1.0
 10
14.8088670757
 20
12.5635319589
 30
0.0
 10
14.8092809755
 20
12.5638230494
 30
0.0
 10
14.8100869464
 20
12.564594821
 30
0.0
 10
14.8111197109
 20
12.5660706387
 30
0.0
 10
14.8120508411
 20
12.5679251066
 30
0.0
 10
14.812863067
 20
12.5701157016
 30
0.0
 10
14.8135380584
 20
12.5725971272
 30
0.0
 10
14.8142504376
 20
12.5763008155
 30
0.0
 10
14.814508985
 20
12.579208108
 30
0.0
 10
14.8145721691
 20
12.5811884805
 30
0.0
  0
SPLINE
  5
34B
100
AcDbEntity
  8
0
100
AcDbSpline
 62
7
  6
CONTINUOUS
 70
0
 71
3
 72
11
 73
7
 74
0
 42
0.0000001
 43
0.0000001
 44
0.0000000001
 40
0.0
 40
0.0
 40
0.0
 40
0.0
 40
0.3114777381
 40
0.5947324537
 40
0.8275994679
 40
1.0
 40
1.0
 40
1.0
 40
1.0
 10
14.7946702916
 20
12.5498872391
 30
0.0
 10
14.7946765701
 20
12.5504066763
 30
0.0
 10
14.7947481549
 20
12.5513984813
 30
0.0
 10
14.7950276417
 20
12.5527570157
 30
0.0
 10
14.795447195
 20
12.5538282748
 30
0.0
 10
14.7958669438
 20
12.5543891304
 30
0.0
 10
14.79610213
 20
12.5545545339
 30
0.0
  0
SPLINE
  5
34C
100
AcDbEntity
  8
0
100
AcDbSpline
 62
7
  6
CONTINUOUS
 70
0
 71
3
 72
11
 73
7
 74
0
 42
0.0000001
 43
0.0000001
 44
0.0000000001
 40
0.0
 40
0.0
 40
0.0
 40
0.0
 40
0.1694576785
 40
0.4004821118
 40
0.6845938829
 40
1.0
 40
1.0
 40
1.0
 40
1.0
 10
14.7969255961
 20
12.4258392105
 30
0.0
 10
14.7966890651
 20
12.4259842912
 30
0.0
 10
14.7962583088
 20
12.4265145536
 30
0.0
 10
14.7958270262
 20
12.4275516416
 30
0.0
 10
14.7955308731
 20
12.428886243
 30
0.0
 10
14.7954476895
 20
12.429866903
 30
0.0
 10
14.7954348278
 20
12.4303832081
 30
0.0
  0
SPLINE
  5
34D
100
AcDbEntity
  8
0
100
AcDbSpline
 62
7
  6
CONTINUOUS
 70
0
 71
3
 72
14
 73
10
 74
0
 42
0.0000001
 43
0.0000001
 44
0.0000000001
 40
0.0
 40
0.0
 40
0.0
 40
0.0
 40
0.3160572592
 40
0.4629351566
 40
0.5986094338
 40
0.7210369905
 40
0.8288568898
 40
0.921541599
 40
1.0
 40
1.0
 40
1.0
 40
1.0
 10
14.8157263614
 20
12.4007776219
 30
0.0
 10
14.8156382616
 20
12.402743062
 30
0.0
 10
14.8153450048
 20
12.405620347
 30
0.0
 10
14.8145844754
 20
12.4092707712
 30
0.0
 10
14.8138785874
 20
12.4116941959
 30
0.0
 10
14.8130392095
 20
12.4138157987
 30
0.0
 10
14.8120848106
 20
12.4155922489
 30
0.0
 10
14.8110324764
 20
12.4169831537
 30
0.0
 10
14.8102148078
 20
12.4176880225
 30
0.0
 10
14.8097984898
 20
12.417943379
 30
0.0
  0
SPLINE
  5
34E
100
AcDbEntity
  8
0
100
AcDbSpline
 62
7
  6
CONTINUOUS
 70
0
 71
3
 72
13
 73
9
 74
0
 42
0.0000001
 43
0.0000001
 44
0.0000000001
 40
0.0
 40
0.0
 40
0.0
 40
0.0
 40
0.0892195027
 40
0.1920655687
 40
0.3074163165
 40
0.4335835497
 40
0.7097052356
 40
1.0
 40
1.0
 40
1.0
 40
1.0
 10
14.8140101516
 20
12.3239843794
 30
0.0
 10
14.8143929594
 20
12.3244759163
 30
0.0
 10
14.8151130318
 20
12.325615426
 30
0.0
 10
14.8160132285
 20
12.3275686418
 30
0.0
 10
14.8167878141
 20
12.329849157
 30
0.0
 10
14.817657619
 20
12.3333610098
 30
0.0
 10
14.818297815
 20
12.3381699037
 30
0.0
 10
14.8183549998
 20
12.3421346801
 30
0.0
 10
14.8182642264
 20
12.3441597665
 30
0.0
  0
SPLINE
  5
34F
100
AcDbEntity
  8
0
100
AcDbSpline
 62
7
  6
CONTINUOUS
 70
0
 71
3
 72
11
 73
7
 74
0
 42
0.0000001
 43
0.0000001
 44
0.0000000001
 40
0.0
 40
0.0
 40
0.0
 40
0.0
 40
0.2885787594
 40
0.5658267779
 40
0.8084462326
 40
1.0
 40
1.0
 40
1.0
 40
1.0
 10
14.801122768
 20
12.3034895516
 30
0.0
 10
14.8010885639
 20
12.3040159963
 30
0.0
 10
14.8010868322
 20
12.3050531719
 30
0.0
 10
14.8012622168
 20
12.3065255724
 30
0.0
 10
14.8016010009
 20
12.3077842892
 30
0.0
 10
14.801957345
 20
12.308508206
 30
0.0
 10
14.8021725115
 20
12.3087844863
 30
0.0
  0
SPLINE
  5
350
100
AcDbEntity
  8
0
100
AcDbSpline
 62
7
  6
CONTINUOUS
 70
0
 71
3
 72
12
 73
8
 74
0
 42
0.0000001
 43
0.0000001
 44
0.0000000001
 40
0.0
 40
0.0
 40
0.0
 40
0.0
 40
0.1564963558
 40
0.2571910137
 40
0.3754329924
 40
0.6621563549
 40
1.0
 40
1.0
 40
1.0
 40
1.0
 10
14.8127588833
 20
12.1829549307
 30
0.0
 10
14.8125334504
 20
12.1829770057
 30
0.0
 10
14.8121873003
 20
12.1831914473
 30
0.0
 10
14.8118489895
 20
12.1836135997
 30
0.0
 10
14.8114880299
 20
12.1842553414
 30
0.0
 10
14.8111513593
 20
12.1852840751
 30
0.0
 10
14.8110019776
 20
12.1861783899
 30
0.0
 10
14.8109515442
 20
12.1866647734
 30
0.0
  0
SPLINE
  5
351
100
AcDbEntity
  8
0
100
AcDbSpline
 62
7
  6
CONTINUOUS
 70
0
 71
3
 72
15
 73
11
 74
0
 42
0.0000001
 43
0.0000001
 44
0.0000000001
 40
0.0
 40
0.0
 40
0.0
 40
0.0
 40
0.1737832368
 40
0.337483461
 40
0.487616862
 40
0.6220437693
 40
0.7394815835
 40
0.8399302101
 40
0.925211583
 40
1.0
 40
1.0
 40
1.0
 40
1.0
 10
14.8331023698
 20
12.1677936778
 30
0.0
 10
14.8329841054
 20
12.1687386589
 30
0.0
 10
14.8326961269
 20
12.1705671711
 30
0.0
 10
14.8320964714
 20
12.1731737355
 30
0.0
 10
14.8313496787
 20
12.1755174102
 30
0.0
 10
14.8304759376
 20
12.1775446137
 30
0.0
 10
14.8294918975
 20
12.1792131909
 30
0.0
 10
14.8284142919
 20
12.1804919929
 30
0.0
 10
14.8272510807
 20
12.1813490632
 30
0.0
 10
14.8263921864
 20
12.1816199193
 30
0.0
 10
14.825984288
 20
12.1816598619
 30
0.0
  0
SPLINE
  5
352
100
AcDbEntity
  8
0
100
AcDbSpline
 62
7
  6
CONTINUOUS
 70
0
 71
3
 72
12
 73
8
 74
0
 42
0.0000001
 43
0.0000001
 44
0.0000000001
 40
0.0
 40
0.0
 40
0.0
 40
0.0
 40
0.0997639622
 40
0.2111300691
 40
0.460488896
 40
0.7304284299
 40
1.0
 40
1.0
 40
1.0
 40
1.0
 10
14.8372532535
 20
12.0916162112
 30
0.0
 10
14.837586333
 20
12.0922800571
 30
0.0
 10
14.838198067
 20
12.0937322353
 30
0.0
 10
14.8392189709
 20
12.0970087105
 30
0.0
 10
14.8400549576
 20
12.1016475255
 30
0.0
 10
14.840382151
 20
12.1075224031
 30
0.0
 10
14.8401420474
 20
12.1115437699
 30
0.0
 10
14.839892828
 20
12.1135351351
 30
0.0
  0
SPLINE
  5
353
100
AcDbEntity
  8
0
100
AcDbSpline
 62
7
  6
CONTINUOUS
 70
0
 71
3
 72
11
 73
7
 74
0
 42
0.0000001
 43
0.0000001
 44
0.0000000001
 40
0.0
 40
0.0
 40
0.0
 40
0.0
 40
0.2671093855
 40
0.5377537856
 40
0.7886348463
 40
1.0
 40
1.0
 40
1.0
 40
1.0
 10
14.8261705253
 20
12.0650588803
 30
0.0
 10
14.8260949606
 20
12.0655718046
 30
0.0
 10
14.8260157623
 20
12.0666158273
 30
0.0
 10
14.8260808064
 20
12.0681491013
 30
0.0
 10
14.8263237047
 20
12.0695541039
 30
0.0
 10
14.8266138477
 20
12.0704112809
 30
0.0
 10
14.8267978328
 20
12.0707779734
 30
0.0
  0
SPLINE
  5
354
100
AcDbEntity
  8
0
100
AcDbSpline
 62
7
  6
CONTINUOUS
 70
0
 71
3
 72
9
 73
5
 74
0
 42
0.0000001
 43
0.0000001
 44
0.0000000001
 40
0.0
 40
0.0
 40
0.0
 40
0.0
 40
0.2654120599
 40
1.0
 40
1.0
 40
1.0
 40
1.0
 10
14.867844701
 20
11.9479914661
 30
0.0
 10
14.8677539371
 20
11.948410802
 30
0.0
 10
14.8673836499
 20
11.9499841518
 30
0.0
 10
14.866900396
 20
11.9515334187
 30
0.0
 10
14.8664580081
 20
11.9526354205
 30
0.0
  0
SPLINE
  5
355
100
AcDbEntity
  8
0
100
AcDbSpline
 62
7
  6
CONTINUOUS
 70
0
 71
3
 72
12
 73
8
 74
0
 42
0.0000001
 43
0.0000001
 44
0.0000000001
 40
0.0
 40
0.0
 40
0.0
 40
0.0
 40
0.1104779697
 40
0.2300497308
 40
0.4865413965
 40
0.7500523299
 40
1.0
 40
1.0
 40
1.0
 40
1.0
 10
14.8777031621
 20
11.8753572329
 30
0.0
 10
14.8779749699
 20
11.8761620479
 30
0.0
 10
14.8784594549
 20
11.877865987
 30
0.0
 10
14.8792048104
 20
11.8815346666
 30
0.0
 10
14.879683761
 20
11.886443967
 30
0.0
 10
14.8795749423
 20
11.8923741449
 30
0.0
 10
14.8790333663
 20
11.8962989895
 30
0.0
 10
14.8786267989
 20
11.8981773616
 30
0.0
  0
SPLINE
  5
356
100
AcDbEntity
  8
0
100
AcDbSpline
 62
7
  6
CONTINUOUS
 70
0
 71
3
 72
11
 73
7
 74
0
 42
0.0000001
 43
0.0000001
 44
0.0000000001
 40
0.0
 40
0.0
 40
0.0
 40
0.0
 40
0.246798119
 40
0.5106574066
 40
0.768948362
 40
1.0
 40
1.0
 40
1.0
 40
1.0
 10
14.8688509923
 20
11.843757982
 30
0.0
 10
14.8687346161
 20
11.8442367531
 30
0.0
 10
14.8685772335
 20
11.8452481009
 30
0.0
 10
14.8685293225
 20
11.8467860008
 30
0.0
 10
14.8686660626
 20
11.8482868758
 30
0.0
 10
14.8688841616
 20
11.8492444272
 30
0.0
 10
14.8690317567
 20
11.8496814522
 30
0.0
  0
SPLINE
  5
357
100
AcDbEntity
  8
0
100
AcDbSpline
 62
7
  6
CONTINUOUS
 70
0
 71
3
 72
21
 73
17
 74
0
 42
0.0000001
 43
0.0000001
 44
0.0000000001
 40
0.0
 40
0.0
 40
0.0
 40
0.0
 40
0.0429993428
 40
0.0877443477
 40
0.1345888544
 40
0.1838193081
 40
0.2356653564
 40
0.2903018825
 40
0.3478508001
 40
0.4083964384
 40
0.4719821978
 40
0.5386148232
 40
0.6082793107
 40
0.6809390983
 40
0.8349880757
 40
1.0
 40
1.0
 40
1.0
 40
1.0
 10
15.1611523024
 20
13.8165997798
 30
0.0
 10
15.1528527258
 20
13.813821274
 30
0.0
 10
15.1362311272
 20
13.8071715327
 30
0.0
 10
15.1119695127
 20
13.7943552017
 30
0.0
 10
15.0880010938
 20
13.7785608555
 30
0.0
 10
15.0643776899
 20
13.7598381806
 30
0.0
 10
15.0411493201
 20
13.7382306717
 30
0.0
 10
15.0183666039
 20
13.713789203
 30
0.0
 10
14.9960744083
 20
13.6865732607
 30
0.0
 10
14.9743245892
 20
13.6566423695
 30
0.0
 10
14.9531649136
 20
13.6240660694
 30
0.0
 10
14.9326401748
 20
13.5889213306
 30
0.0
 10
14.9127995893
 20
13.5512862571
 30
0.0
 10
14.8868082735
 20
13.4968322577
 30
0.0
 10
14.8565116277
 20
13.4230071133
 30
0.0
 10
14.8356618643
 20
13.3614580149
 30
0.0
 10
14.8257452682
 20
13.3293678982
 30
0.0
  0
SPLINE
  5
358
100
AcDbEntity
  8
0
100
AcDbSpline
 62
7
  6
CONTINUOUS
 70
0
 71
3
 72
12
 73
8
 74
0
 42
0.0000001
 43
0.0000001
 44
0.0000000001
 40
0.0
 40
0.0
 40
0.0
 40
0.0
 40
0.248893188
 40
0.5120466567
 40
0.7689135484
 40
0.8889306945
 40
1.0
 40
1.0
 40
1.0
 40
1.0
 10
14.93380541
 20
11.6835181556
 30
0.0
 10
14.9342204779
 20
11.6853880466
 30
0.0
 10
14.9347785075
 20
11.6893032037
 30
0.0
 10
14.9349112925
 20
11.6952300062
 30
0.0
 10
14.9344523944
 20
11.7001489192
 30
0.0
 10
14.9337228384
 20
11.7038350843
 30
0.0
 10
14.9332457972
 20
11.7055509311
 30
0.0
 10
14.9329776143
 20
11.7063625244
 30
0.0
  0
SPLINE
  5
359
100
AcDbEntity
  8
0
100
AcDbSpline
 62
7
  6
CONTINUOUS
 70
0
 71
3
 72
11
 73
7
 74
0
 42
0.0000001
 43
0.0000001
 44
0.0000000001
 40
0.0
 40
0.0
 40
0.0
 40
0.0
 40
0.2270512442
 40
0.4838808527
 40
0.7491351612
 40
1.0
 40
1.0
 40
1.0
 40
1.0
 10
14.9275239825
 20
11.6480913263
 30
0.0
 10
14.9273686908
 20
11.6485156533
 30
0.0
 10
14.9271354996
 20
11.6494556564
 30
0.0
 10
14.9269765579
 20
11.6509413888
 30
0.0
 10
14.9270014965
 20
11.6524829753
 30
0.0
 10
14.9271430717
 20
11.6535041591
 30
0.0
 10
14.9272512572
 20
11.6539915378
 30
0.0
  0
SPLINE
  5
35A
100
AcDbEntity
  8
0
100
AcDbSpline
 62
7
  6
CONTINUOUS
 70
0
 71
3
 72
9
 73
5
 74
0
 42
0.0000001
 43
0.0000001
 44
0.0000000001
 40
0.0
 40
0.0
 40
0.0
 40
0.0
 40
0.2432671857
 40
1.0
 40
1.0
 40
1.0
 40
1.0
 10
14.9609712631
 20
11.5649774622
 30
0.0
 10
14.9580303912
 20
11.5716213168
 30
0.0
 10
14.9461857177
 20
11.5990401144
 30
0.0
 10
14.9352915778
 20
11.626866763
 30
0.0
 10
14.9275239825
 20
11.6480913263
 30
0.0
  0
SPLINE
  5
35B
100
AcDbEntity
  8
0
100
AcDbSpline
 62
7
  6
CONTINUOUS
 70
0
 71
3
 72
15
 73
11
 74
0
 42
0.0000001
 43
0.0000001
 44
0.0000000001
 40
0.0
 40
0.0
 40
0.0
 40
0.0
 40
0.1205416415
 40
0.2384299922
 40
0.3556980061
 40
0.4744154105
 40
0.5965638438
 40
0.7239175452
 40
0.8579923654
 40
1.0
 40
1.0
 40
1.0
 40
1.0
 10
15.2001267233
 20
11.1919640479
 30
0.0
 10
15.2096177076
 20
11.1887871219
 30
0.0
 10
15.2288307455
 20
11.1837204534
 30
0.0
 10
15.2582629418
 20
11.180285277
 30
0.0
 10
15.2877373174
 20
11.1811512081
 30
0.0
 10
15.3171231307
 20
11.1863135145
 30
0.0
 10
15.3463022903
 20
11.1957416605
 30
0.0
 10
15.3751755489
 20
11.2093723255
 30
0.0
 10
15.4036464858
 20
11.2271459644
 30
0.0
 10
15.4217538808
 20
11.2412728484
 30
0.0
 10
15.4307152615
 20
11.2489356807
 30
0.0
  0
SPLINE
  5
35C
100
AcDbEntity
  8
0
100
AcDbSpline
 62
7
  6
CONTINUOUS
 70
0
 71
3
 72
12
 73
8
 74
0
 42
0.0000001
 43
0.0000001
 44
0.0000000001
 40
0.0
 40
0.0
 40
0.0
 40
0.0
 40
0.268468627
 40
0.5380588509
 40
0.7878273888
 40
0.8996503696
 40
1.0
 40
1.0
 40
1.0
 40
1.0
 10
15.0034040193
 20
11.5234712475
 30
0.0
 10
15.0036619547
 20
11.5254584624
 30
0.0
 10
15.0039185914
 20
11.5294784773
 30
0.0
 10
15.0036151494
 20
11.5353621154
 30
0.0
 10
15.0027982359
 20
11.5400203696
 30
0.0
 10
15.0017917764
 20
11.543321889
 30
0.0
 10
15.0011865793
 20
11.5447895387
 30
0.0
 10
15.0008566028
 20
11.54546196
 30
0.0
  0
SPLINE
  5
35D
100
AcDbEntity
  8
0
100
AcDbSpline
 62
7
  6
CONTINUOUS
 70
0
 71
3
 72
11
 73
7
 74
0
 42
0.0000001
 43
0.0000001
 44
0.0000000001
 40
0.0
 40
0.0
 40
0.0
 40
0.0
 40
0.20734196
 40
0.4566272718
 40
0.7286338996
 40
1.0
 40
1.0
 40
1.0
 40
1.0
 10
14.9999347259
 20
11.485578273
 30
0.0
 10
14.9997438705
 20
11.4859282198
 30
0.0
 10
14.9994397905
 20
11.4867608041
 30
0.0
 10
14.9991764051
 20
11.4881399196
 30
0.0
 10
14.9990885652
 20
11.4896652998
 30
0.0
 10
14.9991518405
 20
11.4907111312
 30
0.0
 10
14.9992189916
 20
11.491228484
 30
0.0
  0
SPLINE
  5
35E
100
AcDbEntity
  8
0
100
AcDbSpline
 62
7
  6
CONTINUOUS
 70
0
 71
3
 72
9
 73
5
 74
0
 42
0.0000001
 43
0.0000001
 44
0.0000000001
 40
0.0
 40
0.0
 40
0.0
 40
0.0
 40
0.4885653555
 40
1.0
 40
1.0
 40
1.0
 40
1.0
 10
15.0390536321
 20
11.420817796
 30
0.0
 10
15.0321790112
 20
11.4310470007
 30
0.0
 10
15.0186479289
 20
11.4523505814
 30
0.0
 10
15.0061120489
 20
11.4742517175
 30
0.0
 10
14.9999347259
 20
11.485578273
 30
0.0
  0
SPLINE
  5
35F
100
AcDbEntity
  8
0
100
AcDbSpline
 62
7
  6
CONTINUOUS
 70
0
 71
3
 72
11
 73
7
 74
0
 42
0.0000001
 43
0.0000001
 44
0.0000000001
 40
0.0
 40
0.0
 40
0.0
 40
0.0
 40
0.2798322889
 40
0.5502716282
 40
0.7946122957
 40
1.0
 40
1.0
 40
1.0
 40
1.0
 10
15.0838243546
 20
11.4013670215
 30
0.0
 10
15.083913309
 20
11.4031793444
 30
0.0
 10
15.0838981375
 20
11.406754962
 30
0.0
 10
15.0833330742
 20
11.4118875011
 30
0.0
 10
15.0822708684
 20
11.4164453653
 30
0.0
 10
15.0811729676
 20
11.4191721548
 30
0.0
 10
15.0805183813
 20
11.4203319707
 30
0.0
  0
SPLINE
  5
360
100
AcDbEntity
  8
0
100
AcDbSpline
 62
7
  6
CONTINUOUS
 70
0
 71
3
 72
11
 73
7
 74
0
 42
0.0000001
 43
0.0000001
 44
0.0000000001
 40
0.0
 40
0.0
 40
0.0
 40
0.0
 40
0.1875427944
 40
0.4283248694
 40
0.706872786
 40
1.0
 40
1.0
 40
1.0
 40
1.0
 10
15.0833005182
 20
11.3624641076
 30
0.0
 10
15.0830800482
 20
11.3627194713
 30
0.0
 10
15.0827108202
 20
11.3634126366
 30
0.0
 10
15.0823542184
 20
11.3646361229
 30
0.0
 10
15.0821570676
 20
11.3660895141
 30
0.0
 10
15.0821434296
 20
11.3671205144
 30
0.0
 10
15.0821692801
 20
11.3676471837
 30
0.0
  0
SPLINE
  5
361
100
AcDbEntity
  8
0
100
AcDbSpline
 62
7
  6
CONTINUOUS
 70
0
 71
3
 72
9
 73
5
 74
0
 42
0.0000001
 43
0.0000001
 44
0.0000000001
 40
0.0
 40
0.0
 40
0.0
 40
0.0
 40
0.2404770283
 40
1.0
 40
1.0
 40
1.0
 40
1.0
 10
15.1265877323
 20
11.3185457265
 30
0.0
 10
15.1228681845
 20
11.3218047401
 30
0.0
 10
15.1076655129
 20
11.3356582459
 30
0.0
 10
15.0935077183
 20
11.3506414206
 30
0.0
 10
15.0833005182
 20
11.3624641076
 30
0.0
  0
SPLINE
  5
362
100
AcDbEntity
  8
0
100
AcDbSpline
 62
7
  6
CONTINUOUS
 70
0
 71
3
 72
37
 73
33
 74
0
 42
0.0000001
 43
0.0000001
 44
0.0000000001
 40
0.0
 40
0.0
 40
0.0
 40
0.0
 40
0.0159726434
 40
0.0328972771
 40
0.0509927654
 40
0.0704218649
 40
0.0912933988
 40
0.1136746514
 40
0.1375943715
 40
0.1630537924
 40
0.1900275333
 40
0.2184717089
 40
0.2483236772
 40
0.279507645
 40
0.3119343561
 40
0.3455047153
 40
0.3801100048
 40
0.4156339665
 40
0.4519537136
 40
0.4889406883
 40
0.564374799
 40
0.6408432511
 40
0.6791166514
 40
0.7172254655
 40
0.7550295534
 40
0.7923911634
 40
0.8291745141
 40
0.8652468071
 40
0.9004810764
 40
0.9347628244
 40
0.9679776358
 40
1.0
 40
1.0
 40
1.0
 40
1.0
 10
15.9004718151
 20
13.8165995996
 30
0.0
 10
15.9119252844
 20
13.8127657692
 30
0.0
 10
15.9349139056
 20
13.8029797748
 30
0.0
 10
15.9680168518
 20
13.7830039585
 30
0.0
 10
16.0004661567
 20
13.7575116009
 30
0.0
 10
16.032126281
 20
13.7266264673
 30
0.0
 10
16.0628935125
 20
13.6904944158
 30
0.0
 10
16.0926417338
 20
13.649264751
 30
0.0
 10
16.1212608797
 20
13.6031166047
 30
0.0
 10
16.1486263645
 20
13.5522413177
 30
0.0
 10
16.1746301266
 20
13.4968578738
 30
0.0
 10
16.1991556318
 20
13.4372005159
 30
0.0
 10
16.2221027074
 20
13.3735267461
 30
0.0
 10
16.2433676927
 20
13.3061094182
 30
0.0
 10
16.2628619955
 20
13.235240378
 30
0.0
 10
16.28049774
 20
13.1612254932
 30
0.0
 10
16.2962003788
 20
13.0843857453
 30
0.0
 10
16.3098995975
 20
13.0050541362
 30
0.0
 10
16.3215370104
 20
12.9235745937
 30
0.0
 10
16.3343172051
 20
12.81181684
 30
0.0
 10
16.3447482562
 20
12.6692932702
 30
0.0
 10
16.3478222055
 20
12.5254532563
 30
0.0
 10
16.3458531635
 20
12.4098778016
 30
0.0
 10
16.3421567167
 20
12.3236022012
 30
0.0
 10
16.3362552876
 20
12.238140752
 30
0.0
 10
16.328177824
 20
12.1538637597
 30
0.0
 10
16.317955564
 20
12.0711388587
 30
0.0
 10
16.3056389833
 20
11.990325918
 30
0.0
 10
16.2912761173
 20
11.9117729843
 30
0.0
 10
16.2749319873
 20
11.8358156434
 30
0.0
 10
16.2566754722
 20
11.7627961233
 30
0.0
 10
16.2430281141
 20
11.7153770877
 30
0.0
 10
16.2358788583
 20
11.6922420876
 30
0.0
  0
SPLINE
  5
363
100
AcDbEntity
  8
0
100
AcDbSpline
 62
7
  6
CONTINUOUS
 70
0
 71
3
 72
11
 73
7
 74
0
 42
0.0000001
 43
0.0000001
 44
0.0000000001
 40
0.0
 40
0.0
 40
0.0
 40
0.0
 40
0.168841118
 40
0.3994587855
 40
0.6837460909
 40
1.0
 40
1.0
 40
1.0
 40
1.0
 10
15.1744176588
 20
11.2834800384
 30
0.0
 10
15.1741809409
 20
11.2836206885
 30
0.0
 10
15.1737477786
 20
11.2841441951
 30
0.0
 10
15.1733140332
 20
11.2851738503
 30
0.0
 10
15.1730143159
 20
11.2865031102
 30
0.0
 10
15.1729286619
 20
11.2874812397
 30
0.0
 10
15.1729143897
 20
11.2879967969
 30
0.0
  0
SPLINE
  5
364
100
AcDbEntity
  8
0
100
AcDbSpline
 62
7
  6
CONTINUOUS
 70
0
 71
3
 72
9
 73
5
 74
0
 42
0.0000001
 43
0.0000001
 44
0.0000000001
 40
0.0
 40
0.0
 40
0.0
 40
0.0
 40
0.4901144942
 40
1.0
 40
1.0
 40
1.0
 40
1.0
 10
15.2202096775
 20
11.2620915119
 30
0.0
 10
15.2123869841
 20
11.2647681956
 30
0.0
 10
15.1967253705
 20
11.271136331
 30
0.0
 10
15.1818123325
 20
11.2790863649
 30
0.0
 10
15.1744176588
 20
11.2834800384
 30
0.0
  0
SPLINE
  5
365
100
AcDbEntity
  8
0
100
AcDbSpline
 62
7
  6
CONTINUOUS
 70
0
 71
3
 72
30
 73
26
 74
0
 42
0.0000001
 43
0.0000001
 44
0.0000000001
 40
0.0
 40
0.0
 40
0.0
 40
0.0
 40
0.0198694906
 40
0.0393511872
 40
0.0586300489
 40
0.0778978005
 40
0.0973467729
 40
0.1171628092
 40
0.1375185593
 40
0.1585705691
 40
0.1804557094
 40
0.2032889425
 40
0.2521378296
 40
0.278317213
 40
0.3057204072
 40
0.3343787544
 40
0.3643088401
 40
0.427990213
 40
0.4967296381
 40
0.5703554469
 40
0.6485990858
 40
0.7311181308
 40
0.8175040872
 40
0.9072982024
 40
1.0
 40
1.0
 40
1.0
 40
1.0
 10
15.8614974125
 20
11.191963866
 30
0.0
 10
15.8543331718
 20
11.1895654443
 30
0.0
 10
15.8398986824
 20
11.1855100305
 30
0.0
 10
15.8178829509
 20
11.1817547174
 30
0.0
 10
15.7958155694
 20
11.1804093213
 30
0.0
 10
15.7737458586
 20
11.1814767673
 30
0.0
 10
15.7517205693
 20
11.1849583281
 30
0.0
 10
15.7297861273
 20
11.19084196
 30
0.0
 10
15.7079843165
 20
11.1991080603
 30
0.0
 10
15.6863567006
 20
11.2097391296
 30
0.0
 10
15.6649409751
 20
11.222711675
 30
0.0
 10
15.6360705569
 20
11.2435559134
 30
0.0
 10
15.608451777
 20
11.2686959346
 30
0.0
 10
15.5821098864
 20
11.2973998739
 30
0.0
 10
15.5622801383
 20
11.3216016794
 30
0.0
 10
15.5428743707
 20
11.347932871
 30
0.0
 10
15.5170696812
 20
11.3866224881
 30
0.0
 10
15.4862251846
 20
11.4401797596
 30
0.0
 10
15.4521511713
 20
11.5107904224
 30
0.0
 10
15.4205191317
 20
11.5885341724
 30
0.0
 10
15.3915495811
 20
11.6728595061
 30
0.0
 10
15.365452554
 20
11.7631736166
 30
0.0
 10
15.3424125755
 20
11.8588348069
 30
0.0
 10
15.3225953547
 20
11.9591601874
 30
0.0
 10
15.3117806426
 20
12.0277226494
 30
0.0
 10
15.3069148521
 20
12.0626335347
 30
0.0
  0
SPLINE
  5
366
100
AcDbEntity
  8
0
100
AcDbSpline
 62
7
  6
CONTINUOUS
 70
0
 71
3
 72
11
 73
7
 74
0
 42
0.0000001
 43
0.0000001
 44
0.0000000001
 40
0.0
 40
0.0
 40
0.0
 40
0.0
 40
0.2638308817
 40
0.5194809736
 40
0.7654056131
 40
1.0
 40
1.0
 40
1.0
 40
1.0
 10
15.3017175782
 20
12.9197718048
 30
0.0
 10
15.3064093091
 20
12.9570526367
 30
0.0
 10
15.3170168758
 20
13.0302948199
 30
0.0
 10
15.3369426497
 20
13.1374985233
 30
0.0
 10
15.3605069817
 20
13.2396950594
 30
0.0
 10
15.3789796535
 20
13.3056246632
 30
0.0
 10
15.3888441701
 20
13.3375462507
 30
0.0
  0
SPLINE
  5
367
100
AcDbEntity
  8
0
100
AcDbSpline
 62
7
  6
CONTINUOUS
 70
0
 71
3
 72
13
 73
9
 74
0
 42
0.0000001
 43
0.0000001
 44
0.0000000001
 40
0.0
 40
0.0
 40
0.0
 40
0.0
 40
0.0736169225
 40
0.1581533364
 40
0.258343381
 40
0.3761002315
 40
0.6621692415
 40
1.0
 40
1.0
 40
1.0
 40
1.0
 10
15.269784567
 20
11.251661379
 30
0.0
 10
15.2696786261
 20
11.251669823
 30
0.0
 10
15.2694541305
 20
11.2517393463
 30
0.0
 10
15.2691515855
 20
11.2519652776
 30
0.0
 10
15.2688714286
 20
11.2523041548
 30
0.0
 10
15.2685107733
 20
11.2529390271
 30
0.0
 10
15.2681698623
 20
11.2539628654
 30
0.0
 10
15.2680187581
 20
11.2548532852
 30
0.0
 10
15.2679670368
 20
11.2553382433
 30
0.0
  0
SPLINE
  5
368
100
AcDbEntity
  8
0
100
AcDbSpline
 62
7
  6
CONTINUOUS
 70
0
 71
3
 72
24
 73
20
 74
0
 42
0.0000001
 43
0.0000001
 44
0.0000000001
 40
0.0
 40
0.0
 40
0.0
 40
0.0
 40
0.0157415805
 40
0.0317955472
 40
0.0658898104
 40
0.1042109796
 40
0.1478512369
 40
0.1973209292
 40
0.2526662859
 40
0.3136540774
 40
0.3798011637
 40
0.4504870797
 40
0.5249470619
 40
0.602340484
 40
0.6817316303
 40
0.7621633958
 40
0.8426950989
 40
0.9223490588
 40
1.0
 40
1.0
 40
1.0
 40
1.0
 10
15.6587059843
 20
11.7277554255
 30
0.0
 10
15.6578847856
 20
11.7277555705
 30
0.0
 10
15.6562233187
 20
11.7278858281
 30
0.0
 10
15.6528656739
 20
11.7286724617
 30
0.0
 10
15.6486569631
 20
11.7307082742
 30
0.0
 10
15.6439426363
 20
11.73457014
 30
0.0
 10
15.6394749074
 20
11.7398081411
 30
0.0
 10
15.6353016415
 20
11.7463545744
 30
0.0
 10
15.6314624383
 20
11.7541205317
 30
0.0
 10
15.6280134922
 20
11.7630043735
 30
0.0
 10
15.6249970697
 20
11.772881937
 30
0.0
 10
15.6224615171
 20
11.783615848
 30
0.0
 10
15.620438832
 20
11.7950534151
 30
0.0
 10
15.6189633661
 20
11.8070314571
 30
0.0
 10
15.6180514252
 20
11.8193775439
 30
0.0
 10
15.6177208145
 20
11.8319164407
 30
0.0
 10
15.617973506
 20
11.8444709677
 30
0.0
 10
15.6188096918
 20
11.8568545252
 30
0.0
 10
15.6197584382
 20
11.8650098308
 30
0.0
 10
15.6203332058
 20
11.8690197014
 30
0.0
  0
SPLINE
  5
369
100
AcDbEntity
  8
0
100
AcDbSpline
 62
7
  6
CONTINUOUS
 70
0
 71
3
 72
14
 73
10
 74
0
 42
0.0000001
 43
0.0000001
 44
0.0000000001
 40
0.0
 40
0.0
 40
0.0
 40
0.0
 40
0.1070937979
 40
0.2167969536
 40
0.330633932
 40
0.4499353215
 40
0.7088514553
 40
0.8502198297
 40
1.0
 40
1.0
 40
1.0
 40
1.0
 10
15.8233224842
 20
11.6684250012
 30
0.0
 10
15.8173755318
 20
11.6688776858
 30
0.0
 10
15.8053858153
 20
11.6706378913
 30
0.0
 10
15.7876419549
 20
11.6757388562
 30
0.0
 10
15.7700563441
 20
11.6832978722
 30
0.0
 10
15.7462536198
 20
11.6969759719
 30
0.0
 10
15.7236243692
 20
11.7153354757
 30
0.0
 10
15.7023107668
 20
11.7373550183
 30
0.0
 10
15.6919067207
 20
11.7498154046
 30
0.0
 10
15.6867676985
 20
11.7563857498
 30
0.0
  0
SPLINE
  5
36A
100
AcDbEntity
  8
0
100
AcDbSpline
 62
7
  6
CONTINUOUS
 70
0
 71
3
 72
34
 73
30
 74
0
 42
0.0000001
 43
0.0000001
 44
0.0000000001
 40
0.0
 40
0.0
 40
0.0
 40
0.0
 40
0.0347957442
 40
0.0540711747
 40
0.074717724
 40
0.0967895301
 40
0.1203125753
 40
0.1452843939
 40
0.1716840531
 40
0.1994707068
 40
0.2285898277
 40
0.2589737073
 40
0.2905431156
 40
0.3232106223
 40
0.356878849
 40
0.3914453215
 40
0.4267997346
 40
0.4628281194
 40
0.4994113671
 40
0.5737454319
 40
0.6488040755
 40
0.7235652734
 40
0.7970159411
 40
0.8329436471
 40
0.868176729
 40
0.9026038325
 40
0.9361222656
 40
0.9686259637
 40
1.0
 40
1.0
 40
1.0
 40
1.0
 10
14.9357746597
 20
11.4258666866
 30
0.0
 10
14.9167777109
 20
11.4364110799
 30
0.0
 10
14.8894682723
 20
11.4569165062
 30
0.0
 10
14.8565769687
 20
11.4900301848
 30
0.0
 10
14.8317528534
 20
11.5198027252
 30
0.0
 10
14.8077343937
 20
11.5535156919
 30
0.0
 10
14.7846026135
 20
11.5910537154
 30
0.0
 10
14.7624426554
 20
11.6322626238
 30
0.0
 10
14.7413456524
 20
11.6769845776
 30
0.0
 10
14.7213899827
 20
11.7250408511
 30
0.0
 10
14.7026575781
 20
11.7762423081
 30
0.0
 10
14.6852225063
 20
11.8303850463
 30
0.0
 10
14.6691531416
 20
11.8872532711
 30
0.0
 10
14.654517294
 20
11.9466204264
 30
0.0
 10
14.6413691826
 20
12.0082486237
 30
0.0
 10
14.6297671191
 20
12.071891931
 30
0.0
 10
14.619752482
 20
12.1372948415
 30
0.0
 10
14.6113701537
 20
12.2041962263
 30
0.0
 10
14.6023643181
 20
12.2955176634
 30
0.0
 10
14.5954331018
 20
12.4114913782
 30
0.0
 10
14.5939936805
 20
12.551505149
 30
0.0
 10
14.5994140814
 20
12.6908698036
 30
0.0
 10
14.6096473733
 20
12.8054499822
 30
0.0
 10
14.6212637613
 20
12.895007238
 30
0.0
 10
14.6315367557
 20
12.9601421497
 30
0.0
 10
14.6433934358
 20
13.0234777023
 30
0.0
 10
14.6567868145
 20
13.0847639684
 30
0.0
 10
14.6716623057
 20
13.1437432578
 30
0.0
 10
14.6827263011
 20
13.1820748356
 30
0.0
 10
14.6885103602
 20
13.2007920577
 30
0.0
  0
SPLINE
  5
36B
100
AcDbEntity
  8
0
100
AcDbSpline
 62
7
  6
CONTINUOUS
 70
0
 71
3
 72
13
 73
9
 74
0
 42
0.0000001
 43
0.0000001
 44
0.0000000001
 40
0.0
 40
0.0
 40
0.0
 40
0.0
 40
0.0785736473
 40
0.164872045
 40
0.2643412551
 40
0.3798239867
 40
0.6610555871
 40
1.0
 40
1.0
 40
1.0
 40
1.0
 10
14.8464334616
 20
11.9526082017
 30
0.0
 10
14.8463418123
 20
11.9526084708
 30
0.0
 10
14.8461483634
 20
11.9526450165
 30
0.0
 10
14.8458764338
 20
11.9527989124
 30
0.0
 10
14.8456215771
 20
11.9530447468
 30
0.0
 10
14.8452834704
 20
11.9535172679
 30
0.0
 10
14.8449390176
 20
11.9543117312
 30
0.0
 10
14.8447601038
 20
11.9550145552
 30
0.0
 10
14.8446858271
 20
11.9554028656
 30
0.0
  0
SPLINE
  5
36C
100
AcDbEntity
  8
0
100
AcDbSpline
 62
7
  6
CONTINUOUS
 70
0
 71
3
 72
11
 73
7
 74
0
 42
0.0000001
 43
0.0000001
 44
0.0000000001
 40
0.0
 40
0.0
 40
0.0
 40
0.0
 40
0.1751324266
 40
0.3913535789
 40
0.6672378329
 40
1.0
 40
1.0
 40
1.0
 40
1.0
 10
14.8968878725
 20
11.7435229522
 30
0.0
 10
14.8967339042
 20
11.7435223538
 30
0.0
 10
14.8963884574
 20
11.7436386592
 30
0.0
 10
14.8959698948
 20
11.7440656934
 30
0.0
 10
14.8956085252
 20
11.744699366
 30
0.0
 10
14.895424796
 20
11.7452043709
 30
0.0
 10
14.8953412871
 20
11.74548475
 30
0.0
  0
SPLINE
  5
36D
100
AcDbEntity
  8
0
100
AcDbSpline
 62
7
  6
CONTINUOUS
 70
0
 71
3
 72
10
 73
6
 74
0
 42
0.0000001
 43
0.0000001
 44
0.0000000001
 40
0.0
 40
0.0
 40
0.0
 40
0.0
 40
0.1911630957
 40
0.5395645366
 40
1.0
 40
1.0
 40
1.0
 40
1.0
 10
14.9622573647
 20
11.5637312754
 30
0.0
 10
14.9621378856
 20
11.5637312413
 30
0.0
 10
14.9617982269
 20
11.563818007
 30
0.0
 10
14.9613311605
 20
11.5642682316
 30
0.0
 10
14.9610877451
 20
11.5647143127
 30
0.0
 10
14.9609712631
 20
11.5649774622
 30
0.0
  0
SPLINE
  5
36E
100
AcDbEntity
  8
0
100
AcDbSpline
 62
7
  6
CONTINUOUS
 70
0
 71
3
 72
11
 73
7
 74
0
 42
0.0000001
 43
0.0000001
 44
0.0000000001
 40
0.0
 40
0.0
 40
0.0
 40
0.0
 40
0.2101729162
 40
0.4396181373
 40
0.7007641671
 40
1.0
 40
1.0
 40
1.0
 40
1.0
 10
15.0400298169
 20
11.420143805
 30
0.0
 10
15.0399435721
 20
11.4201438514
 30
0.0
 10
15.0397620593
 20
11.420176442
 30
0.0
 10
15.0395059507
 20
11.4203147513
 30
0.0
 10
15.0392633377
 20
11.4205329827
 30
0.0
 10
15.0391221247
 20
11.4207158813
 30
0.0
 10
15.0390536321
 20
11.420817796
 30
0.0
  0
SPLINE
  5
36F
100
AcDbEntity
  8
0
100
AcDbSpline
 62
7
  6
CONTINUOUS
 70
0
 71
3
 72
12
 73
8
 74
0
 42
0.0000001
 43
0.0000001
 44
0.0000000001
 40
0.0
 40
0.0
 40
0.0
 40
0.0
 40
0.3350818775
 40
0.6217772128
 40
0.7407983182
 40
0.8425152826
 40
1.0
 40
1.0
 40
1.0
 40
1.0
 10
15.2519166763
 20
13.7641571372
 30
0.0
 10
15.2519623813
 20
13.7646485069
 30
0.0
 10
15.2521036944
 20
13.7655560579
 30
0.0
 10
15.2524302445
 20
13.766604112
 30
0.0
 10
15.2527835858
 20
13.7672674954
 30
0.0
 10
15.253117195
 20
13.7677100999
 30
0.0
 10
15.2534573247
 20
13.7679477334
 30
0.0
 10
15.2536861924
 20
13.7679853296
 30
0.0
  0
SPLINE
  5
370
100
AcDbEntity
  8
0
100
AcDbSpline
 62
7
  6
CONTINUOUS
 70
0
 71
3
 72
9
 73
5
 74
0
 42
0.0000001
 43
0.0000001
 44
0.0000000001
 40
0.0
 40
0.0
 40
0.0
 40
0.0
 40
0.5109403582
 40
1.0
 40
1.0
 40
1.0
 40
1.0
 10
15.1587777635
 20
13.7281394501
 30
0.0
 10
15.1661008222
 20
13.7331466982
 30
0.0
 10
15.1808677977
 20
13.7423310386
 30
0.0
 10
15.1964663032
 20
13.7500350129
 30
0.0
 10
15.204271475
 20
13.7533790834
 30
0.0
  0
SPLINE
  5
371
100
AcDbEntity
  8
0
100
AcDbSpline
 62
7
  6
CONTINUOUS
 70
0
 71
3
 72
11
 73
7
 74
0
 42
0.0000001
 43
0.0000001
 44
0.0000000001
 40
0.0
 40
0.0
 40
0.0
 40
0.0
 40
0.312323951
 40
0.5957688084
 40
0.8282446189
 40
1.0
 40
1.0
 40
1.0
 40
1.0
 10
15.1573330828
 20
13.7234983253
 30
0.0
 10
15.1573407869
 20
13.7240171334
 30
0.0
 10
15.1574148923
 20
13.7250066165
 30
0.0
 10
15.1576979926
 20
13.726360105
 30
0.0
 10
15.1581201199
 20
13.7274240401
 30
0.0
 10
15.1585422231
 20
13.7279783958
 30
0.0
 10
15.1587777635
 20
13.7281394501
 30
0.0
  0
SPLINE
  5
372
100
AcDbEntity
  8
0
100
AcDbSpline
 62
7
  6
CONTINUOUS
 70
0
 71
3
 72
9
 73
5
 74
0
 42
0.0000001
 43
0.0000001
 44
0.0000000001
 40
0.0
 40
0.0
 40
0.0
 40
0.0
 40
0.5128376704
 40
1.0
 40
1.0
 40
1.0
 40
1.0
 10
15.0687201348
 20
13.64151209
 30
0.0
 10
15.0755105455
 20
13.6500772812
 30
0.0
 10
15.089229083
 20
13.6664076266
 30
0.0
 10
15.1039747929
 20
13.681823151
 30
0.0
 10
15.1114221982
 20
13.6890581345
 30
0.0
  0
SPLINE
  5
373
100
AcDbEntity
  8
0
100
AcDbSpline
 62
7
  6
CONTINUOUS
 70
0
 71
3
 72
11
 73
7
 74
0
 42
0.0000001
 43
0.0000001
 44
0.0000000001
 40
0.0
 40
0.0
 40
0.0
 40
0.0
 40
0.289380946
 40
0.566861131
 40
0.8091593696
 40
1.0
 40
1.0
 40
1.0
 40
1.0
 10
15.0676558075
 20
13.6362363888
 30
0.0
 10
15.0676230884
 20
13.6367629351
 30
0.0
 10
15.0676240965
 20
13.6377991311
 30
0.0
 10
15.0678033626
 20
13.639268318
 30
0.0
 10
15.0681453548
 20
13.6405209087
 30
0.0
 10
15.0685039939
 20
13.6412394573
 30
0.0
 10
15.0687201348
 20
13.64151209
 30
0.0
  0
SPLINE
  5
374
100
AcDbEntity
  8
0
100
AcDbSpline
 62
7
  6
CONTINUOUS
 70
0
 71
3
 72
13
 73
9
 74
0
 42
0.0000001
 43
0.0000001
 44
0.0000000001
 40
0.0
 40
0.0
 40
0.0
 40
0.0
 40
0.0915201895
 40
0.1962847875
 40
0.3129415475
 40
0.4396725011
 40
0.7144403742
 40
1.0
 40
1.0
 40
1.0
 40
1.0
 10
15.0658339999
 20
13.5820416661
 30
0.0
 10
15.0662070132
 20
13.5825740715
 30
0.0
 10
15.0669047834
 20
13.5837879657
 30
0.0
 10
15.0677714018
 20
13.5858388642
 30
0.0
 10
15.0685071417
 20
13.5882034689
 30
0.0
 10
15.0693147509
 20
13.5917974153
 30
0.0
 10
15.0698748424
 20
13.596659782
 30
0.0
 10
15.0698671198
 20
13.6006499165
 30
0.0
 10
15.0697413228
 20
13.6026743567
 30
0.0
  0
SPLINE
  5
375
100
AcDbEntity
  8
0
100
AcDbSpline
 62
7
  6
CONTINUOUS
 70
0
 71
3
 72
11
 73
7
 74
0
 42
0.0000001
 43
0.0000001
 44
0.0000000001
 40
0.0
 40
0.0
 40
0.0
 40
0.0
 40
0.3030096687
 40
0.5654288997
 40
0.7933257282
 40
1.0
 40
1.0
 40
1.0
 40
1.0
 10
15.0252435693
 20
13.5794575781
 30
0.0
 10
15.0253147543
 20
13.5795716797
 30
0.0
 10
15.0254618786
 20
13.5797764812
 30
0.0
 10
15.0257172153
 20
13.5800224504
 30
0.0
 10
15.0259886378
 20
13.5801792509
 30
0.0
 10
15.0261828373
 20
13.5802162491
 30
0.0
 10
15.0262745663
 20
13.5802162707
 30
0.0
  0
SPLINE
  5
376
100
AcDbEntity
  8
0
100
AcDbSpline
 62
7
  6
CONTINUOUS
 70
0
 71
3
 72
9
 73
5
 74
0
 42
0.0000001
 43
0.0000001
 44
0.0000000001
 40
0.0
 40
0.0
 40
0.0
 40
0.0
 40
0.5110415868
 40
1.0
 40
1.0
 40
1.0
 40
1.0
 10
14.9869741702
 20
13.5114322903
 30
0.0
 10
14.9930082199
 20
13.5232835178
 30
0.0
 10
15.0052673452
 20
13.5462474176
 30
0.0
 10
15.0185084788
 20
13.5686619744
 30
0.0
 10
15.0252435693
 20
13.5794575781
 30
0.0
  0
SPLINE
  5
377
100
AcDbEntity
  8
0
100
AcDbSpline
 62
7
  6
CONTINUOUS
 70
0
 71
3
 72
11
 73
7
 74
0
 42
0.0000001
 43
0.0000001
 44
0.0000000001
 40
0.0
 40
0.0
 40
0.0
 40
0.0
 40
0.2678607316
 40
0.5387471211
 40
0.7893478694
 40
1.0
 40
1.0
 40
1.0
 40
1.0
 10
14.9863310979
 20
13.5057247549
 30
0.0
 10
14.9862570246
 20
13.506238527
 30
0.0
 10
14.9861806538
 20
13.5072829897
 30
0.0
 10
14.9862497513
 20
13.5088150331
 30
0.0
 10
14.9864963163
 20
13.5102155949
 30
0.0
 10
14.9867889504
 20
13.5110685079
 30
0.0
 10
14.9869741702
 20
13.5114322903
 30
0.0
  0
SPLINE
  5
378
100
AcDbEntity
  8
0
100
AcDbSpline
 62
7
  6
CONTINUOUS
 70
0
 71
3
 72
12
 73
8
 74
0
 42
0.0000001
 43
0.0000001
 44
0.0000000001
 40
0.0
 40
0.0
 40
0.0
 40
0.0
 40
0.1021367589
 40
0.2153467627
 40
0.4663489548
 40
0.7348719072
 40
1.0
 40
1.0
 40
1.0
 40
1.0
 10
14.9886615637
 20
13.4516586816
 30
0.0
 10
14.9889818795
 20
13.452356654
 30
0.0
 10
14.9895668104
 20
13.4538703136
 30
0.0
 10
14.9905287124
 20
13.4572457153
 30
0.0
 10
14.9912870478
 20
13.4619599952
 30
0.0
 10
14.9915178771
 20
13.4678662537
 30
0.0
 10
14.9912107779
 20
13.4718793176
 30
0.0
 10
14.990926307
 20
13.4738524067
 30
0.0
  0
SPLINE
  5
379
100
AcDbEntity
  8
0
100
AcDbSpline
 62
7
  6
CONTINUOUS
 70
0
 71
3
 72
12
 73
8
 74
0
 42
0.0000001
 43
0.0000001
 44
0.0000000001
 40
0.0
 40
0.0
 40
0.0
 40
0.0
 40
0.321557665
 40
0.5289145233
 40
0.7071360347
 40
0.8606949124
 40
1.0
 40
1.0
 40
1.0
 40
1.0
 10
14.9490473846
 20
13.4287893022
 30
0.0
 10
14.9491295236
 20
13.42898753
 30
0.0
 10
14.9492851163
 20
13.4293063386
 30
0.0
 10
14.9495573401
 20
13.4296938116
 30
0.0
 10
14.9498154945
 20
13.4299483225
 30
0.0
 10
14.9500911099
 20
13.4301082212
 30
0.0
 10
14.9502878551
 20
13.4301460303
 30
0.0
 10
14.9503808118
 20
13.4301459718
 30
0.0
  0
SPLINE
  5
37A
100
AcDbEntity
  8
0
100
AcDbSpline
 62
7
  6
CONTINUOUS
 70
0
 71
3
 72
9
 73
5
 74
0
 42
0.0000001
 43
0.0000001
 44
0.0000000001
 40
0.0
 40
0.0
 40
0.0
 40
0.0
 40
0.2563698601
 40
1.0
 40
1.0
 40
1.0
 40
1.0
 10
14.9166813214
 20
13.3428989448
 30
0.0
 10
14.9192237055
 20
13.3503199774
 30
0.0
 10
14.9293511368
 20
13.3791936752
 30
0.0
 10
14.9403371576
 20
13.4077687321
 30
0.0
 10
14.9490473846
 20
13.4287893022
 30
0.0
  0
SPLINE
  5
37B
100
AcDbEntity
  8
0
100
AcDbSpline
 62
7
  6
CONTINUOUS
 70
0
 71
3
 72
11
 73
7
 74
0
 42
0.0000001
 43
0.0000001
 44
0.0000000001
 40
0.0
 40
0.0
 40
0.0
 40
0.0
 40
0.2475176118
 40
0.5116248878
 40
0.7696581249
 40
1.0
 40
1.0
 40
1.0
 40
1.0
 10
14.916484217
 20
13.3369789124
 30
0.0
 10
14.9163692886
 20
13.3374592717
 30
0.0
 10
14.9162147036
 20
13.3384724814
 30
0.0
 10
14.9161708636
 20
13.3400112075
 30
0.0
 10
14.9163115607
 20
13.3415095628
 30
0.0
 10
14.9165323514
 20
13.3424641122
 30
0.0
 10
14.9166813214
 20
13.3428989448
 30
0.0
  0
SPLINE
  5
37C
100
AcDbEntity
  8
0
100
AcDbSpline
 62
7
  6
CONTINUOUS
 70
0
 71
3
 72
11
 73
7
 74
0
 42
0.0000001
 43
0.0000001
 44
0.0000000001
 40
0.0
 40
0.0
 40
0.0
 40
0.0
 40
0.2341220527
 40
0.4921672265
 40
0.7542704039
 40
1.0
 40
1.0
 40
1.0
 40
1.0
 10
14.9228773978
 20
13.2851192175
 30
0.0
 10
14.9234103491
 20
13.2868438484
 30
0.0
 10
14.9241980385
 20
13.2905734048
 30
0.0
 10
14.9246675842
 20
13.2963821593
 30
0.0
 10
14.9244612829
 20
13.3022959446
 30
0.0
 10
14.9238533782
 20
13.3061784927
 30
0.0
 10
14.9234125285
 20
13.3080210846
 30
0.0
  0
SPLINE
  5
37D
100
AcDbEntity
  8
0
100
AcDbSpline
 62
7
  6
CONTINUOUS
 70
0
 71
3
 72
11
 73
7
 74
0
 42
0.0000001
 43
0.0000001
 44
0.0000000001
 40
0.0
 40
0.0
 40
0.0
 40
0.0
 40
0.3343765225
 40
0.6113474801
 40
0.8270926549
 40
1.0
 40
1.0
 40
1.0
 40
1.0
 10
14.8857618208
 20
13.242843404
 30
0.0
 10
14.885844648
 20
13.2431412852
 30
0.0
 10
14.8860287892
 20
13.2436783267
 30
0.0
 10
14.8863968455
 20
13.2443536086
 30
0.0
 10
14.8868261549
 20
13.2448113106
 30
0.0
 10
14.8871865472
 20
13.2449375903
 30
0.0
 10
14.8873464255
 20
13.2449370651
 30
0.0
  0
LINE
  5
37E
100
AcDbEntity
  8
0
100
AcDbLine
 62
7
  6
CONTINUOUS
 10
14.8769443193
 20
13.2100471817
 11
14.8778186403
 21
13.2134001387
  0
SPLINE
  5
37F
100
AcDbEntity
  8
0
100
AcDbSpline
 62
7
  6
CONTINUOUS
 70
0
 71
3
 72
11
 73
7
 74
0
 42
0.0000001
 43
0.0000001
 44
0.0000000001
 40
0.0
 40
0.0
 40
0.0
 40
0.0
 40
0.2277606684
 40
0.4848508142
 40
0.7498584089
 40
1.0
 40
1.0
 40
1.0
 40
1.0
 10
14.8607993413
 20
13.1364836696
 30
0.0
 10
14.8606454055
 20
13.1369103091
 30
0.0
 10
14.8604148771
 20
13.1378535349
 30
0.0
 10
14.8602598554
 20
13.1393421195
 30
0.0
 10
14.8602888736
 20
13.1408832247
 30
0.0
 10
14.8604332592
 20
13.1419027819
 30
0.0
 10
14.8605429031
 20
13.1423886953
 30
0.0
  0
SPLINE
  5
380
100
AcDbEntity
  8
0
100
AcDbSpline
 62
7
  6
CONTINUOUS
 70
0
 71
3
 72
12
 73
8
 74
0
 42
0.0000001
 43
0.0000001
 44
0.0000000001
 40
0.0
 40
0.0
 40
0.0
 40
0.0
 40
0.2531731724
 40
0.5177701899
 40
0.7731095992
 40
0.8913217848
 40
1.0
 40
1.0
 40
1.0
 40
1.0
 10
14.8710095507
 20
13.088823292
 30
0.0
 10
14.8713900941
 20
13.0907260598
 30
0.0
 10
14.8718813975
 20
13.0946776292
 30
0.0
 10
14.8719170933
 20
13.1006139778
 30
0.0
 10
14.8713772396
 20
13.1054905666
 30
0.0
 10
14.8705841104
 20
13.1091032918
 30
0.0
 10
14.8700772073
 20
13.1107696713
 30
0.0
 10
14.869794504
 20
13.1115531953
 30
0.0
  0
SPLINE
  5
381
100
AcDbEntity
  8
0
100
AcDbSpline
 62
7
  6
CONTINUOUS
 70
0
 71
3
 72
9
 73
5
 74
0
 42
0.0000001
 43
0.0000001
 44
0.0000000001
 40
0.0
 40
0.0
 40
0.0
 40
0.0
 40
0.4662452725
 40
1.0
 40
1.0
 40
1.0
 40
1.0
 10
14.858752951
 20
13.0315349698
 30
0.0
 10
14.8592320194
 20
13.0325009043
 30
0.0
 10
14.8600664294
 20
13.0346685292
 30
0.0
 10
14.860628413
 20
13.0369162187
 30
0.0
 10
14.8608704784
 20
13.0381265779
 30
0.0
  0
SPLINE
  5
382
100
AcDbEntity
  8
0
100
AcDbSpline
 62
7
  6
CONTINUOUS
 70
0
 71
3
 72
17
 73
13
 74
0
 42
0.0000001
 43
0.0000001
 44
0.0000000001
 40
0.0
 40
0.0
 40
0.0
 40
0.0
 40
0.0510958534
 40
0.1025294753
 40
0.1546305172
 40
0.2077119574
 40
0.3178816731
 40
0.4351511012
 40
0.5610700352
 40
0.6967565964
 40
0.8429304989
 40
1.0
 40
1.0
 40
1.0
 40
1.0
 10
15.8330352024
 20
11.3835562923
 30
0.0
 10
15.8380825904
 20
11.3835560184
 30
0.0
 10
15.8482164727
 20
11.3840050823
 30
0.0
 10
15.8633754991
 20
11.3860268268
 30
0.0
 10
15.8784957507
 20
11.3893928601
 30
0.0
 10
15.8988224542
 20
11.3957384311
 30
0.0
 10
15.9241821462
 20
11.407201402
 30
0.0
 10
15.9536868844
 20
11.4260396728
 30
0.0
 10
15.9825464446
 20
11.450001854
 30
0.0
 10
16.0106385725
 20
11.4789639472
 30
0.0
 10
16.0378590536
 20
11.5127792924
 30
0.0
 10
16.0547369507
 20
11.5375659807
 30
0.0
 10
16.0630360784
 20
11.5506756381
 30
0.0
  0
SPLINE
  5
383
100
AcDbEntity
  8
0
100
AcDbSpline
 62
7
  6
CONTINUOUS
 70
0
 71
3
 72
11
 73
7
 74
0
 42
0.0000001
 43
0.0000001
 44
0.0000000001
 40
0.0
 40
0.0
 40
0.0
 40
0.0
 40
0.231743884
 40
0.4760344561
 40
0.7323827713
 40
1.0
 40
1.0
 40
1.0
 40
1.0
 10
16.0966334783
 20
11.6094196433
 30
0.0
 10
16.104328643
 20
11.6242592078
 30
0.0
 10
16.1192881052
 20
11.6551866138
 30
0.0
 10
16.1399598905
 20
11.7038214198
 30
0.0
 10
16.1593782874
 20
11.7557405534
 30
0.0
 10
16.1711942745
 20
11.791651983
 30
0.0
 10
16.1768936461
 20
11.8100951562
 30
0.0
  0
SPLINE
  5
384
100
AcDbEntity
  8
0
100
AcDbSpline
 62
7
  6
CONTINUOUS
 70
0
 71
3
 72
37
 73
33
 74
0
 42
0.0000001
 43
0.0000001
 44
0.0000000001
 40
0.0
 40
0.0
 40
0.0
 40
0.0
 40
0.0320223642
 40
0.0652371756
 40
0.0995189236
 40
0.1347531929
 40
0.1708254859
 40
0.2076088366
 40
0.2449704466
 40
0.2827745345
 40
0.3208833486
 40
0.3591567489
 40
0.435625201
 40
0.5110593117
 40
0.5480462864
 40
0.5843660335
 40
0.6198899952
 40
0.6544952847
 40
0.6880656439
 40
0.720492355
 40
0.7516763228
 40
0.7815282911
 40
0.8099724667
 40
0.8369462076
 40
0.8624056285
 40
0.8863253486
 40
0.9087066012
 40
0.9295781351
 40
0.9490072346
 40
0.9671027229
 40
0.9840273566
 40
1.0
 40
1.0
 40
1.0
 40
1.0
 10
14.8257452682
 20
13.3293678982
 30
0.0
 10
14.8185960125
 20
13.3062328981
 30
0.0
 10
14.8049486544
 20
13.2588138626
 30
0.0
 10
14.7866921392
 20
13.1857943424
 30
0.0
 10
14.7703480093
 20
13.1098370015
 30
0.0
 10
14.7559851433
 20
13.0312840678
 30
0.0
 10
14.7436685626
 20
12.9504711271
 30
0.0
 10
14.7334463025
 20
12.8677462261
 30
0.0
 10
14.725368839
 20
12.7834692338
 30
0.0
 10
14.7194674098
 20
12.6980077846
 30
0.0
 10
14.7157709631
 20
12.6117321842
 30
0.0
 10
14.7138019211
 20
12.4961567295
 30
0.0
 10
14.7168758703
 20
12.3523167156
 30
0.0
 10
14.7273069214
 20
12.2097931458
 30
0.0
 10
14.7400871162
 20
12.0980353921
 30
0.0
 10
14.7517245291
 20
12.0165558496
 30
0.0
 10
14.7654237477
 20
11.9372242405
 30
0.0
 10
14.7811263866
 20
11.8603844926
 30
0.0
 10
14.798762131
 20
11.7863696079
 30
0.0
 10
14.8182564339
 20
11.7155005676
 30
0.0
 10
14.8395214192
 20
11.6480832397
 30
0.0
 10
14.8624684948
 20
11.5844094699
 30
0.0
 10
14.886994
 20
11.524752112
 30
0.0
 10
14.9129977621
 20
11.4693686682
 30
0.0
 10
14.9403632469
 20
11.4184933811
 30
0.0
 10
14.9689823928
 20
11.3723452348
 30
0.0
 10
14.9987306141
 20
11.33111557
 30
0.0
 10
15.0294978455
 20
11.2949835185
 30
0.0
 10
15.0611579698
 20
11.2640983849
 30
0.0
 10
15.0936072747
 20
11.2386060273
 30
0.0
 10
15.126710221
 20
11.2186302111
 30
0.0
 10
15.1496988422
 20
11.2088442166
 30
0.0
 10
15.1611523115
 20
11.2050103862
 30
0.0
  0
SPLINE
  5
385
100
AcDbEntity
  8
0
100
AcDbSpline
 62
7
  6
CONTINUOUS
 70
0
 71
3
 72
15
 73
11
 74
0
 42
0.0000001
 43
0.0000001
 44
0.0000000001
 40
0.0
 40
0.0
 40
0.0
 40
0.0
 40
0.1423818131
 40
0.2766983172
 40
0.4041633037
 40
0.5263011224
 40
0.6449100092
 40
0.7619980484
 40
0.879671497
 40
1.0
 40
1.0
 40
1.0
 40
1.0
 10
15.4328309096
 20
13.7708527991
 30
0.0
 10
15.4238007009
 20
13.7786860413
 30
0.0
 10
15.4055507829
 20
13.7931315412
 30
0.0
 10
15.3768341441
 20
13.8113351645
 30
0.0
 10
15.3477019777
 20
13.8253222773
 30
0.0
 10
15.3182508116
 20
13.8350243334
 30
0.0
 10
15.2885852285
 20
13.8403856524
 30
0.0
 10
15.2588244286
 20
13.8413612112
 30
0.0
 10
15.2291047187
 20
13.8379556664
 30
0.0
 10
15.2097068039
 20
13.8328533118
 30
0.0
 10
15.200126714
 20
13.8296461198
 30
0.0
  0
SPLINE
  5
386
100
AcDbEntity
  8
0
100
AcDbSpline
 62
7
  6
CONTINUOUS
 70
0
 71
3
 72
21
 73
17
 74
0
 42
0.0000001
 43
0.0000001
 44
0.0000000001
 40
0.0
 40
0.0
 40
0.0
 40
0.0
 40
0.1650119243
 40
0.3190609017
 40
0.3917206893
 40
0.4613851768
 40
0.5280178022
 40
0.5916035616
 40
0.6521491999
 40
0.7096981175
 40
0.7643346436
 40
0.8161806919
 40
0.8654111456
 40
0.9122556523
 40
0.9570006572
 40
1.0
 40
1.0
 40
1.0
 40
1.0
 10
16.2358788583
 20
11.6922420876
 30
0.0
 10
16.2259622623
 20
11.6601519709
 30
0.0
 10
16.2051124989
 20
11.5986028725
 30
0.0
 10
16.174815853
 20
11.5247777281
 30
0.0
 10
16.1488245373
 20
11.4703237288
 30
0.0
 10
16.1289839517
 20
11.4326886552
 30
0.0
 10
16.108459213
 20
11.3975439164
 30
0.0
 10
16.0872995374
 20
11.3649676163
 30
0.0
 10
16.0655497183
 20
11.3350367251
 30
0.0
 10
16.0432575227
 20
11.3078207828
 30
0.0
 10
16.0204748064
 20
11.2833793141
 30
0.0
 10
15.9972464366
 20
11.2617718052
 30
0.0
 10
15.9736230328
 20
11.2430491303
 30
0.0
 10
15.9496546139
 20
11.2272547841
 30
0.0
 10
15.9253929994
 20
11.2144384532
 30
0.0
 10
15.9087714007
 20
11.2077887118
 30
0.0
 10
15.9004718242
 20
11.2050102061
 30
0.0
  0
SPLINE
  5
387
100
AcDbEntity
  8
0
100
AcDbSpline
 62
7
  6
CONTINUOUS
 70
0
 71
3
 72
28
 73
24
 74
0
 42
0.0000001
 43
0.0000001
 44
0.0000000001
 40
0.0
 40
0.0
 40
0.0
 40
0.0
 40
0.091271936
 40
0.1786697174
 40
0.2619252374
 40
0.3408773477
 40
0.4154264594
 40
0.485522704
 40
0.5511742192
 40
0.6124813429
 40
0.6696466428
 40
0.6967827102
 40
0.7230181718
 40
0.773023007
 40
0.8203127957
 40
0.8431989375
 40
0.8657158716
 40
0.8879837512
 40
0.9101277932
 40
0.9322754478
 40
0.9545542791
 40
0.977089366
 40
1.0
 40
1.0
 40
1.0
 40
1.0
 10
15.3888441701
 20
13.3375462507
 30
0.0
 10
15.3956081523
 20
13.359434505
 30
0.0
 10
15.409633216
 20
13.4020454793
 30
0.0
 10
15.4326929756
 20
13.4636327715
 30
0.0
 10
15.4572492275
 20
13.5212963
 30
0.0
 10
15.4831921952
 20
13.5747904614
 30
0.0
 10
15.5104224983
 20
13.6239015399
 30
0.0
 10
15.5388275385
 20
13.6684366755
 30
0.0
 10
15.568302542
 20
13.7082143984
 30
0.0
 10
15.5987302115
 20
13.7430714223
 30
0.0
 10
15.6252392413
 20
13.7683281945
 30
0.0
 10
15.6468174217
 20
13.7857903484
 30
0.0
 10
15.6678908037
 20
13.8009492184
 30
0.0
 10
15.6946561847
 20
13.8167769113
 30
0.0
 10
15.7225914438
 20
13.8284647361
 30
0.0
 10
15.7449637244
 20
13.8349266817
 30
0.0
 10
15.7616208552
 20
13.8383449852
 30
0.0
 10
15.7783151483
 20
13.8403807089
 30
0.0
 10
15.7950281235
 20
13.841033504
 30
0.0
 10
15.8117405207
 20
13.8403024038
 30
0.0
 10
15.8284335011
 20
13.8381867434
 30
0.0
 10
15.8450864735
 20
13.8346888508
 30
0.0
 10
15.8560441569
 20
13.8314713081
 30
0.0
 10
15.8614974033
 20
13.8296459379
 30
0.0
  0
LINE
  5
388
100
AcDbEntity
  8
0
100
AcDbLine
 62
7
  6
CONTINUOUS
 10
15.6297845113
 20
11.7596731161
 11
15.6867668943
 21
11.7563838012
  0
SPLINE
  5
389
100
AcDbEntity
  8
0
100
AcDbSpline
 62
7
  6
CONTINUOUS
 70
0
 71
3
 72
18
 73
14
 74
0
 42
0.0000001
 43
0.0000001
 44
0.0000000001
 40
0.0
 40
0.0
 40
0.0
 40
0.0
 40
0.1600535922
 40
0.3106920599
 40
0.4512151152
 40
0.5812806847
 40
0.6423616304
 40
0.7008061362
 40
0.7566455986
 40
0.8099447566
 40
0.8607950049
 40
0.909318138
 40
1.0
 40
1.0
 40
1.0
 40
1.0
 10
14.6885103602
 20
13.2007920577
 30
0.0
 10
14.6960420983
 20
13.2251647712
 30
0.0
 10
14.7118155065
 20
13.2721325939
 30
0.0
 10
14.7384869421
 20
13.3389649756
 30
0.0
 10
14.7673034622
 20
13.3996573064
 30
0.0
 10
14.7934513005
 20
13.4456733398
 30
0.0
 10
14.8153586394
 20
13.4788932974
 30
0.0
 10
14.8318414613
 20
13.5014805514
 30
0.0
 10
14.8486936544
 20
13.5222203716
 30
0.0
 10
14.8658819279
 20
13.5410754402
 30
0.0
 10
14.8833802416
 20
13.5580145072
 30
0.0
 10
14.9065481025
 20
13.5775471408
 30
0.0
 10
14.9250934854
 20
13.589963918
 30
0.0
 10
14.9377985784
 20
13.5968541834
 30
0.0
  0
SPLINE
  5
38A
100
AcDbEntity
  8
0
100
AcDbSpline
 62
7
  6
CONTINUOUS
 70
0
 71
3
 72
40
 73
36
 74
0
 42
0.0000001
 43
0.0000001
 44
0.0000000001
 40
0.0
 40
0.0
 40
0.0
 40
0.0
 40
0.0327776358
 40
0.0668258769
 40
0.1020038286
 40
0.1381826244
 40
0.1752332075
 40
0.2130124823
 40
0.2513708047
 40
0.2901555226
 40
0.329211976
 40
0.3683830199
 40
0.4075101999
 40
0.446435926
 40
0.4850036094
 40
0.5230597118
 40
0.5604537639
 40
0.59704063
 40
0.6326808968
 40
0.6672426518
 40
0.7006027893
 40
0.7326482059
 40
0.7632786134
 40
0.7924069921
 40
0.8199645101
 40
0.8459006481
 40
0.8701908894
 40
0.8928376076
 40
0.9138812969
 40
0.9334037391
 40
0.9515425326
 40
0.9684956436
 40
0.9845320568
 40
0.992315537
 40
1.0
 40
1.0
 40
1.0
 40
1.0
 10
15.4891767578
 20
13.2115148296
 30
0.0
 10
15.4827742715
 20
13.1907963765
 30
0.0
 10
15.470581208
 20
13.1482866419
 30
0.0
 10
15.454363779
 20
13.0827665486
 30
0.0
 10
15.4399411046
 20
13.0145266635
 30
0.0
 10
15.427379334
 20
12.9439028592
 30
0.0
 10
15.4167408446
 20
12.8712247984
 30
0.0
 10
15.4080705936
 20
12.7968345064
 30
0.0
 10
15.4014158471
 20
12.7210855741
 30
0.0
 10
15.3968042308
 20
12.6443386863
 30
0.0
 10
15.3942613209
 20
12.5669576496
 30
0.0
 10
15.393795762
 20
12.4893097575
 30
0.0
 10
15.3954128813
 20
12.4117637773
 30
0.0
 10
15.3991025411
 20
12.3346882366
 30
0.0
 10
15.4048489344
 20
12.2584490249
 30
0.0
 10
15.4126232684
 20
12.183408142
 30
0.0
 10
15.4223891396
 20
12.1099216125
 30
0.0
 10
15.4340997496
 20
12.038338151
 30
0.0
 10
15.4476987345
 20
11.9689969018
 30
0.0
 10
15.4631222848
 20
11.9022265501
 30
0.0
 10
15.4802951452
 20
11.8383426445
 30
0.0
 10
15.4991380773
 20
11.7776475221
 30
0.0
 10
15.5195584683
 20
11.7204264927
 30
0.0
 10
15.5414638658
 20
11.6669495579
 30
0.0
 10
15.5647467859
 20
11.6174654387
 30
0.0
 10
15.5893048176
 20
11.5722066294
 30
0.0
 10
15.6150197985
 20
11.5313797149
 30
0.0
 10
15.6417845304
 20
11.4951765089
 30
0.0
 10
15.669477449
 20
11.4637590498
 30
0.0
 10
15.6979931934
 20
11.4372819024
 30
0.0
 10
15.7272159958
 20
11.4158711217
 30
0.0
 10
15.7570329603
 20
11.3996631825
 30
0.0
 10
15.7825393047
 20
11.3904942301
 30
0.0
 10
15.8029108579
 20
11.3859886865
 30
0.0
 10
15.8130719811
 20
11.3846477081
 30
0.0
 10
15.818136682
 20
11.3842060917
 30
0.0
  0
SPLINE
  5
38B
100
AcDbEntity
  8
0
100
AcDbSpline
 62
7
  6
CONTINUOUS
 70
0
 71
3
 72
9
 73
5
 74
0
 42
0.0000001
 43
0.0000001
 44
0.0000000001
 40
0.0
 40
0.0
 40
0.0
 40
0.0
 40
0.2448549401
 40
1.0
 40
1.0
 40
1.0
 40
1.0
 10
15.200126714
 20
13.8296461198
 30
0.0
 10
15.196976856
 20
13.8285916204
 30
0.0
 10
15.1842063562
 20
13.8240077953
 30
0.0
 10
15.1718317529
 20
13.8183389653
 30
0.0
 10
15.1627724186
 20
13.8135564075
 30
0.0
  0
SPLINE
  5
38C
100
AcDbEntity
  8
0
100
AcDbSpline
 62
7
  6
CONTINUOUS
 70
0
 71
3
 72
18
 73
14
 74
0
 42
0.0000001
 43
0.0000001
 44
0.0000000001
 40
0.0
 40
0.0
 40
0.0
 40
0.0
 40
0.0910918727
 40
0.139817459
 40
0.1908538677
 40
0.2443149607
 40
0.300283303
 40
0.3588177704
 40
0.4199483891
 40
0.5499804387
 40
0.690281326
 40
0.8405116883
 40
1.0
 40
1.0
 40
1.0
 40
1.0
 10
15.1555414292
 20
13.809600586
 30
0.0
 10
15.1405403559
 20
13.8011057912
 30
0.0
 10
15.1186654194
 20
13.7859567549
 30
0.0
 10
15.0913313357
 20
13.7623267473
 30
0.0
 10
15.0706916229
 20
13.7419252563
 30
0.0
 10
15.0504199055
 20
13.7192918774
 30
0.0
 10
15.0305450071
 20
13.6944646926
 30
0.0
 10
15.0111049634
 20
13.6674871484
 30
0.0
 10
14.985277039
 20
13.6278973612
 30
0.0
 10
14.954440616
 20
13.5731866861
 30
0.0
 10
14.9204323053
 20
13.501163289
 30
0.0
 10
14.8889333603
 20
13.4219839516
 30
0.0
 10
14.8702801791
 20
13.3663841599
 30
0.0
 10
14.8613685912
 20
13.3375462507
 30
0.0
  0
SPLINE
  5
38D
100
AcDbEntity
  8
0
100
AcDbSpline
 62
7
  6
CONTINUOUS
 70
0
 71
3
 72
23
 73
19
 74
0
 42
0.0000001
 43
0.0000001
 44
0.0000000001
 40
0.0
 40
0.0
 40
0.0
 40
0.0
 40
0.0554194106
 40
0.1135141624
 40
0.1739328648
 40
0.2363471997
 40
0.3004033731
 40
0.3657161696
 40
0.4318898564
 40
0.4985216871
 40
0.5652024935
 40
0.6315226665
 40
0.6970778733
 40
0.7614697639
 40
0.8243092718
 40
0.8852379208
 40
0.9439215554
 40
1.0
 40
1.0
 40
1.0
 40
1.0
 10
16.0859044441
 20
13.0479927322
 30
0.0
 10
16.0919936211
 20
13.0290905439
 30
0.0
 10
16.1034652244
 20
12.9900460402
 30
0.0
 10
16.1183064883
 20
12.9294936073
 30
0.0
 10
16.1310948565
 20
12.8659161338
 30
0.0
 10
16.1417400903
 20
12.7997825316
 30
0.0
 10
16.1501667271
 20
12.7315633841
 30
0.0
 10
16.1563112015
 20
12.6617494008
 30
0.0
 10
16.1601308436
 20
12.590845907
 30
0.0
 10
16.1615944102
 20
12.5193646645
 30
0.0
 10
16.1606958885
 20
12.4478216199
 30
0.0
 10
16.1574371679
 20
12.3767331497
 30
0.0
 10
16.1518454145
 20
12.3066123931
 30
0.0
 10
16.143959272
 20
12.2379669869
 30
0.0
 10
16.1338382956
 20
12.1712907997
 30
0.0
 10
16.1215542224
 20
12.1070583388
 30
0.0
 10
16.1071939673
 20
12.0457434415
 30
0.0
 10
16.0960422094
 20
12.0061423042
 30
0.0
 10
16.090109235
 20
11.9869431921
 30
0.0
  0
SPLINE
  5
38E
100
AcDbEntity
  8
0
100
AcDbSpline
 62
7
  6
CONTINUOUS
 70
0
 71
3
 72
20
 73
16
 74
0
 42
0.0000001
 43
0.0000001
 44
0.0000000001
 40
0.0
 40
0.0
 40
0.0
 40
0.0
 40
0.0577841241
 40
0.1145597813
 40
0.1706925128
 40
0.2265632485
 40
0.282558721
 40
0.3390635462
 40
0.3964492598
 40
0.45506513
 40
0.5152342476
 40
0.577250075
 40
0.7077404081
 40
0.8482745273
 40
1.0
 40
1.0
 40
1.0
 40
1.0
 10
15.9004718242
 20
11.2050102061
 30
0.0
 10
15.8945625465
 20
11.2030319169
 30
0.0
 10
15.88267975
 20
11.1995877383
 30
0.0
 10
15.8646004435
 20
11.1960056657
 30
0.0
 10
15.8464773444
 20
11.1940673474
 30
0.0
 10
15.8283374103
 20
11.1937745343
 30
0.0
 10
15.8102054284
 20
11.1951279682
 30
0.0
 10
15.7921073146
 20
11.1981282823
 30
0.0
 10
15.7740679431
 20
11.2027683233
 30
0.0
 10
15.7561109559
 20
11.2090382203
 30
0.0
 10
15.7382585884
 20
11.2169288786
 30
0.0
 10
15.7142231821
 20
11.229814207
 30
0.0
 10
15.6844912418
 20
11.2501742093
 30
0.0
 10
15.650254164
 20
11.280416239
 30
0.0
 10
15.6289190937
 20
11.3036960682
 30
0.0
 10
15.6183981866
 20
11.3162277957
 30
0.0
  0
SPLINE
  5
38F
100
AcDbEntity
  8
0
100
AcDbSpline
 62
7
  6
CONTINUOUS
 70
0
 71
3
 72
9
 73
5
 74
0
 42
0.0000001
 43
0.0000001
 44
0.0000000001
 40
0.0
 40
0.0
 40
0.0
 40
0.0
 40
0.4786979175
 40
1.0
 40
1.0
 40
1.0
 40
1.0
 10
15.6181025652
 20
11.3165802112
 30
0.0
 10
15.6044599091
 20
11.3328573979
 30
0.0
 10
15.5778664816
 20
11.3684775433
 30
0.0
 10
15.5546046324
 20
11.4063199612
 30
0.0
 10
15.543225032
 20
11.4264554236
 30
0.0
  0
SPLINE
  5
390
100
AcDbEntity
  8
0
100
AcDbSpline
 62
7
  6
CONTINUOUS
 70
0
 71
3
 72
9
 73
5
 74
0
 42
0.0000001
 43
0.0000001
 44
0.0000000001
 40
0.0
 40
0.0
 40
0.0
 40
0.0
 40
0.4828182822
 40
1.0
 40
1.0
 40
1.0
 40
1.0
 10
15.5356586699
 20
11.4401038735
 30
0.0
 10
15.5236344736
 20
11.4622122432
 30
0.0
 10
15.500469837
 20
11.5089597896
 30
0.0
 10
15.4803252268
 20
11.557069816
 30
0.0
 10
15.4705895466
 20
11.5822082747
 30
0.0
  0
SPLINE
  5
391
100
AcDbEntity
  8
0
100
AcDbSpline
 62
7
  6
CONTINUOUS
 70
0
 71
3
 72
23
 73
19
 74
0
 42
0.0000001
 43
0.0000001
 44
0.0000000001
 40
0.0
 40
0.0
 40
0.0
 40
0.0
 40
0.0529591029
 40
0.1090624529
 40
0.1679937615
 40
0.2293942353
 40
0.2928705278
 40
0.3580004139
 40
0.4243413366
 40
0.4914356986
 40
0.5588163627
 40
0.6260130791
 40
0.6925574019
 40
0.7579902358
 40
0.8218631058
 40
0.8837476615
 40
0.9432591841
 40
1.0
 40
1.0
 40
1.0
 40
1.0
 10
15.4701087818
 20
11.5834513074
 30
0.0
 10
15.4588313008
 20
11.6126483831
 30
0.0
 10
15.4374842182
 20
11.6735125113
 30
0.0
 10
15.4096777085
 20
11.7688661223
 30
0.0
 10
15.3853297992
 20
11.8702973133
 30
0.0
 10
15.3646432519
 20
11.9769747961
 30
0.0
 10
15.3477910826
 20
12.0880288601
 30
0.0
 10
15.3349108873
 20
12.202549817
 30
0.0
 10
15.3261092244
 20
12.3195992791
 30
0.0
 10
15.3214614345
 20
12.4382175592
 30
0.0
 10
15.3210040681
 20
12.5574314269
 30
0.0
 10
15.3247405994
 20
12.6762625877
 30
0.0
 10
15.3326421553
 20
12.7937365717
 30
0.0
 10
15.344641959
 20
12.908889376
 30
0.0
 10
15.3606388731
 20
13.0207756879
 30
0.0
 10
15.3805031557
 20
13.1284876695
 30
0.0
 10
15.404071099
 20
13.2311305625
 30
0.0
 10
15.4225932531
 20
13.2973284286
 30
0.0
 10
15.432494198
 20
13.3293678982
 30
0.0
  0
SPLINE
  5
392
100
AcDbEntity
  8
0
100
AcDbSpline
 62
7
  6
CONTINUOUS
 70
0
 71
3
 72
13
 73
9
 74
0
 42
0.0000001
 43
0.0000001
 44
0.0000000001
 40
0.0
 40
0.0
 40
0.0
 40
0.0
 40
0.1046234488
 40
0.2116021776
 40
0.4405269174
 40
0.5664172028
 40
0.7012963097
 40
1.0
 40
1.0
 40
1.0
 40
1.0
 10
15.5851886861
 20
13.1458621197
 30
0.0
 10
15.5862737744
 20
13.1458624997
 30
0.0
 10
15.5884727808
 20
13.1456797732
 30
0.0
 10
15.592920686
 20
13.1445654018
 30
0.0
 10
15.5972365344
 20
13.142327456
 30
0.0
 10
15.601265047
 20
13.1392263451
 30
0.0
 10
15.6054733263
 20
13.1352174129
 30
0.0
 10
15.6082787627
 20
13.1316698941
 30
0.0
 10
15.6100400777
 20
13.1291213331
 30
0.0
  0
SPLINE
  5
393
100
AcDbEntity
  8
0
100
AcDbSpline
 62
7
  6
CONTINUOUS
 70
0
 71
3
 72
23
 73
19
 74
0
 42
0.0000001
 43
0.0000001
 44
0.0000000001
 40
0.0
 40
0.0
 40
0.0
 40
0.0
 40
0.0424305428
 40
0.0860261547
 40
0.1313632116
 40
0.1789372426
 40
0.2291498136
 40
0.282319981
 40
0.3386826561
 40
0.3984014112
 40
0.4615831246
 40
0.5282715399
 40
0.5984701195
 40
0.6721503893
 40
0.7492543318
 40
0.8297007426
 40
0.9133452939
 40
1.0
 40
1.0
 40
1.0
 40
1.0
 10
15.8144418611
 20
13.6370429345
 30
0.0
 10
15.8065421255
 20
13.6361829338
 30
0.0
 10
15.7906274986
 20
13.6333281615
 30
0.0
 10
15.7671310865
 20
13.6258272471
 30
0.0
 10
15.7438580115
 20
13.6151031441
 30
0.0
 10
15.720882042
 20
13.6012007315
 30
0.0
 10
15.6982575134
 20
13.5841764896
 30
0.0
 10
15.6760463202
 20
13.5640801279
 30
0.0
 10
15.6543027708
 20
13.5409746721
 30
0.0
 10
15.6330815972
 20
13.5149270284
 30
0.0
 10
15.6124438643
 20
13.4860081093
 30
0.0
 10
15.5924407416
 20
13.4543038751
 30
0.0
 10
15.5731294836
 20
13.4199027245
 30
0.0
 10
15.5545649271
 20
13.3828992583
 30
0.0
 10
15.5367946154
 20
13.3433953637
 30
0.0
 10
15.5198739062
 20
13.3015018323
 30
0.0
 10
15.5038512506
 20
13.2573506772
 30
0.0
 10
15.4939682474
 20
13.2270200956
 30
0.0
 10
15.4891767578
 20
13.2115148296
 30
0.0
  0
SPLINE
  5
394
100
AcDbEntity
  8
0
100
AcDbSpline
 62
7
  6
CONTINUOUS
 70
0
 71
3
 72
15
 73
11
 74
0
 42
0.0000001
 43
0.0000001
 44
0.0000000001
 40
0.0
 40
0.0
 40
0.0
 40
0.0
 40
0.1677589202
 40
0.3225546449
 40
0.4638190986
 40
0.5916442035
 40
0.7069761013
 40
0.8115115779
 40
0.9079592499
 40
1.0
 40
1.0
 40
1.0
 40
1.0
 10
15.6867676985
 20
11.7563857498
 30
0.0
 10
15.6858663499
 20
11.7542018547
 30
0.0
 10
15.6839973045
 20
11.7500566379
 30
0.0
 10
15.6808597451
 20
11.7443191285
 30
0.0
 10
15.6775225165
 20
11.7393571149
 30
0.0
 10
15.6740102444
 20
11.7352193778
 30
0.0
 10
15.670350637
 20
11.731938279
 30
0.0
 10
15.6665595735
 20
11.7295499044
 30
0.0
 10
15.6626667606
 20
11.7280882381
 30
0.0
 10
15.6600022162
 20
11.7277551966
 30
0.0
 10
15.6587059843
 20
11.7277554255
 30
0.0
  0
SPLINE
  5
395
100
AcDbEntity
  8
0
100
AcDbSpline
 62
7
  6
CONTINUOUS
 70
0
 71
3
 72
33
 73
29
 74
0
 42
0.0000001
 43
0.0000001
 44
0.0000000001
 40
0.0
 40
0.0
 40
0.0
 40
0.0
 40
0.0314618964
 40
0.0640603576
 40
0.0976798229
 40
0.1322147085
 40
0.1675608918
 40
0.2036035891
 40
0.2772841911
 40
0.3522639164
 40
0.4275142159
 40
0.5019993215
 40
0.5747020047
 40
0.6446484988
 40
0.6783065779
 40
0.7109439626
 40
0.7424644097
 40
0.772778966
 40
0.8018094074
 40
0.8294884251
 40
0.8557620639
 40
0.8805924934
 40
0.9039594508
 40
0.925866349
 40
0.9463415186
 40
0.9654478285
 40
0.983284826
 40
1.0
 40
1.0
 40
1.0
 40
1.0
 10
14.8613685912
 20
13.3375462507
 30
0.0
 10
14.8543980403
 20
13.3149895399
 30
0.0
 10
14.8410683457
 20
13.2687907815
 30
0.0
 10
14.8231596088
 20
13.1976998291
 30
0.0
 10
14.8070483435
 20
13.1238181562
 30
0.0
 10
14.7927989296
 20
13.0474578463
 30
0.0
 10
14.7804703767
 20
12.968922949
 30
0.0
 10
14.7665550907
 20
12.8609436036
 30
0.0
 10
14.7543606823
 20
12.7228103901
 30
0.0
 10
14.7480388789
 20
12.5548382962
 30
0.0
 10
14.7500295179
 20
12.3861534246
 30
0.0
 10
14.7602992184
 20
12.2194792052
 30
0.0
 10
14.7786791345
 20
12.0575069895
 30
0.0
 10
14.8007756584
 20
11.9269813554
 30
0.0
 10
14.8224255035
 20
11.8270484792
 30
0.0
 10
14.8402564709
 20
11.7558314665
 30
0.0
 10
14.8598115249
 20
11.6876740097
 30
0.0
 10
14.8810142905
 20
11.6228509434
 30
0.0
 10
14.9037775074
 20
11.5616233623
 30
0.0
 10
14.9280093803
 20
11.5042369552
 30
0.0
 10
14.9536143188
 20
11.4509221309
 30
0.0
 10
14.9804877475
 20
11.4018900727
 30
0.0
 10
15.0085289206
 20
11.3573375169
 30
0.0
 10
15.0376248793
 20
11.3174371889
 30
0.0
 10
15.0676734676
 20
11.2823517863
 30
0.0
 10
15.098562268
 20
11.2522149881
 30
0.0
 10
15.1301834301
 20
11.2271647282
 30
0.0
 10
15.1523323973
 20
11.2135277268
 30
0.0
 10
15.1634405451
 20
11.207701923
 30
0.0
  0
SPLINE
  5
396
100
AcDbEntity
  8
0
100
AcDbSpline
 62
7
  6
CONTINUOUS
 70
0
 71
3
 72
9
 73
5
 74
0
 42
0.0000001
 43
0.0000001
 44
0.0000000001
 40
0.0
 40
0.0
 40
0.0
 40
0.0
 40
0.2555671605
 40
1.0
 40
1.0
 40
1.0
 40
1.0
 10
15.1634405451
 20
11.207701923
 30
0.0
 10
15.1664539641
 20
11.2061214985
 30
0.0
 10
15.1783589688
 20
11.2001585673
 30
0.0
 10
15.1907276663
 20
11.195110203
 30
0.0
 10
15.2001267233
 20
11.1919640479
 30
0.0
  0
SPLINE
  5
397
100
AcDbEntity
  8
0
100
AcDbSpline
 62
7
  6
CONTINUOUS
 70
0
 71
3
 72
24
 73
20
 74
0
 42
0.0000001
 43
0.0000001
 44
0.0000000001
 40
0.0
 40
0.0
 40
0.0
 40
0.0
 40
0.0155101596
 40
0.0313844486
 40
0.0654382863
 40
0.1042877257
 40
0.1490604012
 40
0.2001460105
 40
0.257468034
 40
0.3205869992
 40
0.3888436608
 40
0.4613858902
 40
0.5372468218
 40
0.6153619924
 40
0.6946039207
 40
0.7738071025
 40
0.8518575743
 40
0.9276579284
 40
1.0
 40
1.0
 40
1.0
 40
1.0
 10
16.0505669127
 20
13.2058159699
 30
0.0
 10
16.0514630381
 20
13.2058157905
 30
0.0
 10
16.0532798576
 20
13.2056610204
 30
0.0
 10
16.056957383
 20
13.2047210365
 30
0.0
 10
16.0615514038
 20
13.2022752312
 30
0.0
 10
16.0666369128
 20
13.1976936323
 30
0.0
 10
16.0714055482
 20
13.1915017968
 30
0.0
 10
16.0758083481
 20
13.183800319
 30
0.0
 10
16.0797806731
 20
13.1747043497
 30
0.0
 10
16.0832635294
 20
13.1643613027
 30
0.0
 10
16.0861949558
 20
13.1529406566
 30
0.0
 10
16.0885270721
 20
13.1406341787
 30
0.0
 10
16.0902181817
 20
13.1276496269
 30
0.0
 10
16.0912384844
 20
13.1142075768
 30
0.0
 10
16.0915716953
 20
13.1005380455
 30
0.0
 10
16.0912106515
 20
13.0868730207
 30
0.0
 10
16.0901626869
 20
13.0734423943
 30
0.0
 10
16.0884423949
 20
13.0604811465
 30
0.0
 10
16.0868285996
 20
13.052068968
 30
0.0
 10
16.0859044441
 20
13.0479927322
 30
0.0
  0
LINE
  5
398
100
AcDbEntity
  8
0
100
AcDbLine
 62
7
  6
CONTINUOUS
 10
14.8181625847
 20
12.9187530017
 11
14.817440224
 21
12.9132607859
  0
LINE
  5
399
100
AcDbEntity
  8
0
100
AcDbLine
 62
7
  6
CONTINUOUS
 10
14.8048453635
 20
12.7993558767
 11
14.8044884614
 21
12.7954108087
  0
LINE
  5
39A
100
AcDbEntity
  8
0
100
AcDbLine
 62
7
  6
CONTINUOUS
 10
14.7961609945
 20
12.6774497485
 11
14.7958997764
 21
12.6723165178
  0
LINE
  5
39B
100
AcDbEntity
  8
0
100
AcDbLine
 62
7
  6
CONTINUOUS
 10
14.7921692764
 20
12.5547102642
 11
14.7921090351
 21
12.5500005517
  0
LINE
  5
39C
100
AcDbEntity
  8
0
100
AcDbLine
 62
7
  6
CONTINUOUS
 10
14.7928738212
 20
12.430159858
 11
14.7929914514
 21
12.4255589424
  0
LINE
  5
39D
100
AcDbEntity
  8
0
100
AcDbLine
 62
7
  6
CONTINUOUS
 10
14.7982170965
 20
12.3083256415
 11
14.7985506052
 21
12.3031079337
  0
LINE
  5
39E
100
AcDbEntity
  8
0
100
AcDbLine
 62
7
  6
CONTINUOUS
 10
14.8083660646
 20
12.1860369981
 11
14.8087608618
 21
12.1822396576
  0
LINE
  5
39F
100
AcDbEntity
  8
0
100
AcDbLine
 62
7
  6
CONTINUOUS
 10
14.8660036954
 20
11.8430566824
 11
14.8667403636
 21
11.8400180839
  0
SPLINE
  5
3A0
100
AcDbEntity
  8
0
100
AcDbSpline
 62
7
  6
CONTINUOUS
 70
0
 71
3
 72
9
 73
5
 74
0
 42
0.0000001
 43
0.0000001
 44
0.0000000001
 40
0.0
 40
0.0
 40
0.0
 40
0.0
 40
0.2565726913
 40
1.0
 40
1.0
 40
1.0
 40
1.0
 10
14.92496795
 20
11.6454756129
 30
0.0
 10
14.9275744923
 20
11.6383242487
 30
0.0
 10
14.9379418964
 20
11.6105283075
 30
0.0
 10
14.9491592607
 20
11.5830466602
 30
0.0
 10
14.9580359704
 20
11.5628571315
 30
0.0
  0
SPLINE
  5
3A1
100
AcDbEntity
  8
0
100
AcDbSpline
 62
7
  6
CONTINUOUS
 70
0
 71
3
 72
9
 73
5
 74
0
 42
0.0000001
 43
0.0000001
 44
0.0000000001
 40
0.0
 40
0.0
 40
0.0
 40
0.0
 40
0.2574475057
 40
1.0
 40
1.0
 40
1.0
 40
1.0
 10
14.9587451609
 20
11.5612472399
 30
0.0
 10
14.9615829566
 20
11.5548177833
 30
0.0
 10
14.9728198044
 20
11.5299394401
 30
0.0
 10
14.9849315658
 20
11.5054524349
 30
0.0
 10
14.9944810001
 20
11.4875723477
 30
0.0
  0
SPLINE
  5
3A2
100
AcDbEntity
  8
0
100
AcDbSpline
 62
7
  6
CONTINUOUS
 70
0
 71
3
 72
9
 73
5
 74
0
 42
0.0000001
 43
0.0000001
 44
0.0000000001
 40
0.0
 40
0.0
 40
0.0
 40
0.0
 40
0.5114970829
 40
1.0
 40
1.0
 40
1.0
 40
1.0
 10
14.996936119
 20
11.4830050736
 30
0.0
 10
15.003182337
 20
11.4714602226
 30
0.0
 10
15.0158615289
 20
11.4491383983
 30
0.0
 10
15.0295577201
 20
11.4274227633
 30
0.0
 10
15.0365177331
 20
11.4169961635
 30
0.0
  0
SPLINE
  5
3A3
100
AcDbEntity
  8
0
100
AcDbSpline
 62
7
  6
CONTINUOUS
 70
0
 71
3
 72
9
 73
5
 74
0
 42
0.0000001
 43
0.0000001
 44
0.0000000001
 40
0.0
 40
0.0
 40
0.0
 40
0.0
 40
0.2591450967
 40
1.0
 40
1.0
 40
1.0
 40
1.0
 10
15.0371257359
 20
11.4160868228
 30
0.0
 10
15.0403804073
 20
11.4112270492
 30
0.0
 10
15.0531670994
 20
11.3926284272
 30
0.0
 10
15.0668934766
 20
11.3746668649
 30
0.0
 10
15.077650817
 20
11.3618653208
 30
0.0
  0
SPLINE
  5
3A4
100
AcDbEntity
  8
0
100
AcDbSpline
 62
7
  6
CONTINUOUS
 70
0
 71
3
 72
9
 73
5
 74
0
 42
0.0000001
 43
0.0000001
 44
0.0000000001
 40
0.0
 40
0.0
 40
0.0
 40
0.0
 40
0.2595500431
 40
1.0
 40
1.0
 40
1.0
 40
1.0
 10
15.0807172316
 20
11.3582488681
 30
0.0
 10
15.0841275127
 20
11.3542630836
 30
0.0
 10
15.0974944068
 20
11.3391046349
 30
0.0
 10
15.1118048476
 20
11.3247644139
 30
0.0
 10
15.1229644431
 20
11.3147940119
 30
0.0
  0
SPLINE
  5
3A5
100
AcDbEntity
  8
0
100
AcDbSpline
 62
7
  6
CONTINUOUS
 70
0
 71
3
 72
9
 73
5
 74
0
 42
0.0000001
 43
0.0000001
 44
0.0000000001
 40
0.0
 40
0.0
 40
0.0
 40
0.0
 40
0.2591971025
 40
1.0
 40
1.0
 40
1.0
 40
1.0
 10
15.1256193237
 20
11.3124438103
 30
0.0
 10
15.1291360748
 20
11.3093594302
 30
0.0
 10
15.1429196743
 20
11.2977104563
 30
0.0
 10
15.1576000603
 20
11.2871029541
 30
0.0
 10
15.1689532668
 20
11.2800431892
 30
0.0
  0
SPLINE
  5
3A6
100
AcDbEntity
  8
0
100
AcDbSpline
 62
7
  6
CONTINUOUS
 70
0
 71
3
 72
9
 73
5
 74
0
 42
0.0000001
 43
0.0000001
 44
0.0000000001
 40
0.0
 40
0.0
 40
0.0
 40
0.0
 40
0.5101743624
 40
1.0
 40
1.0
 40
1.0
 40
1.0
 10
15.1721086236
 20
11.2781092726
 30
0.0
 10
15.1796702258
 20
11.2735421979
 30
0.0
 10
15.1949229046
 20
11.2652789359
 30
0.0
 10
15.210965727
 20
11.2586595293
 30
0.0
 10
15.2189786707
 20
11.2558796343
 30
0.0
  0
SPLINE
  5
3A7
100
AcDbEntity
  8
0
100
AcDbSpline
 62
7
  6
CONTINUOUS
 70
0
 71
3
 72
9
 73
5
 74
0
 42
0.0000001
 43
0.0000001
 44
0.0000000001
 40
0.0
 40
0.0
 40
0.0
 40
0.0
 40
0.5056697717
 40
1.0
 40
1.0
 40
1.0
 40
1.0
 10
15.2192229564
 20
11.2557950448
 30
0.0
 10
15.2274928937
 20
11.2529367927
 30
0.0
 10
15.2442013586
 20
11.2482499198
 30
0.0
 10
15.2613788529
 20
11.2457411243
 30
0.0
 10
15.2699062745
 20
11.2450708271
 30
0.0
  0
SPLINE
  5
3A8
100
AcDbEntity
  8
0
100
AcDbSpline
 62
7
  6
CONTINUOUS
 70
0
 71
3
 72
9
 73
5
 74
0
 42
0.0000001
 43
0.0000001
 44
0.0000000001
 40
0.0
 40
0.0
 40
0.0
 40
0.0
 40
0.4969999168
 40
1.0
 40
1.0
 40
1.0
 40
1.0
 10
15.2851156389
 20
11.2444778742
 30
0.0
 10
15.2927875746
 20
11.2444825024
 30
0.0
 10
15.3082372539
 20
11.2454205696
 30
0.0
 10
15.3234643236
 20
11.2481837129
 30
0.0
 10
15.331013321
 20
11.2500005807
 30
0.0
  0
SPLINE
  5
3A9
100
AcDbEntity
  8
0
100
AcDbSpline
 62
7
  6
CONTINUOUS
 70
0
 71
3
 72
9
 73
5
 74
0
 42
0.0000001
 43
0.0000001
 44
0.0000000001
 40
0.0
 40
0.0
 40
0.0
 40
0.0
 40
0.4923643082
 40
1.0
 40
1.0
 40
1.0
 40
1.0
 10
15.253495743
 20
13.7745455604
 30
0.0
 10
15.2449654513
 20
13.7731434625
 30
0.0
 10
15.2278115924
 20
13.7691547208
 30
0.0
 10
15.2112878201
 20
13.7630846693
 30
0.0
 10
15.2031070871
 20
13.7595470031
 30
0.0
  0
SPLINE
  5
3AA
100
AcDbEntity
  8
0
100
AcDbSpline
 62
7
  6
CONTINUOUS
 70
0
 71
3
 72
9
 73
5
 74
0
 42
0.0000001
 43
0.0000001
 44
0.0000000001
 40
0.0
 40
0.0
 40
0.0
 40
0.0
 40
0.488831755
 40
1.0
 40
1.0
 40
1.0
 40
1.0
 10
15.2028051916
 20
13.7594162045
 30
0.0
 10
15.1948563892
 20
13.7559658081
 30
0.0
 10
15.1789717792
 20
13.7480164405
 30
0.0
 10
15.1639528183
 20
13.7385467366
 30
0.0
 10
15.1565055295
 20
13.7333848077
 30
0.0
  0
SPLINE
  5
3AB
100
AcDbEntity
  8
0
100
AcDbSpline
 62
7
  6
CONTINUOUS
 70
0
 71
3
 72
9
 73
5
 74
0
 42
0.0000001
 43
0.0000001
 44
0.0000000001
 40
0.0
 40
0.0
 40
0.0
 40
0.0
 40
0.2406172977
 40
1.0
 40
1.0
 40
1.0
 40
1.0
 10
15.1533311913
 20
13.7311553938
 30
0.0
 10
15.1494976272
 20
13.7284276753
 30
0.0
 10
15.1338176771
 20
13.7167380612
 30
0.0
 10
15.1191479583
 20
13.703716907
 30
0.0
 10
15.1085637882
 20
13.6933024579
 30
0.0
  0
SPLINE
  5
3AC
100
AcDbEntity
  8
0
100
AcDbSpline
 62
7
  6
CONTINUOUS
 70
0
 71
3
 72
9
 73
5
 74
0
 42
0.0000001
 43
0.0000001
 44
0.0000000001
 40
0.0
 40
0.0
 40
0.0
 40
0.0
 40
0.487399589
 40
1.0
 40
1.0
 40
1.0
 40
1.0
 10
15.1080967123
 20
13.6928421735
 30
0.0
 10
15.1007541192
 20
13.6855953603
 30
0.0
 10
15.0862164732
 20
13.6701865977
 30
0.0
 10
15.0726764562
 20
13.6538997698
 30
0.0
 10
15.0659739857
 20
13.6453676399
 30
0.0
  0
SPLINE
  5
3AD
100
AcDbEntity
  8
0
100
AcDbSpline
 62
7
  6
CONTINUOUS
 70
0
 71
3
 72
9
 73
5
 74
0
 42
0.0000001
 43
0.0000001
 44
0.0000000001
 40
0.0
 40
0.0
 40
0.0
 40
0.0
 40
0.4882527076
 40
1.0
 40
1.0
 40
1.0
 40
1.0
 10
15.0629631446
 20
13.6415019547
 30
0.0
 10
15.0560289342
 20
13.6325228471
 30
0.0
 10
15.0423471135
 20
13.6137267769
 30
0.0
 10
15.0296296883
 20
13.5942686207
 30
0.0
 10
15.0233487068
 20
13.5841720027
 30
0.0
  0
SPLINE
  5
3AE
100
AcDbEntity
  8
0
100
AcDbSpline
 62
7
  6
CONTINUOUS
 70
0
 71
3
 72
9
 73
5
 74
0
 42
0.0000001
 43
0.0000001
 44
0.0000000001
 40
0.0
 40
0.0
 40
0.0
 40
0.0
 40
0.24173404
 40
1.0
 40
1.0
 40
1.0
 40
1.0
 10
15.0227182056
 20
13.5831567785
 30
0.0
 10
15.0193606776
 20
13.5777414748
 30
0.0
 10
15.0057400248
 20
13.55517341
 30
0.0
 10
14.9931628598
 20
13.5319811468
 30
0.0
 10
14.9841430315
 20
13.5141456026
 30
0.0
  0
SPLINE
  5
3AF
100
AcDbEntity
  8
0
100
AcDbSpline
 62
7
  6
CONTINUOUS
 70
0
 71
3
 72
9
 73
5
 74
0
 42
0.0000001
 43
0.0000001
 44
0.0000000001
 40
0.0
 40
0.0
 40
0.0
 40
0.0
 40
0.2427750399
 40
1.0
 40
1.0
 40
1.0
 40
1.0
 10
14.9817691523
 20
13.5094219233
 30
0.0
 10
14.9787030098
 20
13.5032822766
 30
0.0
 10
14.9663202759
 20
13.4778699068
 30
0.0
 10
14.9548962586
 20
13.4519937265
 30
0.0
 10
14.9467247135
 20
13.4322099012
 30
0.0
  0
SPLINE
  5
3B0
100
AcDbEntity
  8
0
100
AcDbSpline
 62
7
  6
CONTINUOUS
 70
0
 71
3
 72
9
 73
5
 74
0
 42
0.0000001
 43
0.0000001
 44
0.0000000001
 40
0.0
 40
0.0
 40
0.0
 40
0.0
 40
0.516468327
 40
1.0
 40
1.0
 40
1.0
 40
1.0
 10
15.4603772008
 20
13.4122640715
 30
0.0
 10
15.4697776335
 20
13.4379699984
 30
0.0
 10
15.4892675735
 20
13.487284647
 30
0.0
 10
15.511696327
 20
13.5353483552
 30
0.0
 10
15.523356318
 20
13.5581672457
 30
0.0
  0
SPLINE
  5
3B1
100
AcDbEntity
  8
0
100
AcDbSpline
 62
7
  6
CONTINUOUS
 70
0
 71
3
 72
11
 73
7
 74
0
 42
0.0000001
 43
0.0000001
 44
0.0000000001
 40
0.0
 40
0.0
 40
0.0
 40
0.0
 40
0.2670055505
 40
0.5226889616
 40
0.7670083201
 40
1.0
 40
1.0
 40
1.0
 40
1.0
 10
15.5243523551
 20
13.5601115854
 30
0.0
 10
15.5305462476
 20
13.5721719345
 30
0.0
 10
15.5431257317
 20
13.5955520242
 30
0.0
 10
15.5630282679
 20
13.6290441535
 30
0.0
 10
15.5835143779
 20
13.6601351355
 30
0.0
 10
15.5978735934
 20
13.6796775283
 30
0.0
 10
15.6051506407
 20
13.6890055052
 30
0.0
  0
SPLINE
  5
3B2
100
AcDbEntity
  8
0
100
AcDbSpline
 62
7
  6
CONTINUOUS
 70
0
 71
3
 72
20
 73
16
 74
0
 42
0.0000001
 43
0.0000001
 44
0.0000000001
 40
0.0
 40
0.0
 40
0.0
 40
0.0
 40
0.1540624309
 40
0.2962279205
 40
0.3632031073
 40
0.4276588003
 40
0.5498449831
 40
0.608232678
 40
0.6652258029
 40
0.7211951326
 40
0.7765399494
 40
0.8316757708
 40
0.8870233627
 40
0.9429988342
 40
1.0
 40
1.0
 40
1.0
 40
1.0
 10
15.6054416322
 20
13.6893782125
 30
0.0
 10
15.616321765
 20
13.7033026239
 30
0.0
 10
15.6384074245
 20
13.7291996614
 30
0.0
 10
15.6686805322
 20
13.7579613811
 30
0.0
 10
15.6933859575
 20
13.777348803
 30
0.0
 10
15.717429522
 20
13.79374873
 30
0.0
 10
15.742318612
 20
13.807091137
 30
0.0
 10
15.7677847418
 20
13.8168644043
 30
0.0
 10
15.786701833
 20
13.8222938866
 30
0.0
 10
15.8056918227
 20
13.8259157758
 30
0.0
 10
15.8247264949
 20
13.8277247686
 30
0.0
 10
15.8437757528
 20
13.8277192122
 30
0.0
 10
15.8628105898
 20
13.8258979969
 30
0.0
 10
15.8817989224
 20
13.8222622695
 30
0.0
 10
15.8942718597
 20
13.8186749164
 30
0.0
 10
15.9004718151
 20
13.8165995996
 30
0.0
  0
SPLINE
  5
3B3
100
AcDbEntity
  8
0
100
AcDbSpline
 62
7
  6
CONTINUOUS
 70
0
 71
3
 72
40
 73
36
 74
0
 42
0.0000001
 43
0.0000001
 44
0.0000000001
 40
0.0
 40
0.0
 40
0.0
 40
0.0
 40
0.0326007299
 40
0.0664520397
 40
0.1014178272
 40
0.1373740486
 40
0.1741946425
 40
0.2117395869
 40
0.2498636655
 40
0.2884184745
 40
0.3272535779
 40
0.36621559
 40
0.4051503594
 40
0.4439041435
 40
0.4823241845
 40
0.5202604964
 40
0.5575657126
 40
0.5940979704
 40
0.6297198606
 40
0.664302243
 40
0.6977225602
 40
0.7298697283
 40
0.7606420284
 40
0.7899532468
 40
0.8177305428
 40
0.8439220073
 40
0.8684954147
 40
0.891447844
 40
0.9128065176
 40
0.9326411497
 40
0.951067899
 40
0.9682631677
 40
0.9844668258
 40
0.9922972442
 40
1.0
 40
1.0
 40
1.0
 40
1.0
 10
16.2022997186
 20
11.7278229929
 30
0.0
 10
16.2093796918
 20
11.7507337946
 30
0.0
 10
16.2228704166
 20
11.797729246
 30
0.0
 10
16.2408375425
 20
11.8701469446
 30
0.0
 10
16.2568414731
 20
11.9455485731
 30
0.0
 10
16.2708104714
 20
12.0235718728
 30
0.0
 10
16.2826767456
 20
12.1038599776
 30
0.0
 10
16.2923906351
 20
12.1860420365
 30
0.0
 10
16.2999000635
 20
12.2697351074
 30
0.0
 10
16.3051754091
 20
12.3545491214
 30
0.0
 10
16.3081869132
 20
12.4400901735
 30
0.0
 10
16.3089258169
 20
12.5259604265
 30
0.0
 10
16.3073831512
 20
12.6117601971
 30
0.0
 10
16.3035715557
 20
12.6970902374
 30
0.0
 10
16.2975035023
 20
12.7815535125
 30
0.0
 10
16.2892128556
 20
12.8647573484
 30
0.0
 10
16.2787328939
 20
12.9463146187
 30
0.0
 10
16.2661182706
 20
13.0258466172
 30
0.0
 10
16.2514222578
 20
13.1029834887
 30
0.0
 10
16.2347194425
 20
13.1773677949
 30
0.0
 10
16.2160817338
 20
13.2486538439
 30
0.0
 10
16.1956023614
 20
13.3165125123
 30
0.0
 10
16.173370041
 20
13.3806289549
 30
0.0
 10
16.1494945504
 20
13.4407092847
 30
0.0
 10
16.1240787676
 20
13.4964757108
 30
0.0
 10
16.0972458486
 20
13.5476759386
 30
0.0
 10
16.0691086879
 20
13.5940742684
 30
0.0
 10
16.039798518
 20
13.6354649215
 30
0.0
 10
16.0094314513
 20
13.6716562358
 30
0.0
 10
15.9781391215
 20
13.7024883155
 30
0.0
 10
15.9460318569
 20
13.7278054871
 30
0.0
 10
15.9132459763
 20
13.747476965
 30
0.0
 10
15.8851228005
 20
13.7591798668
 30
0.0
 10
15.8626130829
 20
13.7654489116
 30
0.0
 10
15.851371579
 20
13.7675840402
 30
0.0
 10
15.8457645601
 20
13.7683983451
 30
0.0
  0
SPLINE
  5
3B4
100
AcDbEntity
  8
0
100
AcDbSpline
 62
7
  6
CONTINUOUS
 70
0
 71
3
 72
11
 73
7
 74
0
 42
0.0000001
 43
0.0000001
 44
0.0000000001
 40
0.0
 40
0.0
 40
0.0
 40
0.0
 40
0.2386047805
 40
0.4836017549
 40
0.7368520121
 40
1.0
 40
1.0
 40
1.0
 40
1.0
 10
15.7783038093
 20
13.7662622361
 30
0.0
 10
15.7713713594
 20
13.7648142947
 30
0.0
 10
15.7574666086
 20
13.7611339525
 30
0.0
 10
15.7369572631
 20
13.7534451362
 30
0.0
 10
15.7166064754
 20
13.7435488774
 30
0.0
 10
15.7034435708
 20
13.735655378
 30
0.0
 10
15.6969087606
 20
13.7313774789
 30
0.0
  0
SPLINE
  5
3B5
100
AcDbEntity
  8
0
100
AcDbSpline
 62
7
  6
CONTINUOUS
 70
0
 71
3
 72
10
 73
6
 74
0
 42
0.0000001
 43
0.0000001
 44
0.0000000001
 40
0.0
 40
0.0
 40
0.0
 40
0.0
 40
0.4765866873
 40
0.7321420809
 40
1.0
 40
1.0
 40
1.0
 40
1.0
 10
15.6969087606
 20
13.7313774789
 30
0.0
 10
15.682604286
 20
13.7220133052
 30
0.0
 10
15.6618405281
 20
13.7057155678
 30
0.0
 10
15.6359869478
 20
13.6808316536
 30
0.0
 10
15.6232897945
 20
13.6669772723
 30
0.0
 10
15.6169971792
 20
13.6597152357
 30
0.0
  0
SPLINE
  5
3B6
100
AcDbEntity
  8
0
100
AcDbSpline
 62
7
  6
CONTINUOUS
 70
0
 71
3
 72
15
 73
11
 74
0
 42
0.0000001
 43
0.0000001
 44
0.0000000001
 40
0.0
 40
0.0
 40
0.0
 40
0.0
 40
0.1023799181
 40
0.2112935783
 40
0.3268055473
 40
0.4488912741
 40
0.5774564748
 40
0.7123502364
 40
0.853324549
 40
1.0
 40
1.0
 40
1.0
 40
1.0
 10
15.6158146386
 20
13.6583456904
 30
0.0
 10
15.606686503
 20
13.647736752
 30
0.0
 10
15.5887216471
 20
13.6250795452
 30
0.0
 10
15.563418043
 20
13.5882270156
 30
0.0
 10
15.539010595
 20
13.5475999102
 30
0.0
 10
15.5155880064
 20
13.5033387139
 30
0.0
 10
15.4932269576
 20
13.4555923125
 30
0.0
 10
15.4720050088
 20
13.4045233098
 30
0.0
 10
15.4520014458
 20
13.3503208286
 30
0.0
 10
15.4397561163
 20
13.3129438397
 30
0.0
 10
15.4338362029
 20
13.2937869929
 30
0.0
  0
SPLINE
  5
3B7
100
AcDbEntity
  8
0
100
AcDbSpline
 62
7
  6
CONTINUOUS
 70
0
 71
3
 72
26
 73
22
 74
0
 42
0.0000001
 43
0.0000001
 44
0.0000000001
 40
0.0
 40
0.0
 40
0.0
 40
0.0
 40
0.028847626
 40
0.0585540255
 40
0.1202631277
 40
0.1846179041
 40
0.251093734
 40
0.3191120259
 40
0.3880744466
 40
0.4573679407
 40
0.5263735465
 40
0.5944769494
 40
0.6610779407
 40
0.7256006215
 40
0.7875033075
 40
0.8462896663
 40
0.90152298
 40
0.9276951922
 40
0.9528504394
 40
0.9769594066
 40
1.0
 40
1.0
 40
1.0
 40
1.0
 10
15.4338362029
 20
13.2937869929
 30
0.0
 10
15.4285409372
 20
13.2766515066
 30
0.0
 10
15.4183176055
 20
13.2417061142
 30
0.0
 10
15.3993319455
 20
13.1693794893
 30
0.0
 10
15.3785065638
 20
13.0747533872
 30
0.0
 10
15.358403684
 20
12.9567074375
 30
0.0
 10
15.3430893861
 20
12.8339928673
 30
0.0
 10
15.3327293846
 20
12.7078897556
 30
0.0
 10
15.32743235
 20
12.5797207066
 30
0.0
 10
15.3272540038
 20
12.45082907
 30
0.0
 10
15.3321968839
 20
12.3225661273
 30
0.0
 10
15.3422092437
 20
12.1962768865
 30
0.0
 10
15.3571837634
 20
12.0732841972
 30
0.0
 10
15.3769609532
 20
11.9548751933
 30
0.0
 10
15.401331266
 20
11.8422851785
 30
0.0
 10
15.430037656
 20
11.7366914803
 30
0.0
 10
15.4577990479
 20
11.6540036075
 30
0.0
 10
15.4820764367
 20
11.5923486639
 30
0.0
 10
15.5008415804
 20
11.5493535965
 30
0.0
 10
15.5204389226
 20
11.5088841841
 30
0.0
 10
15.5343436257
 20
11.4830646446
 30
0.0
 10
15.5414394177
 20
11.4706209094
 30
0.0
  0
SPLINE
  5
3B8
100
AcDbEntity
  8
0
100
AcDbSpline
 62
7
  6
CONTINUOUS
 70
0
 71
3
 72
11
 73
7
 74
0
 42
0.0000001
 43
0.0000001
 44
0.0000000001
 40
0.0
 40
0.0
 40
0.0
 40
0.0
 40
0.2696446541
 40
0.5261027206
 40
0.7694674335
 40
1.0
 40
1.0
 40
1.0
 40
1.0
 10
15.5414394177
 20
11.4706209094
 30
0.0
 10
15.548135731
 20
11.4588777312
 30
0.0
 10
15.5617277879
 20
11.4362599036
 30
0.0
 10
15.583286415
 20
11.4042476934
 30
0.0
 10
15.605454182
 20
11.3750793489
 30
0.0
 10
15.6210189135
 20
11.3571012694
 30
0.0
 10
15.6288970392
 20
11.348644973
 30
0.0
  0
SPLINE
  5
3B9
100
AcDbEntity
  8
0
100
AcDbSpline
 62
7
  6
CONTINUOUS
 70
0
 71
3
 72
14
 73
10
 74
0
 42
0.0000001
 43
0.0000001
 44
0.0000000001
 40
0.0
 40
0.0
 40
0.0
 40
0.0
 40
0.2794730095
 40
0.4106925723
 40
0.5367142838
 40
0.6580298472
 40
0.7752178033
 40
0.8889549828
 40
1.0
 40
1.0
 40
1.0
 40
1.0
 10
15.6301034028
 20
11.3473549162
 30
0.0
 10
15.6414071389
 20
11.3353122784
 30
0.0
 10
15.6589775998
 20
11.318453365
 30
0.0
 10
15.6839526057
 20
11.2988671345
 30
0.0
 10
15.702506715
 20
11.2863286342
 30
0.0
 10
15.7212464253
 20
11.2756563549
 30
0.0
 10
15.7401477307
 20
11.2668717692
 30
0.0
 10
15.7591780075
 20
11.2599902134
 30
0.0
 10
15.7720593943
 20
11.2566467058
 30
0.0
 10
15.778484609
 20
11.2553105358
 30
0.0
  0
SPLINE
  5
3BA
100
AcDbEntity
  8
0
100
AcDbSpline
 62
7
  6
CONTINUOUS
 70
0
 71
3
 72
24
 73
20
 74
0
 42
0.0000001
 43
0.0000001
 44
0.0000000001
 40
0.0
 40
0.0
 40
0.0
 40
0.0
 40
0.0428020297
 40
0.086153967
 40
0.130801194
 40
0.1774088495
 40
0.2016390318
 40
0.226561338
 40
0.2786686814
 40
0.3340939578
 40
0.3930827303
 40
0.4557954684
 40
0.5223243383
 40
0.5926909849
 40
0.666874229
 40
0.744815163
 40
0.8264256719
 40
0.9115591189
 40
1.0
 40
1.0
 40
1.0
 40
1.0
 10
15.809801196
 20
11.2513817323
 30
0.0
 10
15.8191641248
 20
11.2509768979
 30
0.0
 10
15.8380998845
 20
11.2515547701
 30
0.0
 10
15.8663830816
 20
11.2566273218
 30
0.0
 10
15.894463782
 20
11.2658712029
 30
0.0
 10
15.9173147529
 20
11.2768575207
 30
0.0
 10
15.9353535672
 20
11.2875621672
 30
0.0
 10
15.9537685175
 20
11.2999281464
 30
0.0
 10
15.9765175972
 20
11.3180010619
 30
0.0
 10
16.0028647506
 20
11.3432684308
 30
0.0
 10
16.0285860101
 20
11.372346269
 30
0.0
 10
16.0536048789
 20
11.4051372847
 30
0.0
 10
16.0778413311
 20
11.4415386824
 30
0.0
 10
16.1012258962
 20
11.4814286776
 30
0.0
 10
16.1236795542
 20
11.5246824793
 30
0.0
 10
16.1451351178
 20
11.5711631944
 30
0.0
 10
16.1655213749
 20
11.6207235135
 30
0.0
 10
16.1847682531
 20
11.6731906688
 30
0.0
 10
16.1965824047
 20
11.7093217582
 30
0.0
 10
16.2022997186
 20
11.7278229929
 30
0.0
  0
SPLINE
  5
3BB
100
AcDbEntity
  8
0
100
AcDbSpline
 62
7
  6
CONTINUOUS
 70
0
 71
3
 72
19
 73
15
 74
0
 42
0.0000001
 43
0.0000001
 44
0.0000000001
 40
0.0
 40
0.0
 40
0.0
 40
0.0
 40
0.0492333237
 40
0.0986040377
 40
0.148583276
 40
0.199619787
 40
0.2521298511
 40
0.306487926
 40
0.3630137462
 40
0.4219775856
 40
0.5480144804
 40
0.6859901829
 40
0.8366296997
 40
1.0
 40
1.0
 40
1.0
 40
1.0
 10
15.8233224936
 20
13.3531841937
 30
0.0
 10
15.8278640659
 20
13.3535297831
 30
0.0
 10
15.8370044207
 20
13.3537382546
 30
0.0
 10
15.8507258471
 20
13.3525740113
 30
0.0
 10
15.8644124215
 20
13.3499384404
 30
0.0
 10
15.8780358896
 20
13.3458405217
 30
0.0
 10
15.8915715516
 20
13.3402892049
 30
0.0
 10
15.9049940037
 20
13.3332952334
 30
0.0
 10
15.918282441
 20
13.3248771054
 30
0.0
 10
15.9361887953
 20
13.3114801268
 30
0.0
 10
15.9580943415
 20
13.2910196163
 30
0.0
 10
15.9828905418
 20
13.2616588914
 30
0.0
 10
16.0066171902
 20
13.2271595766
 30
0.0
 10
16.021050553
 20
13.2019111049
 30
0.0
 10
16.0280957496
 20
13.1885397767
 30
0.0
  0
SPLINE
  5
3BC
100
AcDbEntity
  8
0
100
AcDbSpline
 62
7
  6
CONTINUOUS
 70
0
 71
3
 72
23
 73
19
 74
0
 42
0.0000001
 43
0.0000001
 44
0.0000000001
 40
0.0
 40
0.0
 40
0.0
 40
0.0
 40
0.0887934376
 40
0.1742269641
 40
0.2560768803
 40
0.3341791795
 40
0.4084461591
 40
0.4788211889
 40
0.5452902169
 40
0.6078840439
 40
0.6666962842
 40
0.7219080265
 40
0.7737822488
 40
0.8226900733
 40
0.8691164508
 40
0.9136595
 40
0.9570274679
 40
1.0
 40
1.0
 40
1.0
 40
1.0
 10
16.090109235
 20
11.9869431921
 30
0.0
 10
16.0862322928
 20
11.9743974025
 30
0.0
 10
16.0782171492
 20
11.9499039158
 30
0.0
 10
16.0651450182
 20
11.9143527294
 30
0.0
 10
16.0512911097
 20
11.8808014682
 30
0.0
 10
16.0367022089
 20
11.8493734786
 30
0.0
 10
16.0214312304
 20
11.8201713913
 30
0.0
 10
16.0055232506
 20
11.7932897491
 30
0.0
 10
15.9890321863
 20
11.7688145097
 30
0.0
 10
15.9720108738
 20
11.746826424
 30
0.0
 10
15.9545084661
 20
11.7274023106
 30
0.0
 10
15.9365829164
 20
11.7106034444
 30
0.0
 10
15.9182828868
 20
11.696491661
 30
0.0
 10
15.8996624531
 20
11.6851208843
 30
0.0
 10
15.8807798302
 20
11.6765373597
 30
0.0
 10
15.8616931456
 20
11.6707949899
 30
0.0
 10
15.8424840551
 20
11.6679244702
 30
0.0
 10
15.8296591204
 20
11.6679426537
 30
0.0
 10
15.8233224842
 20
11.6684250012
 30
0.0
  0
SPLINE
  5
3BD
100
AcDbEntity
  8
0
100
AcDbSpline
 62
7
  6
CONTINUOUS
 70
0
 71
3
 72
11
 73
7
 74
0
 42
0.0000001
 43
0.0000001
 44
0.0000000001
 40
0.0
 40
0.0
 40
0.0
 40
0.0
 40
0.2300051447
 40
0.4761305934
 40
0.7341484075
 40
1.0
 40
1.0
 40
1.0
 40
1.0
 10
15.53548608
 20
13.0355484503
 30
0.0
 10
15.5367278022
 20
13.0395666648
 30
0.0
 10
15.5389476574
 20
13.0479952066
 30
0.0
 10
15.5414669937
 20
13.0611896642
 30
0.0
 10
15.5432446056
 20
13.0751648114
 30
0.0
 10
15.5439071461
 20
13.0847268217
 30
0.0
 10
15.544110473
 20
13.0895837299
 30
0.0
  0
SPLINE
  5
3BE
100
AcDbEntity
  8
0
100
AcDbSpline
 62
7
  6
CONTINUOUS
 70
0
 71
3
 72
20
 73
16
 74
0
 42
0.0000001
 43
0.0000001
 44
0.0000000001
 40
0.0
 40
0.0
 40
0.0
 40
0.0
 40
0.0925284006
 40
0.1938871028
 40
0.2992539807
 40
0.4034531252
 40
0.5014097308
 40
0.5886185864
 40
0.6617146618
 40
0.7193924604
 40
0.7643187667
 40
0.8057638911
 40
0.8556997039
 40
0.9202619825
 40
1.0
 40
1.0
 40
1.0
 40
1.0
 10
15.6968362173
 20
11.7550538153
 30
0.0
 10
15.6994356372
 20
11.7634655413
 30
0.0
 10
15.7036040302
 20
11.7814941741
 30
0.0
 10
15.7070240946
 20
11.8098041495
 30
0.0
 10
15.7077750974
 20
11.8394235781
 30
0.0
 10
15.7058123284
 20
11.8686623304
 30
0.0
 10
15.7012501876
 20
11.8958677527
 30
0.0
 10
15.6943796021
 20
11.9195334969
 30
0.0
 10
15.6855278737
 20
11.9384259927
 30
0.0
 10
15.6751497532
 20
11.9517641578
 30
0.0
 10
15.6625548945
 20
11.9588300769
 30
0.0
 10
15.6488702007
 20
11.9566311475
 30
0.0
 10
15.6374237634
 20
11.9464613309
 30
0.0
 10
15.6276946497
 20
11.9306251902
 30
0.0
 10
15.6228158476
 20
11.9177052639
 30
0.0
 10
15.6205757506
 20
11.9104563073
 30
0.0
  0
SPLINE
  5
3BF
100
AcDbEntity
  8
0
100
AcDbSpline
 62
7
  6
CONTINUOUS
 70
0
 71
3
 72
20
 73
16
 74
0
 42
0.0000001
 43
0.0000001
 44
0.0000000001
 40
0.0
 40
0.0
 40
0.0
 40
0.0
 40
0.0925284006
 40
0.1938871028
 40
0.2992539807
 40
0.4034531252
 40
0.5014097308
 40
0.5886185864
 40
0.6617146618
 40
0.7193924604
 40
0.7643187667
 40
0.8057638911
 40
0.8556997039
 40
0.9202619825
 40
1.0
 40
1.0
 40
1.0
 40
1.0
 10
15.6205757506
 20
11.9104563073
 30
0.0
 10
15.6179763307
 20
11.9020445813
 30
0.0
 10
15.6138079377
 20
11.8840159485
 30
0.0
 10
15.6103878733
 20
11.8557059732
 30
0.0
 10
15.6096368705
 20
11.8260865445
 30
0.0
 10
15.6115996395
 20
11.7968477923
 30
0.0
 10
15.6161617803
 20
11.76964237
 30
0.0
 10
15.6230323658
 20
11.7459766257
 30
0.0
 10
15.6318840943
 20
11.7270841299
 30
0.0
 10
15.6422622147
 20
11.7137459649
 30
0.0
 10
15.6548570735
 20
11.7066800457
 30
0.0
 10
15.6685417672
 20
11.7088789751
 30
0.0
 10
15.6799882046
 20
11.7190487917
 30
0.0
 10
15.6897173183
 20
11.7348849324
 30
0.0
 10
15.6945961203
 20
11.7478048587
 30
0.0
 10
15.6968362173
 20
11.7550538153
 30
0.0
  0
SPLINE
  5
3C0
100
AcDbEntity
  8
0
100
AcDbSpline
 62
6
  6
CONTINUOUS
 70
0
 71
3
 72
20
 73
16
 74
0
 42
0.0000001
 43
0.0000001
 44
0.0000000001
 40
0.0
 40
0.0
 40
0.0
 40
0.0
 40
0.0927162909
 40
0.1941987851
 40
0.2994737795
 40
0.4028226649
 40
0.5005853893
 40
0.5877313339
 40
0.6606850794
 40
0.7184075334
 40
0.7634412051
 40
0.8047452153
 40
0.8548400284
 40
0.9198515551
 40
1.0
 40
1.0
 40
1.0
 40
1.0
 10
15.0739260507
 20
11.9104563073
 30
0.0
 10
15.0713213659
 20
11.9020275442
 30
0.0
 10
15.0671487838
 20
11.8839692412
 30
0.0
 10
15.0637333212
 20
11.855637753
 30
0.0
 10
15.0629911178
 20
11.8260962444
 30
0.0
 10
15.0649417592
 20
11.7969662266
 30
0.0
 10
15.0694654598
 20
11.7698616713
 30
0.0
 10
15.0762956103
 20
11.7462252449
 30
0.0
 10
15.085096129
 20
11.727326395
 30
0.0
 10
15.0954102352
 20
11.7139483468
 30
0.0
 10
15.1079129149
 20
11.7067487081
 30
0.0
 10
15.1216429329
 20
11.7087337949
 30
0.0
 10
15.1332146997
 20
11.7188683959
 30
0.0
 10
15.1430213391
 20
11.7347715215
 30
0.0
 10
15.1479349019
 20
11.7477675849
 30
0.0
 10
15.1501865173
 20
11.7550538153
 30
0.0
  0
SPLINE
  5
3C1
100
AcDbEntity
  8
0
100
AcDbSpline
 62
6
  6
CONTINUOUS
 70
0
 71
3
 72
20
 73
16
 74
0
 42
0.0000001
 43
0.0000001
 44
0.0000000001
 40
0.0
 40
0.0
 40
0.0
 40
0.0
 40
0.0927162909
 40
0.1941987851
 40
0.2994737795
 40
0.4028226649
 40
0.5005853893
 40
0.5877313339
 40
0.6606850794
 40
0.7184075334
 40
0.7634412051
 40
0.8047452153
 40
0.8548400284
 40
0.9198515551
 40
1.0
 40
1.0
 40
1.0
 40
1.0
 10
15.1501865173
 20
11.7550538153
 30
0.0
 10
15.1527912022
 20
11.7634825784
 30
0.0
 10
15.1569637842
 20
11.7815408814
 30
0.0
 10
15.1603792469
 20
11.8098723696
 30
0.0
 10
15.1611214502
 20
11.8394138783
 30
0.0
 10
15.1591708088
 20
11.868543896
 30
0.0
 10
15.1546471082
 20
11.8956484514
 30
0.0
 10
15.1478169578
 20
11.9192848778
 30
0.0
 10
15.139016439
 20
11.9381837276
 30
0.0
 10
15.1287023328
 20
11.9515617759
 30
0.0
 10
15.1161996531
 20
11.9587614146
 30
0.0
 10
15.1024696352
 20
11.9567763277
 30
0.0
 10
15.0908978683
 20
11.9466417267
 30
0.0
 10
15.081091229
 20
11.9307386011
 30
0.0
 10
15.0761776662
 20
11.9177425377
 30
0.0
 10
15.0739260507
 20
11.9104563073
 30
0.0
  0
SPLINE
  5
3C2
100
AcDbEntity
  8
0
100
AcDbSpline
 62
7
  6
CONTINUOUS
 70
0
 71
3
 72
20
 73
16
 74
0
 42
0.0000001
 43
0.0000001
 44
0.0000000001
 40
0.0
 40
0.0
 40
0.0
 40
0.0
 40
0.08020601
 40
0.1447502093
 40
0.194520002
 40
0.2354621556
 40
0.2800344375
 40
0.3373519454
 40
0.4099174236
 40
0.4965281375
 40
0.5939147478
 40
0.6976122346
 40
0.8039639559
 40
0.9065012714
 40
1.0
 40
1.0
 40
1.0
 40
1.0
 10
15.080026888
 20
11.898024108
 30
0.0
 10
15.0819361018
 20
11.9041439781
 30
0.0
 10
15.0860287501
 20
11.9150368489
 30
0.0
 10
15.0942407222
 20
11.9283468549
 30
0.0
 10
15.1038434999
 20
11.936820135
 30
0.0
 10
15.1152376232
 20
11.9386435365
 30
0.0
 10
15.1257551258
 20
11.932818453
 30
0.0
 10
15.1344586244
 20
11.9217244059
 30
0.0
 10
15.1418925667
 20
11.9059867448
 30
0.0
 10
15.1476805977
 20
11.8862531257
 30
0.0
 10
15.1515493083
 20
11.8635420518
 30
0.0
 10
15.1532630023
 20
11.8389923722
 30
0.0
 10
15.1526844824
 20
11.8139772871
 30
0.0
 10
15.1498286146
 20
11.7899394932
 30
0.0
 10
15.1462782566
 20
11.7746303727
 30
0.0
 10
15.14408568
 20
11.7674860146
 30
0.0
  0
SPLINE
  5
3C3
100
AcDbEntity
  8
0
100
AcDbSpline
 62
7
  6
CONTINUOUS
 70
0
 71
3
 72
20
 73
16
 74
0
 42
0.0000001
 43
0.0000001
 44
0.0000000001
 40
0.0
 40
0.0
 40
0.0
 40
0.0
 40
0.08020601
 40
0.1447502093
 40
0.194520002
 40
0.2354621556
 40
0.2800344375
 40
0.3373519454
 40
0.4099174236
 40
0.4965281375
 40
0.5939147478
 40
0.6976122346
 40
0.8039639559
 40
0.9065012714
 40
1.0
 40
1.0
 40
1.0
 40
1.0
 10
15.14408568
 20
11.7674860146
 30
0.0
 10
15.1421764662
 20
11.7613661445
 30
0.0
 10
15.138083818
 20
11.7504732738
 30
0.0
 10
15.1298718459
 20
11.7371632678
 30
0.0
 10
15.1202690681
 20
11.7286899877
 30
0.0
 10
15.1088749449
 20
11.7268665861
 30
0.0
 10
15.0983574423
 20
11.7326916696
 30
0.0
 10
15.0896539437
 20
11.7437857167
 30
0.0
 10
15.0822200013
 20
11.7595233778
 30
0.0
 10
15.0764319703
 20
11.7792569969
 30
0.0
 10
15.0725632597
 20
11.8019680708
 30
0.0
 10
15.0708495657
 20
11.8265177505
 30
0.0
 10
15.0714280856
 20
11.8515328355
 30
0.0
 10
15.0742839535
 20
11.8755706294
 30
0.0
 10
15.0778343115
 20
11.8908797499
 30
0.0
 10
15.080026888
 20
11.898024108
 30
0.0
  0
SPLINE
  5
3C4
100
AcDbEntity
  8
0
100
AcDbSpline
 62
7
  6
CONTINUOUS
 70
0
 71
3
 72
20
 73
16
 74
0
 42
0.0000001
 43
0.0000001
 44
0.0000000001
 40
0.0
 40
0.0
 40
0.0
 40
0.0
 40
0.0925284006
 40
0.1938871028
 40
0.2992539807
 40
0.4034531252
 40
0.5014097308
 40
0.5886185864
 40
0.6617146618
 40
0.7193924604
 40
0.7643187667
 40
0.8057638911
 40
0.8556997039
 40
0.9202619825
 40
1.0
 40
1.0
 40
1.0
 40
1.0
 10
16.0886971477
 20
13.0231162509
 30
0.0
 10
16.0912965677
 20
13.031527977
 30
0.0
 10
16.0954649606
 20
13.0495566098
 30
0.0
 10
16.098885025
 20
13.0778665851
 30
0.0
 10
16.0996360279
 20
13.1074860138
 30
0.0
 10
16.0976732588
 20
13.136724766
 30
0.0
 10
16.0931111181
 20
13.1639301883
 30
0.0
 10
16.0862405325
 20
13.1875959326
 30
0.0
 10
16.0773888041
 20
13.2064884284
 30
0.0
 10
16.0670106837
 20
13.2198265934
 30
0.0
 10
16.0544158249
 20
13.2268925125
 30
0.0
 10
16.0407311311
 20
13.2246935832
 30
0.0
 10
16.0292846938
 20
13.2145237665
 30
0.0
 10
16.0195555801
 20
13.1986876258
 30
0.0
 10
16.0146767781
 20
13.1857676996
 30
0.0
 10
16.0124366811
 20
13.178518743
 30
0.0
  0
SPLINE
  5
3C5
100
AcDbEntity
  8
0
100
AcDbSpline
 62
7
  6
CONTINUOUS
 70
0
 71
3
 72
20
 73
16
 74
0
 42
0.0000001
 43
0.0000001
 44
0.0000000001
 40
0.0
 40
0.0
 40
0.0
 40
0.0
 40
0.0925284006
 40
0.1938871028
 40
0.2992539807
 40
0.4034531252
 40
0.5014097308
 40
0.5886185864
 40
0.6617146618
 40
0.7193924604
 40
0.7643187667
 40
0.8057638911
 40
0.8556997039
 40
0.9202619825
 40
1.0
 40
1.0
 40
1.0
 40
1.0
 10
16.0124366811
 20
13.178518743
 30
0.0
 10
16.0098372611
 20
13.170107017
 30
0.0
 10
16.0056688682
 20
13.1520783842
 30
0.0
 10
16.0022488038
 20
13.1237684088
 30
0.0
 10
16.0014978009
 20
13.0941489802
 30
0.0
 10
16.00346057
 20
13.0649102279
 30
0.0
 10
16.0080227107
 20
13.0377048056
 30
0.0
 10
16.0148932963
 20
13.0140390614
 30
0.0
 10
16.0237450247
 20
12.9951465656
 30
0.0
 10
16.0341231451
 20
12.9818084005
 30
0.0
 10
16.0467180039
 20
12.9747424814
 30
0.0
 10
16.0604026977
 20
12.9769414108
 30
0.0
 10
16.071849135
 20
12.9871112274
 30
0.0
 10
16.0815782487
 20
13.0029473681
 30
0.0
 10
16.0864570507
 20
13.0158672943
 30
0.0
 10
16.0886971477
 20
13.0231162509
 30
0.0
  0
SPLINE
  5
3C6
100
AcDbEntity
  8
0
100
AcDbSpline
 62
6
  6
CONTINUOUS
 70
0
 71
3
 72
20
 73
16
 74
0
 42
0.0000001
 43
0.0000001
 44
0.0000000001
 40
0.0
 40
0.0
 40
0.0
 40
0.0
 40
0.0927162909
 40
0.1941987851
 40
0.2994737795
 40
0.4028226649
 40
0.5005853893
 40
0.5877313339
 40
0.6606850794
 40
0.7184075334
 40
0.7634412051
 40
0.8047452153
 40
0.8548400284
 40
0.9198515551
 40
1.0
 40
1.0
 40
1.0
 40
1.0
 10
15.4657869811
 20
13.178518743
 30
0.0
 10
15.4631822963
 20
13.1700899799
 30
0.0
 10
15.4590097143
 20
13.1520316769
 30
0.0
 10
15.4555942516
 20
13.1237001887
 30
0.0
 10
15.4548520483
 20
13.09415868
 30
0.0
 10
15.4568026896
 20
13.0650286623
 30
0.0
 10
15.4613263903
 20
13.0379241069
 30
0.0
 10
15.4681565407
 20
13.0142876805
 30
0.0
 10
15.4769570595
 20
12.9953888306
 30
0.0
 10
15.4872711657
 20
12.9820107824
 30
0.0
 10
15.4997738453
 20
12.9748111437
 30
0.0
 10
15.5135038633
 20
12.9767962305
 30
0.0
 10
15.5250756301
 20
12.9869308316
 30
0.0
 10
15.5348822695
 20
13.0028339572
 30
0.0
 10
15.5397958323
 20
13.0158300205
 30
0.0
 10
15.5420474478
 20
13.0231162509
 30
0.0
  0
SPLINE
  5
3C7
100
AcDbEntity
  8
0
100
AcDbSpline
 62
6
  6
CONTINUOUS
 70
0
 71
3
 72
20
 73
16
 74
0
 42
0.0000001
 43
0.0000001
 44
0.0000000001
 40
0.0
 40
0.0
 40
0.0
 40
0.0
 40
0.0927162909
 40
0.1941987851
 40
0.2994737795
 40
0.4028226649
 40
0.5005853893
 40
0.5877313339
 40
0.6606850794
 40
0.7184075334
 40
0.7634412051
 40
0.8047452153
 40
0.8548400284
 40
0.9198515551
 40
1.0
 40
1.0
 40
1.0
 40
1.0
 10
15.5420474478
 20
13.0231162509
 30
0.0
 10
15.5446521326
 20
13.0315450141
 30
0.0
 10
15.5488247147
 20
13.049603317
 30
0.0
 10
15.5522401773
 20
13.0779348052
 30
0.0
 10
15.5529823806
 20
13.1074763139
 30
0.0
 10
15.5510317393
 20
13.1366063317
 30
0.0
 10
15.5465080387
 20
13.163710887
 30
0.0
 10
15.5396778882
 20
13.1873473134
 30
0.0
 10
15.5308773694
 20
13.2062461633
 30
0.0
 10
15.5205632632
 20
13.2196242115
 30
0.0
 10
15.5080605836
 20
13.2268238502
 30
0.0
 10
15.4943305656
 20
13.2248387634
 30
0.0
 10
15.4827587988
 20
13.2147041624
 30
0.0
 10
15.4729521594
 20
13.1988010368
 30
0.0
 10
15.4680385966
 20
13.1858049734
 30
0.0
 10
15.4657869811
 20
13.178518743
 30
0.0
  0
SPLINE
  5
3C8
100
AcDbEntity
  8
0
100
AcDbSpline
 62
7
  6
CONTINUOUS
 70
0
 71
3
 72
20
 73
16
 74
0
 42
0.0000001
 43
0.0000001
 44
0.0000000001
 40
0.0
 40
0.0
 40
0.0
 40
0.0
 40
0.08020601
 40
0.1447502093
 40
0.194520002
 40
0.2354621556
 40
0.2800344375
 40
0.3373519454
 40
0.4099174236
 40
0.4965281375
 40
0.5939147478
 40
0.6976122346
 40
0.8039639559
 40
0.9065012714
 40
1.0
 40
1.0
 40
1.0
 40
1.0
 10
15.4718878185
 20
13.1660865436
 30
0.0
 10
15.4737970322
 20
13.1722064138
 30
0.0
 10
15.4778896805
 20
13.1830992845
 30
0.0
 10
15.4861016526
 20
13.1964092905
 30
0.0
 10
15.4957044304
 20
13.2048825706
 30
0.0
 10
15.5070985536
 20
13.2067059722
 30
0.0
 10
15.5176160562
 20
13.2008808887
 30
0.0
 10
15.5263195548
 20
13.1897868415
 30
0.0
 10
15.5337534971
 20
13.1740491805
 30
0.0
 10
15.5395415282
 20
13.1543155614
 30
0.0
 10
15.5434102388
 20
13.1316044875
 30
0.0
 10
15.5451239327
 20
13.1070548078
 30
0.0
 10
15.5445454128
 20
13.0820397228
 30
0.0
 10
15.541689545
 20
13.0580019288
 30
0.0
 10
15.538139187
 20
13.0426928084
 30
0.0
 10
15.5359466105
 20
13.0355484503
 30
0.0
  0
SPLINE
  5
3C9
100
AcDbEntity
  8
0
100
AcDbSpline
 62
7
  6
CONTINUOUS
 70
0
 71
3
 72
20
 73
16
 74
0
 42
0.0000001
 43
0.0000001
 44
0.0000000001
 40
0.0
 40
0.0
 40
0.0
 40
0.0
 40
0.08020601
 40
0.1447502093
 40
0.194520002
 40
0.2354621556
 40
0.2800344375
 40
0.3373519454
 40
0.4099174236
 40
0.4965281375
 40
0.5939147478
 40
0.6976122346
 40
0.8039639559
 40
0.9065012714
 40
1.0
 40
1.0
 40
1.0
 40
1.0
 10
15.5359466105
 20
13.0355484503
 30
0.0
 10
15.5340373967
 20
13.0294285802
 30
0.0
 10
15.5299447484
 20
13.0185357094
 30
0.0
 10
15.5217327763
 20
13.0052257034
 30
0.0
 10
15.5121299986
 20
12.9967524233
 30
0.0
 10
15.5007358753
 20
12.9949290217
 30
0.0
 10
15.4902183727
 20
13.0007541052
 30
0.0
 10
15.4815148741
 20
13.0118481524
 30
0.0
 10
15.4740809318
 20
13.0275858135
 30
0.0
 10
15.4682929007
 20
13.0473194325
 30
0.0
 10
15.4644241902
 20
13.0700305064
 30
0.0
 10
15.4627104962
 20
13.0945801861
 30
0.0
 10
15.4632890161
 20
13.1195952712
 30
0.0
 10
15.4661448839
 20
13.1436330651
 30
0.0
 10
15.4696952419
 20
13.1589421856
 30
0.0
 10
15.4718878185
 20
13.1660865436
 30
0.0
  0
ENDSEC
  0
SECTION
  2
OBJECTS
  0
DICTIONARY
  5
C
100
AcDbDictionary
280
0
281
1
  3
ACAD_GROUP
350
D
  3
ACAD_MLINESTYLE
350
17
  3
ACAD_LAYOUT
350
1A
  3
ACAD_PLOTSETTINGS
350
19
  3
ACAD_PLOTSTYLENAME
350
E
  0
DICTIONARY
  5
D
102
{ACAD_REACTORS
330
C
102
}
100
AcDbDictionary
280
0
281
1
  0
ACDBDICTIONARYWDFLT
  5
E
102
{ACAD_REACTORS
330
C
102
}
100
AcDbDictionary
281
1
  3
Normal
350
F
100
AcDbDictionaryWithDefault
340
F
  0
DICTIONARY
  5
17
102
{ACAD_REACTORS
330
C
102
}
100
AcDbDictionary
280
0
281
1
  3
Standard
350
18
  0
DICTIONARY
  5
19
102
{ACAD_REACTORS
330
C
102
}
100
AcDbDictionary
281
1
  0
DICTIONARY
  5
1A
102
{ACAD_REACTORS
330
C
102
}
100
AcDbDictionary
281
1
  3
Model
350
3CA
  3
Layout1
350
3CB
  0
ACDBPLACEHOLDER
  5
F
102
{ACAD_REACTORS
330
E
102
}
  0
MLINESTYLE
  5
18
102
{ACAD_REACTORS
330
17
102
}
100
AcDbMlineStyle
  2
STANDARD
 70
0
  3

 62
256
 51
90.0
 52
90.0
 71
2
 49
0.5
 62
256
  6
BYLAYER
 49
-0.5
 62
256
  6
BYLAYER
  0
LAYOUT
  5
3CA
102
{ACAD_REACTORS
330
1A
102
}
100
AcDbPlotSettings
  1

  2
none_device
  4
ANSI_C_(22.00_x_17.00_Inches)
  6

 40
0.0
 41
0.0
 42
0.0
 43
0.0
 44
558.8
 45
431.8
 46
0.0
 47
0.0
 48
0.0
 49
0.0
140
0.0
141
0.0
142
1.0
143
1.0
 70
1024
 72
0
 73
0
 74
0
  7

 75
0
147
1.0
148
0.0
149
0.0
100
AcDbLayout
  1
Model
 70
0
 71
0
 10
0.0
 20
0.0
 11
22.0
 21
17.0
 12
0.0
 22
0.0
 32
0.0
 14
0.0
 24
0.0
 34
0.0
 15
0.0
 25
0.0
 35
0.0
146
0.0
 13
0.0
 23
0.0
 33
0.0
 16
1.0
 26
0.0
 36
0.0
 17
0.0
 27
1.0
 37
0.0
 76
0
330
216
345
0
346
0
  0
LAYOUT
  5
3CB
102
{ACAD_REACTORS
330
1A
102
}
100
AcDbPlotSettings
  1

  2
none_device
  4
ANSI_C_(22.00_x_17.00_Inches)
  6

 40
0.0
 41
0.0
 42
0.0
 43
0.0
 44
558.8
 45
431.8
 46
0.0
 47
0.0
 48
0.0
 49
0.0
140
0.0
141
0.0
142
1.0
143
1.0
 70
0
 72
0
 73
0
 74
0
  7

 75
0
147
1.0
148
0.0
149
0.0
100
AcDbLayout
  1
Layout1
 70
0
 71
1
 10
0.0
 20
0.0
 11
22.0
 21
17.0
 12
0.0
 22
0.0
 32
0.0
 14
0.0
 24
0.0
 34
0.0
 15
0.0
 25
0.0
 35
0.0
146
0.0
 13
0.0
 23
0.0
 33
0.0
 16
1.0
 26
0.0
 36
0.0
 17
0.0
 27
1.0
 37
0.0
 76
0
330
217
345
0
346
0
  0
ENDSEC
  0
EOF