999
DXF file: _cgs_temp_output.dxf
999
Pro/ENGINEER 2016360 by Parametric Technology Corporation
  0
SECTION
  2
HEADER
  9
$ACADVER
  1
AC1021
  9
$DWGCODEPAGE
  3
ANSI_1252
  9
$EXTMAX
 10
22.0
 20
17.0
 30
0.0
  9
$EXTMIN
 10
0.0
 20
0.0
 30
0.0
  9
$LIMMIN
 10
0.0
 20
0.0
  9
$LIMMAX
 10
22.0
 20
17.0
  9
$VIEWCTR
 10
11.0
 20
8.5
  9
$VIEWSIZE
 40
17.0
  9
$CLAYER
  8
0
  9
$LTSCALE
 40
1.21
  9
$CELTYPE
  6
BYLAYER
  9
$DIMSCALE
 40
1.0
  9
$DIMASZ
 40
0.1875
  9
$DIMEXO
 40
0.0625
  9
$DIMDLI
 40
0.836
  9
$DIMEXE
 40
0.125
  9
$DIMCEN
 40
0.198
  9
$DIMLFAC
 40
1.0
  9
$DIMBLK
  1
_CLOSED
  9
$DIMALT
 70
0
  9
$DIMALTF
 40
25.4
  9
$DIMTXT
 40
0.15625
  9
$DIMTOL
 70
0
  9
$DIMLIM
 70
0
  9
$DIMTFAC
 40
1.0
  9
$DIMGAP
 40
0.09
  9
$DIMDSEP
 70
46
  9
$AUNITS
 70
0
  9
$PDMODE
 70
3
  9
$PDSIZE
 40
0.3125
  9
$HANDSEED
  5
3DE
  9
$TILEMODE
 70
1
  9
$MEASUREMENT
 70
0
  9
$INSUNITS
 70
1
  0
ENDSEC
  0
SECTION
  2
CLASSES
  0
CLASS
  1
ACDBDICTIONARYWDFLT
  2
AcDbDictionaryWithDefault
  3
AutoCAD 2000
 90
0
 91
1
280
0
281
0
  0
CLASS
  1
ACDBPLACEHOLDER
  2
AcDbPlaceHolder
  3
AutoCAD 2000
 90
0
 91
1
280
0
281
0
  0
CLASS
  1
LAYOUT
  2
AcDbLayout
  3
AutoCAD 2000
 90
0
 91
0
280
0
281
0
  0
ENDSEC
  0
SECTION
  2
TABLES
  0
TABLE
  2
VPORT
  5
8
100
AcDbSymbolTable
 70
2
  0
VPORT
  5
1F4
100
AcDbSymbolTableRecord
100
AcDbViewportTableRecord
  2
*ACTIVE
 70
0
 10
0.0
 20
0.0
 11
1.0
 21
1.0
 12
11.0
 22
8.5
 13
0.0
 23
0.0
 14
1.0
 24
1.0
 15
0.0
 25
0.0
 16
0.0
 26
0.0
 36
1.0
 17
0.0
 27
0.0
 37
0.0
 40
17.0
 41
1.2941176471
 42
50.0
 43
0.0
 44
0.0
 50
0.0
 51
0.0
 71
0
 72
100
 73
1
 74
1
 75
0
 76
0
 77
0
 78
0
  0
ENDTAB
  0
TABLE
  2
LTYPE
  5
5
100
AcDbSymbolTable
 70
6
  0
LTYPE
  5
14
100
AcDbSymbolTableRecord
100
AcDbLinetypeTableRecord
  2
BYBLOCK
 70
0
  3

 72
65
 73
0
 40
0.0
  0
LTYPE
  5
15
100
AcDbSymbolTableRecord
100
AcDbLinetypeTableRecord
  2
BYLAYER
 70
0
  3

 72
65
 73
0
 40
0.0
  0
LTYPE
  5
16
100
AcDbSymbolTableRecord
100
AcDbLinetypeTableRecord
  2
CONTINUOUS
 70
64
  3
Solid line
 72
65
 73
0
 40
0.0
  0
LTYPE
  5
1F5
100
AcDbSymbolTableRecord
100
AcDbLinetypeTableRecord
  2
CENTER
 70
64
  3
____ _ ____ _ ____ _ ____ _ ____ _ ____ _ ____
 72
65
 73
4
 40
0.6
 49
0.375
 74
0
 49
-0.075
 74
0
 49
0.075
 74
0
 49
-0.075
 74
0
  0
LTYPE
  5
1F6
100
AcDbSymbolTableRecord
100
AcDbLinetypeTableRecord
  2
HIDDEN
 70
64
  3
- - - - - - - - - - - - - - - - - - - -
 72
65
 73
2
 40
0.2
 49
0.1
 74
0
 49
-0.1
 74
0
  0
LTYPE
  5
1F7
100
AcDbSymbolTableRecord
100
AcDbLinetypeTableRecord
  2
PHANTOM
 70
64
  3
_____ _ _ _____ _ _ _____ _ _ _____
 72
65
 73
6
 40
0.8
 49
0.45
 74
0
 49
-0.05
 74
0
 49
0.1
 74
0
 49
-0.05
 74
0
 49
0.1
 74
0
 49
-0.05
 74
0
  0
LTYPE
  5
1F8
100
AcDbSymbolTableRecord
100
AcDbLinetypeTableRecord
  2
DOT
 70
64
  3
. . . . . . . . . . . . . . . . . . . .
 72
65
 73
2
 40
0.2
 49
0.1
 74
0
 49
-0.1
 74
0
  0
LTYPE
  5
1F9
100
AcDbSymbolTableRecord
100
AcDbLinetypeTableRecord
  2
DASHED
 70
64
  3
- - - - - - - - - - - - - - - - - - - -
 72
65
 73
2
 40
0.2
 49
0.1
 74
0
 49
-0.1
 74
0
  0
ENDTAB
  0
TABLE
  2
LAYER
  5
2
100
AcDbSymbolTable
 70
36
  0
LAYER
  5
10
100
AcDbSymbolTableRecord
100
AcDbLayerTableRecord
  2
0
 70
0
 62
7
  6
CONTINUOUS
370
-3
390
F
  0
LAYER
  5
1FA
100
AcDbSymbolTableRecord
100
AcDbLayerTableRecord
  2
DEFAULT_1
 70
0
 62
7
  6
CENTER
370
-3
390
F
  0
LAYER
  5
1FB
100
AcDbSymbolTableRecord
100
AcDbLayerTableRecord
  2
DEFAULT_2
 70
0
 62
8
  6
HIDDEN
370
-3
390
F
  0
LAYER
  5
1FC
100
AcDbSymbolTableRecord
100
AcDbLayerTableRecord
  2
DEFAULT_3
 70
0
 62
7
  6
PHANTOM
370
-3
390
F
  0
LAYER
  5
1FD
100
AcDbSymbolTableRecord
100
AcDbLayerTableRecord
  2
01_ALL_DTM_PLN
 70
0
 62
7
  6
CONTINUOUS
370
-3
390
F
  0
LAYER
  5
1FE
100
AcDbSymbolTableRecord
100
AcDbLayerTableRecord
  2
01__ASM_ALL_DTM_PLN
 70
0
 62
7
  6
CONTINUOUS
370
-3
390
F
  0
LAYER
  5
1FF
100
AcDbSymbolTableRecord
100
AcDbLayerTableRecord
  2
01__ASM_DEF_DTM_PLN
 70
0
 62
7
  6
CONTINUOUS
370
-3
390
F
  0
LAYER
  5
200
100
AcDbSymbolTableRecord
100
AcDbLayerTableRecord
  2
01___PRT_ALL_DTM_PLN
 70
0
 62
7
  6
CONTINUOUS
370
-3
390
F
  0
LAYER
  5
201
100
AcDbSymbolTableRecord
100
AcDbLayerTableRecord
  2
01___PRT_DEF_DTM_PLN
 70
0
 62
7
  6
CONTINUOUS
370
-3
390
F
  0
LAYER
  5
202
100
AcDbSymbolTableRecord
100
AcDbLayerTableRecord
  2
02_ALL_AXES
 70
0
 62
7
  6
CONTINUOUS
370
-3
390
F
  0
LAYER
  5
203
100
AcDbSymbolTableRecord
100
AcDbLayerTableRecord
  2
02__ASM_ALL_AXES
 70
0
 62
7
  6
CONTINUOUS
370
-3
390
F
  0
LAYER
  5
204
100
AcDbSymbolTableRecord
100
AcDbLayerTableRecord
  2
02___PRT_ALL_AXES
 70
0
 62
7
  6
CONTINUOUS
370
-3
390
F
  0
LAYER
  5
205
100
AcDbSymbolTableRecord
100
AcDbLayerTableRecord
  2
03_ALL_CURVES
 70
0
 62
7
  6
CONTINUOUS
370
-3
390
F
  0
LAYER
  5
206
100
AcDbSymbolTableRecord
100
AcDbLayerTableRecord
  2
03__ASM_ALL_CURVES
 70
0
 62
7
  6
CONTINUOUS
370
-3
390
F
  0
LAYER
  5
207
100
AcDbSymbolTableRecord
100
AcDbLayerTableRecord
  2
03___PRT_ALL_CURVES
 70
0
 62
7
  6
CONTINUOUS
370
-3
390
F
  0
LAYER
  5
208
100
AcDbSymbolTableRecord
100
AcDbLayerTableRecord
  2
04_ALL_DTM_PNT
 70
0
 62
7
  6
CONTINUOUS
370
-3
390
F
  0
LAYER
  5
209
100
AcDbSymbolTableRecord
100
AcDbLayerTableRecord
  2
04__ASM_ALL_DTM_PNT
 70
0
 62
7
  6
CONTINUOUS
370
-3
390
F
  0
LAYER
  5
20A
100
AcDbSymbolTableRecord
100
AcDbLayerTableRecord
  2
04___PRT_ALL_DTM_PNT
 70
0
 62
7
  6
CONTINUOUS
370
-3
390
F
  0
LAYER
  5
20B
100
AcDbSymbolTableRecord
100
AcDbLayerTableRecord
  2
05_ALL_DTM_CSYS
 70
0
 62
7
  6
CONTINUOUS
370
-3
390
F
  0
LAYER
  5
20C
100
AcDbSymbolTableRecord
100
AcDbLayerTableRecord
  2
05__ASM_ALL_DTM_CSYS
 70
0
 62
7
  6
CONTINUOUS
370
-3
390
F
  0
LAYER
  5
20D
100
AcDbSymbolTableRecord
100
AcDbLayerTableRecord
  2
05__ASM_DEF_DTM_CSYS
 70
0
 62
7
  6
CONTINUOUS
370
-3
390
F
  0
LAYER
  5
20E
100
AcDbSymbolTableRecord
100
AcDbLayerTableRecord
  2
05___PRT_ALL_DTM_CSYS
 70
0
 62
7
  6
CONTINUOUS
370
-3
390
F
  0
LAYER
  5
20F
100
AcDbSymbolTableRecord
100
AcDbLayerTableRecord
  2
05___PRT_DEF_DTM_CSYS
 70
0
 62
7
  6
CONTINUOUS
370
-3
390
F
  0
LAYER
  5
210
100
AcDbSymbolTableRecord
100
AcDbLayerTableRecord
  2
06_ALL_SURFS
 70
0
 62
7
  6
CONTINUOUS
370
-3
390
F
  0
LAYER
  5
211
100
AcDbSymbolTableRecord
100
AcDbLayerTableRecord
  2
06__ASM_ALL_SURFS
 70
0
 62
7
  6
CONTINUOUS
370
-3
390
F
  0
LAYER
  5
212
100
AcDbSymbolTableRecord
100
AcDbLayerTableRecord
  2
06___PRT_ALL_SURFS
 70
0
 62
7
  6
CONTINUOUS
370
-3
390
F
  0
LAYER
  5
213
100
AcDbSymbolTableRecord
100
AcDbLayerTableRecord
  2
07__ASM_ALL_SKELETONS
 70
0
 62
7
  6
CONTINUOUS
370
-3
390
F
  0
ENDTAB
  0
TABLE
  2
STYLE
  5
3
100
AcDbSymbolTable
 70
1
  0
STYLE
  5
11
100
AcDbSymbolTableRecord
100
AcDbTextStyleTableRecord
  2
STANDARD
 70
0
 40
0.0
 41
0.8
 50
0.0
 71
0
 42
0.2
  3
txt
  4

  0
STYLE
  5
214
100
AcDbSymbolTableRecord
100
AcDbTextStyleTableRecord
  2
TEXTSTYLE_1
 70
0
 40
0.0
 41
0.8
 50
0.0
 71
0
 42
0.2
  3
gdt
  4

  0
ENDTAB
  0
TABLE
  2
VIEW
  5
6
100
AcDbSymbolTable
 70
0
  0
ENDTAB
  0
TABLE
  2
UCS
  5
7
100
AcDbSymbolTable
 70
0
  0
ENDTAB
  0
TABLE
  2
APPID
  5
9
100
AcDbSymbolTable
 70
1
  0
APPID
  5
215
100
AcDbSymbolTableRecord
100
AcDbRegAppTableRecord
  2
ACAD
 70
0
  0
ENDTAB
  0
TABLE
  2
BLOCK_RECORD
  5
1
100
AcDbSymbolTable
 70
0
  0
BLOCK_RECORD
  5
216
100
AcDbSymbolTableRecord
100
AcDbBlockTableRecord
  2
*Model_Space
  0
BLOCK_RECORD
  5
217
100
AcDbSymbolTableRecord
100
AcDbBlockTableRecord
  2
*Paper_Space
  0
ENDTAB
  0
TABLE
  2
DIMSTYLE
  5
A
100
AcDbSymbolTable
 70
1
100
AcDbDimStyleTable
 71
0
  0
DIMSTYLE
105
218
100
AcDbSymbolTableRecord
100
AcDbDimStyleTableRecord
  2
STANDARD
 70
0
  3

  4

 40
1.0
 41
0.1875
 42
0.0625
 43
0.38
 44
0.125
 45
0.0
 46
0.0
 47
0.0001
 48
0.0001
140
0.15625
141
0.09
142
0.0
143
25.4
144
1.0
145
0.0
146
1.0
147
0.09
 71
0.0
 72
0.0
 73
1
 74
1
 75
0
 76
0
 77
0
 78
4
 79
1
170
0
171
3
172
0
173
0
174
0
175
0
176
0
177
0
178
0
270
2
179
4
271
4
272
4
273
2
274
2
275
0
280
0
281
0
282
0
283
1
284
4
285
0
286
0
287
3
288
0
340
11
278
46
  0
ENDTAB
  0
ENDSEC
  0
SECTION
  2
BLOCKS
  0
BLOCK
  5
20
100
AcDbEntity
  8
0
100
AcDbBlockBegin
  2
*Model_Space
 70
0
 10
0.0
 20
0.0
 30
0.0
  3
*Model_Space
  1

  0
ENDBLK
  5
21
100
AcDbEntity
  8
0
100
AcDbBlockEnd
  0
BLOCK
  5
1C
100
AcDbEntity
  8
0
100
AcDbBlockBegin
  2
*Paper_Space
 70
0
 10
0.0
 20
0.0
 30
0.0
  3
*Paper_Space
  1

  0
ENDBLK
  5
1D
100
AcDbEntity
  8
0
100
AcDbBlockEnd
  0
ENDSEC
  0
SECTION
  2
ENTITIES
  0
MTEXT
  5
219
100
AcDbEntity
  8
0
100
AcDbMText
 62
7
  6
CONTINUOUS
  7
STANDARD
 71
1
 72
1
 10
15.9560215477
 20
0.9479130325
 30
0.0
 11
1.0
 21
0.0
 31
0.0
 44
0.9
  1
SCALE: 1:0.500
 40
0.3
 41
3.36
  0
LINE
  5
21A
100
AcDbEntity
  8
0
100
AcDbLine
 62
7
  6
CONTINUOUS
 10
0.0
 20
0.0
 11
0.0
 21
17.0
  0
LINE
  5
21B
100
AcDbEntity
  8
0
100
AcDbLine
 62
7
  6
CONTINUOUS
 10
0.0
 20
0.0
 11
22.0
 21
0.0
  0
LINE
  5
21C
100
AcDbEntity
  8
0
100
AcDbLine
 62
7
  6
CONTINUOUS
 10
0.0
 20
17.0
 11
22.0
 21
17.0
  0
LINE
  5
21D
100
AcDbEntity
  8
0
100
AcDbLine
 62
7
  6
CONTINUOUS
 10
22.0
 20
0.0
 11
22.0
 21
17.0
  0
LINE
  5
21E
100
AcDbEntity
  8
0
100
AcDbLine
 62
7
  6
CONTINUOUS
 10
5.8166172762
 20
6.9988487456
 11
5.8453064188
 21
7.0076198968
  0
LINE
  5
21F
100
AcDbEntity
  8
0
100
AcDbLine
 62
7
  6
CONTINUOUS
 10
5.8616172762
 20
4.0959888712
 11
6.3991172762
 21
4.0959888712
  0
LINE
  5
220
100
AcDbEntity
  8
0
100
AcDbLine
 62
7
  6
CONTINUOUS
 10
5.8453064188
 20
4.0326198968
 11
5.8166172762
 21
4.0413910479
  0
LINE
  5
221
100
AcDbEntity
  8
0
100
AcDbLine
 62
7
  6
CONTINUOUS
 10
5.8616172762
 20
4.1211682737
 11
6.3991172762
 21
4.1211682737
  0
LINE
  5
222
100
AcDbEntity
  8
0
100
AcDbLine
 62
7
  6
CONTINUOUS
 10
5.8616172762
 20
4.1806144068
 11
6.3991172762
 21
4.1806144068
  0
LINE
  5
223
100
AcDbEntity
  8
0
100
AcDbLine
 62
7
  6
CONTINUOUS
 10
5.8616172762
 20
4.2728589357
 11
6.3991172762
 21
4.2728589357
  0
LINE
  5
224
100
AcDbEntity
  8
0
100
AcDbLine
 62
7
  6
CONTINUOUS
 10
5.8616172762
 20
4.3956304939
 11
6.3991172762
 21
4.3956304939
  0
LINE
  5
225
100
AcDbEntity
  8
0
100
AcDbLine
 62
7
  6
CONTINUOUS
 10
5.8616172762
 20
4.5459060384
 11
6.3991172762
 21
4.5459060384
  0
LINE
  5
226
100
AcDbEntity
  8
0
100
AcDbLine
 62
7
  6
CONTINUOUS
 10
5.8616172762
 20
4.7199852864
 11
6.3991172762
 21
4.7199852864
  0
LINE
  5
227
100
AcDbEntity
  8
0
100
AcDbLine
 62
7
  6
CONTINUOUS
 10
5.8616172762
 20
4.9135818291
 11
6.3991172762
 21
4.9135818291
  0
LINE
  5
228
100
AcDbEntity
  8
0
100
AcDbLine
 62
7
  6
CONTINUOUS
 10
5.8166172762
 20
6.9988487456
 11
5.8166172762
 21
4.0413910479
  0
LINE
  5
229
100
AcDbEntity
  8
0
100
AcDbLine
 62
7
  6
CONTINUOUS
 10
5.8453064188
 20
7.0076198968
 11
5.8453064188
 21
4.0326198968
  0
LINE
  5
22A
100
AcDbEntity
  8
0
100
AcDbLine
 62
7
  6
CONTINUOUS
 10
5.8616172762
 20
6.9542694864
 11
5.8616172762
 21
4.0859703071
  0
LINE
  5
22B
100
AcDbEntity
  8
0
100
AcDbLine
 62
7
  6
CONTINUOUS
 10
6.4154281335
 20
7.0076198968
 11
6.3991172762
 21
6.9542694864
  0
LINE
  5
22C
100
AcDbEntity
  8
0
100
AcDbLine
 62
7
  6
CONTINUOUS
 10
6.3991172762
 20
4.0859703071
 11
6.4154281335
 21
4.0326198968
  0
LINE
  5
22D
100
AcDbEntity
  8
0
100
AcDbLine
 62
7
  6
CONTINUOUS
 10
5.8453064188
 20
4.0326198968
 11
5.8616172762
 21
4.0859703071
  0
LINE
  5
22E
100
AcDbEntity
  8
0
100
AcDbLine
 62
7
  6
CONTINUOUS
 10
5.8616172762
 20
6.9542694864
 11
5.8453064188
 21
7.0076198968
  0
LINE
  5
22F
100
AcDbEntity
  8
0
100
AcDbLine
 62
7
  6
CONTINUOUS
 10
6.3991172762
 20
4.0859703071
 11
6.3991172762
 21
6.9542694864
  0
LINE
  5
230
100
AcDbEntity
  8
0
100
AcDbLine
 62
7
  6
CONTINUOUS
 10
6.4154281335
 20
4.0326198968
 11
6.4154281335
 21
7.0076198968
  0
LINE
  5
231
100
AcDbEntity
  8
0
100
AcDbLine
 62
7
  6
CONTINUOUS
 10
6.4441172762
 20
4.0413910479
 11
6.4441172762
 21
6.9988487456
  0
LINE
  5
232
100
AcDbEntity
  8
0
100
AcDbLine
 62
7
  6
CONTINUOUS
 10
6.3991172762
 20
6.1266579644
 11
5.8616172762
 21
6.1266579644
  0
LINE
  5
233
100
AcDbEntity
  8
0
100
AcDbLine
 62
7
  6
CONTINUOUS
 10
6.3991172762
 20
6.3202545071
 11
5.8616172762
 21
6.3202545071
  0
LINE
  5
234
100
AcDbEntity
  8
0
100
AcDbLine
 62
7
  6
CONTINUOUS
 10
6.3991172762
 20
6.4943337551
 11
5.8616172762
 21
6.4943337551
  0
LINE
  5
235
100
AcDbEntity
  8
0
100
AcDbLine
 62
7
  6
CONTINUOUS
 10
6.3991172762
 20
6.6446092996
 11
5.8616172762
 21
6.6446092996
  0
LINE
  5
236
100
AcDbEntity
  8
0
100
AcDbLine
 62
7
  6
CONTINUOUS
 10
6.3991172762
 20
6.7673808578
 11
5.8616172762
 21
6.7673808578
  0
LINE
  5
237
100
AcDbEntity
  8
0
100
AcDbLine
 62
7
  6
CONTINUOUS
 10
6.4441172762
 20
4.0413910479
 11
6.4154281335
 21
4.0326198968
  0
LINE
  5
238
100
AcDbEntity
  8
0
100
AcDbLine
 62
7
  6
CONTINUOUS
 10
6.3991172762
 20
6.8596253867
 11
5.8616172762
 21
6.8596253867
  0
LINE
  5
239
100
AcDbEntity
  8
0
100
AcDbLine
 62
7
  6
CONTINUOUS
 10
6.3991172762
 20
6.9190715198
 11
5.8616172762
 21
6.9190715198
  0
LINE
  5
23A
100
AcDbEntity
  8
0
100
AcDbLine
 62
7
  6
CONTINUOUS
 10
6.3991172762
 20
6.9442509223
 11
5.8616172762
 21
6.9442509223
  0
LINE
  5
23B
100
AcDbEntity
  8
0
100
AcDbLine
 62
7
  6
CONTINUOUS
 10
6.4154281335
 20
7.0076198968
 11
6.4441172762
 21
6.9988487456
  0
LINE
  5
23C
100
AcDbEntity
  8
0
100
AcDbLine
 62
7
  6
CONTINUOUS
 10
5.7571220839
 20
14.0787766302
 11
5.7858112265
 21
14.0875477814
  0
LINE
  5
23D
100
AcDbEntity
  8
0
100
AcDbLine
 62
7
  6
CONTINUOUS
 10
5.7571220839
 20
11.1213189325
 11
5.7858112265
 21
11.1125477814
  0
LINE
  5
23E
100
AcDbEntity
  8
0
100
AcDbLine
 62
7
  6
CONTINUOUS
 10
5.8021220839
 20
11.1759167558
 11
6.3396220839
 21
11.1759167558
  0
LINE
  5
23F
100
AcDbEntity
  8
0
100
AcDbLine
 62
7
  6
CONTINUOUS
 10
5.8021220839
 20
11.2010961584
 11
6.3396220839
 21
11.2010961584
  0
LINE
  5
240
100
AcDbEntity
  8
0
100
AcDbLine
 62
7
  6
CONTINUOUS
 10
5.8021220839
 20
11.2605422914
 11
6.3396220839
 21
11.2605422914
  0
LINE
  5
241
100
AcDbEntity
  8
0
100
AcDbLine
 62
7
  6
CONTINUOUS
 10
5.8021220839
 20
11.3527868203
 11
6.3396220839
 21
11.3527868203
  0
LINE
  5
242
100
AcDbEntity
  8
0
100
AcDbLine
 62
7
  6
CONTINUOUS
 10
5.8021220839
 20
11.4755583786
 11
6.3396220839
 21
11.4755583786
  0
LINE
  5
243
100
AcDbEntity
  8
0
100
AcDbLine
 62
7
  6
CONTINUOUS
 10
5.8021220839
 20
11.625833923
 11
6.3396220839
 21
11.625833923
  0
LINE
  5
244
100
AcDbEntity
  8
0
100
AcDbLine
 62
7
  6
CONTINUOUS
 10
5.8021220839
 20
11.799913171
 11
6.3396220839
 21
11.799913171
  0
LINE
  5
245
100
AcDbEntity
  8
0
100
AcDbLine
 62
7
  6
CONTINUOUS
 10
5.8021220839
 20
11.9935097137
 11
6.3396220839
 21
11.9935097137
  0
LINE
  5
246
100
AcDbEntity
  8
0
100
AcDbLine
 62
7
  6
CONTINUOUS
 10
5.7571220839
 20
14.0787766302
 11
5.7571220839
 21
11.1213189325
  0
LINE
  5
247
100
AcDbEntity
  8
0
100
AcDbLine
 62
7
  6
CONTINUOUS
 10
5.7858112265
 20
14.0875477814
 11
5.7858112265
 21
11.1125477814
  0
LINE
  5
248
100
AcDbEntity
  8
0
100
AcDbLine
 62
7
  6
CONTINUOUS
 10
5.8021220839
 20
14.0341853512
 11
5.8021220839
 21
11.1659102115
  0
LINE
  5
249
100
AcDbEntity
  8
0
100
AcDbLine
 62
7
  6
CONTINUOUS
 10
6.3559329412
 20
14.0875477814
 11
6.3396220839
 21
14.034197371
  0
LINE
  5
24A
100
AcDbEntity
  8
0
100
AcDbLine
 62
7
  6
CONTINUOUS
 10
6.3559329412
 20
11.1125477814
 11
6.3396220839
 21
11.1658981917
  0
LINE
  5
24B
100
AcDbEntity
  8
0
100
AcDbLine
 62
7
  6
CONTINUOUS
 10
5.7858112265
 20
11.1125477814
 11
5.8021220839
 21
11.1658981917
  0
LINE
  5
24C
100
AcDbEntity
  8
0
100
AcDbLine
 62
7
  6
CONTINUOUS
 10
5.7858112265
 20
14.0875477814
 11
5.8021220839
 21
14.034197371
  0
LINE
  5
24D
100
AcDbEntity
  8
0
100
AcDbLine
 62
7
  6
CONTINUOUS
 10
6.3396220839
 20
11.1659102115
 11
6.3396220839
 21
14.0341853512
  0
LINE
  5
24E
100
AcDbEntity
  8
0
100
AcDbLine
 62
7
  6
CONTINUOUS
 10
6.3559329412
 20
11.1125477814
 11
6.3559329412
 21
14.0875477814
  0
LINE
  5
24F
100
AcDbEntity
  8
0
100
AcDbLine
 62
7
  6
CONTINUOUS
 10
6.3846220839
 20
11.1213189325
 11
6.3846220839
 21
14.0787766302
  0
LINE
  5
250
100
AcDbEntity
  8
0
100
AcDbLine
 62
7
  6
CONTINUOUS
 10
6.3396220839
 20
13.206585849
 11
5.8021220839
 21
13.206585849
  0
LINE
  5
251
100
AcDbEntity
  8
0
100
AcDbLine
 62
7
  6
CONTINUOUS
 10
6.3396220839
 20
13.4001823917
 11
5.8021220839
 21
13.4001823917
  0
LINE
  5
252
100
AcDbEntity
  8
0
100
AcDbLine
 62
7
  6
CONTINUOUS
 10
6.3396220839
 20
13.5742616397
 11
5.8021220839
 21
13.5742616397
  0
LINE
  5
253
100
AcDbEntity
  8
0
100
AcDbLine
 62
7
  6
CONTINUOUS
 10
6.3396220839
 20
13.7245371842
 11
5.8021220839
 21
13.7245371842
  0
LINE
  5
254
100
AcDbEntity
  8
0
100
AcDbLine
 62
7
  6
CONTINUOUS
 10
6.3396220839
 20
13.8473087424
 11
5.8021220839
 21
13.8473087424
  0
LINE
  5
255
100
AcDbEntity
  8
0
100
AcDbLine
 62
7
  6
CONTINUOUS
 10
6.3846220839
 20
11.1213189325
 11
6.3559329412
 21
11.1125477814
  0
LINE
  5
256
100
AcDbEntity
  8
0
100
AcDbLine
 62
7
  6
CONTINUOUS
 10
6.3396220839
 20
13.9395532713
 11
5.8021220839
 21
13.9395532713
  0
LINE
  5
257
100
AcDbEntity
  8
0
100
AcDbLine
 62
7
  6
CONTINUOUS
 10
6.3396220839
 20
13.9989994044
 11
5.8021220839
 21
13.9989994044
  0
LINE
  5
258
100
AcDbEntity
  8
0
100
AcDbLine
 62
7
  6
CONTINUOUS
 10
6.3396220839
 20
14.024178807
 11
5.8021220839
 21
14.024178807
  0
LINE
  5
259
100
AcDbEntity
  8
0
100
AcDbLine
 62
7
  6
CONTINUOUS
 10
6.3846220839
 20
14.0787766302
 11
6.3559329412
 21
14.0875477814
  0
LINE
  5
25A
100
AcDbEntity
  8
0
100
AcDbLine
 62
7
  6
CONTINUOUS
 10
15.1076954739
 20
13.97712823
 11
15.1336784147
 21
13.9858257967
  0
LINE
  5
25B
100
AcDbEntity
  8
0
100
AcDbLine
 62
7
  6
CONTINUOUS
 10
15.1076954739
 20
11.0444817558
 11
15.1336784147
 21
11.0357841892
  0
LINE
  5
25C
100
AcDbEntity
  8
0
100
AcDbLine
 62
7
  6
CONTINUOUS
 10
15.139155669
 20
13.9284730901
 11
15.1387504757
 21
13.9283135891
  0
LINE
  5
25D
100
AcDbEntity
  8
0
100
AcDbLine
 62
7
  6
CONTINUOUS
 10
15.056088331
 20
13.8693478235
 11
15.0569698589
 21
13.8696943115
  0
LINE
  5
25E
100
AcDbEntity
  8
0
100
AcDbLine
 62
7
  6
CONTINUOUS
 10
15.139351337
 20
13.9251872205
 11
15.1389468301
 21
13.9250323007
  0
LINE
  5
25F
100
AcDbEntity
  8
0
100
AcDbLine
 62
7
  6
CONTINUOUS
 10
15.5716961117
 20
11.0858456399
 11
15.2193860134
 21
11.0858456399
  0
LINE
  5
260
100
AcDbEntity
  8
0
100
AcDbLine
 62
7
  6
CONTINUOUS
 10
15.1808937404
 20
11.0900491023
 11
15.5655680799
 21
11.0900491023
  0
LINE
  5
261
100
AcDbEntity
  8
0
100
AcDbLine
 62
7
  6
CONTINUOUS
 10
15.0953258878
 20
11.1245951848
 11
15.5265372113
 21
11.1245951848
  0
LINE
  5
262
100
AcDbEntity
  8
0
100
AcDbLine
 62
7
  6
CONTINUOUS
 10
15.1808937214
 20
11.0900564937
 11
15.1806679013
 21
11.0900715579
  0
LINE
  5
263
100
AcDbEntity
  8
0
100
AcDbLine
 62
7
  6
CONTINUOUS
 10
15.7137814612
 20
11.0835771583
 11
15.7148446178
 21
11.0834201389
  0
LINE
  5
264
100
AcDbEntity
  8
0
100
AcDbLine
 62
7
  6
CONTINUOUS
 10
15.095325901
 20
11.1246015474
 11
15.0946473088
 21
11.1248004239
  0
LINE
  5
265
100
AcDbEntity
  8
0
100
AcDbLine
 62
7
  6
CONTINUOUS
 10
15.0129160119
 20
11.193090286
 11
15.0118014011
 21
11.1936573223
  0
LINE
  5
266
100
AcDbEntity
  8
0
100
AcDbLine
 62
7
  6
CONTINUOUS
 10
15.091323214
 20
11.1174497215
 11
15.0918817282
 21
11.1171008976
  0
LINE
  5
267
100
AcDbEntity
  8
0
100
AcDbLine
 62
7
  6
CONTINUOUS
 10
15.0915989819
 20
11.1203548614
 11
15.0921533077
 21
11.1199747596
  0
LINE
  5
268
100
AcDbEntity
  8
0
100
AcDbLine
 62
7
  6
CONTINUOUS
 10
15.0533973305
 20
13.8767489265
 11
15.0526703049
 21
13.8761502568
  0
LINE
  5
269
100
AcDbEntity
  8
0
100
AcDbLine
 62
7
  6
CONTINUOUS
 10
15.0537400209
 20
13.8739981647
 11
15.0530084463
 21
13.8734487342
  0
LINE
  5
26A
100
AcDbEntity
  8
0
100
AcDbLine
 62
7
  6
CONTINUOUS
 10
15.6403629097
 20
13.9123577365
 11
15.6394665373
 21
13.912014443
  0
LINE
  5
26B
100
AcDbEntity
  8
0
100
AcDbLine
 62
7
  6
CONTINUOUS
 10
15.0129160112
 20
11.1930896784
 11
15.466049798
 21
11.1930896784
  0
LINE
  5
26C
100
AcDbEntity
  8
0
100
AcDbLine
 62
7
  6
CONTINUOUS
 10
15.746279441
 20
11.2606799929
 11
15.7395016082
 21
11.2606799929
  0
LINE
  5
26D
100
AcDbEntity
  8
0
100
AcDbLine
 62
7
  6
CONTINUOUS
 10
15.6775160077
 20
11.0920874578
 11
15.678615394
 21
11.0917389229
  0
LINE
  5
26E
100
AcDbEntity
  8
0
100
AcDbLine
 62
7
  6
CONTINUOUS
 10
15.6776754358
 20
11.0953767318
 11
15.6787720355
 21
11.0950239773
  0
LINE
  5
26F
100
AcDbEntity
  8
0
100
AcDbLine
 62
7
  6
CONTINUOUS
 10
15.7137856427
 20
11.0837607903
 11
15.7148446178
 21
11.0834201389
  0
LINE
  5
270
100
AcDbEntity
  8
0
100
AcDbLine
 62
7
  6
CONTINUOUS
 10
15.0427623706
 20
11.1539005404
 11
15.0440165152
 21
11.1528027622
  0
LINE
  5
271
100
AcDbEntity
  8
0
100
AcDbLine
 62
7
  6
CONTINUOUS
 10
14.9721656457
 20
13.791419655
 11
14.9712319401
 21
13.7902081137
  0
LINE
  5
272
100
AcDbEntity
  8
0
100
AcDbLine
 62
7
  6
CONTINUOUS
 10
14.9724847591
 20
13.7897941226
 11
14.9715300885
 21
13.7886964288
  0
LINE
  5
273
100
AcDbEntity
  8
0
100
AcDbLine
 62
7
  6
CONTINUOUS
 10
15.6402171127
 20
13.9142872195
 11
15.6393272477
 21
13.9138418849
  0
LINE
  5
274
100
AcDbEntity
  8
0
100
AcDbLine
 62
7
  6
CONTINUOUS
 10
14.9356933154
 20
11.2938460215
 11
15.4011698671
 21
11.2938460215
  0
LINE
  5
275
100
AcDbEntity
  8
0
100
AcDbLine
 62
7
  6
CONTINUOUS
 10
15.0081461833
 20
11.1876514532
 11
15.0089470991
 21
11.1867934166
  0
LINE
  5
276
100
AcDbEntity
  8
0
100
AcDbLine
 62
7
  6
CONTINUOUS
 10
15.0086476352
 20
11.1907313027
 11
15.0094459698
 21
11.1898708298
  0
LWPOLYLINE
  5
277
100
AcDbEntity
  8
0
100
AcDbPolyline
 62
7
  6
CONTINUOUS
 90
3
 70
0
 10
15.0427694447
 20
11.1539536271
 10
15.0430660288
 20
11.1536339584
 10
15.0440382698
 20
11.1529672917
  0
LINE
  5
278
100
AcDbEntity
  8
0
100
AcDbLine
 62
7
  6
CONTINUOUS
 10
14.8972895647
 20
13.6747351864
 11
14.8959591677
 21
13.6722682823
  0
LINE
  5
279
100
AcDbEntity
  8
0
100
AcDbLine
 62
7
  6
CONTINUOUS
 10
14.9291849384
 20
13.6713469125
 11
14.9328361515
 21
13.6775683885
  0
LINE
  5
27A
100
AcDbEntity
  8
0
100
AcDbLine
 62
7
  6
CONTINUOUS
 10
14.8973362171
 20
13.6745687623
 11
14.8963295982
 21
13.6729566941
  0
LINE
  5
27B
100
AcDbEntity
  8
0
100
AcDbLine
 62
7
  6
CONTINUOUS
 10
14.8655592794
 20
11.4243832584
 11
15.3386417719
 21
11.4243832584
  0
LINE
  5
27C
100
AcDbEntity
  8
0
100
AcDbLine
 62
7
  6
CONTINUOUS
 10
14.9309889833
 20
11.2928514896
 11
14.9319543038
 21
11.2913859008
  0
LINE
  5
27D
100
AcDbEntity
  8
0
100
AcDbLine
 62
7
  6
CONTINUOUS
 10
14.9303577098
 20
11.2902236167
 11
14.931314654
 21
11.2887111377
  0
LINE
  5
27E
100
AcDbEntity
  8
0
100
AcDbLine
 62
7
  6
CONTINUOUS
 10
14.8602898815
 20
11.424517566
 11
14.8613654688
 21
11.4223268633
  0
LINE
  5
27F
100
AcDbEntity
  8
0
100
AcDbLine
 62
7
  6
CONTINUOUS
 10
14.8314021077
 20
13.5298789635
 11
14.830492646
 21
13.5273173929
  0
LINE
  5
280
100
AcDbEntity
  8
0
100
AcDbLine
 62
7
  6
CONTINUOUS
 10
14.831014301
 20
13.530886594
 11
14.8300555813
 21
13.528447533
  0
LINE
  5
281
100
AcDbEntity
  8
0
100
AcDbLine
 62
7
  6
CONTINUOUS
 10
14.8576053913
 20
13.5281708052
 11
14.8653382402
 21
13.5464090447
  0
LINE
  5
282
100
AcDbEntity
  8
0
100
AcDbLine
 62
7
  6
CONTINUOUS
 10
14.8963295982
 20
13.6729566941
 11
14.8959774671
 21
13.6722034057
  0
LINE
  5
283
100
AcDbEntity
  8
0
100
AcDbLine
 62
7
  6
CONTINUOUS
 10
14.8042408358
 20
11.5814871291
 11
15.2822149102
 21
11.5814871291
  0
LINE
  5
284
100
AcDbEntity
  8
0
100
AcDbLine
 62
7
  6
CONTINUOUS
 10
14.8953307983
 20
11.4116014839
 11
14.8890584144
 21
11.4243832584
  0
LINE
  5
285
100
AcDbEntity
  8
0
100
AcDbLine
 62
7
  6
CONTINUOUS
 10
14.8597177629
 20
11.4228067688
 11
14.8607613074
 21
11.4205112303
  0
LINE
  5
286
100
AcDbEntity
  8
0
100
AcDbLine
 62
7
  6
CONTINUOUS
 10
14.8324102837
 20
11.5569954466
 11
14.823650471
 21
11.5814871291
  0
LINE
  5
287
100
AcDbEntity
  8
0
100
AcDbLine
 62
7
  6
CONTINUOUS
 10
14.7064188246
 20
12.1169836285
 11
14.7016122106
 21
12.1612923975
  0
LINE
  5
288
100
AcDbEntity
  8
0
100
AcDbLine
 62
7
  6
CONTINUOUS
 10
14.6887949169
 20
12.3295815886
 11
14.6867467017
 21
12.3752757232
  0
LINE
  5
289
100
AcDbEntity
  8
0
100
AcDbLine
 62
7
  6
CONTINUOUS
 10
14.6843391268
 20
12.5466418703
 11
14.6850997445
 21
12.5925962292
  0
LINE
  5
28A
100
AcDbEntity
  8
0
100
AcDbLine
 62
7
  6
CONTINUOUS
 10
14.6931611709
 20
12.7628197292
 11
14.6967118924
 21
12.8079027635
  0
LINE
  5
28B
100
AcDbEntity
  8
0
100
AcDbLine
 62
7
  6
CONTINUOUS
 10
14.7150438211
 20
12.9727921489
 11
14.7212972159
 21
13.0158937648
  0
LINE
  5
28C
100
AcDbEntity
  8
0
100
AcDbLine
 62
7
  6
CONTINUOUS
 10
14.7494482539
 20
13.1713889115
 11
14.7582503427
 21
13.2114478041
  0
LINE
  5
28D
100
AcDbEntity
  8
0
100
AcDbLine
 62
7
  6
CONTINUOUS
 10
14.797507708
 20
13.3601284501
 11
14.8066613641
 21
13.3897496922
  0
LINE
  5
28E
100
AcDbEntity
  8
0
100
AcDbLine
 62
7
  6
CONTINUOUS
 10
15.5133977724
 20
11.2149318427
 11
15.5137781207
 21
11.21452189
  0
LINE
  5
28F
100
AcDbEntity
  8
0
100
AcDbLine
 62
7
  6
CONTINUOUS
 10
15.5027523149
 20
11.1882366168
 11
15.5014055199
 21
11.1896891224
  0
LINE
  5
290
100
AcDbEntity
  8
0
100
AcDbLine
 62
7
  6
CONTINUOUS
 10
15.5129967902
 20
11.2127004541
 11
15.5133718181
 21
11.2122564803
  0
LINE
  5
291
100
AcDbEntity
  8
0
100
AcDbLine
 62
7
  6
CONTINUOUS
 10
14.7791215998
 20
11.7258753658
 11
14.7699707342
 21
11.761289215
  0
LINE
  5
292
100
AcDbEntity
  8
0
100
AcDbLine
 62
7
  6
CONTINUOUS
 10
14.7367768911
 20
11.9140828575
 11
14.7293302329
 21
11.955915232
  0
LINE
  5
293
100
AcDbEntity
  8
0
100
AcDbLine
 62
7
  6
CONTINUOUS
 10
15.47061014
 20
13.7859116719
 11
15.4710320385
 21
13.7865886856
  0
LINE
  5
294
100
AcDbEntity
  8
0
100
AcDbLine
 62
7
  6
CONTINUOUS
 10
15.4700706693
 20
13.7882877589
 11
15.4705011505
 21
13.7889316245
  0
LINE
  5
295
100
AcDbEntity
  8
0
100
AcDbLine
 62
7
  6
CONTINUOUS
 10
15.4792774059
 20
13.7653317409
 11
15.4786972947
 21
13.7645163851
  0
LINE
  5
296
100
AcDbEntity
  8
0
100
AcDbLine
 62
7
  6
CONTINUOUS
 10
14.7532478484
 20
11.761289215
 11
15.2343805694
 21
11.761289215
  0
LINE
  5
297
100
AcDbEntity
  8
0
100
AcDbLine
 62
7
  6
CONTINUOUS
 10
15.5027085843
 20
11.188011869
 11
15.5014055199
 21
11.1896891224
  0
LINE
  5
298
100
AcDbEntity
  8
0
100
AcDbLine
 62
7
  6
CONTINUOUS
 10
15.4419442329
 20
11.3158829333
 11
15.4422809317
 21
11.3153717395
  0
LINE
  5
299
100
AcDbEntity
  8
0
100
AcDbLine
 62
7
  6
CONTINUOUS
 10
15.4027095253
 20
13.6702822372
 11
15.4029653183
 21
13.6708018522
  0
LINE
  5
29A
100
AcDbEntity
  8
0
100
AcDbLine
 62
7
  6
CONTINUOUS
 10
15.4111104204
 20
13.6523633911
 11
15.4107639802
 21
13.6516920944
  0
LINE
  5
29B
100
AcDbEntity
  8
0
100
AcDbLine
 62
7
  6
CONTINUOUS
 10
15.4794624056
 20
13.7644625494
 11
15.4789007657
 21
13.7635631035
  0
LINE
  5
29C
100
AcDbEntity
  8
0
100
AcDbLine
 62
7
  6
CONTINUOUS
 10
15.4415457733
 20
11.31431838
 11
15.4418733056
 21
11.3137687354
  0
LINE
  5
29D
100
AcDbEntity
  8
0
100
AcDbLine
 62
7
  6
CONTINUOUS
 10
15.4337617573
 20
11.2924493028
 11
15.4322116283
 21
11.2951968504
  0
LINE
  5
29E
100
AcDbEntity
  8
0
100
AcDbLine
 62
7
  6
CONTINUOUS
 10
15.4337617573
 20
11.2924493028
 11
15.4322832157
 21
11.2954622537
  0
LINE
  5
29F
100
AcDbEntity
  8
0
100
AcDbLine
 62
7
  6
CONTINUOUS
 10
14.7722118731
 20
11.6907589937
 11
14.7790098215
 21
11.7144074288
  0
LINE
  5
2A0
100
AcDbEntity
  8
0
100
AcDbLine
 62
7
  6
CONTINUOUS
 10
15.3390568697
 20
13.5146229364
 11
15.3392102304
 21
13.5150550288
  0
LINE
  5
2A1
100
AcDbEntity
  8
0
100
AcDbLine
 62
7
  6
CONTINUOUS
 10
15.3380918
 20
13.5169237707
 11
15.3382470832
 21
13.5173531022
  0
LINE
  5
2A2
100
AcDbEntity
  8
0
100
AcDbLine
 62
7
  6
CONTINUOUS
 10
14.7278129996
 20
11.8821745542
 11
14.7359678799
 21
11.9028010126
  0
LINE
  5
2A3
100
AcDbEntity
  8
0
100
AcDbLine
 62
7
  6
CONTINUOUS
 10
15.4034261064
 20
13.6679574306
 11
15.4036761676
 21
13.6684929559
  0
LINE
  5
2A4
100
AcDbEntity
  8
0
100
AcDbLine
 62
7
  6
CONTINUOUS
 10
15.4115024465
 20
13.6510281854
 11
15.4111690008
 21
13.6503148665
  0
LINE
  5
2A5
100
AcDbEntity
  8
0
100
AcDbLine
 62
7
  6
CONTINUOUS
 10
14.6956214892
 20
12.0890690824
 11
14.7049325012
 21
12.1061656723
  0
LINE
  5
2A6
100
AcDbEntity
  8
0
100
AcDbLine
 62
7
  6
CONTINUOUS
 10
14.6764300036
 20
12.3063481484
 11
14.6866678794
 21
12.319493895
  0
LINE
  5
2A7
100
AcDbEntity
  8
0
100
AcDbLine
 62
7
  6
CONTINUOUS
 10
14.670711101
 20
12.5286616204
 11
14.6816237501
 21
12.5375328319
  0
LINE
  5
2A8
100
AcDbEntity
  8
0
100
AcDbLine
 62
7
  6
CONTINUOUS
 10
14.6786055997
 20
12.7505354031
 11
14.6899243165
 21
12.7549136406
  0
LINE
  5
2A9
100
AcDbEntity
  8
0
100
AcDbLine
 62
7
  6
CONTINUOUS
 10
14.7138359336
 20
11.9593621919
 11
15.1969143881
 21
11.9593621919
  0
LINE
  5
2AA
100
AcDbEntity
  8
0
100
AcDbLine
 62
7
  6
CONTINUOUS
 10
14.6981619101
 20
12.1685789547
 11
14.6867497574
 21
12.1708512909
  0
LINE
  5
2AB
100
AcDbEntity
  8
0
100
AcDbLine
 62
7
  6
CONTINUOUS
 10
14.6837827659
 20
12.3838586017
 11
14.672649543
 21
12.3906873734
  0
LINE
  5
2AC
100
AcDbEntity
  8
0
100
AcDbLine
 62
7
  6
CONTINUOUS
 10
14.6826951553
 20
12.6022640902
 11
14.672114999
 21
12.6134811504
  0
LINE
  5
2AD
100
AcDbEntity
  8
0
100
AcDbLine
 62
7
  6
CONTINUOUS
 10
14.6949258588
 20
12.8184175522
 11
14.6851592877
 21
12.8337466996
  0
LINE
  5
2AE
100
AcDbEntity
  8
0
100
AcDbLine
 62
7
  6
CONTINUOUS
 10
15.3764375666
 20
11.4435775205
 11
15.3766255455
 21
11.4431946487
  0
LINE
  5
2AF
100
AcDbEntity
  8
0
100
AcDbLine
 62
7
  6
CONTINUOUS
 10
14.720173716
 20
13.0269965721
 11
14.7114612155
 21
13.0460603522
  0
LINE
  5
2B0
100
AcDbEntity
  8
0
100
AcDbLine
 62
7
  6
CONTINUOUS
 10
15.376167376
 20
11.4427978282
 11
15.3763464955
 21
11.4423886914
  0
LINE
  5
2B1
100
AcDbEntity
  8
0
100
AcDbLine
 62
7
  6
CONTINUOUS
 10
14.7578170407
 20
13.2228652422
 11
14.7503731415
 21
13.2451942414
  0
LINE
  5
2B2
100
AcDbEntity
  8
0
100
AcDbLine
 62
7
  6
CONTINUOUS
 10
14.934468591
 20
13.688246551
 11
14.9317836217
 21
13.7168200588
  0
LINE
  5
2B3
100
AcDbEntity
  8
0
100
AcDbLine
 62
7
  6
CONTINUOUS
 10
15.1302219074
 20
11.1113544088
 11
15.1294452162
 21
11.1245951848
  0
LINE
  5
2B4
100
AcDbEntity
  8
0
100
AcDbLine
 62
7
  6
CONTINUOUS
 10
15.009755914
 20
13.7898890695
 11
15.008844655
 21
13.8191893774
  0
LINE
  5
2B5
100
AcDbEntity
  8
0
100
AcDbLine
 62
7
  6
CONTINUOUS
 10
15.046118907
 20
11.1660860663
 11
15.0461985251
 21
11.1930896784
  0
LINE
  5
2B6
100
AcDbEntity
  8
0
100
AcDbLine
 62
7
  6
CONTINUOUS
 10
15.0905999548
 20
13.8696975981
 11
15.0911931193
 21
13.8893419301
  0
LINE
  5
2B7
100
AcDbEntity
  8
0
100
AcDbLine
 62
7
  6
CONTINUOUS
 10
14.9663855219
 20
11.2539291665
 11
14.9682616787
 21
11.2829252398
  0
LINE
  5
2B8
100
AcDbEntity
  8
0
100
AcDbLine
 62
7
  6
CONTINUOUS
 10
15.1762839519
 20
13.9199881243
 11
15.1768013221
 21
13.9255503284
  0
LINE
  5
2B9
100
AcDbEntity
  8
0
100
AcDbLine
 62
7
  6
CONTINUOUS
 10
14.8929850525
 20
11.3727207209
 11
14.8966045065
 21
11.4006061276
  0
LINE
  5
2BA
100
AcDbEntity
  8
0
100
AcDbLine
 62
7
  6
CONTINUOUS
 10
14.8277248621
 20
11.5195356872
 11
14.8329984904
 21
11.545623796
  0
LINE
  5
2BB
100
AcDbEntity
  8
0
100
AcDbLine
 62
7
  6
CONTINUOUS
 10
14.8069289294
 20
13.4012006257
 11
14.800936925
 21
13.42624503
  0
LINE
  5
2BC
100
AcDbEntity
  8
0
100
AcDbLine
 62
7
  6
CONTINUOUS
 10
14.8663000845
 20
13.5576115137
 11
14.8619075178
 21
13.5847546468
  0
LINE
  5
2BD
100
AcDbEntity
  8
0
100
AcDbLine
 62
7
  6
CONTINUOUS
 10
15.1835916098
 20
12.9665062274
 11
14.699919111
 21
12.9665062274
  0
LINE
  5
2BE
100
AcDbEntity
  8
0
100
AcDbLine
 62
7
  6
CONTINUOUS
 10
15.5790720579
 20
13.018672831
 11
15.5369381946
 21
13.0168389947
  0
LINE
  5
2BF
100
AcDbEntity
  8
0
100
AcDbLine
 62
7
  6
CONTINUOUS
 10
15.2161591078
 20
13.1713576076
 11
14.7336481099
 21
13.1713576076
  0
LINE
  5
2C0
100
AcDbEntity
  8
0
100
AcDbLine
 62
7
  6
CONTINUOUS
 10
15.2597464832
 20
13.3601284501
 11
14.7794629047
 21
13.3601284501
  0
LINE
  5
2C1
100
AcDbEntity
  8
0
100
AcDbLine
 62
7
  6
CONTINUOUS
 10
15.3128302006
 20
13.5281708052
 11
14.8362132704
 21
13.5281708052
  0
LINE
  5
2C2
100
AcDbEntity
  8
0
100
AcDbLine
 62
7
  6
CONTINUOUS
 10
15.373263782
 20
13.6713469125
 11
14.9025018248
 21
13.6713469125
  0
LINE
  5
2C3
100
AcDbEntity
  8
0
100
AcDbLine
 62
7
  6
CONTINUOUS
 10
15.7462794398
 20
13.7609299929
 11
15.7305130847
 21
13.7609299929
  0
LINE
  5
2C4
100
AcDbEntity
  8
0
100
AcDbLine
 62
7
  6
CONTINUOUS
 10
15.4378921611
 20
13.786131301
 11
14.9766963236
 21
13.786131301
  0
LINE
  5
2C5
100
AcDbEntity
  8
0
100
AcDbLine
 62
7
  6
CONTINUOUS
 10
15.501350165
 20
13.8696975981
 11
15.056969852
 21
13.8696975981
  0
LINE
  5
2C6
100
AcDbEntity
  8
0
100
AcDbLine
 62
7
  6
CONTINUOUS
 10
15.140910722
 20
13.9199044371
 11
15.1413458133
 21
13.9199794989
  0
LINE
  5
2C7
100
AcDbEntity
  8
0
100
AcDbLine
 62
7
  6
CONTINUOUS
 10
15.5512935505
 20
13.9199881243
 11
15.1413458094
 21
13.9199881243
  0
LINE
  5
2C8
100
AcDbEntity
  8
0
100
AcDbLine
 62
7
  6
CONTINUOUS
 10
15.5722366068
 20
13.9357643459
 11
15.2235773263
 21
13.9358049929
  0
LINE
  5
2C9
100
AcDbEntity
  8
0
100
AcDbLine
 62
7
  6
CONTINUOUS
 10
15.8345294631
 20
11.0444817558
 11
15.8085465223
 21
11.0357841892
  0
LINE
  5
2CA
100
AcDbEntity
  8
0
100
AcDbLine
 62
7
  6
CONTINUOUS
 10
15.8345294631
 20
13.97712823
 11
15.8085465223
 21
13.9858257967
  0
CIRCLE
  5
2CB
100
AcDbEntity
  8
0
100
AcDbCircle
 62
7
  6
CONTINUOUS
 10
15.5603552569
 20
5.4606247044
 40
1.4875
  0
CIRCLE
  5
2CC
100
AcDbEntity
  8
0
100
AcDbCircle
 62
7
  6
CONTINUOUS
 10
15.5603552569
 20
5.4606247044
 40
1.4787288489
  0
CIRCLE
  5
2CD
100
AcDbEntity
  8
0
100
AcDbCircle
 62
7
  6
CONTINUOUS
 10
15.5603552569
 20
5.4606247044
 40
1.4296660596
  0
CIRCLE
  5
2CE
100
AcDbEntity
  8
0
100
AcDbCircle
 62
7
  6
CONTINUOUS
 10
15.5603552569
 20
5.4606247044
 40
1.251
  0
CIRCLE
  5
2CF
100
AcDbEntity
  8
0
100
AcDbCircle
 62
7
  6
CONTINUOUS
 10
15.5603552569
 20
5.4606247044
 40
1.250125
  0
ARC
  5
2D0
100
AcDbEntity
  8
0
100
AcDbCircle
 62
7
  6
CONTINUOUS
 10
15.5603552569
 20
5.4606247044
 40
0.6865
100
AcDbArc
 50
2.4961673813
 51
80.7199406109
  0
ARC
  5
2D1
100
AcDbEntity
  8
0
100
AcDbCircle
 62
7
  6
CONTINUOUS
 10
15.5603552569
 20
5.4606247044
 40
0.6865
100
AcDbArc
 50
99.2800593891
 51
177.5038326187
  0
ARC
  5
2D2
100
AcDbEntity
  8
0
100
AcDbCircle
 62
7
  6
CONTINUOUS
 10
15.5603552569
 20
5.4606247044
 40
0.6865
100
AcDbArc
 50
192.4961673813
 51
347.5038326187
  0
ARC
  5
2D3
100
AcDbEntity
  8
0
100
AcDbCircle
 62
7
  6
CONTINUOUS
 10
15.5603552569
 20
5.4606247044
 40
0.662212
100
AcDbArc
 50
80.2282138379
 51
99.7717861621
  0
CIRCLE
  5
2D4
100
AcDbEntity
  8
0
100
AcDbCircle
 62
7
  6
CONTINUOUS
 10
15.5603552569
 20
5.4606247044
 40
0.6405
  0
ARC
  5
2D5
100
AcDbEntity
  8
0
100
AcDbCircle
 62
7
  6
CONTINUOUS
 10
15.5603552569
 20
6.1181247044
 40
0.1125
100
AcDbArc
 50
357.5055775899
 51
182.4938716586
  0
ARC
  5
2D6
100
AcDbEntity
  8
0
100
AcDbCircle
 62
7
  6
CONTINUOUS
 10
14.9053572429
 20
5.4033198036
 40
0.0925
100
AcDbArc
 50
86.1305512074
 51
283.8686857862
  0
ARC
  5
2D7
100
AcDbEntity
  8
0
100
AcDbCircle
 62
7
  6
CONTINUOUS
 10
16.2153532709
 20
5.4033198036
 40
0.0925
100
AcDbArc
 50
256.1305494049
 51
93.8686856596
  0
ARC
  5
2D8
100
AcDbEntity
  8
0
100
AcDbCircle
 62
7
  6
CONTINUOUS
 10
14.4626257418
 20
12.2521470781
 40
1.7559358982
100
AcDbArc
 50
342.6681991636
 51
342.8277382474
  0
ARC
  5
2D9
100
AcDbEntity
  8
0
100
AcDbCircle
 62
7
  6
CONTINUOUS
 10
15.5484746086
 20
11.6744937538
 40
0.7276987569
100
AcDbArc
 50
215.9233206881
 51
216.4822704055
  0
ARC
  5
2DA
100
AcDbEntity
  8
0
100
AcDbCircle
 62
7
  6
CONTINUOUS
 10
15.4114996733
 20
13.4583499684
 40
0.5511593886
100
AcDbArc
 50
137.2540266234
 51
137.9540726348
  0
ARC
  5
2DB
100
AcDbEntity
  8
0
100
AcDbCircle
 62
7
  6
CONTINUOUS
 10
15.3340601857
 20
11.4853664578
 40
0.4412755051
100
AcDbArc
 50
227.8899422078
 51
228.6904511655
  0
ARC
  5
2DC
100
AcDbEntity
  8
0
100
AcDbCircle
 62
7
  6
CONTINUOUS
 10
15.1324589957
 20
13.6206943402
 40
0.3974603716
100
AcDbArc
 50
52.0379620484
 51
53.1535068571
  0
ARC
  5
2DD
100
AcDbEntity
  8
0
100
AcDbCircle
 62
7
  6
CONTINUOUS
 10
15.1346823329
 20
11.3979806604
 40
0.3937780812
100
AcDbArc
 50
306.7538912352
 51
307.7855875775
  0
ARC
  5
2DE
100
AcDbEntity
  8
0
100
AcDbCircle
 62
7
  6
CONTINUOUS
 10
15.2687494092
 20
13.6207949571
 40
0.3343299963
100
AcDbArc
 50
122.4202050188
 51
123.3792159123
  0
ARC
  5
2DF
100
AcDbEntity
  8
0
100
AcDbCircle
 62
7
  6
CONTINUOUS
 10
15.2285077785
 20
11.3120078011
 40
0.2921326249
100
AcDbArc
 50
243.3784192157
 51
245.7273601157
  0
ARC
  5
2E0
100
AcDbEntity
  8
0
100
AcDbCircle
 62
7
  6
CONTINUOUS
 10
15.2205075827
 20
11.2941521778
 40
0.2725667353
100
AcDbArc
 50
245.7174598284
 51
251.4240843164
  0
ARC
  5
2E1
100
AcDbEntity
  8
0
100
AcDbCircle
 62
7
  6
CONTINUOUS
 10
15.2189082505
 20
13.7315660653
 40
0.2681633
100
AcDbArc
 50
108.5316163238
 51
114.2621692198
  0
ARC
  5
2E2
100
AcDbEntity
  8
0
100
AcDbCircle
 62
7
  6
CONTINUOUS
 10
15.219531161
 20
13.7057824654
 40
0.2395886347
100
AcDbArc
 50
72.948436329
 51
76.2347215627
  0
ARC
  5
2E3
100
AcDbEntity
  8
0
100
AcDbCircle
 62
7
  6
CONTINUOUS
 10
15.2213706026
 20
13.7130414202
 40
0.2321004886
100
AcDbArc
 50
76.2493797511
 51
78.2808966313
  0
ARC
  5
2E4
100
AcDbEntity
  8
0
100
AcDbCircle
 62
7
  6
CONTINUOUS
 10
15.2237243126
 20
13.7163546751
 40
0.2194503632
100
AcDbArc
 50
90.0383763132
 51
101.6501400184
  0
ARC
  5
2E5
100
AcDbEntity
  8
0
100
AcDbCircle
 62
7
  6
CONTINUOUS
 10
14.9847211987
 20
13.7890897422
 40
0.0250474729
100
AcDbArc
 50
353.1823829627
 51
1.8287616884
  0
ARC
  5
2E6
100
AcDbEntity
  8
0
100
AcDbCircle
 62
7
  6
CONTINUOUS
 10
14.6442861317
 20
30.9248410954
 40
18.0299168507
100
AcDbArc
 50
272.7669052167
 51
274.2055181251
  0
ARC
  5
2E7
100
AcDbEntity
  8
0
100
AcDbCircle
 62
7
  6
CONTINUOUS
 10
16.7114206726
 20
12.21988917
 40
2.0124657119
100
AcDbArc
 50
195.5040992391
 51
198.4163987811
  0
ARC
  5
2E8
100
AcDbEntity
  8
0
100
AcDbCircle
 62
7
  6
CONTINUOUS
 10
16.6713431881
 20
12.8198640357
 40
1.9731578129
100
AcDbArc
 50
162.0030211866
 51
162.8320968008
  0
ARC
  5
2E9
100
AcDbEntity
  8
0
100
AcDbCircle
 62
7
  6
CONTINUOUS
 10
16.6226027592
 20
12.1859075651
 40
1.9219087176
100
AcDbArc
 50
197.9935549776
 51
198.3090158957
  0
ARC
  5
2EA
100
AcDbEntity
  8
0
100
AcDbCircle
 62
7
  6
CONTINUOUS
 10
16.6223538185
 20
12.835740607
 40
1.9216600216
100
AcDbArc
 50
161.7453440817
 51
162.0019384048
  0
ARC
  5
2EB
100
AcDbEntity
  8
0
100
AcDbCircle
 62
7
  6
CONTINUOUS
 10
16.508279955
 20
12.1475715145
 40
1.8013297143
100
AcDbArc
 50
198.4005142788
 51
200.5495978777
  0
ARC
  5
2EC
100
AcDbEntity
  8
0
100
AcDbCircle
 62
7
  6
CONTINUOUS
 10
16.4655178729
 20
12.8835172318
 40
1.7533164193
100
AcDbArc
 50
158.5033660846
 51
161.6659158611
  0
ARC
  5
2ED
100
AcDbEntity
  8
0
100
AcDbCircle
 62
7
  6
CONTINUOUS
 10
16.4381177889
 20
12.8987051263
 40
1.7269741059
100
AcDbArc
 50
158.6139090205
 51
161.8145337608
  0
ARC
  5
2EE
100
AcDbEntity
  8
0
100
AcDbCircle
 62
7
  6
CONTINUOUS
 10
16.3794106582
 20
12.1002932868
 40
1.6640653082
100
AcDbArc
 50
200.5828446857
 51
200.8693897418
  0
ARC
  5
2EF
100
AcDbEntity
  8
0
100
AcDbCircle
 62
7
  6
CONTINUOUS
 10
16.1937391299
 20
12.9951080823
 40
1.4642669063
100
AcDbArc
 50
156.0476772066
 51
158.536882587
  0
ARC
  5
2F0
100
AcDbEntity
  8
0
100
AcDbCircle
 62
7
  6
CONTINUOUS
 10
16.103261525
 20
13.0349420975
 40
1.3654092799
100
AcDbArc
 50
155.6871895247
 51
156.033908862
  0
ARC
  5
2F1
100
AcDbEntity
  8
0
100
AcDbCircle
 62
7
  6
CONTINUOUS
 10
16.5500364665
 20
13.1058599392
 40
1.2786444543
100
AcDbArc
 50
153.8053291693
 51
154.3316202713
  0
ARC
  5
2F2
100
AcDbEntity
  8
0
100
AcDbCircle
 62
7
  6
CONTINUOUS
 10
16.0078639569
 20
11.9428838008
 40
1.2604434105
100
AcDbArc
 50
204.4837760315
 51
207.1627131708
  0
ARC
  5
2F3
100
AcDbEntity
  8
0
100
AcDbCircle
 62
7
  6
CONTINUOUS
 10
15.9023019175
 20
11.8898707746
 40
1.1423224276
100
AcDbArc
 50
207.2141075952
 51
207.6069119601
  0
ARC
  5
2F4
100
AcDbEntity
  8
0
100
AcDbCircle
 62
7
  6
CONTINUOUS
 10
15.7583016431
 20
13.2102614088
 40
0.978303475
100
AcDbArc
 50
148.3738178354
 51
151.6553156357
  0
ARC
  5
2F5
100
AcDbEntity
  8
0
100
AcDbCircle
 62
7
  6
CONTINUOUS
 10
15.6891847048
 20
13.2524189526
 40
0.8973449751
100
AcDbArc
 50
147.8641226817
 51
148.3516885069
  0
ARC
  5
2F6
100
AcDbEntity
  8
0
100
AcDbCircle
 62
7
  6
CONTINUOUS
 10
15.6206586333
 20
11.7254211767
 40
0.8160335655
100
AcDbArc
 50
212.3548888843
 51
215.8454312671
  0
ARC
  5
2F7
100
AcDbEntity
  8
0
100
AcDbCircle
 62
7
  6
CONTINUOUS
 10
16.0770602617
 20
13.3394679481
 40
0.7339647898
100
AcDbArc
 50
143.8149000672
 51
144.5337193865
  0
ARC
  5
2F8
100
AcDbEntity
  8
0
100
AcDbCircle
 62
7
  6
CONTINUOUS
 10
15.8761102475
 20
13.5116549287
 40
0.4689671591
100
AcDbArc
 50
133.395242171
 51
133.6988348761
  0
ARC
  5
2F9
100
AcDbEntity
  8
0
100
AcDbCircle
 62
7
  6
CONTINUOUS
 10
15.8664536795
 20
13.5219377359
 40
0.4548610231
100
AcDbArc
 50
132.206959475
 51
133.4012631288
  0
ARC
  5
2FA
100
AcDbEntity
  8
0
100
AcDbCircle
 62
7
  6
CONTINUOUS
 10
15.7558244172
 20
11.2792797957
 40
0.247636974
100
AcDbArc
 50
282.1938751008
 51
288.5313843558
  0
ARC
  5
2FB
100
AcDbEntity
  8
0
100
AcDbCircle
 62
7
  6
CONTINUOUS
 10
15.7566432016
 20
13.7452976737
 40
0.2445629879
100
AcDbArc
 50
71.4295234988
 51
77.874397522
  0
ARC
  5
2FC
100
AcDbEntity
  8
0
100
AcDbCircle
 62
7
  6
CONTINUOUS
 10
15.7583956378
 20
11.2685850408
 40
0.2366405517
100
AcDbArc
 50
281.6977925598
 51
282.1323131498
  0
ARC
  5
2FD
100
AcDbEntity
  8
0
100
AcDbCircle
 62
7
  6
CONTINUOUS
 10
15.7467012504
 20
11.3027696451
 40
0.2216507409
100
AcDbArc
 50
261.7365776398
 51
262.7432442419
  0
ARC
  5
2FE
100
AcDbEntity
  8
0
100
AcDbCircle
 62
7
  6
CONTINUOUS
 10
15.7465759992
 20
13.7197685167
 40
0.2207136594
100
AcDbArc
 50
96.1914146997
 51
97.2858991773
  0
ARC
  5
2FF
100
AcDbEntity
  8
0
100
AcDbCircle
 62
7
  6
CONTINUOUS
 10
15.7464751323
 20
13.7206860122
 40
0.219790637
100
AcDbArc
 50
95.50838829
 51
96.1910689519
  0
ARC
  5
300
100
AcDbEntity
  8
0
100
AcDbCircle
 62
7
  6
CONTINUOUS
 10
15.7462675354
 20
11.2986877225
 40
0.2175467459
100
AcDbArc
 50
262.7207599111
 51
274.4152181269
  0
ARC
  5
301
100
AcDbEntity
  8
0
100
AcDbCircle
 62
7
  6
CONTINUOUS
 10
15.7466001888
 20
13.5682843675
 40
0.1935353235
100
AcDbArc
 50
96.3222610733
 51
98.1281016273
  0
ARC
  5
302
100
AcDbEntity
  8
0
100
AcDbCircle
 62
7
  6
CONTINUOUS
 10
15.759014277
 20
13.5698320711
 40
0.1910989213
100
AcDbArc
 50
93.7966010622
 51
96.2144202516
  0
ARC
  5
303
100
AcDbEntity
  8
0
100
AcDbCircle
 62
7
  6
CONTINUOUS
 10
15.7463092191
 20
11.4507607799
 40
0.1909543444
100
AcDbArc
 50
261.7625076477
 51
269.9910651014
  0
ARC
  5
304
100
AcDbEntity
  8
0
100
AcDbCircle
 62
7
  6
CONTINUOUS
 10
15.7462995751
 20
13.5710732914
 40
0.1907302576
100
AcDbArc
 50
90.0060486768
 51
96.3247641107
  0
ARC
  5
305
100
AcDbEntity
  8
0
100
AcDbCircle
 62
7
  6
CONTINUOUS
 10
15.7462458552
 20
13.5712791756
 40
0.19052479
100
AcDbArc
 50
86.203113003
 51
87.9499642766
  0
ARC
  5
306
100
AcDbEntity
  8
0
100
AcDbCircle
 62
7
  6
CONTINUOUS
 10
15.7589623714
 20
11.4507952086
 40
0.1901137755
100
AcDbArc
 50
266.2670099434
 51
269.9944722251
  0
ARC
  5
307
100
AcDbEntity
  8
0
100
AcDbCircle
 62
7
  6
CONTINUOUS
 10
15.7462834468
 20
11.4499103204
 40
0.1901038827
100
AcDbArc
 50
269.9987926676
 51
273.8224459076
  0
ARC
  5
308
100
AcDbEntity
  8
0
100
AcDbCircle
 62
7
  6
CONTINUOUS
 10
15.7589397726
 20
13.5709679676
 40
0.1899605843
100
AcDbArc
 50
89.9987163427
 51
93.7968641347
  0
ARC
  5
309
100
AcDbEntity
  8
0
100
AcDbCircle
 62
7
  6
CONTINUOUS
 10
15.7462678646
 20
13.5718574437
 40
0.1899461047
100
AcDbArc
 50
87.9503592261
 51
89.9965083932
  0
ARC
  5
30A
100
AcDbEntity
  8
0
100
AcDbCircle
 62
7
  6
CONTINUOUS
 10
16.9426299821
 20
-9.8449704292
 40
22.934602405
100
AcDbArc
 50
92.5659953767
 51
93.3695696122
  0
ARC
  5
30B
100
AcDbEntity
  8
0
100
AcDbCircle
 62
7
  6
CONTINUOUS
 10
17.8375322338
 20
12.465566784
 40
3.1701800842
100
AcDbArc
 50
186.9899586647
 51
189.1268378595
  0
ARC
  5
30C
100
AcDbEntity
  8
0
100
AcDbCircle
 62
7
  6
CONTINUOUS
 10
17.7741188955
 20
12.4592232847
 40
3.1027581733
100
AcDbArc
 50
187.0072115863
 51
189.1844070818
  0
ARC
  5
30D
100
AcDbEntity
  8
0
100
AcDbCircle
 62
7
  6
CONTINUOUS
 10
17.5967387003
 20
12.4276351288
 40
2.9264179616
100
AcDbArc
 50
189.2371291447
 51
190.7845236258
  0
ARC
  5
30E
100
AcDbEntity
  8
0
100
AcDbCircle
 62
7
  6
CONTINUOUS
 10
17.4783829185
 20
12.4057300688
 40
2.8060538834
100
AcDbArc
 50
190.7973483411
 51
190.9713961863
  0
ARC
  5
30F
100
AcDbEntity
  8
0
100
AcDbCircle
 62
7
  6
CONTINUOUS
 10
17.3430660532
 20
12.3789838346
 40
2.66812003
100
AcDbArc
 50
190.9605728314
 51
193.3342181036
  0
ARC
  5
310
100
AcDbEntity
  8
0
100
AcDbCircle
 62
7
  6
CONTINUOUS
 10
17.2699967511
 20
12.366994874
 40
2.590196849
100
AcDbArc
 50
190.9838911601
 51
193.4422755982
  0
ARC
  5
311
100
AcDbEntity
  8
0
100
AcDbCircle
 62
7
  6
CONTINUOUS
 10
17.0636112245
 20
12.3138310185
 40
2.3811723387
100
AcDbArc
 50
193.4530973873
 51
195.2491365814
  0
ARC
  5
312
100
AcDbEntity
  8
0
100
AcDbCircle
 62
7
  6
CONTINUOUS
 10
16.9297327853
 20
12.2781858232
 40
2.2426324568
100
AcDbArc
 50
195.2701396595
 51
195.4886777631
  0
ARC
  5
313
100
AcDbEntity
  8
0
100
AcDbCircle
 62
7
  6
CONTINUOUS
 10
16.7980980237
 20
12.2411895307
 40
2.1058985182
100
AcDbArc
 50
195.4750764527
 51
197.9490969329
  0
ARC
  5
314
100
AcDbEntity
  8
0
100
AcDbCircle
 62
7
  6
CONTINUOUS
 10
17.294286933
 20
12.2050690847
 40
2.0778855687
100
AcDbArc
 50
197.1691030746
 51
197.3832929306
  0
ARC
  5
315
100
AcDbEntity
  8
0
100
AcDbCircle
 62
7
  6
CONTINUOUS
 10
16.787273686
 20
12.0222733788
 40
1.5387348784
100
AcDbArc
 50
202.3570117181
 51
202.7506826171
  0
ARC
  5
316
100
AcDbEntity
  8
0
100
AcDbCircle
 62
7
  6
CONTINUOUS
 10
17.7889784827
 20
12.563202258
 40
3.1211072692
100
AcDbArc
 50
171.0782718539
 51
172.5450061175
  0
ARC
  5
317
100
AcDbEntity
  8
0
100
AcDbCircle
 62
7
  6
CONTINUOUS
 10
17.704741993
 20
12.5762400443
 40
3.0358679863
100
AcDbArc
 50
170.9194005115
 51
171.0748034707
  0
ARC
  5
318
100
AcDbEntity
  8
0
100
AcDbCircle
 62
7
  6
CONTINUOUS
 10
17.5602500885
 20
12.5969245704
 40
2.8861189621
100
AcDbArc
 50
168.60150381
 51
170.8749942963
  0
ARC
  5
319
100
AcDbEntity
  8
0
100
AcDbCircle
 62
7
  6
CONTINUOUS
 10
17.5342507236
 20
12.6048827841
 40
2.8629932594
100
AcDbArc
 50
168.6301848772
 51
170.9469418381
  0
ARC
  5
31A
100
AcDbEntity
  8
0
100
AcDbCircle
 62
7
  6
CONTINUOUS
 10
17.8154401695
 20
12.6743384746
 40
2.618156203
100
AcDbArc
 50
164.9979866788
 51
169.1534074077
  0
ARC
  5
31B
100
AcDbEntity
  8
0
100
AcDbCircle
 62
7
  6
CONTINUOUS
 10
17.2812372179
 20
12.6562822358
 40
2.6048107527
100
AcDbArc
 50
166.8920338853
 51
168.5436689949
  0
ARC
  5
31C
100
AcDbEntity
  8
0
100
AcDbCircle
 62
7
  6
CONTINUOUS
 10
17.1815047702
 20
12.6792562848
 40
2.5024666917
100
AcDbArc
 50
166.6879386353
 51
166.8864805844
  0
ARC
  5
31D
100
AcDbEntity
  8
0
100
AcDbCircle
 62
7
  6
CONTINUOUS
 10
17.0212757884
 20
12.7139967499
 40
2.3344861405
100
AcDbArc
 50
164.0098499702
 51
166.6258813018
  0
ARC
  5
31E
100
AcDbEntity
  8
0
100
AcDbCircle
 62
7
  6
CONTINUOUS
 10
16.9929340354
 20
12.7257120537
 40
2.3082668111
100
AcDbArc
 50
164.0649620816
 51
166.7323264093
  0
ARC
  5
31F
100
AcDbEntity
  8
0
100
AcDbCircle
 62
7
  6
CONTINUOUS
 10
17.4503462049
 20
12.7695745146
 40
2.2408551127
100
AcDbArc
 50
162.8592986521
 51
164.9336665569
  0
ARC
  5
320
100
AcDbEntity
  8
0
100
AcDbCircle
 62
7
  6
CONTINUOUS
 10
16.7739660147
 20
12.7881102507
 40
2.0805810192
100
AcDbArc
 50
162.830789121
 51
163.9656069449
  0
ARC
  5
321
100
AcDbEntity
  8
0
100
AcDbCircle
 62
7
  6
CONTINUOUS
 10
17.1888476667
 20
12.8496528697
 40
1.9673707666
100
AcDbArc
 50
160.1737553462
 51
162.8433666512
  0
ARC
  5
322
100
AcDbEntity
  8
0
100
AcDbCircle
 62
7
  6
CONTINUOUS
 10
17.0173060352
 20
12.9098269723
 40
1.785588688
100
AcDbArc
 50
159.8103066215
 51
160.1085907003
  0
ARC
  5
323
100
AcDbEntity
  8
0
100
AcDbCircle
 62
7
  6
CONTINUOUS
 10
17.0447842716
 20
12.7692474811
 40
1.7585041725
100
AcDbArc
 50
162.6971550236
 51
162.8277019696
  0
ARC
  5
324
100
AcDbEntity
  8
0
100
AcDbCircle
 62
7
  6
CONTINUOUS
 10
18.4395998376
 20
12.4631142057
 40
3.2827949064
100
AcDbArc
 50
186.719042761
 51
188.7898560361
  0
ARC
  5
325
100
AcDbEntity
  8
0
100
AcDbCircle
 62
7
  6
CONTINUOUS
 10
18.2062435745
 20
12.4265357101
 40
3.0465897548
100
AcDbArc
 50
188.7806497963
 51
190.5180808252
  0
ARC
  5
326
100
AcDbEntity
  8
0
100
AcDbCircle
 62
7
  6
CONTINUOUS
 10
17.9474014616
 20
12.3772688962
 40
2.7831036789
100
AcDbArc
 50
190.4936139939
 51
192.7884238332
  0
ARC
  5
327
100
AcDbEntity
  8
0
100
AcDbCircle
 62
7
  6
CONTINUOUS
 10
18.9696854645
 20
12.5107977882
 40
3.8152742473
100
AcDbArc
 50
178.4509797864
 51
179.8352259033
  0
ARC
  5
328
100
AcDbEntity
  8
0
100
AcDbCircle
 62
7
  6
CONTINUOUS
 10
18.9639149799
 20
12.5107424734
 40
3.8095039462
100
AcDbArc
 50
179.8341443669
 51
181.7129474305
  0
ARC
  5
329
100
AcDbEntity
  8
0
100
AcDbCircle
 62
7
  6
CONTINUOUS
 10
18.9132902341
 20
12.512458568
 40
3.7588544098
100
AcDbArc
 50
176.4468959698
 51
178.3390255427
  0
ARC
  5
32A
100
AcDbEntity
  8
0
100
AcDbCircle
 62
7
  6
CONTINUOUS
 10
18.9067831145
 20
12.5087877996
 40
3.7523387332
100
AcDbArc
 50
181.8127334816
 51
183.2179200919
  0
ARC
  5
32B
100
AcDbEntity
  8
0
100
AcDbCircle
 62
7
  6
CONTINUOUS
 10
18.8666248308
 20
12.506613698
 40
3.7121217292
100
AcDbArc
 50
183.2192098624
 51
183.3397954268
  0
ARC
  5
32C
100
AcDbEntity
  8
0
100
AcDbCircle
 62
7
  6
CONTINUOUS
 10
18.3403608137
 20
12.5107805483
 40
3.6752674994
100
AcDbArc
 50
179.8306348262
 51
181.7733075029
  0
ARC
  5
32D
100
AcDbEntity
  8
0
100
AcDbCircle
 62
7
  6
CONTINUOUS
 10
18.3392449393
 20
12.5108664122
 40
3.6741512661
100
AcDbArc
 50
178.394550681
 51
179.7204651156
  0
ARC
  5
32E
100
AcDbEntity
  8
0
100
AcDbCircle
 62
7
  6
CONTINUOUS
 10
18.3243452522
 20
12.5112569804
 40
3.6592464854
100
AcDbArc
 50
178.2770305883
 51
178.3941275239
  0
ARC
  5
32F
100
AcDbEntity
  8
0
100
AcDbCircle
 62
7
  6
CONTINUOUS
 10
18.8100724716
 20
12.5186277084
 40
3.6554525192
100
AcDbArc
 50
175.0317753093
 51
176.3429239798
  0
ARC
  5
330
100
AcDbEntity
  8
0
100
AcDbCircle
 62
7
  6
CONTINUOUS
 10
18.3176481265
 20
12.5107299254
 40
3.6489922047
100
AcDbArc
 50
179.8298223496
 51
181.7800032621
  0
ARC
  5
331
100
AcDbEntity
  8
0
100
AcDbCircle
 62
7
  6
CONTINUOUS
 10
18.7938949895
 20
12.5018754468
 40
3.6392394078
100
AcDbArc
 50
183.3320313177
 51
185.1521166512
  0
ARC
  5
332
100
AcDbEntity
  8
0
100
AcDbCircle
 62
7
  6
CONTINUOUS
 10
18.2931831047
 20
12.5093091473
 40
3.6280666975
100
AcDbArc
 50
181.880204178
 51
183.2107588289
  0
ARC
  5
333
100
AcDbEntity
  8
0
100
AcDbCircle
 62
7
  6
CONTINUOUS
 10
18.2682234849
 20
12.5133611483
 40
3.6030868496
100
AcDbArc
 50
176.3141803736
 51
178.2836426744
  0
ARC
  5
334
100
AcDbEntity
  8
0
100
AcDbCircle
 62
7
  6
CONTINUOUS
 10
18.2665948538
 20
12.5124970871
 40
3.5979134333
100
AcDbArc
 50
176.3052741135
 51
178.271962603
  0
ARC
  5
335
100
AcDbEntity
  8
0
100
AcDbCircle
 62
7
  6
CONTINUOUS
 10
18.7410851187
 20
12.5243303343
 40
3.5862305061
100
AcDbArc
 50
174.899472285
 51
175.0270889096
  0
ARC
  5
336
100
AcDbEntity
  8
0
100
AcDbCircle
 62
7
  6
CONTINUOUS
 10
18.2444090763
 20
12.5067789114
 40
3.5792275213
100
AcDbArc
 50
183.2140487632
 51
183.3374356745
  0
ARC
  5
337
100
AcDbEntity
  8
0
100
AcDbCircle
 62
7
  6
CONTINUOUS
 10
18.1894267072
 20
12.5033908329
 40
3.524141166
100
AcDbArc
 50
183.3344854538
 51
185.3362752253
  0
ARC
  5
338
100
AcDbEntity
  8
0
100
AcDbCircle
 62
7
  6
CONTINUOUS
 10
18.6533871773
 20
12.5324406517
 40
3.4981588028
100
AcDbArc
 50
172.9208212558
 51
174.9040837651
  0
ARC
  5
339
100
AcDbEntity
  8
0
100
AcDbCircle
 62
7
  6
CONTINUOUS
 10
18.1604030944
 20
12.5205851693
 40
3.4950244276
100
AcDbArc
 50
174.844297508
 51
176.2139666494
  0
ARC
  5
33A
100
AcDbEntity
  8
0
100
AcDbCircle
 62
7
  6
CONTINUOUS
 10
18.6356899571
 20
12.4871384597
 40
3.4803492214
100
AcDbArc
 50
185.241821419
 51
186.7341315447
  0
ARC
  5
33B
100
AcDbEntity
  8
0
100
AcDbCircle
 62
7
  6
CONTINUOUS
 10
18.1437117955
 20
12.5013891905
 40
3.4747906042
100
AcDbArc
 50
183.3469656543
 51
185.3637755106
  0
ARC
  5
33C
100
AcDbEntity
  8
0
100
AcDbCircle
 62
7
  6
CONTINUOUS
 10
18.1060698312
 20
12.5253767645
 40
3.440480404
100
AcDbArc
 50
174.7097187165
 51
174.8424603212
  0
ARC
  5
33D
100
AcDbEntity
  8
0
100
AcDbCircle
 62
7
  6
CONTINUOUS
 10
18.0305119099
 20
12.4889259192
 40
3.3645695289
100
AcDbArc
 50
185.4433020231
 51
186.8445184707
  0
ARC
  5
33E
100
AcDbEntity
  8
0
100
AcDbCircle
 62
7
  6
CONTINUOUS
 10
17.9991961135
 20
12.5337801027
 40
3.3296404537
100
AcDbArc
 50
172.6216074984
 51
174.6905360958
  0
ARC
  5
33F
100
AcDbEntity
  8
0
100
AcDbCircle
 62
7
  6
CONTINUOUS
 10
17.9842883127
 20
12.5375439183
 40
3.3180959182
100
AcDbArc
 50
172.6378008864
 51
174.7250327966
  0
ARC
  5
340
100
AcDbEntity
  8
0
100
AcDbCircle
 62
7
  6
CONTINUOUS
 10
18.4531950802
 20
12.5568063993
 40
3.2964895568
100
AcDbArc
 50
171.2781863268
 51
172.8168458773
  0
ARC
  5
341
100
AcDbEntity
  8
0
100
AcDbCircle
 62
7
  6
CONTINUOUS
 10
17.9400793173
 20
12.4785104888
 40
3.2735401958
100
AcDbArc
 50
186.8521521676
 51
186.996399534
  0
ARC
  5
342
100
AcDbEntity
  8
0
100
AcDbCircle
 62
7
  6
CONTINUOUS
 10
18.2278137573
 20
12.5912095143
 40
3.0684977068
100
AcDbArc
 50
169.1110334804
 51
171.2749953119
  0
SPLINE
  5
343
100
AcDbEntity
  8
0
100
AcDbSpline
 62
7
  6
CONTINUOUS
 70
0
 71
3
 72
19
 73
15
 74
0
 42
0.0000001
 43
0.0000001
 44
0.0000000001
 40
0.0
 40
0.0
 40
0.0
 40
0.0
 40
0.122128464
 40
0.2445534611
 40
0.3060623143
 40
0.3680951017
 40
0.4316286476
 40
0.4999995832
 40
0.5683712886
 40
0.631904865
 40
0.6939376349
 40
0.7554465051
 40
0.8778715181
 40
1.0
 40
1.0
 40
1.0
 40
1.0
 10
14.927528891
 20
5.3135163069
 30
0.0
 10
14.9261643736
 20
5.3208394911
 30
0.0
 10
14.9236822702
 20
5.3355514701
 30
0.0
 10
14.9212068336
 20
5.3540586461
 30
0.0
 10
14.9195923239
 20
5.3689747949
 30
0.0
 10
14.9185473284
 20
5.3803380817
 30
0.0
 10
14.9176393728
 20
5.3921323492
 30
0.0
 10
14.9167664289
 20
5.4043179486
 30
0.0
 10
14.9155101121
 20
5.4164700093
 30
0.0
 10
14.9143562067
 20
5.4282428068
 30
0.0
 10
14.9134121162
 20
5.4396149232
 30
0.0
 10
14.9124119174
 20
5.4545848199
 30
0.0
 10
14.9116361488
 20
5.4732406869
 30
0.0
 10
14.9115254405
 20
5.4881601766
 30
0.0
 10
14.9115978403
 20
5.4956090497
 30
0.0
  0
SPLINE
  5
344
100
AcDbEntity
  8
0
100
AcDbSpline
 62
7
  6
CONTINUOUS
 70
0
 71
3
 72
19
 73
15
 74
0
 42
0.0000001
 43
0.0000001
 44
0.0000000001
 40
0.0
 40
0.0
 40
0.0
 40
0.0
 40
0.1221284638
 40
0.2445534613
 40
0.3060623145
 40
0.3680951019
 40
0.4316286478
 40
0.4999995831
 40
0.5683712886
 40
0.631904865
 40
0.6939376349
 40
0.7554465052
 40
0.8778715181
 40
1.0
 40
1.0
 40
1.0
 40
1.0
 10
16.2091126735
 20
5.4956090497
 30
0.0
 10
16.2091849589
 20
5.4881601766
 30
0.0
 10
16.2090744178
 20
5.4732406906
 30
0.0
 10
16.2082985903
 20
5.454584826
 30
0.0
 10
16.2072983993
 20
5.4396149303
 30
0.0
 10
16.2063543071
 20
5.4282428158
 30
0.0
 10
16.2052004152
 20
5.4164700649
 30
0.0
 10
16.2039440901
 20
5.404318007
 30
0.0
 10
16.2030711374
 20
5.3921324063
 30
0.0
 10
16.2021631875
 20
5.3803380905
 30
0.0
 10
16.2011181882
 20
5.3689748024
 30
0.0
 10
16.1995036944
 20
5.3540586497
 30
0.0
 10
16.1970281357
 20
5.3355514935
 30
0.0
 10
16.1945463756
 20
5.3208394484
 30
0.0
 10
16.1931816228
 20
5.3135163069
 30
0.0
  0
SPLINE
  5
345
100
AcDbEntity
  8
0
100
AcDbSpline
 62
7
  6
CONTINUOUS
 70
0
 71
3
 72
41
 73
37
 74
0
 42
0.0000001
 43
0.0000001
 44
0.0000000001
 40
0.0
 40
0.0
 40
0.0
 40
0.0
 40
0.0330434726
 40
0.067384914
 40
0.1028781798
 40
0.1393896609
 40
0.1767846554
 40
0.2149136252
 40
0.2536208582
 40
0.2927474501
 40
0.3321324897
 40
0.3716123557
 40
0.4110224586
 40
0.4501992403
 40
0.4889803242
 40
0.5272069532
 40
0.5647234832
 40
0.6013807803
 40
0.6370351931
 40
0.6715524569
 40
0.7048066041
 40
0.7366844451
 40
0.7670849009
 40
0.795923981
 40
0.82313531
 40
0.8486759466
 40
0.872529191
 40
0.8947121366
 40
0.9152821225
 40
0.9343469313
 40
0.9520746754
 40
0.9687032084
 40
0.9767067122
 40
0.9845577092
 40
0.9923050727
 40
1.0
 40
1.0
 40
1.0
 40
1.0
 10
16.1402844926
 20
11.7337148313
 30
0.0
 10
16.1474962709
 20
11.7570521543
 30
0.0
 10
16.1612189805
 20
11.8049521323
 30
0.0
 10
16.179433099
 20
11.8788035664
 30
0.0
 10
16.1955926796
 20
11.95575294
 30
0.0
 10
16.209621621
 20
12.0354104722
 30
0.0
 10
16.2214479436
 20
12.1173928408
 30
0.0
 10
16.2310202652
 20
12.2013019704
 30
0.0
 10
16.2382840919
 20
12.2867265843
 30
0.0
 10
16.2432094591
 20
12.3732475229
 30
0.0
 10
16.2457668161
 20
12.460441976
 30
0.0
 10
16.2459490722
 20
12.5478832296
 30
0.0
 10
16.2437498665
 20
12.6351430775
 30
0.0
 10
16.2391851246
 20
12.7217941244
 30
0.0
 10
16.2322725384
 20
12.8074122216
 30
0.0
 10
16.2230508193
 20
12.8915784499
 30
0.0
 10
16.2115609713
 20
12.9738809588
 30
0.0
 10
16.1978637916
 20
13.053917511
 30
0.0
 10
16.1820226928
 20
13.1312968505
 30
0.0
 10
16.164119397
 20
13.2056415574
 30
0.0
 10
16.1442382588
 20
13.2765888113
 30
0.0
 10
16.1224800513
 20
13.3437937736
 30
0.0
 10
16.0989480392
 20
13.4069297349
 30
0.0
 10
16.0737592428
 20
13.4656918478
 30
0.0
 10
16.0470326445
 20
13.5197966348
 30
0.0
 10
16.0188971383
 20
13.5689856997
 30
0.0
 10
15.9894821152
 20
13.6130245335
 30
0.0
 10
15.9589208733
 20
13.651704821
 30
0.0
 10
15.9273451181
 20
13.6848415625
 30
0.0
 10
15.8948809714
 20
13.7122702107
 30
0.0
 10
15.8616645096
 20
13.7338390452
 30
0.0
 10
15.8330872854
 20
13.7469731665
 30
0.0
 10
15.8101773244
 20
13.7542454778
 30
0.0
 10
15.7931380614
 20
13.7580986089
 30
0.0
 10
15.7760539692
 20
13.7604125284
 30
0.0
 10
15.7646322325
 20
13.760928243
 30
0.0
 10
15.7589440285
 20
13.7609285518
 30
0.0
  0
SPLINE
  5
346
100
AcDbEntity
  8
0
100
AcDbSpline
 62
7
  6
CONTINUOUS
 70
0
 71
3
 72
13
 73
9
 74
0
 42
0.0000001
 43
0.0000001
 44
0.0000000001
 40
0.0
 40
0.0
 40
0.0
 40
0.0
 40
0.3039469694
 40
0.4401783388
 40
0.5664457925
 40
0.7931673307
 40
0.8979483946
 40
1.0
 40
1.0
 40
1.0
 40
1.0
 10
15.915844484
 20
13.0666340735
 30
0.0
 10
15.917169289
 20
13.0687666278
 30
0.0
 10
15.9192923037
 20
13.0717440105
 30
0.0
 10
15.9225256742
 20
13.0751371638
 30
0.0
 10
15.9256134039
 20
13.0777495259
 30
0.0
 10
15.9289535542
 20
13.0796543062
 30
0.0
 10
15.9324220387
 20
13.0806052271
 30
0.0
 10
15.9341344528
 20
13.0807609841
 30
0.0
 10
15.9349773839
 20
13.0807605459
 30
0.0
  0
SPLINE
  5
347
100
AcDbEntity
  8
0
100
AcDbSpline
 62
7
  6
CONTINUOUS
 70
0
 71
3
 72
18
 73
14
 74
0
 42
0.0000001
 43
0.0000001
 44
0.0000000001
 40
0.0
 40
0.0
 40
0.0
 40
0.0
 40
0.1654389214
 40
0.3185328215
 40
0.4589460961
 40
0.5869280344
 40
0.6464985993
 40
0.7032875506
 40
0.8092408189
 40
0.8590481445
 40
0.9071649899
 40
0.953998027
 40
1.0
 40
1.0
 40
1.0
 40
1.0
 10
15.5790715922
 20
13.0186734718
 30
0.0
 10
15.5846883567
 20
13.0317912884
 30
0.0
 10
15.5962862092
 20
13.0567252912
 30
0.0
 10
15.6155987811
 20
13.0913280589
 30
0.0
 10
15.6360387863
 20
13.1214551645
 30
0.0
 10
15.6543100927
 20
13.1431421689
 30
0.0
 10
15.6693967021
 20
13.1578820516
 30
0.0
 10
15.6840186645
 20
13.1703014471
 30
0.0
 10
15.6993233873
 20
13.180582952
 30
0.0
 10
15.7151678472
 20
13.1882651562
 30
0.0
 10
15.7269072644
 20
13.1925837816
 30
0.0
 10
15.7387176601
 20
13.1955613171
 30
0.0
 10
15.7466699998
 20
13.1966548268
 30
0.0
 10
15.7506252051
 20
13.19697126
 30
0.0
  0
SPLINE
  5
348
100
AcDbEntity
  8
0
100
AcDbSpline
 62
7
  6
CONTINUOUS
 70
0
 71
3
 72
15
 73
11
 74
0
 42
0.0000001
 43
0.0000001
 44
0.0000000001
 40
0.0
 40
0.0
 40
0.0
 40
0.0
 40
0.1726589532
 40
0.3318877828
 40
0.4763957503
 40
0.6058673259
 40
0.7207633494
 40
0.8225780868
 40
0.9141485881
 40
1.0
 40
1.0
 40
1.0
 40
1.0
 10
15.5240617918
 20
12.9894446685
 30
0.0
 10
15.5250453496
 20
12.9926274627
 30
0.0
 10
15.5271289899
 20
12.9986887332
 30
0.0
 10
15.5307595061
 20
13.0071436926
 30
0.0
 10
15.5347396383
 20
13.0145089501
 30
0.0
 10
15.5390183361
 20
13.0206952429
 30
0.0
 10
15.5435580411
 20
13.0256305815
 30
0.0
 10
15.5483228234
 20
13.0292576502
 30
0.0
 10
15.5532824373
 20
13.0314969647
 30
0.0
 10
15.5567225756
 20
13.0320124149
 30
0.0
 10
15.5583790021
 20
13.0320129517
 30
0.0
  0
SPLINE
  5
349
100
AcDbEntity
  8
0
100
AcDbSpline
 62
7
  6
CONTINUOUS
 70
0
 71
3
 72
15
 73
11
 74
0
 42
0.0000001
 43
0.0000001
 44
0.0000000001
 40
0.0
 40
0.0
 40
0.0
 40
0.0
 40
0.1120418856
 40
0.2341184919
 40
0.363234766
 40
0.4962592561
 40
0.6297798527
 40
0.7603611694
 40
0.8848069458
 40
1.0
 40
1.0
 40
1.0
 40
1.0
 10
15.5254755739
 20
12.8452366929
 30
0.0
 10
15.5237074066
 20
12.8504018663
 30
0.0
 10
15.5206140156
 20
12.861404378
 30
0.0
 10
15.5173040527
 20
12.8788085892
 30
0.0
 10
15.5152006189
 20
12.8974284656
 30
0.0
 10
15.5143650167
 20
12.9167042933
 30
0.0
 10
15.5148266894
 20
12.9360639821
 30
0.0
 10
15.51656777
 20
12.9549325516
 30
0.0
 10
15.5195382103
 20
12.9727423015
 30
0.0
 10
15.5224045738
 20
12.9840819092
 30
0.0
 10
15.5240617918
 20
12.9894446685
 30
0.0
  0
SPLINE
  5
34A
100
AcDbEntity
  8
0
100
AcDbSpline
 62
7
  6
CONTINUOUS
 70
0
 71
3
 72
21
 73
17
 74
0
 42
0.0000001
 43
0.0000001
 44
0.0000000001
 40
0.0
 40
0.0
 40
0.0
 40
0.0
 40
0.0501598479
 40
0.1035287556
 40
0.1598331527
 40
0.2188013387
 40
0.2801242799
 40
0.3434518816
 40
0.4084128059
 40
0.4746198956
 40
0.6091323826
 40
0.7437081324
 40
0.8099870151
 40
0.875054235
 40
0.9385320299
 40
1.0
 40
1.0
 40
1.0
 40
1.0
 10
15.5838027832
 20
11.9921467361
 30
0.0
 10
15.5778642271
 20
12.0053711551
 30
0.0
 10
15.5665102286
 20
12.033077255
 30
0.0
 10
15.5514082492
 20
12.0767529254
 30
0.0
 10
15.5378058239
 20
12.123574773
 30
0.0
 10
15.5257997803
 20
12.1731963658
 30
0.0
 10
15.515475642
 20
12.2252643425
 30
0.0
 10
15.5069108038
 20
12.2794031532
 30
0.0
 10
15.5001657868
 20
12.3352203779
 30
0.0
 10
15.4936363893
 20
12.4117392502
 30
0.0
 10
15.4903311303
 20
12.5086625299
 30
0.0
 10
15.4934008368
 20
12.6056142307
 30
0.0
 10
15.4997422576
 20
12.6822187343
 30
0.0
 10
15.5063499988
 20
12.738148111
 30
0.0
 10
15.5147853932
 20
12.7924237846
 30
0.0
 10
15.5217045378
 20
12.8278768063
 30
0.0
 10
15.5254755739
 20
12.8452366929
 30
0.0
  0
SPLINE
  5
34B
100
AcDbEntity
  8
0
100
AcDbSpline
 62
7
  6
CONTINUOUS
 70
0
 71
3
 72
11
 73
7
 74
0
 42
0.0000001
 43
0.0000001
 44
0.0000000001
 40
0.0
 40
0.0
 40
0.0
 40
0.0
 40
0.2312774139
 40
0.4892753423
 40
0.7528712944
 40
1.0
 40
1.0
 40
1.0
 40
1.0
 10
14.7503731415
 20
13.2451942414
 30
0.0
 10
14.7501565322
 20
13.2458439906
 30
0.0
 10
14.7498356322
 20
13.2472645029
 30
0.0
 10
14.7496332019
 20
13.249489789
 30
0.0
 10
14.7497012737
 20
13.251770347
 30
0.0
 10
14.7499303671
 20
13.2532711967
 30
0.0
 10
14.7500998318
 20
13.253983152
 30
0.0
  0
SPLINE
  5
34C
100
AcDbEntity
  8
0
100
AcDbSpline
 62
7
  6
CONTINUOUS
 70
0
 71
3
 72
11
 73
7
 74
0
 42
0.0000001
 43
0.0000001
 44
0.0000000001
 40
0.0
 40
0.0
 40
0.0
 40
0.0
 40
0.2492162986
 40
0.5127105566
 40
0.7695866432
 40
1.0
 40
1.0
 40
1.0
 40
1.0
 10
14.7582503427
 20
13.2114478041
 30
0.0
 10
14.7584560338
 20
13.2123839182
 30
0.0
 10
14.7587305091
 20
13.214343406
 30
0.0
 10
14.7587946265
 20
13.2173087208
 30
0.0
 10
14.7585173231
 20
13.2201889098
 30
0.0
 10
14.758097291
 20
13.2220245931
 30
0.0
 10
14.7578170407
 20
13.2228652422
 30
0.0
  0
SPLINE
  5
34D
100
AcDbEntity
  8
0
100
AcDbSpline
 62
7
  6
CONTINUOUS
 70
0
 71
3
 72
13
 73
9
 74
0
 42
0.0000001
 43
0.0000001
 44
0.0000000001
 40
0.0
 40
0.0
 40
0.0
 40
0.0
 40
0.3384596619
 40
0.6189979135
 40
0.7343643264
 40
0.8339892435
 40
0.9207440095
 40
1.0
 40
1.0
 40
1.0
 40
1.0
 10
14.7310558919
 20
13.1673129124
 30
0.0
 10
14.7311698427
 20
13.1678766409
 30
0.0
 10
14.7314404259
 20
13.1688958776
 30
0.0
 10
14.7319539419
 20
13.1700457667
 30
0.0
 10
14.7324537184
 20
13.1707275564
 30
0.0
 10
14.7328295991
 20
13.1710820512
 30
0.0
 10
14.7332296583
 20
13.1713035683
 30
0.0
 10
14.7335134238
 20
13.1713558775
 30
0.0
 10
14.7336480997
 20
13.1713562248
 30
0.0
  0
SPLINE
  5
34E
100
AcDbEntity
  8
0
100
AcDbSpline
 62
7
  6
CONTINUOUS
 70
0
 71
3
 72
11
 73
7
 74
0
 42
0.0000001
 43
0.0000001
 44
0.0000000001
 40
0.0
 40
0.0
 40
0.0
 40
0.0
 40
0.2157232893
 40
0.467926229
 40
0.7368912717
 40
1.0
 40
1.0
 40
1.0
 40
1.0
 10
14.7114612155
 20
13.0460603522
 30
0.0
 10
14.7112009844
 20
13.0466297625
 30
0.0
 10
14.7107938866
 20
13.0479358499
 30
0.0
 10
14.7104643928
 20
13.050053795
 30
0.0
 10
14.7103982642
 20
13.0523344029
 30
0.0
 10
14.7105346499
 20
13.0538773703
 30
0.0
 10
14.7106558639
 20
13.0546312646
 30
0.0
  0
SPLINE
  5
34F
100
AcDbEntity
  8
0
100
AcDbSpline
 62
7
  6
CONTINUOUS
 70
0
 71
3
 72
11
 73
7
 74
0
 42
0.0000001
 43
0.0000001
 44
0.0000000001
 40
0.0
 40
0.0
 40
0.0
 40
0.0
 40
0.2648131242
 40
0.5335113678
 40
0.7847371316
 40
1.0
 40
1.0
 40
1.0
 40
1.0
 10
14.7212972159
 20
13.0158937648
 30
0.0
 10
14.7214401861
 20
13.0168791892
 30
0.0
 10
14.7215940686
 20
13.0188851736
 30
0.0
 10
14.7214836171
 20
13.0218406696
 30
0.0
 10
14.7210417228
 20
13.0245757515
 30
0.0
 10
14.7205101664
 20
13.0262603866
 30
0.0
 10
14.720173716
 20
13.0269965721
 30
0.0
  0
SPLINE
  5
350
100
AcDbEntity
  8
0
100
AcDbSpline
 62
7
  6
CONTINUOUS
 70
0
 71
3
 72
12
 73
8
 74
0
 42
0.0000001
 43
0.0000001
 44
0.0000000001
 40
0.0
 40
0.0
 40
0.0
 40
0.0
 40
0.1653147372
 40
0.2686017291
 40
0.3873283379
 40
0.6696581952
 40
1.0
 40
1.0
 40
1.0
 40
1.0
 10
14.7118073907
 20
12.9663408428
 30
0.0
 10
14.7122058418
 20
12.9664512564
 30
0.0
 10
14.7127810382
 20
12.9668718667
 30
0.0
 10
14.7133738892
 20
12.9676350505
 30
0.0
 10
14.7140008722
 20
12.968735949
 30
0.0
 10
14.7146185269
 20
12.9704690271
 30
0.0
 10
14.714925192
 20
12.9719744963
 30
0.0
 10
14.7150438211
 20
12.9727921489
 30
0.0
  0
SPLINE
  5
351
100
AcDbEntity
  8
0
100
AcDbSpline
 62
7
  6
CONTINUOUS
 70
0
 71
3
 72
13
 73
9
 74
0
 42
0.0000001
 43
0.0000001
 44
0.0000000001
 40
0.0
 40
0.0
 40
0.0
 40
0.0
 40
0.3415514591
 40
0.6267650573
 40
0.7430647497
 40
0.8417240832
 40
0.9254508788
 40
1.0
 40
1.0
 40
1.0
 40
1.0
 10
14.6971262031
 20
12.9613778786
 30
0.0
 10
14.6972172821
 20
12.9620796219
 30
0.0
 10
14.6974648466
 20
12.9633579456
 30
0.0
 10
14.6979984101
 20
12.9648165652
 30
0.0
 10
14.698551189
 20
12.9656980611
 30
0.0
 10
14.6989758844
 20
12.9661550054
 30
0.0
 10
14.6994332132
 20
12.9664427401
 30
0.0
 10
14.6997646887
 20
12.9665092298
 30
0.0
 10
14.699919111
 20
12.9665062274
 30
0.0
  0
SPLINE
  5
352
100
AcDbEntity
  8
0
100
AcDbSpline
 62
7
  6
CONTINUOUS
 70
0
 71
3
 72
11
 73
7
 74
0
 42
0.0000001
 43
0.0000001
 44
0.0000000001
 40
0.0
 40
0.0
 40
0.0
 40
0.0
 40
0.2000650991
 40
0.4460019508
 40
0.720241409
 40
1.0
 40
1.0
 40
1.0
 40
1.0
 10
14.6851592877
 20
12.8337466996
 30
0.0
 10
14.6848596936
 20
12.8342169283
 30
0.0
 10
14.6843720028
 20
12.8353764149
 30
0.0
 10
14.6839242739
 20
12.8373378729
 30
0.0
 10
14.6837256985
 20
12.8395647108
 30
0.0
 10
14.6837695107
 20
12.8411122657
 30
0.0
 10
14.6838417246
 20
12.8418885695
 30
0.0
  0
SPLINE
  5
353
100
AcDbEntity
  8
0
100
AcDbSpline
 62
7
  6
CONTINUOUS
 70
0
 71
3
 72
12
 73
8
 74
0
 42
0.0000001
 43
0.0000001
 44
0.0000000001
 40
0.0
 40
0.0
 40
0.0
 40
0.0
 40
0.2810022449
 40
0.5547312703
 40
0.7997494754
 40
0.9063813474
 40
1.0
 40
1.0
 40
1.0
 40
1.0
 10
14.6967118924
 20
12.8079027635
 30
0.0
 10
14.6967913929
 20
12.8089121708
 30
0.0
 10
14.6968254777
 20
12.8109164439
 30
0.0
 10
14.6965428389
 20
12.8137899282
 30
0.0
 10
14.6960267435
 20
12.8159947774
 30
0.0
 10
14.6954442665
 20
12.817492091
 30
0.0
 10
14.6951071199
 20
12.8181330535
 30
0.0
 10
14.6949258588
 20
12.8184175522
 30
0.0
  0
SPLINE
  5
354
100
AcDbEntity
  8
0
100
AcDbSpline
 62
7
  6
CONTINUOUS
 70
0
 71
3
 72
12
 73
8
 74
0
 42
0.0000001
 43
0.0000001
 44
0.0000000001
 40
0.0
 40
0.0
 40
0.0
 40
0.0
 40
0.1637995494
 40
0.2686902151
 40
0.3894587332
 40
0.6740590991
 40
1.0
 40
1.0
 40
1.0
 40
1.0
 10
14.6899243165
 20
12.7549136406
 30
0.0
 10
14.6903746489
 20
12.7550878355
 30
0.0
 10
14.6909889844
 20
12.7556609255
 30
0.0
 10
14.6916096461
 20
12.7566208799
 30
0.0
 10
14.6922500275
 20
12.7579892916
 30
0.0
 10
14.6928385447
 20
12.7600739893
 30
0.0
 10
14.6930857315
 20
12.7618618854
 30
0.0
 10
14.6931611709
 20
12.7628197292
 30
0.0
  0
SPLINE
  5
355
100
AcDbEntity
  8
0
100
AcDbSpline
 62
7
  6
CONTINUOUS
 70
0
 71
3
 72
12
 73
8
 74
0
 42
0.0000001
 43
0.0000001
 44
0.0000000001
 40
0.0
 40
0.0
 40
0.0
 40
0.0
 40
0.3255557189
 40
0.6109685792
 40
0.7320891388
 40
0.8370840583
 40
1.0
 40
1.0
 40
1.0
 40
1.0
 10
14.6761594882
 20
12.7443482449
 30
0.0
 10
14.6762077575
 20
12.7450943323
 30
0.0
 10
14.6763827253
 20
12.7464906561
 30
0.0
 10
14.6768217775
 20
12.7481219213
 30
0.0
 10
14.6773090577
 20
12.7491967613
 30
0.0
 10
14.6777831889
 20
12.7499489746
 30
0.0
 10
14.6782566549
 20
12.7504004263
 30
0.0
 10
14.6786055997
 20
12.7505354031
 30
0.0
  0
SPLINE
  5
356
100
AcDbEntity
  8
0
100
AcDbSpline
 62
7
  6
CONTINUOUS
 70
0
 71
3
 72
12
 73
8
 74
0
 42
0.0000001
 43
0.0000001
 44
0.0000000001
 40
0.0
 40
0.0
 40
0.0
 40
0.0
 40
0.0851480557
 40
0.1849077534
 40
0.42369107
 40
0.7028532254
 40
1.0
 40
1.0
 40
1.0
 40
1.0
 10
14.672114999
 20
12.6134811504
 30
0.0
 10
14.6719617363
 20
12.6136436392
 30
0.0
 10
14.6716713099
 20
12.6140364947
 30
0.0
 10
14.6711533755
 20
12.6150227751
 30
0.0
 10
14.6706663647
 20
12.616580803
 30
0.0
 10
14.6703402582
 20
12.6186985605
 30
0.0
 10
14.6702941355
 20
12.6202143604
 30
0.0
 10
14.6703176672
 20
12.620993498
 30
0.0
  0
SPLINE
  5
357
100
AcDbEntity
  8
0
100
AcDbSpline
 62
7
  6
CONTINUOUS
 70
0
 71
3
 72
12
 73
8
 74
0
 42
0.0000001
 43
0.0000001
 44
0.0000000001
 40
0.0
 40
0.0
 40
0.0
 40
0.0
 40
0.2981379651
 40
0.5767468218
 40
0.8148444381
 40
0.9145610245
 40
1.0
 40
1.0
 40
1.0
 40
1.0
 10
14.6850997445
 20
12.5925962292
 30
0.0
 10
14.6851164296
 20
12.5936042985
 30
0.0
 10
14.6850343668
 20
12.5955587234
 30
0.0
 10
14.6845876836
 20
12.5982836354
 30
0.0
 10
14.6839446192
 20
12.6002822992
 30
0.0
 10
14.6832699526
 20
12.6015482838
 30
0.0
 10
14.6828934036
 20
12.6020539079
 30
0.0
 10
14.6826951553
 20
12.6022640902
 30
0.0
  0
SPLINE
  5
358
100
AcDbEntity
  8
0
100
AcDbSpline
 62
7
  6
CONTINUOUS
 70
0
 71
3
 72
12
 73
8
 74
0
 42
0.0000001
 43
0.0000001
 44
0.0000000001
 40
0.0
 40
0.0
 40
0.0
 40
0.0
 40
0.0813970779
 40
0.1773371012
 40
0.4112292275
 40
0.6922449105
 40
1.0
 40
1.0
 40
1.0
 40
1.0
 10
14.6816237501
 20
12.5375328319
 30
0.0
 10
14.6818283826
 20
12.5376991836
 30
0.0
 10
14.6822231289
 20
12.5381244325
 30
0.0
 10
14.6829427718
 20
12.5392506477
 30
0.0
 10
14.6836497508
 20
12.5411187782
 30
0.0
 10
14.6841803975
 20
12.5437366277
 30
0.0
 10
14.6843226256
 20
12.5456449117
 30
0.0
 10
14.6843391268
 20
12.5466418703
 30
0.0
  0
SPLINE
  5
359
100
AcDbEntity
  8
0
100
AcDbSpline
 62
7
  6
CONTINUOUS
 70
0
 71
3
 72
12
 73
8
 74
0
 42
0.0000001
 43
0.0000001
 44
0.0000000001
 40
0.0
 40
0.0
 40
0.0
 40
0.0
 40
0.3069566546
 40
0.5886026781
 40
0.8231009246
 40
0.9189935272
 40
1.0
 40
1.0
 40
1.0
 40
1.0
 10
14.6686720172
 20
12.5215680013
 30
0.0
 10
14.6686742898
 20
12.5223406119
 30
0.0
 10
14.6687672203
 20
12.523824087
 30
0.0
 10
14.6691585622
 20
12.5258631162
 30
0.0
 10
14.6696952314
 20
12.527322655
 30
0.0
 10
14.6702482385
 20
12.5282019949
 30
0.0
 10
14.670552889
 20
12.5285330053
 30
0.0
 10
14.670711101
 20
12.5286616204
 30
0.0
  0
SPLINE
  5
35A
100
AcDbEntity
  8
0
100
AcDbSpline
 62
7
  6
CONTINUOUS
 70
0
 71
3
 72
12
 73
8
 74
0
 42
0.0000001
 43
0.0000001
 44
0.0000000001
 40
0.0
 40
0.0
 40
0.0
 40
0.0
 40
0.0779307238
 40
0.1705840577
 40
0.4011057097
 40
0.6846038665
 40
1.0
 40
1.0
 40
1.0
 40
1.0
 10
14.672649543
 20
12.3906873734
 30
0.0
 10
14.6724888167
 20
12.3907859579
 30
0.0
 10
14.6721735965
 20
12.3910613112
 30
0.0
 10
14.6715928532
 20
12.3918440901
 30
0.0
 10
14.6710159778
 20
12.3932128297
 30
0.0
 10
14.6705716997
 20
12.395174304
 30
0.0
 10
14.6704404146
 20
12.3966224934
 30
0.0
 10
14.6704166988
 20
12.3973852198
 30
0.0
  0
SPLINE
  5
35B
100
AcDbEntity
  8
0
100
AcDbSpline
 62
7
  6
CONTINUOUS
 70
0
 71
3
 72
12
 73
8
 74
0
 42
0.0000001
 43
0.0000001
 44
0.0000000001
 40
0.0
 40
0.0
 40
0.0
 40
0.0
 40
0.3160193462
 40
0.5988134921
 40
0.8288028967
 40
0.921588373
 40
1.0
 40
1.0
 40
1.0
 40
1.0
 10
14.6867467017
 20
12.3752757232
 30
0.0
 10
14.686702687
 20
12.3762576583
 30
0.0
 10
14.6865112914
 20
12.3781166973
 30
0.0
 10
14.685912653
 20
12.3806299215
 30
0.0
 10
14.6851539705
 20
12.382377992
 30
0.0
 10
14.6843988451
 20
12.3833781004
 30
0.0
 10
14.6839906596
 20
12.3837310862
 30
0.0
 10
14.6837827659
 20
12.3838586017
 30
0.0
  0
SPLINE
  5
35C
100
AcDbEntity
  8
0
100
AcDbSpline
 62
7
  6
CONTINUOUS
 70
0
 71
3
 72
12
 73
8
 74
0
 42
0.0000001
 43
0.0000001
 44
0.0000000001
 40
0.0
 40
0.0
 40
0.0
 40
0.0
 40
0.0891239578
 40
0.1920366559
 40
0.4334298727
 40
0.709843689
 40
1.0
 40
1.0
 40
1.0
 40
1.0
 10
14.6866678794
 20
12.319493895
 30
0.0
 10
14.6868590311
 20
12.3197393396
 30
0.0
 10
14.6872183694
 20
12.3203092633
 30
0.0
 10
14.6878521277
 20
12.3216860075
 30
0.0
 10
14.6884382734
 20
12.3237853163
 30
0.0
 10
14.6888108696
 20
12.3265866314
 30
0.0
 10
14.6888402707
 20
12.3285697788
 30
0.0
 10
14.6887949169
 20
12.3295815886
 30
0.0
  0
SPLINE
  5
35D
100
AcDbEntity
  8
0
100
AcDbSpline
 62
7
  6
CONTINUOUS
 70
0
 71
3
 72
12
 73
8
 74
0
 42
0.0000001
 43
0.0000001
 44
0.0000000001
 40
0.0
 40
0.0
 40
0.0
 40
0.0
 40
0.2890020168
 40
0.5659030108
 40
0.8080504552
 40
0.9110823237
 40
1.0
 40
1.0
 40
1.0
 40
1.0
 10
14.6748481566
 20
12.2985227368
 30
0.0
 10
14.674802382
 20
12.2993029906
 30
0.0
 10
14.6748076254
 20
12.3008380929
 30
0.0
 10
14.6750762838
 20
12.3030114041
 30
0.0
 10
14.6755191252
 20
12.3046451495
 30
0.0
 10
14.6760052205
 20
12.3057161129
 30
0.0
 10
14.676282246
 20
12.306158423
 30
0.0
 10
14.6764300036
 20
12.3063481484
 30
0.0
  0
SPLINE
  5
35E
100
AcDbEntity
  8
0
100
AcDbSpline
 62
7
  6
CONTINUOUS
 70
0
 71
3
 72
12
 73
8
 74
0
 42
0.0000001
 43
0.0000001
 44
0.0000000001
 40
0.0
 40
0.0
 40
0.0
 40
0.0
 40
0.1585988111
 40
0.2608213051
 40
0.3800714639
 40
0.6662894018
 40
1.0
 40
1.0
 40
1.0
 40
1.0
 10
14.6867497574
 20
12.1708512909
 30
0.0
 10
14.6864090027
 20
12.1709191405
 30
0.0
 10
14.68591012
 20
12.1712840574
 30
0.0
 10
14.6854173077
 20
12.1719501417
 30
0.0
 10
14.6848970592
 20
12.1729401071
 30
0.0
 10
14.6844146313
 20
12.174495976
 30
0.0
 10
14.68420477
 20
12.1758418555
 30
0.0
 10
14.6841363808
 20
12.1765697128
 30
0.0
  0
SPLINE
  5
35F
100
AcDbEntity
  8
0
100
AcDbSpline
 62
7
  6
CONTINUOUS
 70
0
 71
3
 72
12
 73
8
 74
0
 42
0.0000001
 43
0.0000001
 44
0.0000000001
 40
0.0
 40
0.0
 40
0.0
 40
0.0
 40
0.3338621535
 40
0.6191591957
 40
0.7380757704
 40
0.8402660953
 40
1.0
 40
1.0
 40
1.0
 40
1.0
 10
14.7016122106
 20
12.1612923975
 30
0.0
 10
14.7015110923
 20
12.1622245359
 30
0.0
 10
14.7012194678
 20
12.1639438771
 30
0.0
 10
14.7005752872
 20
12.1659271633
 30
0.0
 10
14.6998929415
 20
12.1671836359
 30
0.0
 10
14.6992479496
 20
12.1680310594
 30
0.0
 10
14.6986018647
 20
12.1684913529
 30
0.0
 10
14.6981619101
 20
12.1685789547
 30
0.0
  0
SPLINE
  5
360
100
AcDbEntity
  8
0
100
AcDbSpline
 62
7
  6
CONTINUOUS
 70
0
 71
3
 72
11
 73
7
 74
0
 42
0.0000001
 43
0.0000001
 44
0.0000000001
 40
0.0
 40
0.0
 40
0.0
 40
0.0
 40
0.2070127403
 40
0.4549999531
 40
0.7264821664
 40
1.0
 40
1.0
 40
1.0
 40
1.0
 10
14.7049325012
 20
12.1061656723
 30
0.0
 10
14.7052971794
 20
12.1068352831
 30
0.0
 10
14.7058859915
 20
12.1084205538
 30
0.0
 10
14.7064122786
 20
12.1110503122
 30
0.0
 10
14.7066162083
 20
12.1139712651
 30
0.0
 10
14.7065274731
 20
12.1159820755
 30
0.0
 10
14.7064188246
 20
12.1169836285
 30
0.0
  0
SPLINE
  5
361
100
AcDbEntity
  8
0
100
AcDbSpline
 62
7
  6
CONTINUOUS
 70
0
 71
3
 72
11
 73
7
 74
0
 42
0.0000001
 43
0.0000001
 44
0.0000000001
 40
0.0
 40
0.0
 40
0.0
 40
0.0
 40
0.2720109424
 40
0.5438407838
 40
0.7927293878
 40
1.0
 40
1.0
 40
1.0
 40
1.0
 10
14.6945358293
 20
12.0807045658
 30
0.0
 10
14.6944410906
 20
12.0814730135
 30
0.0
 10
14.694354944
 20
12.0830231215
 30
0.0
 10
14.6944931377
 20
12.0852812433
 30
0.0
 10
14.6948878961
 20
12.0873203674
 30
0.0
 10
14.6953393098
 20
12.0885509534
 30
0.0
 10
14.6956214892
 20
12.0890690824
 30
0.0
  0
SPLINE
  5
362
100
AcDbEntity
  8
0
100
AcDbSpline
 62
7
  6
CONTINUOUS
 70
0
 71
3
 72
21
 73
17
 74
0
 42
0.0000001
 43
0.0000001
 44
0.0000000001
 40
0.0
 40
0.0
 40
0.0
 40
0.0
 40
0.0429993428
 40
0.0877443477
 40
0.1345888544
 40
0.1838193081
 40
0.2356653564
 40
0.2903018825
 40
0.3478508001
 40
0.4083964384
 40
0.4719821978
 40
0.5386148232
 40
0.6082793107
 40
0.6809390983
 40
0.8349880757
 40
1.0
 40
1.0
 40
1.0
 40
1.0
 10
15.1076955305
 20
13.9771271143
 30
0.0
 10
15.098375649
 20
13.974007034
 30
0.0
 10
15.0797106811
 20
13.9665398096
 30
0.0
 10
15.0524664752
 20
13.9521479084
 30
0.0
 10
15.0255515088
 20
13.9344118908
 30
0.0
 10
14.9990239717
 20
13.9133875518
 30
0.0
 10
14.972940032
 20
13.8891237328
 30
0.0
 10
14.947356532
 20
13.8616775624
 30
0.0
 10
14.9223238547
 20
13.8311158396
 30
0.0
 10
14.8979002307
 20
13.7975054068
 30
0.0
 10
14.8741392993
 20
13.760924353
 30
0.0
 10
14.8510913604
 20
13.7214591104
 30
0.0
 10
14.8288116808
 20
13.6791973849
 30
0.0
 10
14.7996251336
 20
13.618049106
 30
0.0
 10
14.7656039823
 20
13.5351482984
 30
0.0
 10
14.742191062
 20
13.4660326874
 30
0.0
 10
14.7310553733
 20
13.4299975857
 30
0.0
  0
SPLINE
  5
363
100
AcDbEntity
  8
0
100
AcDbSpline
 62
7
  6
CONTINUOUS
 70
0
 71
3
 72
9
 73
5
 74
0
 42
0.0000001
 43
0.0000001
 44
0.0000000001
 40
0.0
 40
0.0
 40
0.0
 40
0.0
 40
0.5316714938
 40
1.0
 40
1.0
 40
1.0
 40
1.0
 10
14.7293302329
 20
11.955915232
 30
0.0
 10
14.7292167351
 20
11.9565528175
 30
0.0
 10
14.7289449693
 20
11.9577424378
 30
0.0
 10
14.7285340659
 20
11.9588944336
 30
0.0
 10
14.7282945546
 20
11.95941217
 30
0.0
  0
SPLINE
  5
364
100
AcDbEntity
  8
0
100
AcDbSpline
 62
7
  6
CONTINUOUS
 70
0
 71
3
 72
11
 73
7
 74
0
 42
0.0000001
 43
0.0000001
 44
0.0000000001
 40
0.0
 40
0.0
 40
0.0
 40
0.0
 40
0.2222299723
 40
0.4760948763
 40
0.7424146569
 40
1.0
 40
1.0
 40
1.0
 40
1.0
 10
14.7359678799
 20
11.9028010126
 30
0.0
 10
14.7362790877
 20
11.9035881627
 30
0.0
 10
14.7367602886
 20
11.9053475745
 30
0.0
 10
14.7371278039
 20
11.9081574915
 30
0.0
 10
14.7371581937
 20
11.9111262583
 30
0.0
 10
14.7369488354
 20
11.9131169425
 30
0.0
 10
14.7367768911
 20
11.9140828575
 30
0.0
  0
SPLINE
  5
365
100
AcDbEntity
  8
0
100
AcDbSpline
 62
7
  6
CONTINUOUS
 70
0
 71
3
 72
11
 73
7
 74
0
 42
0.0000001
 43
0.0000001
 44
0.0000000001
 40
0.0
 40
0.0
 40
0.0
 40
0.0
 40
0.2557061686
 40
0.5222177793
 40
0.7771275111
 40
1.0
 40
1.0
 40
1.0
 40
1.0
 10
14.7272502594
 20
11.8734768949
 30
0.0
 10
14.727106736
 20
11.8742139412
 30
0.0
 10
14.7269276532
 20
11.8757422053
 30
0.0
 10
14.7269321729
 20
11.8780295248
 30
0.0
 10
14.7272042123
 20
11.8802031044
 30
0.0
 10
14.7275723708
 20
11.8815659223
 30
0.0
 10
14.7278129996
 20
11.8821745542
 30
0.0
  0
SPLINE
  5
366
100
AcDbEntity
  8
0
100
AcDbSpline
 62
7
  6
CONTINUOUS
 70
0
 71
3
 72
15
 73
11
 74
0
 42
0.0000001
 43
0.0000001
 44
0.0000000001
 40
0.0
 40
0.0
 40
0.0
 40
0.0
 40
0.122359148
 40
0.2421016235
 40
0.3609412217
 40
0.4806374735
 40
0.6029071653
 40
0.7293317946
 40
0.8613043654
 40
1.0
 40
1.0
 40
1.0
 40
1.0
 10
15.133678482
 20
11.035785515
 30
0.0
 10
15.1434013415
 20
11.0325309732
 30
0.0
 10
15.1630489841
 20
11.0272339934
 30
0.0
 10
15.1931037925
 20
11.0231683586
 30
0.0
 10
15.2232153521
 20
11.023116998
 30
0.0
 10
15.2532761828
 20
11.0270764644
 30
0.0
 10
15.2831862069
 20
11.0350344263
 30
0.0
 10
15.3128565333
 20
11.046944521
 30
0.0
 10
15.3422033524
 20
11.0627580913
 30
0.0
 10
15.360998994
 20
11.0755263257
 30
0.0
 10
15.3703108737
 20
11.0824804735
 30
0.0
  0
SPLINE
  5
367
100
AcDbEntity
  8
0
100
AcDbSpline
 62
7
  6
CONTINUOUS
 70
0
 71
3
 72
11
 73
7
 74
0
 42
0.0000001
 43
0.0000001
 44
0.0000000001
 40
0.0
 40
0.0
 40
0.0
 40
0.0
 40
0.2373621123
 40
0.4967289903
 40
0.7577991426
 40
1.0
 40
1.0
 40
1.0
 40
1.0
 10
14.7790098215
 20
11.7144074288
 30
0.0
 10
14.7792629229
 20
11.715287908
 30
0.0
 10
14.779629692
 20
11.7171779206
 30
0.0
 10
14.7798287021
 20
11.7201021415
 30
0.0
 10
14.7796846936
 20
11.72304833
 30
0.0
 10
14.7793554715
 20
11.7249702824
 30
0.0
 10
14.7791215998
 20
11.7258753658
 30
0.0
  0
SPLINE
  5
368
100
AcDbEntity
  8
0
100
AcDbSpline
 62
7
  6
CONTINUOUS
 70
0
 71
3
 72
11
 73
7
 74
0
 42
0.0000001
 43
0.0000001
 44
0.0000000001
 40
0.0
 40
0.0
 40
0.0
 40
0.0
 40
0.2399287401
 40
0.501016029
 40
0.7615734875
 40
1.0
 40
1.0
 40
1.0
 40
1.0
 10
14.7721859091
 20
11.6819423568
 30
0.0
 10
14.7719948214
 20
11.6826285884
 30
0.0
 10
14.7717237627
 20
11.6840976845
 30
0.0
 10
14.7715944417
 20
11.686360064
 30
0.0
 10
14.7717365281
 20
11.6886171942
 30
0.0
 10
14.7720163066
 20
11.6900786645
 30
0.0
 10
14.7722118731
 20
11.6907589937
 30
0.0
  0
SPLINE
  5
369
100
AcDbEntity
  8
0
100
AcDbSpline
 62
7
  6
CONTINUOUS
 70
0
 71
3
 72
37
 73
33
 74
0
 42
0.0000001
 43
0.0000001
 44
0.0000000001
 40
0.0
 40
0.0
 40
0.0
 40
0.0
 40
0.0077023819
 40
0.0155320534
 40
0.031733422
 40
0.0489246158
 40
0.067347509
 40
0.0871769088
 40
0.1085315721
 40
0.1314789079
 40
0.1560489758
 40
0.1822362061
 40
0.2100111912
 40
0.2393194282
 40
0.2700905978
 40
0.3022362093
 40
0.3356566083
 40
0.3702389584
 40
0.4058621393
 40
0.4423958059
 40
0.4797033956
 40
0.5560582524
 40
0.6337473397
 40
0.7115460266
 40
0.7501055105
 40
0.7882344288
 40
0.8257841216
 40
0.8626087873
 40
0.8985695368
 40
0.9335408869
 40
0.9673968958
 40
1.0
 40
1.0
 40
1.0
 40
1.0
 10
15.718949934
 20
11.2617765711
 30
0.0
 10
15.7133803608
 20
11.2625799028
 30
0.0
 10
15.7022135291
 20
11.2646886594
 30
0.0
 10
15.6798531364
 20
11.2708955238
 30
0.0
 10
15.6519172844
 20
11.2824981315
 30
0.0
 10
15.6193440273
 20
11.3020067195
 30
0.0
 10
15.5874504561
 20
11.3271326384
 30
0.0
 10
15.5563589077
 20
11.3577311113
 30
0.0
 10
15.5261938813
 20
11.3936610067
 30
0.0
 10
15.497070191
 20
11.4347517956
 30
0.0
 10
15.4691196905
 20
11.4808230091
 30
0.0
 10
15.4424562643
 20
11.5316620416
 30
0.0
 10
15.4172083509
 20
11.5870414532
 30
0.0
 10
15.3934826312
 20
11.6467052445
 30
0.0
 10
15.371396325
 20
11.7103817252
 30
0.0
 10
15.3510443936
 20
11.7777756012
 30
0.0
 10
15.3325282245
 20
11.8485767148
 30
0.0
 10
15.3159282146
 20
11.922456151
 30
0.0
 10
15.3013271717
 20
11.9990718252
 30
0.0
 10
15.2887885908
 20
12.0780681058
 30
0.0
 10
15.2747980432
 20
12.1869160569
 30
0.0
 10
15.2629284698
 20
12.3262882176
 30
0.0
 10
15.2576521605
 20
12.4956606454
 30
0.0
 10
15.2607289347
 20
12.637468313
 30
0.0
 10
15.2677301765
 20
12.7501276148
 30
0.0
 10
15.2751879872
 20
12.8332651078
 30
0.0
 10
15.284834723
 20
12.914900867
 30
0.0
 10
15.2966200939
 20
12.9946553994
 30
0.0
 10
15.3104948858
 20
13.0721609178
 30
0.0
 10
15.3263918262
 20
13.1470628414
 30
0.0
 10
15.3442391532
 20
13.2189993201
 30
0.0
 10
15.3576395119
 20
13.2656817123
 30
0.0
 10
15.3646720653
 20
13.2884390632
 30
0.0
  0
SPLINE
  5
36A
100
AcDbEntity
  8
0
100
AcDbSpline
 62
7
  6
CONTINUOUS
 70
0
 71
3
 72
11
 73
7
 74
0
 42
0.0000001
 43
0.0000001
 44
0.0000000001
 40
0.0
 40
0.0
 40
0.0
 40
0.0
 40
0.2526385122
 40
0.5172968616
 40
0.7729472544
 40
1.0
 40
1.0
 40
1.0
 40
1.0
 10
14.8329984904
 20
11.545623796
 30
0.0
 10
14.8331903775
 20
11.546573042
 30
0.0
 10
14.8334381563
 20
11.5485470615
 30
0.0
 10
14.8334634582
 20
11.5515162951
 30
0.0
 10
14.8331487887
 20
11.5543699926
 30
0.0
 10
14.8327033994
 20
11.5561759202
 30
0.0
 10
14.8324102837
 20
11.5569954466
 30
0.0
  0
SPLINE
  5
36B
100
AcDbEntity
  8
0
100
AcDbSpline
 62
7
  6
CONTINUOUS
 70
0
 71
3
 72
11
 73
7
 74
0
 42
0.0000001
 43
0.0000001
 44
0.0000000001
 40
0.0
 40
0.0
 40
0.0
 40
0.0
 40
0.2243685525
 40
0.4798344254
 40
0.7458300413
 40
1.0
 40
1.0
 40
1.0
 40
1.0
 10
14.8282363136
 20
11.5108171677
 30
0.0
 10
14.8279998933
 20
11.5114335201
 30
0.0
 10
14.827640043
 20
11.5128073377
 30
0.0
 10
14.8273802572
 20
11.5149912276
 30
0.0
 10
14.8273886729
 20
11.5172785071
 30
0.0
 10
14.8275766894
 20
11.5188026916
 30
0.0
 10
14.8277248621
 20
11.5195356872
 30
0.0
  0
SPLINE
  5
36C
100
AcDbEntity
  8
0
100
AcDbSpline
 62
7
  6
CONTINUOUS
 70
0
 71
3
 72
9
 73
5
 74
0
 42
0.0000001
 43
0.0000001
 44
0.0000000001
 40
0.0
 40
0.0
 40
0.0
 40
0.0
 40
0.2436411085
 40
1.0
 40
1.0
 40
1.0
 40
1.0
 10
14.863665004
 20
11.4261746778
 30
0.0
 10
14.8605672616
 20
11.4329530821
 30
0.0
 10
14.8480875189
 20
11.4608812712
 30
0.0
 10
14.836522216
 20
11.4892156549
 30
0.0
 10
14.8282363136
 20
11.5108171677
 30
0.0
  0
SPLINE
  5
36D
100
AcDbEntity
  8
0
100
AcDbSpline
 62
7
  6
CONTINUOUS
 70
0
 71
3
 72
37
 73
33
 74
0
 42
0.0000001
 43
0.0000001
 44
0.0000000001
 40
0.0
 40
0.0
 40
0.0
 40
0.0
 40
0.0159726434
 40
0.0328972771
 40
0.0509927654
 40
0.0704218649
 40
0.0912933988
 40
0.1136746514
 40
0.1375943715
 40
0.1630537924
 40
0.1900275333
 40
0.2184717089
 40
0.2483236772
 40
0.279507645
 40
0.3119343561
 40
0.3455047153
 40
0.3801100048
 40
0.4156339665
 40
0.4519537136
 40
0.4889406883
 40
0.564374799
 40
0.6408432511
 40
0.6791166514
 40
0.7172254655
 40
0.7550295534
 40
0.7923911634
 40
0.8291745141
 40
0.8652468071
 40
0.9004810764
 40
0.9347628244
 40
0.9679776358
 40
1.0
 40
1.0
 40
1.0
 40
1.0
 10
15.8345293962
 20
13.977126912
 30
0.0
 10
15.847390893
 20
13.9728217712
 30
0.0
 10
15.8732056106
 20
13.9618327397
 30
0.0
 10
15.9103780537
 20
13.9394012049
 30
0.0
 10
15.9468165003
 20
13.910774955
 30
0.0
 10
15.9823687487
 20
13.8760929704
 30
0.0
 10
16.0169183369
 20
13.8355190403
 30
0.0
 10
16.0503236433
 20
13.789220824
 30
0.0
 10
16.0824610719
 20
13.7373994746
 30
0.0
 10
16.113190721
 20
13.6802698555
 30
0.0
 10
16.1423912448
 20
13.6180778712
 30
0.0
 10
16.1699317826
 20
13.551086561
 30
0.0
 10
16.1956998474
 20
13.479585083
 30
0.0
 10
16.2195790347
 20
13.4038798342
 30
0.0
 10
16.2414698615
 20
13.3242985382
 30
0.0
 10
16.2612736488
 20
13.2411846647
 30
0.0
 10
16.278906685
 20
13.1548986546
 30
0.0
 10
16.2942900113
 20
13.0658144473
 30
0.0
 10
16.3073580647
 20
12.9743182515
 30
0.0
 10
16.3217093873
 20
12.8488216052
 30
0.0
 10
16.3334227753
 20
12.6887769601
 30
0.0
 10
16.3368746193
 20
12.5272540344
 30
0.0
 10
16.3346635139
 20
12.3974703597
 30
0.0
 10
16.330512646
 20
12.3005885045
 30
0.0
 10
16.3238857271
 20
12.2046208879
 30
0.0
 10
16.314815264
 20
12.1099833389
 30
0.0
 10
16.3033363347
 20
12.0170886869
 30
0.0
 10
16.2895056203
 20
11.9263410412
 30
0.0
 10
16.2733770614
 20
11.8381312356
 30
0.0
 10
16.2550236727
 20
11.7528361108
 30
0.0
 10
16.2345228005
 20
11.6708399665
 30
0.0
 10
16.2191977102
 20
11.6175914917
 30
0.0
 10
16.2111695636
 20
11.5916124001
 30
0.0
  0
SPLINE
  5
36E
100
AcDbEntity
  8
0
100
AcDbSpline
 62
7
  6
CONTINUOUS
 70
0
 71
3
 72
11
 73
7
 74
0
 42
0.0000001
 43
0.0000001
 44
0.0000000001
 40
0.0
 40
0.0
 40
0.0
 40
0.0
 40
0.2683622176
 40
0.5382066671
 40
0.7881207404
 40
1.0
 40
1.0
 40
1.0
 40
1.0
 10
14.8966045065
 20
11.4006061276
 30
0.0
 10
14.8967333888
 20
11.4015990772
 30
0.0
 10
14.8968604524
 20
11.4036087709
 30
0.0
 10
14.8967114488
 20
11.4065525343
 30
0.0
 10
14.8962344223
 20
11.409246542
 30
0.0
 10
14.8956790636
 20
11.4108917939
 30
0.0
 10
14.8953307983
 20
11.4116014839
 30
0.0
  0
SPLINE
  5
36F
100
AcDbEntity
  8
0
100
AcDbSpline
 62
7
  6
CONTINUOUS
 70
0
 71
3
 72
11
 73
7
 74
0
 42
0.0000001
 43
0.0000001
 44
0.0000000001
 40
0.0
 40
0.0
 40
0.0
 40
0.0
 40
0.2087777202
 40
0.4582673452
 40
0.7295897769
 40
1.0
 40
1.0
 40
1.0
 40
1.0
 10
14.8940213259
 20
11.3643149977
 30
0.0
 10
14.8937429516
 20
11.3648426589
 30
0.0
 10
14.8932993004
 20
11.3660873477
 30
0.0
 10
14.8929159482
 20
11.3681415254
 30
0.0
 10
14.8927905221
 20
11.3704047971
 30
0.0
 10
14.8928855916
 20
11.3719544428
 30
0.0
 10
14.8929850525
 20
11.3727207209
 30
0.0
  0
SPLINE
  5
370
100
AcDbEntity
  8
0
100
AcDbSpline
 62
7
  6
CONTINUOUS
 70
0
 71
3
 72
9
 73
5
 74
0
 42
0.0000001
 43
0.0000001
 44
0.0000000001
 40
0.0
 40
0.0
 40
0.0
 40
0.0
 40
0.2422972298
 40
1.0
 40
1.0
 40
1.0
 40
1.0
 10
14.9341701196
 20
11.2949467677
 30
0.0
 10
14.9306913536
 20
11.3004070967
 30
0.0
 10
14.9165871995
 20
11.3231037048
 30
0.0
 10
14.903468442
 20
11.3464078919
 30
0.0
 10
14.8940213259
 20
11.3643149977
 30
0.0
  0
SPLINE
  5
371
100
AcDbEntity
  8
0
100
AcDbSpline
 62
7
  6
CONTINUOUS
 70
0
 71
3
 72
27
 73
23
 74
0
 42
0.0000001
 43
0.0000001
 44
0.0000000001
 40
0.0
 40
0.0
 40
0.0
 40
0.0
 40
0.0214400474
 40
0.0424964506
 40
0.0633162472
 40
0.0840525276
 40
0.104860421
 40
0.1258935574
 40
0.1472991562
 40
0.169214702
 40
0.2150332188
 40
0.2642301028
 40
0.3174231856
 40
0.375023285
 40
0.4372739228
 40
0.5042741803
 40
0.5760172005
 40
0.6523995076
 40
0.7332498626
 40
0.8183305308
 40
0.9073574445
 40
1.0
 40
1.0
 40
1.0
 40
1.0
 10
15.8085464653
 20
11.0357853115
 30
0.0
 10
15.8016115195
 20
11.0334636524
 30
0.0
 10
15.7876613011
 20
11.0294443648
 30
0.0
 10
15.7664260998
 20
11.0253505631
 30
0.0
 10
15.7451394009
 20
11.0232637037
 30
0.0
 10
15.723835649
 20
11.0231860252
 30
0.0
 10
15.702546573
 20
11.0251185136
 30
0.0
 10
15.6813056412
 20
11.0290607732
 30
0.0
 10
15.660143294
 20
11.0350023288
 30
0.0
 10
15.6316570972
 20
11.0457270333
 30
0.0
 10
15.5962180633
 20
11.0644105118
 30
0.0
 10
15.5552273058
 20
11.0942422943
 30
0.0
 10
15.5152997579
 20
11.1316186282
 30
0.0
 10
15.4766099907
 20
11.1763166281
 30
0.0
 10
15.4393364085
 20
11.2281061922
 30
0.0
 10
15.4036499677
 20
11.2867139127
 30
0.0
 10
15.3697372958
 20
11.3518408247
 30
0.0
 10
15.3377644767
 20
11.4231440605
 30
0.0
 10
15.3079066337
 20
11.5002519919
 30
0.0
 10
15.2803152612
 20
11.5827562074
 30
0.0
 10
15.2551433682
 20
11.6702191292
 30
0.0
 10
15.2403358037
 20
11.7304094199
 30
0.0
 10
15.2333351839
 20
11.7612248009
 30
0.0
  0
LINE
  5
372
100
AcDbEntity
  8
0
100
AcDbLine
 62
7
  6
CONTINUOUS
 10
15.1698956304
 20
12.1691755877
 11
15.1693588568
 21
12.1750707797
  0
LINE
  5
373
100
AcDbEntity
  8
0
100
AcDbLine
 62
7
  6
CONTINUOUS
 10
15.1563222208
 20
12.3900904819
 11
15.1561133837
 21
12.3968683275
  0
LINE
  5
374
100
AcDbEntity
  8
0
100
AcDbLine
 62
7
  6
CONTINUOUS
 10
15.1558054594
 20
12.6139330812
 11
15.1560151647
 21
12.6214105148
  0
LINE
  5
375
100
AcDbEntity
  8
0
100
AcDbLine
 62
7
  6
CONTINUOUS
 10
15.1616611413
 20
12.7454084001
 11
15.1620636105
 21
12.7517896032
  0
LINE
  5
376
100
AcDbEntity
  8
0
100
AcDbLine
 62
7
  6
CONTINUOUS
 10
15.1818955769
 20
12.9635567359
 11
15.182577994
 21
12.9690044989
  0
SPLINE
  5
377
100
AcDbEntity
  8
0
100
AcDbSpline
 62
7
  6
CONTINUOUS
 70
0
 71
3
 72
10
 73
6
 74
0
 42
0.0000001
 43
0.0000001
 44
0.0000000001
 40
0.0
 40
0.0
 40
0.0
 40
0.0
 40
0.5134004186
 40
0.7603568507
 40
1.0
 40
1.0
 40
1.0
 40
1.0
 10
15.2145640182
 20
13.1708681951
 30
0.0
 10
15.2233982995
 20
13.2166835619
 30
0.0
 10
15.2381136276
 20
13.2842444704
 30
0.0
 10
15.2610893988
 20
13.3721836127
 30
0.0
 10
15.2734907984
 20
13.4146412649
 30
0.0
 10
15.2799211285
 20
13.4354498207
 30
0.0
  0
SPLINE
  5
378
100
AcDbEntity
  8
0
100
AcDbSpline
 62
7
  6
CONTINUOUS
 70
0
 71
3
 72
12
 73
8
 74
0
 42
0.0000001
 43
0.0000001
 44
0.0000000001
 40
0.0
 40
0.0
 40
0.0
 40
0.0
 40
0.2847302049
 40
0.5595711538
 40
0.8031303717
 40
0.9082415944
 40
1.0
 40
1.0
 40
1.0
 40
1.0
 10
14.9682616787
 20
11.2829252398
 30
0.0
 10
14.9683271129
 20
11.2839365283
 30
0.0
 10
14.9683349517
 20
11.2859338015
 30
0.0
 10
14.9680150404
 20
11.2887800071
 30
0.0
 10
14.9674697849
 20
11.2909432583
 30
0.0
 10
14.9668658432
 20
11.292392372
 30
0.0
 10
14.966519335
 20
11.2930047744
 30
0.0
 10
14.9663338318
 20
11.2932735596
 30
0.0
  0
SPLINE
  5
379
100
AcDbEntity
  8
0
100
AcDbSpline
 62
7
  6
CONTINUOUS
 70
0
 71
3
 72
12
 73
8
 74
0
 42
0.0000001
 43
0.0000001
 44
0.0000000001
 40
0.0
 40
0.0
 40
0.0
 40
0.0
 40
0.0897262591
 40
0.193439552
 40
0.436264151
 40
0.7126806094
 40
1.0
 40
1.0
 40
1.0
 40
1.0
 10
14.9679211006
 20
11.2460432163
 30
0.0
 10
14.9677746232
 20
11.2462384638
 30
0.0
 10
14.9675005545
 20
11.2466907845
 30
0.0
 10
14.9670213726
 20
11.2477787549
 30
0.0
 10
14.9665880231
 20
11.2494273992
 30
0.0
 10
14.9663316179
 20
11.2516110079
 30
0.0
 10
14.9663350548
 20
11.2531491959
 30
0.0
 10
14.9663855219
 20
11.2539291665
 30
0.0
  0
SPLINE
  5
37A
100
AcDbEntity
  8
0
100
AcDbSpline
 62
7
  6
CONTINUOUS
 70
0
 71
3
 72
9
 73
5
 74
0
 42
0.0000001
 43
0.0000001
 44
0.0000000001
 40
0.0
 40
0.0
 40
0.0
 40
0.0
 40
0.2413256733
 40
1.0
 40
1.0
 40
1.0
 40
1.0
 10
15.0118014011
 20
11.1936573223
 30
0.0
 10
15.0080285461
 20
11.1976575013
 30
0.0
 10
14.9926539475
 20
11.2144772196
 30
0.0
 10
14.9782950378
 20
11.2322152456
 30
0.0
 10
14.9679211006
 20
11.2460432163
 30
0.0
  0
SPLINE
  5
37B
100
AcDbEntity
  8
0
100
AcDbSpline
 62
7
  6
CONTINUOUS
 70
0
 71
3
 72
12
 73
8
 74
0
 42
0.0000001
 43
0.0000001
 44
0.0000000001
 40
0.0
 40
0.0
 40
0.0
 40
0.0
 40
0.0817106078
 40
0.1782897021
 40
0.4135792192
 40
0.6948030941
 40
1.0
 40
1.0
 40
1.0
 40
1.0
 10
15.0481159801
 20
11.1589140673
 30
0.0
 10
15.0479585073
 20
11.1590488433
 30
0.0
 10
15.0476562582
 20
11.1593911494
 30
0.0
 10
15.0471093027
 20
11.1602900727
 30
0.0
 10
15.0465812875
 20
11.1617678403
 30
0.0
 10
15.0462013442
 20
11.163821908
 30
0.0
 10
15.0461166244
 20
11.1653118839
 30
0.0
 10
15.046118907
 20
11.1660860663
 30
0.0
  0
SPLINE
  5
37C
100
AcDbEntity
  8
0
100
AcDbSpline
 62
7
  6
CONTINUOUS
 70
0
 71
3
 72
9
 73
5
 74
0
 42
0.0000001
 43
0.0000001
 44
0.0000000001
 40
0.0
 40
0.0
 40
0.0
 40
0.0
 40
0.2417512067
 40
1.0
 40
1.0
 40
1.0
 40
1.0
 10
15.0946473088
 20
11.1248004239
 30
0.0
 10
15.0906817632
 20
11.1272329613
 30
0.0
 10
15.0744977162
 20
11.1376512167
 30
0.0
 10
15.0592016447
 20
11.1494261972
 30
0.0
 10
15.0481159801
 20
11.1589140673
 30
0.0
  0
SPLINE
  5
37D
100
AcDbEntity
  8
0
100
AcDbSpline
 62
7
  6
CONTINUOUS
 70
0
 71
3
 72
12
 73
8
 74
0
 42
0.0000001
 43
0.0000001
 44
0.0000000001
 40
0.0
 40
0.0
 40
0.0
 40
0.0
 40
0.1640082109
 40
0.2695720908
 40
0.3910459586
 40
0.6762015947
 40
1.0
 40
1.0
 40
1.0
 40
1.0
 10
15.1326313003
 20
11.1050729596
 30
0.0
 10
15.1322815465
 20
11.105222174
 30
0.0
 10
15.131813307
 20
11.1056905874
 30
0.0
 10
15.1313431566
 20
11.1064609292
 30
0.0
 10
15.1308629975
 20
11.1075527523
 30
0.0
 10
15.1304332906
 20
11.1091988993
 30
0.0
 10
15.1302658688
 20
11.1106049698
 30
0.0
 10
15.1302219074
 20
11.1113544088
 30
0.0
  0
SPLINE
  5
37E
100
AcDbEntity
  8
0
100
AcDbSpline
 62
7
  6
CONTINUOUS
 70
0
 71
3
 72
9
 73
5
 74
0
 42
0.0000001
 43
0.0000001
 44
0.0000000001
 40
0.0
 40
0.0
 40
0.0
 40
0.0
 40
0.4932580117
 40
1.0
 40
1.0
 40
1.0
 40
1.0
 10
15.1806679013
 20
11.0900715579
 30
0.0
 10
15.1725420783
 20
11.0916899161
 30
0.0
 10
15.156237871
 20
11.0958779225
 30
0.0
 10
15.14046048
 20
11.1017328199
 30
0.0
 10
15.1326313003
 20
11.1050729596
 30
0.0
  0
SPLINE
  5
37F
100
AcDbEntity
  8
0
100
AcDbSpline
 62
7
  6
CONTINUOUS
 70
0
 71
3
 72
21
 73
17
 74
0
 42
0.0000001
 43
0.0000001
 44
0.0000000001
 40
0.0
 40
0.0
 40
0.0
 40
0.0
 40
0.015783708
 40
0.0318743485
 40
0.0660073687
 40
0.1042893759
 40
0.1478313121
 40
0.1971245969
 40
0.2522659141
 40
0.3130084834
 40
0.3789234017
 40
0.4493920342
 40
0.5236930737
 40
0.6803377747
 40
0.8416928588
 40
1.0
 40
1.0
 40
1.0
 40
1.0
 10
15.6178714595
 20
11.8696073302
 30
0.0
 10
15.6171563065
 20
11.8696069787
 30
0.0
 10
15.6157095721
 20
11.8697177662
 30
0.0
 10
15.6127867045
 20
11.8703957129
 30
0.0
 10
15.6091228016
 20
11.8721475038
 30
0.0
 10
15.605009612
 20
11.8754715051
 30
0.0
 10
15.601111484
 20
11.8799869364
 30
0.0
 10
15.5974593005
 20
11.885629159
 30
0.0
 10
15.5940982266
 20
11.892329437
 30
0.0
 10
15.591064401
 20
11.8999971557
 30
0.0
 10
15.5884052949
 20
11.9085312113
 30
0.0
 10
15.5861523071
 20
11.917813645
 30
0.0
 10
15.5836967412
 20
11.9312540728
 30
0.0
 10
15.5818821021
 20
11.9489683195
 30
0.0
 10
15.5816707416
 20
11.9705748727
 30
0.0
 10
15.5828519093
 20
11.9850372128
 30
0.0
 10
15.5838027832
 20
11.9921467361
 30
0.0
  0
SPLINE
  5
380
100
AcDbEntity
  8
0
100
AcDbSpline
 62
7
  6
CONTINUOUS
 70
0
 71
3
 72
13
 73
9
 74
0
 42
0.0000001
 43
0.0000001
 44
0.0000000001
 40
0.0
 40
0.0
 40
0.0
 40
0.0
 40
0.0784480404
 40
0.1651852947
 40
0.2650347889
 40
0.3806448315
 40
0.660775329
 40
1.0
 40
1.0
 40
1.0
 40
1.0
 10
15.2193860134
 20
11.0858456399
 30
0.0
 10
15.2192509188
 20
11.0858482602
 30
0.0
 10
15.2189659471
 20
11.0859083362
 30
0.0
 10
15.2185665838
 20
11.0861405632
 30
0.0
 10
15.218188756
 20
11.0865041048
 30
0.0
 10
15.2176898893
 20
11.0872009365
 30
0.0
 10
15.2171762958
 20
11.0883702927
 30
0.0
 10
15.2169110257
 20
11.0894065413
 30
0.0
 10
15.2167985862
 20
11.089979906
 30
0.0
  0
SPLINE
  5
381
100
AcDbEntity
  8
0
100
AcDbSpline
 62
7
  6
CONTINUOUS
 70
0
 71
3
 72
15
 73
11
 74
0
 42
0.0000001
 43
0.0000001
 44
0.0000000001
 40
0.0
 40
0.0
 40
0.0
 40
0.0
 40
0.1075684216
 40
0.2176965314
 40
0.3318430094
 40
0.4512858975
 40
0.5770957981
 40
0.710132552
 40
0.8509749031
 40
1.0
 40
1.0
 40
1.0
 40
1.0
 10
15.7506251998
 20
11.8246383016
 30
0.0
 10
15.7459016874
 20
11.8250163619
 30
0.0
 10
15.7363830848
 20
11.8264339705
 30
0.0
 10
15.7222924953
 20
11.8304646234
 30
0.0
 10
15.7083234238
 20
11.8363990667
 30
0.0
 10
15.6945173678
 20
11.8442104978
 30
0.0
 10
15.6809066059
 20
11.853870916
 30
0.0
 10
15.6675286849
 20
11.8653524443
 30
0.0
 10
15.6544172718
 20
11.8786122803
 30
0.0
 10
15.64611639
 20
11.8883309115
 30
0.0
 10
15.6420133995
 20
11.8934556575
 30
0.0
  0
SPLINE
  5
382
100
AcDbEntity
  8
0
100
AcDbSpline
 62
7
  6
CONTINUOUS
 70
0
 71
3
 72
13
 73
9
 74
0
 42
0.0000001
 43
0.0000001
 44
0.0000000001
 40
0.0
 40
0.0
 40
0.0
 40
0.0
 40
0.0766603354
 40
0.1618175665
 40
0.2609659256
 40
0.3768579241
 40
0.6598894528
 40
1.0
 40
1.0
 40
1.0
 40
1.0
 10
14.713835948
 20
11.9593627266
 30
0.0
 10
14.7136907279
 20
11.9593632532
 30
0.0
 10
14.7133824663
 20
11.9594262319
 30
0.0
 10
14.7129530574
 20
11.9596847204
 30
0.0
 10
14.7125524871
 20
11.960094656
 30
0.0
 10
14.7120257017
 20
11.9608818786
 30
0.0
 10
14.7115015047
 20
11.9621934837
 30
0.0
 10
14.7112418097
 20
11.9633481751
 30
0.0
 10
14.7111388892
 20
11.9639841877
 30
0.0
  0
SPLINE
  5
383
100
AcDbEntity
  8
0
100
AcDbSpline
 62
7
  6
CONTINUOUS
 70
0
 71
3
 72
13
 73
9
 74
0
 42
0.0000001
 43
0.0000001
 44
0.0000000001
 40
0.0
 40
0.0
 40
0.0
 40
0.0
 40
0.0816281409
 40
0.1699921351
 40
0.2702454633
 40
0.3853354449
 40
0.6636969786
 40
1.0
 40
1.0
 40
1.0
 40
1.0
 10
14.7532478356
 20
11.7612908542
 30
0.0
 10
14.7531222068
 20
11.7612908248
 30
0.0
 10
14.752858915
 20
11.7613349896
 30
0.0
 10
14.7524847388
 20
11.761527954
 30
0.0
 10
14.7521302024
 20
11.7618377677
 30
0.0
 10
14.7516555459
 20
11.762435004
 30
0.0
 10
14.7511552019
 20
11.7634522401
 30
0.0
 10
14.7508797633
 20
11.7643598285
 30
0.0
 10
14.7507593326
 20
11.7648632056
 30
0.0
  0
SPLINE
  5
384
100
AcDbEntity
  8
0
100
AcDbSpline
 62
7
  6
CONTINUOUS
 70
0
 71
3
 72
11
 73
7
 74
0
 42
0.0000001
 43
0.0000001
 44
0.0000000001
 40
0.0
 40
0.0
 40
0.0
 40
0.0
 40
0.1791144977
 40
0.3963330144
 40
0.6703047241
 40
1.0
 40
1.0
 40
1.0
 40
1.0
 10
14.8042408353
 20
11.5814875246
 30
0.0
 10
14.8040245865
 20
11.5814867462
 30
0.0
 10
14.8035434306
 20
11.5816375199
 30
0.0
 10
14.8029443288
 20
11.5822041186
 30
0.0
 10
14.80242073
 20
11.5830529517
 30
0.0
 10
14.8021480085
 20
11.5837321649
 30
0.0
 10
14.8020221242
 20
11.5841097859
 30
0.0
  0
SPLINE
  5
385
100
AcDbEntity
  8
0
100
AcDbSpline
 62
7
  6
CONTINUOUS
 70
0
 71
3
 72
11
 73
7
 74
0
 42
0.0000001
 43
0.0000001
 44
0.0000000001
 40
0.0
 40
0.0
 40
0.0
 40
0.0
 40
0.1921399909
 40
0.4138325165
 40
0.6820310205
 40
1.0
 40
1.0
 40
1.0
 40
1.0
 10
14.8655592829
 20
11.4243829442
 30
0.0
 10
14.8653841393
 20
11.4243829037
 30
0.0
 10
14.8650039878
 20
11.4244765675
 30
0.0
 10
14.8644979369
 20
11.4248557026
 30
0.0
 10
14.8640385899
 20
11.4254377792
 30
0.0
 10
14.8637854778
 20
11.4259110599
 30
0.0
 10
14.863665004
 20
11.4261746778
 30
0.0
  0
SPLINE
  5
386
100
AcDbEntity
  8
0
100
AcDbSpline
 62
7
  6
CONTINUOUS
 70
0
 71
3
 72
11
 73
7
 74
0
 42
0.0000001
 43
0.0000001
 44
0.0000000001
 40
0.0
 40
0.0
 40
0.0
 40
0.0
 40
0.2076394307
 40
0.435941869
 40
0.6980072185
 40
1.0
 40
1.0
 40
1.0
 40
1.0
 10
14.9356933119
 20
11.2938457089
 30
0.0
 10
14.9355580842
 20
11.2938457422
 30
0.0
 10
14.9352722647
 20
11.2938992008
 30
0.0
 10
14.9348716426
 20
11.2941262788
 30
0.0
 10
14.9344940256
 20
11.2944831865
 30
0.0
 10
14.9342757971
 20
11.2947808945
 30
0.0
 10
14.9341701196
 20
11.2949467677
 30
0.0
  0
SPLINE
  5
387
100
AcDbEntity
  8
0
100
AcDbSpline
 62
7
  6
CONTINUOUS
 70
0
 71
3
 72
12
 73
8
 74
0
 42
0.0000001
 43
0.0000001
 44
0.0000000001
 40
0.0
 40
0.0
 40
0.0
 40
0.0
 40
0.3334587913
 40
0.6196631248
 40
0.7389781842
 40
0.8412904081
 40
1.0
 40
1.0
 40
1.0
 40
1.0
 10
15.1768013221
 20
13.9255503284
 30
0.0
 10
15.176869083
 20
13.9262788202
 30
0.0
 10
15.1770778625
 20
13.9276263998
 30
0.0
 10
15.1775589414
 20
13.9291847711
 30
0.0
 10
15.1780781678
 20
13.9301775341
 30
0.0
 10
15.178570383
 20
13.9308463425
 30
0.0
 10
15.179068461
 20
13.9312141775
 30
0.0
 10
15.1794095863
 20
13.9312841216
 30
0.0
  0
SPLINE
  5
388
100
AcDbEntity
  8
0
100
AcDbSpline
 62
7
  6
CONTINUOUS
 70
0
 71
3
 72
9
 73
5
 74
0
 42
0.0000001
 43
0.0000001
 44
0.0000000001
 40
0.0
 40
0.0
 40
0.0
 40
0.0
 40
0.5095080231
 40
1.0
 40
1.0
 40
1.0
 40
1.0
 10
15.0934199776
 20
13.8960529048
 30
0.0
 10
15.1011006347
 20
13.9008118068
 30
0.0
 10
15.1165757066
 20
13.909525197
 30
0.0
 10
15.1327983781
 20
13.9167660826
 30
0.0
 10
15.140910722
 20
13.9199044371
 30
0.0
  0
SPLINE
  5
389
100
AcDbEntity
  8
0
100
AcDbSpline
 62
7
  6
CONTINUOUS
 70
0
 71
3
 72
12
 73
8
 74
0
 42
0.0000001
 43
0.0000001
 44
0.0000000001
 40
0.0
 40
0.0
 40
0.0
 40
0.0
 40
0.315126802
 40
0.5985704012
 40
0.8292246634
 40
0.9219799795
 40
1.0
 40
1.0
 40
1.0
 40
1.0
 10
15.0911931193
 20
13.8893419301
 30
0.0
 10
15.0912161612
 20
13.8901050295
 30
0.0
 10
15.0913462471
 20
13.8915544449
 30
0.0
 10
15.0917888801
 20
13.8935185281
 30
0.0
 10
15.0923645036
 20
13.8948902493
 30
0.0
 10
15.0929443936
 20
13.8956761803
 30
0.0
 10
15.0932593029
 20
13.8959533515
 30
0.0
 10
15.0934199776
 20
13.8960529048
 30
0.0
  0
SPLINE
  5
38A
100
AcDbEntity
  8
0
100
AcDbSpline
 62
7
  6
CONTINUOUS
 70
0
 71
3
 72
24
 73
20
 74
0
 42
0.0000001
 43
0.0000001
 44
0.0000000001
 40
0.0
 40
0.0
 40
0.0
 40
0.0
 40
0.0427245387
 40
0.0861862253
 40
0.1310754172
 40
0.1780054718
 40
0.2024091177
 40
0.2275054458
 40
0.2799472482
 40
0.3356609847
 40
0.3948646159
 40
0.4577062066
 40
0.5242625141
 40
0.5945514499
 40
0.6685534188
 40
0.7462122575
 40
0.8274454517
 40
0.9121096254
 40
1.0
 40
1.0
 40
1.0
 40
1.0
 10
15.7589440297
 20
11.260681434
 30
0.0
 10
15.768042037
 20
11.2606809401
 30
0.0
 10
15.7864216426
 20
11.2620115466
 30
0.0
 10
15.8137766926
 20
11.2679754798
 30
0.0
 10
15.8409199627
 20
11.2778645606
 30
0.0
 10
15.8629937501
 20
11.2891928147
 30
0.0
 10
15.8804250733
 20
11.3000615773
 30
0.0
 10
15.8982159622
 20
11.3125167014
 30
0.0
 10
15.9201856624
 20
11.3305495814
 30
0.0
 10
15.9456352522
 20
11.3555548573
 30
0.0
 10
15.9704876033
 20
11.3841532584
 30
0.0
 10
15.9946647997
 20
11.4162587418
 30
0.0
 10
16.0180987355
 20
11.4517704452
 30
0.0
 10
16.0407219259
 20
11.4905772791
 30
0.0
 10
16.0624613968
 20
11.5325640628
 30
0.0
 10
16.0832571184
 20
11.5776040599
 30
0.0
 10
16.1030410178
 20
11.625561431
 30
0.0
 10
16.1217493487
 20
11.6762750903
 30
0.0
 10
16.1332588421
 20
11.7111793515
 30
0.0
 10
16.1388344253
 20
11.7290454361
 30
0.0
  0
SPLINE
  5
38B
100
AcDbEntity
  8
0
100
AcDbSpline
 62
7
  6
CONTINUOUS
 70
0
 71
3
 72
9
 73
5
 74
0
 42
0.0000001
 43
0.0000001
 44
0.0000000001
 40
0.0
 40
0.0
 40
0.0
 40
0.0
 40
0.2590315679
 40
1.0
 40
1.0
 40
1.0
 40
1.0
 10
15.0106352748
 20
13.8267122871
 30
0.0
 10
15.0143162705
 20
13.8306402615
 30
0.0
 10
15.0287551902
 20
13.8455869429
 30
0.0
 10
15.0441399262
 20
13.8596340033
 30
0.0
 10
15.056088331
 20
13.8693478235
 30
0.0
  0
SPLINE
  5
38C
100
AcDbEntity
  8
0
100
AcDbSpline
 62
7
  6
CONTINUOUS
 70
0
 71
3
 72
12
 73
8
 74
0
 42
0.0000001
 43
0.0000001
 44
0.0000000001
 40
0.0
 40
0.0
 40
0.0
 40
0.0
 40
0.2968842792
 40
0.5759754864
 40
0.81487011
 40
0.9147346963
 40
1.0
 40
1.0
 40
1.0
 40
1.0
 10
15.008844655
 20
13.8191893774
 30
0.0
 10
15.0088204203
 20
13.8199686113
 30
0.0
 10
15.0088652565
 20
13.8214851371
 30
0.0
 10
15.0091895637
 20
13.8236048209
 30
0.0
 10
15.0096751992
 20
13.8251653722
 30
0.0
 10
15.0101921512
 20
13.8261544369
 30
0.0
 10
15.0104821701
 20
13.8265489097
 30
0.0
 10
15.0106352748
 20
13.8267122871
 30
0.0
  0
SPLINE
  5
38D
100
AcDbEntity
  8
0
100
AcDbSpline
 62
7
  6
CONTINUOUS
 70
0
 71
3
 72
9
 73
5
 74
0
 42
0.0000001
 43
0.0000001
 44
0.0000000001
 40
0.0
 40
0.0
 40
0.0
 40
0.0
 40
0.5520625837
 40
1.0
 40
1.0
 40
1.0
 40
1.0
 10
14.9753900749
 20
13.7853393767
 30
0.0
 10
14.9755673151
 20
13.7855669689
 30
0.0
 10
14.9759395539
 20
13.7859499317
 30
0.0
 10
14.9764622657
 20
13.7861310767
 30
0.0
 10
14.9766963231
 20
13.7861314286
 30
0.0
  0
SPLINE
  5
38E
100
AcDbEntity
  8
0
100
AcDbSpline
 62
7
  6
CONTINUOUS
 70
0
 71
3
 72
9
 73
5
 74
0
 42
0.0000001
 43
0.0000001
 44
0.0000000001
 40
0.0
 40
0.0
 40
0.0
 40
0.0
 40
0.2584161194
 40
1.0
 40
1.0
 40
1.0
 40
1.0
 10
14.9330939121
 20
13.7249696646
 30
0.0
 10
14.9364939229
 20
13.7303336951
 30
0.0
 10
14.94987741
 20
13.7509457775
 30
0.0
 10
14.9641921156
 20
13.7709602009
 30
0.0
 10
14.9753900749
 20
13.7853393767
 30
0.0
  0
SPLINE
  5
38F
100
AcDbEntity
  8
0
100
AcDbSpline
 62
7
  6
CONTINUOUS
 70
0
 71
3
 72
11
 73
7
 74
0
 42
0.0000001
 43
0.0000001
 44
0.0000000001
 40
0.0
 40
0.0
 40
0.0
 40
0.0
 40
0.2795086361
 40
0.5536711723
 40
0.7997048731
 40
1.0
 40
1.0
 40
1.0
 40
1.0
 10
14.9317836217
 20
13.7168200588
 30
0.0
 10
14.9317106924
 20
13.7175961745
 30
0.0
 10
14.9316655402
 20
13.7191439276
 30
0.0
 10
14.9318622106
 20
13.721371928
 30
0.0
 10
14.9323082946
 20
13.7233360024
 30
0.0
 10
14.9327948501
 20
13.7244978492
 30
0.0
 10
14.9330939121
 20
13.7249696646
 30
0.0
  0
SPLINE
  5
390
100
AcDbEntity
  8
0
100
AcDbSpline
 62
7
  6
CONTINUOUS
 70
0
 71
3
 72
12
 73
8
 74
0
 42
0.0000001
 43
0.0000001
 44
0.0000000001
 40
0.0
 40
0.0
 40
0.0
 40
0.0
 40
0.0956157702
 40
0.203856579
 40
0.4503883327
 40
0.7229224147
 40
1.0
 40
1.0
 40
1.0
 40
1.0
 10
14.9328361515
 20
13.6775683885
 30
0.0
 10
14.9330126423
 20
13.6778691195
 30
0.0
 10
14.9333394456
 20
13.6785395434
 30
0.0
 10
14.9338984529
 20
13.6800861262
 30
0.0
 10
14.93438291
 20
13.6823325262
 30
0.0
 10
14.9346253951
 20
13.6852313943
 30
0.0
 10
14.9345631241
 20
13.6872405267
 30
0.0
 10
14.934468591
 20
13.688246551
 30
0.0
  0
SPLINE
  5
391
100
AcDbEntity
  8
0
100
AcDbSpline
 62
7
  6
CONTINUOUS
 70
0
 71
3
 72
11
 73
7
 74
0
 42
0.0000001
 43
0.0000001
 44
0.0000000001
 40
0.0
 40
0.0
 40
0.0
 40
0.0
 40
0.3098286962
 40
0.5747172896
 40
0.7997668676
 40
1.0
 40
1.0
 40
1.0
 40
1.0
 10
14.9008030126
 20
13.6699476634
 30
0.0
 10
14.9009165488
 20
13.670156143
 30
0.0
 10
14.9011525444
 20
13.670530363
 30
0.0
 10
14.9015698762
 20
13.6709848997
 30
0.0
 10
14.9020200554
 20
13.6712773343
 30
0.0
 10
14.9023484058
 20
13.6713472431
 30
0.0
 10
14.9025018242
 20
13.6713472446
 30
0.0
  0
SPLINE
  5
392
100
AcDbEntity
  8
0
100
AcDbSpline
 62
7
  6
CONTINUOUS
 70
0
 71
3
 72
9
 73
5
 74
0
 42
0.0000001
 43
0.0000001
 44
0.0000000001
 40
0.0
 40
0.0
 40
0.0
 40
0.0
 40
0.2571004069
 40
1.0
 40
1.0
 40
1.0
 40
1.0
 10
14.862705215
 20
13.5933302782
 30
0.0
 10
14.8657419945
 20
13.6000059614
 30
0.0
 10
14.8777675122
 20
13.6258729637
 30
0.0
 10
14.8906677214
 20
13.6513368438
 30
0.0
 10
14.9008030126
 20
13.6699476634
 30
0.0
  0
SPLINE
  5
393
100
AcDbEntity
  8
0
100
AcDbSpline
 62
7
  6
CONTINUOUS
 70
0
 71
3
 72
11
 73
7
 74
0
 42
0.0000001
 43
0.0000001
 44
0.0000000001
 40
0.0
 40
0.0
 40
0.0
 40
0.0
 40
0.2628706409
 40
0.5317571974
 40
0.7840483603
 40
1.0
 40
1.0
 40
1.0
 40
1.0
 10
14.8619075178
 20
13.5847546468
 30
0.0
 10
14.8617855921
 20
13.5855080666
 30
0.0
 10
14.8616478471
 20
13.5870506839
 30
0.0
 10
14.8617120212
 20
13.5893316787
 30
0.0
 10
14.8620397161
 20
13.5914515563
 30
0.0
 10
14.8624455935
 20
13.5927595582
 30
0.0
 10
14.862705215
 20
13.5933302782
 30
0.0
  0
SPLINE
  5
394
100
AcDbEntity
  8
0
100
AcDbSpline
 62
7
  6
CONTINUOUS
 70
0
 71
3
 72
11
 73
7
 74
0
 42
0.0000001
 43
0.0000001
 44
0.0000000001
 40
0.0
 40
0.0
 40
0.0
 40
0.0
 40
0.2188612269
 40
0.4714594501
 40
0.7389325899
 40
1.0
 40
1.0
 40
1.0
 40
1.0
 10
14.8653382402
 20
13.5464090447
 30
0.0
 10
14.8656617956
 20
13.5471721634
 30
0.0
 10
14.8661675604
 20
13.5488965076
 30
0.0
 10
14.8665713563
 20
13.5516719146
 30
0.0
 10
14.8666405446
 20
13.5546361122
 30
0.0
 10
14.8664580343
 20
13.5566354894
 30
0.0
 10
14.8663000845
 20
13.5576115137
 30
0.0
  0
SPLINE
  5
395
100
AcDbEntity
  8
0
100
AcDbSpline
 62
7
  6
CONTINUOUS
 70
0
 71
3
 72
11
 73
7
 74
0
 42
0.0000001
 43
0.0000001
 44
0.0000000001
 40
0.0
 40
0.0
 40
0.0
 40
0.0
 40
0.3238916011
 40
0.5948130277
 40
0.8141557226
 40
1.0
 40
1.0
 40
1.0
 40
1.0
 10
14.8341637251
 20
13.5260140106
 30
0.0
 10
14.8342879434
 20
13.5263282121
 30
0.0
 10
14.8345521053
 20
13.5268926139
 30
0.0
 10
14.8350430794
 20
13.5275925694
 30
0.0
 10
14.8355937583
 20
13.5280534696
 30
0.0
 10
14.8360194095
 20
13.5281712165
 30
0.0
 10
14.8362132714
 20
13.528170991
 30
0.0
  0
SPLINE
  5
396
100
AcDbEntity
  8
0
100
AcDbSpline
 62
7
  6
CONTINUOUS
 70
0
 71
3
 72
11
 73
7
 74
0
 42
0.0000001
 43
0.0000001
 44
0.0000000001
 40
0.0
 40
0.0
 40
0.0
 40
0.0
 40
0.2468980966
 40
0.5104140304
 40
0.7684949082
 40
1.0
 40
1.0
 40
1.0
 40
1.0
 10
14.800936925
 20
13.42624503
 30
0.0
 10
14.8007667672
 20
13.4269562277
 30
0.0
 10
14.8005363304
 20
13.4284561822
 30
0.0
 10
14.8004663043
 20
13.4307363355
 30
0.0
 10
14.8006668324
 20
13.4329628078
 30
0.0
 10
14.8009864374
 20
13.4343847419
 30
0.0
 10
14.801202387
 20
13.4350355266
 30
0.0
  0
SPLINE
  5
397
100
AcDbEntity
  8
0
100
AcDbSpline
 62
7
  6
CONTINUOUS
 70
0
 71
3
 72
11
 73
7
 74
0
 42
0.0000001
 43
0.0000001
 44
0.0000000001
 40
0.0
 40
0.0
 40
0.0
 40
0.0
 40
0.2339967212
 40
0.4921640318
 40
0.7544114422
 40
1.0
 40
1.0
 40
1.0
 40
1.0
 10
14.8066613641
 20
13.3897496922
 30
0.0
 10
14.8069276941
 20
13.3906115365
 30
0.0
 10
14.8073203786
 20
13.3924764661
 30
0.0
 10
14.8075574454
 20
13.3953811888
 30
0.0
 10
14.8074520316
 20
13.3983384884
 30
0.0
 10
14.8071492254
 20
13.4002798687
 30
0.0
 10
14.8069289294
 20
13.4012006257
 30
0.0
  0
SPLINE
  5
398
100
AcDbEntity
  8
0
100
AcDbSpline
 62
7
  6
CONTINUOUS
 70
0
 71
3
 72
13
 73
9
 74
0
 42
0.0000001
 43
0.0000001
 44
0.0000000001
 40
0.0
 40
0.0
 40
0.0
 40
0.0
 40
0.3327875081
 40
0.6084809181
 40
0.7234705835
 40
0.8247571085
 40
0.9153430828
 40
1.0
 40
1.0
 40
1.0
 40
1.0
 10
14.7771130929
 20
13.3570825424
 30
0.0
 10
14.7772379002
 20
13.3575167337
 30
0.0
 10
14.7775140541
 20
13.3582976505
 30
0.0
 10
14.7779940975
 20
13.3591651596
 30
0.0
 10
14.778436697
 20
13.3596689428
 30
0.0
 10
14.7787653498
 20
13.3599295458
 30
0.0
 10
14.7791085909
 20
13.3600913396
 30
0.0
 10
14.7793479753
 20
13.360127652
 30
0.0
 10
14.7794629
 20
13.3601272771
 30
0.0
  0
SPLINE
  5
399
100
AcDbEntity
  8
0
100
AcDbSpline
 62
7
  6
CONTINUOUS
 70
0
 71
3
 72
37
 73
33
 74
0
 42
0.0000001
 43
0.0000001
 44
0.0000000001
 40
0.0
 40
0.0
 40
0.0
 40
0.0
 40
0.0320223642
 40
0.0652371756
 40
0.0995189236
 40
0.1347531929
 40
0.1708254859
 40
0.2076088366
 40
0.2449704466
 40
0.2827745345
 40
0.3208833486
 40
0.3591567489
 40
0.435625201
 40
0.5110593117
 40
0.5480462864
 40
0.5843660335
 40
0.6198899952
 40
0.6544952847
 40
0.6880656439
 40
0.720492355
 40
0.7516763228
 40
0.7815282911
 40
0.8099724667
 40
0.8369462076
 40
0.8624056285
 40
0.8863253486
 40
0.9087066012
 40
0.9295781351
 40
0.9490072346
 40
0.9671027229
 40
0.9840273566
 40
1.0
 40
1.0
 40
1.0
 40
1.0
 10
14.7310553733
 20
13.4299975857
 30
0.0
 10
14.7230272268
 20
13.4040184941
 30
0.0
 10
14.7077021364
 20
13.3507700193
 30
0.0
 10
14.6872012643
 20
13.2687738751
 30
0.0
 10
14.6688478755
 20
13.1834787502
 30
0.0
 10
14.6527193167
 20
13.0952689446
 30
0.0
 10
14.6388886023
 20
13.0045212989
 30
0.0
 10
14.627409673
 20
12.9116266469
 30
0.0
 10
14.6183392098
 20
12.8169890979
 30
0.0
 10
14.6117122909
 20
12.7210214813
 30
0.0
 10
14.6075614231
 20
12.6241396261
 30
0.0
 10
14.6053503177
 20
12.4943559514
 30
0.0
 10
14.6088021616
 20
12.3328330257
 30
0.0
 10
14.6205155496
 20
12.1727883807
 30
0.0
 10
14.6348668723
 20
12.0472917343
 30
0.0
 10
14.6479349256
 20
11.9557955385
 30
0.0
 10
14.663318252
 20
11.8667113313
 30
0.0
 10
14.6809512882
 20
11.7804253212
 30
0.0
 10
14.7007550755
 20
11.6973114476
 30
0.0
 10
14.7226459023
 20
11.6177301516
 30
0.0
 10
14.7465250896
 20
11.5420249028
 30
0.0
 10
14.7722931543
 20
11.4705234248
 30
0.0
 10
14.7998336922
 20
11.4035321147
 30
0.0
 10
14.8290342159
 20
11.3413401303
 30
0.0
 10
14.8597638651
 20
11.2842105112
 30
0.0
 10
14.8919012937
 20
11.2323891618
 30
0.0
 10
14.9253066001
 20
11.1860909455
 30
0.0
 10
14.9598561883
 20
11.1455170155
 30
0.0
 10
14.9954084366
 20
11.1108350308
 30
0.0
 10
15.0318468832
 20
11.0822087809
 30
0.0
 10
15.0690193263
 20
11.0597772461
 30
0.0
 10
15.094834044
 20
11.0487882146
 30
0.0
 10
15.1076955408
 20
11.0444830738
 30
0.0
  0
SPLINE
  5
39A
100
AcDbEntity
  8
0
100
AcDbSpline
 62
7
  6
CONTINUOUS
 70
0
 71
3
 72
15
 73
11
 74
0
 42
0.0000001
 43
0.0000001
 44
0.0000000001
 40
0.0
 40
0.0
 40
0.0
 40
0.0
 40
0.1387693771
 40
0.2707913962
 40
0.397235253
 40
0.5195016966
 40
0.6391758116
 40
0.7579800421
 40
0.8776809049
 40
1.0
 40
1.0
 40
1.0
 40
1.0
 10
15.3708053133
 20
13.9387600251
 30
0.0
 10
15.3614765025
 20
13.9457494499
 30
0.0
 10
15.3426457255
 20
13.9585833928
 30
0.0
 10
15.3132417466
 20
13.9744885994
 30
0.0
 10
15.2835093264
 20
13.9864699607
 30
0.0
 10
15.2535361406
 20
13.9944838113
 30
0.0
 10
15.2234104711
 20
13.9984845979
 30
0.0
 10
15.1932330202
 20
13.9984518467
 30
0.0
 10
15.163112037
 20
13.9943924811
 30
0.0
 10
15.1434218437
 20
13.9890865294
 30
0.0
 10
15.1336784716
 20
13.9858246743
 30
0.0
  0
SPLINE
  5
39B
100
AcDbEntity
  8
0
100
AcDbSpline
 62
7
  6
CONTINUOUS
 70
0
 71
3
 72
23
 73
19
 74
0
 42
0.0000001
 43
0.0000001
 44
0.0000000001
 40
0.0
 40
0.0
 40
0.0
 40
0.0
 40
0.0861939478
 40
0.1694369043
 40
0.2495494196
 40
0.3263950636
 40
0.3998965218
 40
0.4699977989
 40
0.5366704641
 40
0.5999159801
 40
0.6597722716
 40
0.7163361218
 40
0.7697575386
 40
0.8202506708
 40
0.8681089232
 40
0.9137019167
 40
0.9574865935
 40
1.0
 40
1.0
 40
1.0
 40
1.0
 10
15.3658593899
 20
13.2922658043
 30
0.0
 10
15.3710982577
 20
13.3090828552
 30
0.0
 10
15.3818949308
 20
13.3419889207
 30
0.0
 10
15.3993671993
 20
13.389908961
 30
0.0
 10
15.4177951949
 20
13.4354167524
 30
0.0
 10
15.4371280011
 20
13.4783748532
 30
0.0
 10
15.4573078819
 20
13.5186678002
 30
0.0
 10
15.4782851558
 20
13.5561890722
 30
0.0
 10
15.5000027903
 20
13.5908394294
 30
0.0
 10
15.5224005506
 20
13.6225262073
 30
0.0
 10
15.5454250021
 20
13.6511588566
 30
0.0
 10
15.5690127005
 20
13.6766619449
 30
0.0
 10
15.5931050479
 20
13.698965769
 30
0.0
 10
15.6176463228
 20
13.7180026966
 30
0.0
 10
15.6425712659
 20
13.7337203429
 30
0.0
 10
15.6678228265
 20
13.7460612681
 30
0.0
 10
15.6933268534
 20
13.7549746559
 30
0.0
 10
15.7106362775
 20
13.758647303
 30
0.0
 10
15.719236851
 20
13.7598755187
 30
0.0
  0
SPLINE
  5
39C
100
AcDbEntity
  8
0
100
AcDbSpline
 62
7
  6
CONTINUOUS
 70
0
 71
3
 72
21
 73
17
 74
0
 42
0.0000001
 43
0.0000001
 44
0.0000000001
 40
0.0
 40
0.0
 40
0.0
 40
0.0
 40
0.1650119243
 40
0.3190609017
 40
0.3917206893
 40
0.4613851768
 40
0.5280178022
 40
0.5916035616
 40
0.6521491999
 40
0.7096981175
 40
0.7643346436
 40
0.8161806919
 40
0.8654111456
 40
0.9122556523
 40
0.9570006572
 40
1.0
 40
1.0
 40
1.0
 40
1.0
 10
16.2111695636
 20
11.5916124001
 30
0.0
 10
16.200033875
 20
11.5555772984
 30
0.0
 10
16.1766209547
 20
11.4864616874
 30
0.0
 10
16.1425998034
 20
11.4035608798
 30
0.0
 10
16.1134132562
 20
11.3424126009
 30
0.0
 10
16.0911335765
 20
11.3001508754
 30
0.0
 10
16.0680856376
 20
11.2606856328
 30
0.0
 10
16.0443247062
 20
11.224104579
 30
0.0
 10
16.0199010822
 20
11.1904941462
 30
0.0
 10
15.9948684049
 20
11.1599324235
 30
0.0
 10
15.9692849049
 20
11.132486253
 30
0.0
 10
15.9432009652
 20
11.108222434
 30
0.0
 10
15.9166734282
 20
11.087198095
 30
0.0
 10
15.8897584618
 20
11.0694620775
 30
0.0
 10
15.8625142558
 20
11.0550701762
 30
0.0
 10
15.8438492879
 20
11.0476029518
 30
0.0
 10
15.8345294064
 20
11.0444828715
 30
0.0
  0
SPLINE
  5
39D
100
AcDbEntity
  8
0
100
AcDbSpline
 62
7
  6
CONTINUOUS
 70
0
 71
3
 72
28
 73
24
 74
0
 42
0.0000001
 43
0.0000001
 44
0.0000000001
 40
0.0
 40
0.0
 40
0.0
 40
0.0
 40
0.091271936
 40
0.1786697174
 40
0.2619252374
 40
0.3408773477
 40
0.4154264594
 40
0.485522704
 40
0.5511742192
 40
0.6124813429
 40
0.6696466428
 40
0.6967827102
 40
0.7230181718
 40
0.773023007
 40
0.8203127957
 40
0.8431989375
 40
0.8657158716
 40
0.8879837512
 40
0.9101277932
 40
0.9322754478
 40
0.9545542791
 40
0.977089366
 40
1.0
 40
1.0
 40
1.0
 40
1.0
 10
15.2799211285
 20
13.4354498207
 30
0.0
 10
15.2874861085
 20
13.4599301051
 30
0.0
 10
15.303172035
 20
13.5075871159
 30
0.0
 10
15.3289625556
 20
13.57646764
 30
0.0
 10
15.3564267847
 20
13.6409597442
 30
0.0
 10
15.385441946
 20
13.7007887405
 30
0.0
 10
15.4158968902
 20
13.7557156047
 30
0.0
 10
15.4476656852
 20
13.8055246379
 30
0.0
 10
15.4806311496
 20
13.8500128806
 30
0.0
 10
15.5146620957
 20
13.88899771
 30
0.0
 10
15.5443103527
 20
13.9172454158
 30
0.0
 10
15.568443844
 20
13.9367754563
 30
0.0
 10
15.5920127581
 20
13.9537294556
 30
0.0
 10
15.6219477237
 20
13.9714314806
 30
0.0
 10
15.6531911056
 20
13.9845033899
 30
0.0
 10
15.6782127352
 20
13.9917305659
 30
0.0
 10
15.696842421
 20
13.9955536685
 30
0.0
 10
15.7155136698
 20
13.9978304648
 30
0.0
 10
15.7342058132
 20
13.9985605645
 30
0.0
 10
15.75289731
 20
13.9977428866
 30
0.0
 10
15.7715670907
 20
13.9953766875
 30
0.0
 10
15.7901921256
 20
13.9914645708
 30
0.0
 10
15.8024474295
 20
13.9878660033
 30
0.0
 10
15.808546455
 20
13.9858244708
 30
0.0
  0
LINE
  5
39E
100
AcDbEntity
  8
0
100
AcDbLine
 62
7
  6
CONTINUOUS
 10
15.592868455
 20
11.8964076623
 11
15.6420124473
 21
11.8934534496
  0
SPLINE
  5
39F
100
AcDbEntity
  8
0
100
AcDbSpline
 62
7
  6
CONTINUOUS
 70
0
 71
3
 72
41
 73
37
 74
0
 42
0.0000001
 43
0.0000001
 44
0.0000000001
 40
0.0
 40
0.0
 40
0.0
 40
0.0
 40
0.0328445781
 40
0.0669666382
 40
0.1022239712
 40
0.1384865272
 40
0.1756238481
 40
0.213491227
 40
0.2519375066
 40
0.290808473
 40
0.3299479086
 40
0.3691970491
 40
0.4083959035
 40
0.4473853919
 40
0.4860074693
 40
0.524107296
 40
0.5615330898
 40
0.598138718
 40
0.6337836807
 40
0.668335473
 40
0.7016702377
 40
0.7336748282
 40
0.7642487175
 40
0.7933055877
 40
0.8207771712
 40
0.8466147265
 40
0.8707956171
 40
0.8933256788
 40
0.9142494834
 40
0.9336549601
 40
0.9516871384
 40
0.9685535957
 40
0.9766408029
 40
0.9845470407
 40
0.9923173358
 40
1.0
 40
1.0
 40
1.0
 40
1.0
 10
15.3776035656
 20
13.2878951545
 30
0.0
 10
15.3704751124
 20
13.2648274717
 30
0.0
 10
15.3569023837
 20
13.2174934171
 30
0.0
 10
15.3388593468
 20
13.1445317778
 30
0.0
 10
15.322822771
 20
13.0685333607
 30
0.0
 10
15.3088666914
 20
12.9898749586
 30
0.0
 10
15.2970610018
 20
12.9089265784
 30
0.0
 10
15.2874559173
 20
12.8260722018
 30
0.0
 10
15.2801044167
 20
12.7417087289
 30
0.0
 10
15.2750369299
 20
12.656240935
 30
0.0
 10
15.2722821786
 20
12.5700770996
 30
0.0
 10
15.2718490721
 20
12.4836293872
 30
0.0
 10
15.2737437131
 20
12.3973115592
 30
0.0
 10
15.277953625
 20
12.3115369834
 30
0.0
 10
15.2844613286
 20
12.2267160179
 30
0.0
 10
15.2932331338
 20
12.1432544892
 30
0.0
 10
15.3042286017
 20
12.0615514846
 30
0.0
 10
15.3173935562
 20
11.9819976206
 30
0.0
 10
15.3326653374
 20
11.9049728024
 30
0.0
 10
15.3499704182
 20
11.8308448
 30
0.0
 10
15.3692251463
 20
11.7599667885
 30
0.0
 10
15.3903384583
 20
11.6926765076
 30
0.0
 10
15.4132074519
 20
11.6292929409
 30
0.0
 10
15.437726112
 20
11.5701169897
 30
0.0
 10
15.4637750915
 20
11.5154263478
 30
0.0
 10
15.4912372842
 20
11.4654792099
 30
0.0
 10
15.5199815913
 20
11.4205058545
 30
0.0
 10
15.5498861937
 20
11.3807182659
 30
0.0
 10
15.5808156977
 20
11.3462970953
 30
0.0
 10
15.6126539377
 20
11.3174121962
 30
0.0
 10
15.6452621931
 20
11.2942069393
 30
0.0
 10
15.6733838168
 20
11.2795225662
 30
0.0
 10
15.6959824895
 20
11.2709277779
 30
0.0
 10
15.7127815179
 20
11.2660612718
 30
0.0
 10
15.7296405241
 20
11.2626969261
 30
0.0
 10
15.7409491155
 20
11.2614523726
 30
0.0
 10
15.7465846562
 20
11.2610847982
 30
0.0
  0
SPLINE
  5
3A0
100
AcDbEntity
  8
0
100
AcDbSpline
 62
7
  6
CONTINUOUS
 70
0
 71
3
 72
21
 73
17
 74
0
 42
0.0000001
 43
0.0000001
 44
0.0000000001
 40
0.0
 40
0.0
 40
0.0
 40
0.0
 40
0.0436887631
 40
0.0892765523
 40
0.1370235344
 40
0.1871412092
 40
0.2397972088
 40
0.2951122321
 40
0.353172372
 40
0.4140336589
 40
0.4777159334
 40
0.5442163719
 40
0.6135152534
 40
0.6855749505
 40
0.8377385158
 40
1.0
 40
1.0
 40
1.0
 40
1.0
 10
15.1087165998
 20
13.9760437853
 30
0.0
 10
15.0999096854
 20
13.9720870811
 30
0.0
 10
15.0823158519
 20
13.9630787327
 30
0.0
 10
15.0567217679
 20
13.9468265424
 30
0.0
 10
15.0314579993
 20
13.927618139
 30
0.0
 10
15.0065760616
 20
13.9054972086
 30
0.0
 10
14.9821251058
 20
13.8805074148
 30
0.0
 10
14.9581485966
 20
13.8527043529
 30
0.0
 10
14.9346931861
 20
13.8221438975
 30
0.0
 10
14.9118084273
 20
13.7888862523
 30
0.0
 10
14.8895362234
 20
13.75300265
 30
0.0
 10
14.8679218971
 20
13.7145666124
 30
0.0
 10
14.8470113327
 20
13.6736539032
 30
0.0
 10
14.8196233777
 20
13.6148394071
 30
0.0
 10
14.787602362
 20
13.5355915576
 30
0.0
 10
14.765391425
 20
13.4697099147
 30
0.0
 10
14.7548042553
 20
13.4354498207
 30
0.0
  0
SPLINE
  5
3A1
100
AcDbEntity
  8
0
100
AcDbSpline
 62
7
  6
CONTINUOUS
 70
0
 71
3
 72
21
 73
17
 74
0
 42
0.0000001
 43
0.0000001
 44
0.0000000001
 40
0.0
 40
0.0
 40
0.0
 40
0.0
 40
0.0556632644
 40
0.1139515538
 40
0.1745152989
 40
0.2370285757
 40
0.3011409336
 40
0.3664714608
 40
0.4991988528
 40
0.6320321209
 40
0.6974939298
 40
0.761788124
 40
0.8245316919
 40
0.8853717713
 40
0.9439794402
 40
1.0
 40
1.0
 40
1.0
 40
1.0
 10
15.9664970833
 20
12.943485243
 30
0.0
 10
15.9713655073
 20
12.928084583
 30
0.0
 10
15.9805324413
 20
12.8963000817
 30
0.0
 10
15.9923813066
 20
12.8470518091
 30
0.0
 10
16.0025727309
 20
12.7954066968
 30
0.0
 10
16.0110357804
 20
12.7417406941
 30
0.0
 10
16.0177116955
 20
12.6864299804
 30
0.0
 10
16.024195594
 20
12.610619941
 30
0.0
 10
16.0275305618
 20
12.514588459
 30
0.0
 10
16.0246071526
 20
12.418505756
 30
0.0
 10
16.0184529002
 20
12.34254637
 30
0.0
 10
16.0120157681
 20
12.2870487131
 30
0.0
 10
16.0037843829
 20
12.2331447283
 30
0.0
 10
15.9938159103
 20
12.1812122402
 30
0.0
 10
15.982180059
 20
12.1316293483
 30
0.0
 10
15.9731546686
 20
12.0996006075
 30
0.0
 10
15.9683552705
 20
12.0840697497
 30
0.0
  0
SPLINE
  5
3A2
100
AcDbEntity
  8
0
100
AcDbSpline
 62
7
  6
CONTINUOUS
 70
0
 71
3
 72
15
 73
11
 74
0
 42
0.0000001
 43
0.0000001
 44
0.0000000001
 40
0.0
 40
0.0
 40
0.0
 40
0.0
 40
0.1667638608
 40
0.3207634599
 40
0.4615434824
 40
0.5891693349
 40
0.7046338988
 40
0.8096704381
 40
0.9069298103
 40
1.0
 40
1.0
 40
1.0
 40
1.0
 10
15.6420133995
 20
11.8934556575
 30
0.0
 10
15.6412268353
 20
11.8916317665
 30
0.0
 10
15.6395995524
 20
11.8881709118
 30
0.0
 10
15.6368803441
 20
11.8833861701
 30
0.0
 10
15.6340000529
 20
11.8792506457
 30
0.0
 10
15.6309764896
 20
11.8758056668
 30
0.0
 10
15.6278333556
 20
11.8730779312
 30
0.0
 10
15.6245857021
 20
11.8710929902
 30
0.0
 10
15.6212548496
 20
11.869883193
 30
0.0
 10
15.6189799871
 20
11.8696078752
 30
0.0
 10
15.6178714595
 20
11.8696073302
 30
0.0
  0
SPLINE
  5
3A3
100
AcDbEntity
  8
0
100
AcDbSpline
 62
7
  6
CONTINUOUS
 70
0
 71
3
 72
23
 73
19
 74
0
 42
0.0000001
 43
0.0000001
 44
0.0000000001
 40
0.0
 40
0.0
 40
0.0
 40
0.0
 40
0.0888368144
 40
0.1743053199
 40
0.2561810968
 40
0.3343010646
 40
0.408577374
 40
0.4789532802
 40
0.5454148983
 40
0.6079931457
 40
0.6667837947
 40
0.7219695242
 40
0.7738154986
 40
0.822696847
 40
0.8691017769
 40
0.9136335295
 40
0.9570050248
 40
1.0
 40
1.0
 40
1.0
 40
1.0
 10
15.9683552705
 20
12.0840697497
 30
0.0
 10
15.9651920274
 20
12.0738334912
 30
0.0
 10
15.958652109
 20
12.0538498931
 30
0.0
 10
15.9479846875
 20
12.0248465444
 30
0.0
 10
15.9366784162
 20
11.9974781521
 30
0.0
 10
15.9247717704
 20
11.971845401
 30
0.0
 10
15.9123078769
 20
11.9480321862
 30
0.0
 10
15.8993236215
 20
11.9261159415
 30
0.0
 10
15.8858634669
 20
11.9061668963
 30
0.0
 10
15.8719701343
 20
11.8882514415
 30
0.0
 10
15.8576843688
 20
11.8724320124
 30
0.0
 10
15.8430534285
 20
11.8587586722
 30
0.0
 10
15.8281167413
 20
11.8472825131
 30
0.0
 10
15.8129193393
 20
11.838046634
 30
0.0
 10
15.7975081571
 20
11.8310899515
 30
0.0
 10
15.7819314003
 20
11.8264560343
 30
0.0
 10
15.7662560126
 20
11.8241692706
 30
0.0
 10
15.7557939392
 20
11.8242246062
 30
0.0
 10
15.7506251998
 20
11.8246383016
 30
0.0
  0
SPLINE
  5
3A4
100
AcDbEntity
  8
0
100
AcDbSpline
 62
7
  6
CONTINUOUS
 70
0
 71
3
 72
23
 73
19
 74
0
 42
0.0000001
 43
0.0000001
 44
0.0000000001
 40
0.0
 40
0.0
 40
0.0
 40
0.0
 40
0.0424305491
 40
0.0860260952
 40
0.131363037
 40
0.1789369257
 40
0.2291493464
 40
0.2823193712
 40
0.3386819244
 40
0.3984005877
 40
0.4615822463
 40
0.5282706487
 40
0.5984692606
 40
0.6721496099
 40
0.7492536803
 40
0.8297002677
 40
0.9133450378
 40
1.0
 40
1.0
 40
1.0
 40
1.0
 10
15.7383279027
 20
13.7598080475
 30
0.0
 10
15.7295669855
 20
13.7588544785
 30
0.0
 10
15.7119174317
 20
13.7556888562
 30
0.0
 10
15.685859531
 20
13.7473707251
 30
0.0
 10
15.6600493072
 20
13.7354779894
 30
0.0
 10
15.6345685732
 20
13.7200604207
 30
0.0
 10
15.6094775896
 20
13.7011806579
 30
0.0
 10
15.5848449995
 20
13.6788938306
 30
0.0
 10
15.5607310334
 20
13.6532698355
 30
0.0
 10
15.5371963903
 20
13.6243828739
 30
0.0
 10
15.5143087932
 20
13.5923115896
 30
0.0
 10
15.4921249911
 20
13.5571513146
 30
0.0
 10
15.4707084809
 20
13.5190000855
 30
0.0
 10
15.450120078
 20
13.477962817
 30
0.0
 10
15.4304125101
 20
13.4341525045
 30
0.0
 10
15.4116471713
 20
13.3876920197
 30
0.0
 10
15.3938777953
 20
13.3387277708
 30
0.0
 10
15.3829173974
 20
13.3050907206
 30
0.0
 10
15.3776035656
 20
13.2878951545
 30
0.0
  0
SPLINE
  5
3A5
100
AcDbEntity
  8
0
100
AcDbSpline
 62
7
  6
CONTINUOUS
 70
0
 71
3
 72
18
 73
14
 74
0
 42
0.0000001
 43
0.0000001
 44
0.0000000001
 40
0.0
 40
0.0
 40
0.0
 40
0.0
 40
0.0552722737
 40
0.1100659469
 40
0.1647302528
 40
0.2196173306
 40
0.2750751604
 40
0.3314375256
 40
0.4480199245
 40
0.5716666041
 40
0.7041021161
 40
0.8465990749
 40
1.0
 40
1.0
 40
1.0
 40
1.0
 10
15.8063744075
 20
11.036859366
 30
0.0
 10
15.7999145677
 20
11.0355218752
 30
0.0
 10
15.7869317937
 20
11.0333973661
 30
0.0
 10
15.7673036994
 20
11.0319076388
 30
0.0
 10
15.7476648055
 20
11.0321355429
 30
0.0
 10
15.7280424176
 20
11.0340818575
 30
0.0
 10
15.7084609512
 20
11.0377469109
 30
0.0
 10
15.6821524679
 20
11.0449900494
 30
0.0
 10
15.6492819903
 20
11.0585407459
 30
0.0
 10
15.6109472082
 20
11.0813564591
 30
0.0
 10
15.5733968304
 20
11.1107460216
 30
0.0
 10
15.5367915099
 20
11.1465552431
 30
0.0
 10
15.5139633329
 20
11.1735710032
 30
0.0
 10
15.5027085843
 20
11.188011869
 30
0.0
  0
SPLINE
  5
3A6
100
AcDbEntity
  8
0
100
AcDbSpline
 62
7
  6
CONTINUOUS
 70
0
 71
3
 72
9
 73
5
 74
0
 42
0.0000001
 43
0.0000001
 44
0.0000000001
 40
0.0
 40
0.0
 40
0.0
 40
0.0
 40
0.4829393453
 40
1.0
 40
1.0
 40
1.0
 40
1.0
 10
15.5014055199
 20
11.1896891224
 30
0.0
 10
15.4892713403
 20
11.2053572128
 30
0.0
 10
15.46551869
 20
11.2388761528
 30
0.0
 10
15.4442152845
 20
11.2739856452
 30
0.0
 10
15.4337617573
 20
11.2924493028
 30
0.0
  0
SPLINE
  5
3A7
100
AcDbEntity
  8
0
100
AcDbSpline
 62
7
  6
CONTINUOUS
 70
0
 71
3
 72
9
 73
5
 74
0
 42
0.0000001
 43
0.0000001
 44
0.0000000001
 40
0.0
 40
0.0
 40
0.0
 40
0.0
 40
0.4847735406
 40
1.0
 40
1.0
 40
1.0
 40
1.0
 10
15.4322116283
 20
11.2951968504
 30
0.0
 10
15.42059033
 20
11.3158674228
 30
0.0
 10
15.3980409728
 20
11.3593161864
 30
0.0
 10
15.378004716
 20
11.4039686954
 30
0.0
 10
15.3682579754
 20
11.4272108282
 30
0.0
  0
SPLINE
  5
3A8
100
AcDbEntity
  8
0
100
AcDbSpline
 62
7
  6
CONTINUOUS
 70
0
 71
3
 72
9
 73
5
 74
0
 42
0.0000001
 43
0.0000001
 44
0.0000000001
 40
0.0
 40
0.0
 40
0.0
 40
0.0
 40
0.4882575194
 40
1.0
 40
1.0
 40
1.0
 40
1.0
 10
15.3642029148
 20
11.4369746464
 30
0.0
 10
15.3545110268
 20
11.4605377845
 30
0.0
 10
15.3358371913
 20
11.5092867347
 30
0.0
 10
15.3192818272
 20
11.5587903824
 30
0.0
 10
15.3113036215
 20
11.5842747364
 30
0.0
  0
SPLINE
  5
3A9
100
AcDbEntity
  8
0
100
AcDbSpline
 62
7
  6
CONTINUOUS
 70
0
 71
3
 72
9
 73
5
 74
0
 42
0.0000001
 43
0.0000001
 44
0.0000000001
 40
0.0
 40
0.0
 40
0.0
 40
0.0
 40
0.4902545534
 40
1.0
 40
1.0
 40
1.0
 40
1.0
 10
15.3089967562
 20
11.5916920796
 30
0.0
 10
15.3002070328
 20
11.6201408137
 30
0.0
 10
15.2835107098
 20
11.6785552446
 30
0.0
 10
15.2690644095
 20
11.7375628024
 30
0.0
 10
15.2622305915
 20
11.767758592
 30
0.0
  0
SPLINE
  5
3AA
100
AcDbEntity
  8
0
100
AcDbSpline
 62
7
  6
CONTINUOUS
 70
0
 71
3
 72
15
 73
11
 74
0
 42
0.0000001
 43
0.0000001
 44
0.0000000001
 40
0.0
 40
0.0
 40
0.0
 40
0.0
 40
0.1178195613
 40
0.2408706451
 40
0.3676328426
 40
0.4964994592
 40
0.6258165789
 40
0.7539196785
 40
0.8791740457
 40
1.0
 40
1.0
 40
1.0
 40
1.0
 10
15.2622305915
 20
11.767758592
 30
0.0
 10
15.2500213576
 20
11.8217061019
 30
0.0
 10
15.2284936236
 20
11.9327944093
 30
0.0
 10
15.2049819261
 20
12.1038502068
 30
0.0
 10
15.1897786793
 20
12.2810498893
 30
0.0
 10
15.183119857
 20
12.4617142935
 30
0.0
 10
15.1851076311
 20
12.6431193145
 30
0.0
 10
15.1957108389
 20
12.8225299416
 30
0.0
 10
15.2147671577
 20
12.997229494
 30
0.0
 10
15.2333178446
 20
13.1113261627
 30
0.0
 10
15.244058509
 20
13.1670232208
 30
0.0
  0
SPLINE
  5
3AB
100
AcDbEntity
  8
0
100
AcDbSpline
 62
7
  6
CONTINUOUS
 70
0
 71
3
 72
12
 73
8
 74
0
 42
0.0000001
 43
0.0000001
 44
0.0000000001
 40
0.0
 40
0.0
 40
0.0
 40
0.0
 40
0.1058322414
 40
0.2138602617
 40
0.4439273692
 40
0.7036986823
 40
1.0
 40
1.0
 40
1.0
 40
1.0
 10
15.5583790021
 20
13.0320129517
 30
0.0
 10
15.5592790399
 20
13.0320132434
 30
0.0
 10
15.5611010781
 20
13.0318679693
 30
0.0
 10
15.5647848855
 20
13.0309843959
 30
0.0
 10
15.5694017187
 20
13.0286956043
 30
0.0
 10
15.5745528178
 20
13.0243660261
 30
0.0
 10
15.5775902761
 20
13.0207119506
 30
0.0
 10
15.5790715922
 20
13.0186734718
 30
0.0
  0
SPLINE
  5
3AC
100
AcDbEntity
  8
0
100
AcDbSpline
 62
7
  6
CONTINUOUS
 70
0
 71
3
 72
34
 73
30
 74
0
 42
0.0000001
 43
0.0000001
 44
0.0000000001
 40
0.0
 40
0.0
 40
0.0
 40
0.0
 40
0.0315290732
 40
0.0642014181
 40
0.097900292
 40
0.1325190707
 40
0.1679524213
 40
0.2040841152
 40
0.2779427008
 40
0.3530911381
 40
0.4284895447
 40
0.5030913094
 40
0.5758692661
 40
0.6112686043
 40
0.6458485123
 40
0.6794985704
 40
0.7121131931
 40
0.7435959229
 40
0.7738574759
 40
0.8028200407
 40
0.8304164954
 40
0.8565941314
 40
0.8813161637
 40
0.9045647488
 40
0.9263457902
 40
0.9466917914
 40
0.9656704507
 40
0.9833880374
 40
1.0
 40
1.0
 40
1.0
 40
1.0
 10
14.7548042553
 20
13.4354498207
 30
0.0
 10
14.7469742796
 20
13.4101120102
 30
0.0
 10
14.7320043138
 20
13.358212451
 30
0.0
 10
14.7119023464
 20
13.2783422681
 30
0.0
 10
14.6938286212
 20
13.195327134
 30
0.0
 10
14.6778558271
 20
13.1095205283
 30
0.0
 10
14.664050804
 20
13.0212670035
 30
0.0
 10
14.6484923953
 20
12.8999274296
 30
0.0
 10
14.6349117472
 20
12.7447174458
 30
0.0
 10
14.62799082
 20
12.5560143826
 30
0.0
 10
14.6304461911
 20
12.3665717099
 30
0.0
 10
14.6422367422
 20
12.179480206
 30
0.0
 10
14.6598364831
 20
12.0266683575
 30
0.0
 10
14.6785503421
 20
11.9080442325
 30
0.0
 10
14.6946236932
 20
11.8223598792
 30
0.0
 10
14.7127905999
 20
11.7394906883
 30
0.0
 10
14.732982777
 20
11.6597747955
 30
0.0
 10
14.7551120209
 20
11.5835365601
 30
0.0
 10
14.7790921955
 20
11.5110868115
 30
0.0
 10
14.8048220795
 20
11.4427192135
 30
0.0
 10
14.8321991679
 20
11.3787109428
 30
0.0
 10
14.8611123247
 20
11.3193203467
 30
0.0
 10
14.8914450687
 20
11.2647853899
 30
0.0
 10
14.9230805055
 20
11.2153256231
 30
0.0
 10
14.9558929067
 20
11.1711354039
 30
0.0
 10
14.9897645364
 20
11.1323955197
 30
0.0
 10
15.024570118
 20
11.0992561802
 30
0.0
 10
15.0601864523
 20
11.0718714897
 30
0.0
 10
15.0851123549
 20
11.0571056131
 30
0.0
 10
15.0976043632
 20
11.0508454638
 30
0.0
  0
LINE
  5
3AD
100
AcDbEntity
  8
0
100
AcDbLine
 62
7
  6
CONTINUOUS
 10
14.7743277835
 20
13.3627965318
 11
14.7733656167
 21
13.3594404703
  0
LINE
  5
3AE
100
AcDbEntity
  8
0
100
AcDbLine
 62
7
  6
CONTINUOUS
 10
14.7283237462
 20
13.1736523773
 11
14.7274432216
 21
13.1692957979
  0
LINE
  5
3AF
100
AcDbEntity
  8
0
100
AcDbLine
 62
7
  6
CONTINUOUS
 10
14.6942536697
 20
12.9681577089
 11
14.6935470445
 21
12.9627290879
  0
LINE
  5
3B0
100
AcDbEntity
  8
0
100
AcDbLine
 62
7
  6
CONTINUOUS
 10
14.6730062296
 20
12.7513639751
 11
14.6725894076
 21
12.7449867681
  0
LINE
  5
3B1
100
AcDbEntity
  8
0
100
AcDbLine
 62
7
  6
CONTINUOUS
 10
14.6651374005
 20
12.5287918053
 11
14.6651093711
 21
12.5216445494
  0
LINE
  5
3B2
100
AcDbEntity
  8
0
100
AcDbLine
 62
7
  6
CONTINUOUS
 10
14.6668534539
 20
12.397048978
 11
14.6670697167
 21
12.390272772
  0
LINE
  5
3B3
100
AcDbEntity
  8
0
100
AcDbLine
 62
7
  6
CONTINUOUS
 10
14.6805591099
 20
12.1756422359
 11
14.6811147164
 21
12.1697605148
  0
LINE
  5
3B4
100
AcDbEntity
  8
0
100
AcDbLine
 62
7
  6
CONTINUOUS
 10
14.7074878476
 20
11.9627110329
 11
14.7082692079
 21
11.9578840481
  0
LINE
  5
3B5
100
AcDbEntity
  8
0
100
AcDbLine
 62
7
  6
CONTINUOUS
 10
14.7468750459
 20
11.7636329198
 11
14.747776602
 21
11.7598529435
  0
LINE
  5
3B6
100
AcDbEntity
  8
0
100
AcDbLine
 62
7
  6
CONTINUOUS
 10
14.7979886391
 20
11.5821556033
 11
14.7990465036
 21
11.5789681831
  0
SPLINE
  5
3B7
100
AcDbEntity
  8
0
100
AcDbSpline
 62
7
  6
CONTINUOUS
 70
0
 71
3
 72
9
 73
5
 74
0
 42
0.0000001
 43
0.0000001
 44
0.0000000001
 40
0.0
 40
0.0
 40
0.0
 40
0.0
 40
0.256241116
 40
1.0
 40
1.0
 40
1.0
 40
1.0
 10
14.824516474
 20
11.5074885753
 30
0.0
 10
14.8273072174
 20
11.500168835
 30
0.0
 10
14.8384018037
 20
11.4716813145
 30
0.0
 10
14.8503272747
 20
11.443514994
 30
0.0
 10
14.8597177629
 20
11.4228067688
 30
0.0
  0
SPLINE
  5
3B8
100
AcDbEntity
  8
0
100
AcDbSpline
 62
7
  6
CONTINUOUS
 70
0
 71
3
 72
9
 73
5
 74
0
 42
0.0000001
 43
0.0000001
 44
0.0000000001
 40
0.0
 40
0.0
 40
0.0
 40
0.0
 40
0.257714678
 40
1.0
 40
1.0
 40
1.0
 40
1.0
 10
14.8900355458
 20
11.360515203
 30
0.0
 10
14.8932620651
 20
11.3543455349
 30
0.0
 10
14.9060030397
 20
11.3305225776
 30
0.0
 10
14.9196529117
 20
11.3071810017
 30
0.0
 10
14.9303577098
 20
11.2902236167
 30
0.0
  0
SPLINE
  5
3B9
100
AcDbEntity
  8
0
100
AcDbSpline
 62
7
  6
CONTINUOUS
 70
0
 71
3
 72
9
 73
5
 74
0
 42
0.0000001
 43
0.0000001
 44
0.0000000001
 40
0.0
 40
0.0
 40
0.0
 40
0.0
 40
0.2589752797
 40
1.0
 40
1.0
 40
1.0
 40
1.0
 10
14.9633750568
 20
11.2418229837
 30
0.0
 10
14.9669834105
 20
11.2369437524
 30
0.0
 10
14.9811550089
 20
11.2182819933
 30
0.0
 10
14.9963113612
 20
11.200358035
 30
0.0
 10
15.0081461833
 20
11.1876514532
 30
0.0
  0
SPLINE
  5
3BA
100
AcDbEntity
  8
0
100
AcDbSpline
 62
7
  6
CONTINUOUS
 70
0
 71
3
 72
9
 73
5
 74
0
 42
0.0000001
 43
0.0000001
 44
0.0000000001
 40
0.0
 40
0.0
 40
0.0
 40
0.0
 40
0.2557745797
 40
1.0
 40
1.0
 40
1.0
 40
1.0
 10
15.0089470991
 20
11.1867934166
 30
0.0
 10
15.0113364234
 20
11.1842392781
 30
0.0
 10
15.0207751145
 20
11.1743450184
 30
0.0
 10
15.0306101285
 20
11.1648265238
 30
0.0
 10
15.0381598703
 20
11.1580026315
 30
0.0
  0
SPLINE
  5
3BB
100
AcDbEntity
  8
0
100
AcDbSpline
 62
7
  6
CONTINUOUS
 70
0
 71
3
 72
9
 73
5
 74
0
 42
0.0000001
 43
0.0000001
 44
0.0000000001
 40
0.0
 40
0.0
 40
0.0
 40
0.0
 40
0.2588559985
 40
1.0
 40
1.0
 40
1.0
 40
1.0
 10
15.0440165152
 20
11.1528027622
 30
0.0
 10
15.0478595296
 20
11.1494519747
 30
0.0
 10
15.0629329747
 20
11.1367728681
 30
0.0
 10
15.078949205
 20
11.1251953071
 30
0.0
 10
15.091323214
 20
11.1174497215
 30
0.0
  0
SPLINE
  5
3BC
100
AcDbEntity
  8
0
100
AcDbSpline
 62
7
  6
CONTINUOUS
 70
0
 71
3
 72
9
 73
5
 74
0
 42
0.0000001
 43
0.0000001
 44
0.0000000001
 40
0.0
 40
0.0
 40
0.0
 40
0.0
 40
0.2561579242
 40
1.0
 40
1.0
 40
1.0
 40
1.0
 10
15.0918817282
 20
11.1171008976
 30
0.0
 10
15.0950443706
 20
11.1151300709
 30
0.0
 10
15.1075207379
 20
11.1076480813
 30
0.0
 10
15.1205295027
 20
11.1010432426
 30
0.0
 10
15.1304552392
 20
11.0967334223
 30
0.0
  0
SPLINE
  5
3BD
100
AcDbEntity
  8
0
100
AcDbSpline
 62
7
  6
CONTINUOUS
 70
0
 71
3
 72
9
 73
5
 74
0
 42
0.0000001
 43
0.0000001
 44
0.0000000001
 40
0.0
 40
0.0
 40
0.0
 40
0.0
 40
0.5068353243
 40
1.0
 40
1.0
 40
1.0
 40
1.0
 10
15.1304552392
 20
11.0967334223
 30
0.0
 10
15.1382726652
 20
11.0933390444
 30
0.0
 10
15.1540249416
 20
11.0873682982
 30
0.0
 10
15.1703106155
 20
11.0830415761
 30
0.0
 10
15.1784289959
 20
11.0813502909
 30
0.0
  0
SPLINE
  5
3BE
100
AcDbEntity
  8
0
100
AcDbSpline
 62
7
  6
CONTINUOUS
 70
0
 71
3
 72
11
 73
7
 74
0
 42
0.0000001
 43
0.0000001
 44
0.0000000001
 40
0.0
 40
0.0
 40
0.0
 40
0.0
 40
0.2504694959
 40
0.4987164555
 40
0.7476118686
 40
1.0
 40
1.0
 40
1.0
 40
1.0
 10
15.1784289959
 20
11.0813502909
 30
0.0
 10
15.1868168714
 20
11.0796028625
 30
0.0
 10
15.2037311195
 20
11.0770602973
 30
0.0
 10
15.2293487179
 20
11.0762335418
 30
0.0
 10
15.2549517892
 20
11.0784191215
 30
0.0
 10
15.2717971246
 20
11.081848673
 30
0.0
 10
15.2801498185
 20
11.084033035
 30
0.0
  0
SPLINE
  5
3BF
100
AcDbEntity
  8
0
100
AcDbSpline
 62
7
  6
CONTINUOUS
 70
0
 71
3
 72
11
 73
7
 74
0
 42
0.0000001
 43
0.0000001
 44
0.0000000001
 40
0.0
 40
0.0
 40
0.0
 40
0.0
 40
0.2510001747
 40
0.4997618315
 40
0.7486442421
 40
1.0
 40
1.0
 40
1.0
 40
1.0
 10
15.2685134087
 20
13.9403038075
 30
0.0
 10
15.2609063963
 20
13.9418810619
 30
0.0
 10
15.2455873864
 20
13.9442512216
 30
0.0
 10
15.2224000631
 20
13.9453599367
 30
0.0
 10
15.1992152619
 20
13.9439993528
 30
0.0
 10
15.1839076604
 20
13.9414658812
 30
0.0
 10
15.176306612
 20
13.9398077027
 30
0.0
  0
SPLINE
  5
3C0
100
AcDbEntity
  8
0
100
AcDbSpline
 62
7
  6
CONTINUOUS
 70
0
 71
3
 72
9
 73
5
 74
0
 42
0.0000001
 43
0.0000001
 44
0.0000000001
 40
0.0
 40
0.0
 40
0.0
 40
0.0
 40
0.2464509132
 40
1.0
 40
1.0
 40
1.0
 40
1.0
 10
15.176306612
 20
13.9398077027
 30
0.0
 10
15.1731872062
 20
13.9391272002
 30
0.0
 10
15.1605880749
 20
13.9361034526
 30
0.0
 10
15.1482424252
 20
13.9320412595
 30
0.0
 10
15.139155669
 20
13.9284730901
 30
0.0
  0
SPLINE
  5
3C1
100
AcDbEntity
  8
0
100
AcDbSpline
 62
7
  6
CONTINUOUS
 70
0
 71
3
 72
9
 73
5
 74
0
 42
0.0000001
 43
0.0000001
 44
0.0000000001
 40
0.0
 40
0.0
 40
0.0
 40
0.0
 40
0.4900604235
 40
1.0
 40
1.0
 40
1.0
 40
1.0
 10
15.1387504757
 20
13.9283135891
 30
0.0
 10
15.1303287316
 20
13.9249903208
 30
0.0
 10
15.113487964
 20
13.917310304
 30
0.0
 10
15.0974596154
 20
13.9080665932
 30
0.0
 10
15.0895069042
 20
13.903015918
 30
0.0
  0
SPLINE
  5
3C2
100
AcDbEntity
  8
0
100
AcDbSpline
 62
7
  6
CONTINUOUS
 70
0
 71
3
 72
9
 73
5
 74
0
 42
0.0000001
 43
0.0000001
 44
0.0000000001
 40
0.0
 40
0.0
 40
0.0
 40
0.0
 40
0.2443961061
 40
1.0
 40
1.0
 40
1.0
 40
1.0
 10
15.0848084466
 20
13.8999763832
 30
0.0
 10
15.0821500729
 20
13.8982251004
 30
0.0
 10
15.0713738227
 20
13.8909065507
 30
0.0
 10
15.0610022766
 20
13.8829965122
 30
0.0
 10
15.0533973305
 20
13.8767489265
 30
0.0
  0
SPLINE
  5
3C3
100
AcDbEntity
  8
0
100
AcDbSpline
 62
7
  6
CONTINUOUS
 70
0
 71
3
 72
9
 73
5
 74
0
 42
0.0000001
 43
0.0000001
 44
0.0000000001
 40
0.0
 40
0.0
 40
0.0
 40
0.0
 40
0.2412121177
 40
1.0
 40
1.0
 40
1.0
 40
1.0
 10
15.0526703049
 20
13.8761502568
 30
0.0
 10
15.0487374626
 20
13.8729041448
 30
0.0
 10
15.0326849369
 20
13.8591423262
 30
0.0
 10
15.0176329758
 20
13.84422918
 30
0.0
 10
15.0067446361
 20
13.8324489279
 30
0.0
  0
SPLINE
  5
3C4
100
AcDbEntity
  8
0
100
AcDbSpline
 62
7
  6
CONTINUOUS
 70
0
 71
3
 72
9
 73
5
 74
0
 42
0.0000001
 43
0.0000001
 44
0.0000000001
 40
0.0
 40
0.0
 40
0.0
 40
0.0
 40
0.2440810127
 40
1.0
 40
1.0
 40
1.0
 40
1.0
 10
15.0022041793
 20
13.8274757875
 30
0.0
 10
14.9996465655
 20
13.824640095
 30
0.0
 10
14.989286921
 20
13.81291531
 30
0.0
 10
14.9793954675
 20
13.8007789724
 30
0.0
 10
14.9721656457
 20
13.791419655
 30
0.0
  0
SPLINE
  5
3C5
100
AcDbEntity
  8
0
100
AcDbSpline
 62
7
  6
CONTINUOUS
 70
0
 71
3
 72
9
 73
5
 74
0
 42
0.0000001
 43
0.0000001
 44
0.0000000001
 40
0.0
 40
0.0
 40
0.0
 40
0.0
 40
0.2418116411
 40
1.0
 40
1.0
 40
1.0
 40
1.0
 10
14.9712319401
 20
13.7902081137
 30
0.0
 10
14.9676166217
 20
13.7855060872
 30
0.0
 10
14.9529199544
 20
13.7658660621
 30
0.0
 10
14.939215321
 20
13.7454904317
 30
0.0
 10
14.9293228457
 20
13.7297426995
 30
0.0
  0
SPLINE
  5
3C6
100
AcDbEntity
  8
0
100
AcDbSpline
 62
7
  6
CONTINUOUS
 70
0
 71
3
 72
9
 73
5
 74
0
 42
0.0000001
 43
0.0000001
 44
0.0000000001
 40
0.0
 40
0.0
 40
0.0
 40
0.0
 40
0.2431572736
 40
1.0
 40
1.0
 40
1.0
 40
1.0
 10
14.8959591677
 20
13.6722682823
 30
0.0
 10
14.8927432321
 20
13.6662865946
 30
0.0
 10
14.8797483841
 20
13.6415627106
 30
0.0
 10
14.8676519353
 20
13.616369652
 30
0.0
 10
14.8589486936
 20
13.5971058452
 30
0.0
  0
SPLINE
  5
3C7
100
AcDbEntity
  8
0
100
AcDbSpline
 62
7
  6
CONTINUOUS
 70
0
 71
3
 72
9
 73
5
 74
0
 42
0.0000001
 43
0.0000001
 44
0.0000000001
 40
0.0
 40
0.0
 40
0.0
 40
0.0
 40
0.5129959027
 40
1.0
 40
1.0
 40
1.0
 40
1.0
 10
15.3414326274
 20
13.5260860768
 30
0.0
 10
15.3499896338
 20
13.5493554526
 30
0.0
 10
15.3676236198
 20
13.5943722085
 30
0.0
 10
15.3873780584
 20
13.6385058995
 30
0.0
 10
15.3975734918
 20
13.6597197884
 30
0.0
  0
SPLINE
  5
3C8
100
AcDbEntity
  8
0
100
AcDbSpline
 62
7
  6
CONTINUOUS
 70
0
 71
3
 72
9
 73
5
 74
0
 42
0.0000001
 43
0.0000001
 44
0.0000000001
 40
0.0
 40
0.0
 40
0.0
 40
0.0
 40
0.5165264445
 40
1.0
 40
1.0
 40
1.0
 40
1.0
 10
15.4029653183
 20
13.6708018522
 30
0.0
 10
15.4132642433
 20
13.6917107988
 30
0.0
 10
15.4343315717
 20
13.7316487522
 30
0.0
 10
15.4579533812
 20
13.7701460499
 30
0.0
 10
15.4700706693
 20
13.7882877589
 30
0.0
  0
SPLINE
  5
3C9
100
AcDbEntity
  8
0
100
AcDbSpline
 62
7
  6
CONTINUOUS
 70
0
 71
3
 72
9
 73
5
 74
0
 42
0.0000001
 43
0.0000001
 44
0.0000000001
 40
0.0
 40
0.0
 40
0.0
 40
0.0
 40
0.5184761832
 40
1.0
 40
1.0
 40
1.0
 40
1.0
 10
15.4705011505
 20
13.7889316245
 30
0.0
 10
15.4816718096
 20
13.8056228403
 30
0.0
 10
15.5043738021
 20
13.8370638155
 30
0.0
 10
15.529686457
 20
13.8664717656
 30
0.0
 10
15.5425650367
 20
13.8799652002
 30
0.0
  0
SPLINE
  5
3CA
100
AcDbEntity
  8
0
100
AcDbSpline
 62
7
  6
CONTINUOUS
 70
0
 71
3
 72
16
 73
12
 74
0
 42
0.0000001
 43
0.0000001
 44
0.0000000001
 40
0.0
 40
0.0
 40
0.0
 40
0.0
 40
0.1473601844
 40
0.2176120976
 40
0.285709182
 40
0.4159153753
 40
0.5392815301
 40
0.6573994687
 40
0.7721455944
 40
0.8856182052
 40
1.0
 40
1.0
 40
1.0
 40
1.0
 10
15.5425650367
 20
13.8799652002
 30
0.0
 10
15.5526902657
 20
13.8905738324
 30
0.0
 10
15.5682926592
 20
13.9056482982
 30
0.0
 10
15.5901287241
 20
13.9238746616
 30
0.0
 10
15.6114968859
 20
13.9399429255
 30
0.0
 10
15.6385965216
 20
13.9571230172
 30
0.0
 10
15.6720996301
 20
13.9730347483
 30
0.0
 10
15.7059802907
 20
13.9838573226
 30
0.0
 10
15.7401115294
 20
13.9895059987
 30
0.0
 10
15.7743297414
 20
13.9899464737
 30
0.0
 10
15.7968850535
 20
13.9867916
 30
0.0
 10
15.808014993
 20
13.9844043321
 30
0.0
  0
SPLINE
  5
3CB
100
AcDbEntity
  8
0
100
AcDbSpline
 62
7
  6
CONTINUOUS
 70
0
 71
3
 72
39
 73
35
 74
0
 42
0.0000001
 43
0.0000001
 44
0.0000000001
 40
0.0
 40
0.0
 40
0.0
 40
0.0
 40
0.0320959477
 40
0.0653917344
 40
0.0997605268
 40
0.1350866942
 40
0.1712543029
 40
0.2081347071
 40
0.245593507
 40
0.2834934155
 40
0.3216952225
 40
0.3600571146
 40
0.3984359403
 40
0.4366888406
 40
0.4746734591
 40
0.5122496253
 40
0.5492792705
 40
0.5856285421
 40
0.621167718
 40
0.6557731746
 40
0.689327727
 40
0.7217223639
 40
0.7528574658
 40
0.7826441024
 40
0.8110066536
 40
0.8378836894
 40
0.8632325136
 40
0.8870302499
 40
0.9092809791
 40
0.9300179949
 40
0.9493140547
 40
0.9672855756
 40
0.9841043551
 40
1.0
 40
1.0
 40
1.0
 40
1.0
 10
16.1823874439
 20
11.622110319
 30
0.0
 10
16.1901843046
 20
11.6473409695
 30
0.0
 10
16.2050644594
 20
11.6990604886
 30
0.0
 10
16.2249588724
 20
11.7787094155
 30
0.0
 10
16.2427578895
 20
11.8615729433
 30
0.0
 10
16.2583859277
 20
11.9472745861
 30
0.0
 10
16.2717715232
 20
12.0354449084
 30
0.0
 10
16.2828620839
 20
12.1257006152
 30
0.0
 10
16.2916021582
 20
12.2176454862
 30
0.0
 10
16.297958036
 20
12.3108752499
 30
0.0
 10
16.3018974735
 20
12.4049817942
 30
0.0
 10
16.3034073575
 20
12.4995526118
 30
0.0
 10
16.3024770757
 20
12.5941729404
 30
0.0
 10
16.2991140661
 20
12.6884275489
 30
0.0
 10
16.2933303314
 20
12.781903191
 30
0.0
 10
16.2851538071
 20
12.8741899649
 30
0.0
 10
16.2746186363
 20
12.9648833755
 30
0.0
 10
16.2617726893
 20
13.0535859417
 30
0.0
 10
16.2466716979
 20
13.1399092552
 30
0.0
 10
16.2293825671
 20
13.2234753538
 30
0.0
 10
16.2099816439
 20
13.3039188841
 30
0.0
 10
16.1885534058
 20
13.3808880737
 30
0.0
 10
16.1651935183
 20
13.4540475291
 30
0.0
 10
16.1400019678
 20
13.5230781209
 30
0.0
 10
16.1130916404
 20
13.5876811233
 30
0.0
 10
16.0845752247
 20
13.6475758661
 30
0.0
 10
16.0545795557
 20
13.7025063873
 30
0.0
 10
16.0232257216
 20
13.7522350181
 30
0.0
 10
15.9906491042
 20
13.7965531316
 30
0.0
 10
15.9569723241
 20
13.8352671759
 30
0.0
 10
15.9223322545
 20
13.8682143989
 30
0.0
 10
15.8868438013
 20
13.895236768
 30
0.0
 10
15.8506557075
 20
13.9161986341
 30
0.0
 10
15.8255615206
 20
13.9262675218
 30
0.0
 10
15.8130705273
 20
13.9301437569
 30
0.0
  0
SPLINE
  5
3CC
100
AcDbEntity
  8
0
100
AcDbSpline
 62
7
  6
CONTINUOUS
 70
0
 71
3
 72
11
 73
7
 74
0
 42
0.0000001
 43
0.0000001
 44
0.0000000001
 40
0.0
 40
0.0
 40
0.0
 40
0.0
 40
0.2543824572
 40
0.5044513483
 40
0.7522771248
 40
1.0
 40
1.0
 40
1.0
 40
1.0
 10
15.8130705273
 20
13.9301437569
 30
0.0
 10
15.8058839445
 20
13.9323739146
 30
0.0
 10
15.7914170276
 20
13.9361379962
 30
0.0
 10
15.7694009831
 20
13.9396104912
 30
0.0
 10
15.7473433015
 20
13.9408396861
 30
0.0
 10
15.7326709408
 20
13.9401650625
 30
0.0
 10
15.7253771036
 20
13.9394616902
 30
0.0
  0
SPLINE
  5
3CD
100
AcDbEntity
  8
0
100
AcDbSpline
 62
7
  6
CONTINUOUS
 70
0
 71
3
 72
10
 73
6
 74
0
 42
0.0000001
 43
0.0000001
 44
0.0000000001
 40
0.0
 40
0.0
 40
0.0
 40
0.0
 40
0.2426920645
 40
0.4893393081
 40
1.0
 40
1.0
 40
1.0
 40
1.0
 10
15.7185849839
 20
13.9387000643
 30
0.0
 10
15.7119718744
 20
13.9378546167
 30
0.0
 10
15.698706752
 20
13.9355440652
 30
0.0
 10
15.6721375291
 20
13.9284692055
 30
0.0
 10
15.6527729642
 20
13.9205435687
 30
0.0
 10
15.6402171127
 20
13.9142872195
 30
0.0
  0
SPLINE
  5
3CE
100
AcDbEntity
  8
0
100
AcDbSpline
 62
7
  6
CONTINUOUS
 70
0
 71
3
 72
9
 73
5
 74
0
 42
0.0000001
 43
0.0000001
 44
0.0000000001
 40
0.0
 40
0.0
 40
0.0
 40
0.0
 40
0.4813705047
 40
1.0
 40
1.0
 40
1.0
 40
1.0
 10
15.6393272477
 20
13.9138418849
 30
0.0
 10
15.62556134
 20
13.9069228222
 30
0.0
 10
15.5980986898
 20
13.8902291267
 30
0.0
 10
15.5731692526
 20
13.8700149959
 30
0.0
 10
15.5608732378
 20
13.8588637574
 30
0.0
  0
SPLINE
  5
3CF
100
AcDbEntity
  8
0
100
AcDbSpline
 62
7
  6
CONTINUOUS
 70
0
 71
3
 72
9
 73
5
 74
0
 42
0.0000001
 43
0.0000001
 44
0.0000000001
 40
0.0
 40
0.0
 40
0.0
 40
0.0
 40
0.4821173885
 40
1.0
 40
1.0
 40
1.0
 40
1.0
 10
15.5521159806
 20
13.8507093658
 30
0.0
 10
15.540131087
 20
13.8392569353
 30
0.0
 10
15.5165101342
 20
13.8141891784
 30
0.0
 10
15.4951803643
 20
13.7871695201
 30
0.0
 10
15.4846670961
 20
13.7727976725
 30
0.0
  0
SPLINE
  5
3D0
100
AcDbEntity
  8
0
100
AcDbSpline
 62
7
  6
CONTINUOUS
 70
0
 71
3
 72
9
 73
5
 74
0
 42
0.0000001
 43
0.0000001
 44
0.0000000001
 40
0.0
 40
0.0
 40
0.0
 40
0.0
 40
0.4826184702
 40
1.0
 40
1.0
 40
1.0
 40
1.0
 10
15.4786972947
 20
13.7645163851
 30
0.0
 10
15.4664891499
 20
13.7473334121
 30
0.0
 10
15.4426757848
 20
13.7106644836
 30
0.0
 10
15.421479961
 20
13.6724401471
 30
0.0
 10
15.4111104204
 20
13.6523633911
 30
0.0
  0
SPLINE
  5
3D1
100
AcDbEntity
  8
0
100
AcDbSpline
 62
7
  6
CONTINUOUS
 70
0
 71
3
 72
11
 73
7
 74
0
 42
0.0000001
 43
0.0000001
 44
0.0000000001
 40
0.0
 40
0.0
 40
0.0
 40
0.0
 40
0.2319714434
 40
0.4763239222
 40
0.732588881
 40
1.0
 40
1.0
 40
1.0
 40
1.0
 10
15.4107639802
 20
13.6516920944
 30
0.0
 10
15.4011304419
 20
13.6330100549
 30
0.0
 10
15.3823995047
 20
13.5941006653
 30
0.0
 10
15.356496476
 20
13.532957707
 30
0.0
 10
15.3321520089
 20
13.4677403906
 30
0.0
 10
15.3173255445
 20
13.4226503672
 30
0.0
 10
15.310171437
 20
13.3994996668
 30
0.0
  0
SPLINE
  5
3D2
100
AcDbEntity
  8
0
100
AcDbSpline
 62
7
  6
CONTINUOUS
 70
0
 71
3
 72
23
 73
19
 74
0
 42
0.0000001
 43
0.0000001
 44
0.0000000001
 40
0.0
 40
0.0
 40
0.0
 40
0.0
 40
0.057269746
 40
0.117434289
 40
0.1800601599
 40
0.2447207599
 40
0.3109413582
 40
0.3782278807
 40
0.4460746185
 40
0.5139662752
 40
0.5813876914
 40
0.647830035
 40
0.7127969299
 40
0.7758129752
 40
0.8364301912
 40
0.8942355358
 40
0.9488622658
 40
1.0
 40
1.0
 40
1.0
 40
1.0
 10
15.310171437
 20
13.3994996668
 30
0.0
 10
15.2989491656
 20
13.3631843833
 30
0.0
 10
15.2780244238
 20
13.2880616978
 30
0.0
 10
15.2516184563
 20
13.17146885
 30
0.0
 10
15.229600828
 20
13.0489818964
 30
0.0
 10
15.2121679852
 20
12.9217053934
 30
0.0
 10
15.1994765216
 20
12.790762971
 30
0.0
 10
15.1916409172
 20
12.6573237669
 30
0.0
 10
15.1887325597
 20
12.5225777283
 30
0.0
 10
15.1907782462
 20
12.3877263717
 30
0.0
 10
15.1977577341
 20
12.2539729497
 30
0.0
 10
15.2096089119
 20
12.1225103994
 30
0.0
 10
15.2262260963
 20
11.994510529
 30
0.0
 10
15.2474574273
 20
11.8711124297
 30
0.0
 10
15.2731115139
 20
11.7534135223
 30
0.0
 10
15.3029606913
 20
11.6424558197
 30
0.0
 10
15.3367336022
 20
11.5392262646
 30
0.0
 10
15.362560778
 20
11.4738909044
 30
0.0
 10
15.376167376
 20
11.4427978282
 30
0.0
  0
SPLINE
  5
3D3
100
AcDbEntity
  8
0
100
AcDbSpline
 62
7
  6
CONTINUOUS
 70
0
 71
3
 72
9
 73
5
 74
0
 42
0.0000001
 43
0.0000001
 44
0.0000000001
 40
0.0
 40
0.0
 40
0.0
 40
0.0
 40
0.5162366516
 40
1.0
 40
1.0
 40
1.0
 40
1.0
 10
15.3763464955
 20
11.4423886914
 30
0.0
 10
15.3862726536
 20
11.4197256368
 30
0.0
 10
15.4066625093
 20
11.3763211919
 30
0.0
 10
15.4296839414
 20
11.3342394607
 30
0.0
 10
15.4415457733
 20
11.31431838
 30
0.0
  0
SPLINE
  5
3D4
100
AcDbEntity
  8
0
100
AcDbSpline
 62
7
  6
CONTINUOUS
 70
0
 71
3
 72
9
 73
5
 74
0
 42
0.0000001
 43
0.0000001
 44
0.0000000001
 40
0.0
 40
0.0
 40
0.0
 40
0.0
 40
0.5187057228
 40
1.0
 40
1.0
 40
1.0
 40
1.0
 10
15.4418733056
 20
11.3137687354
 30
0.0
 10
15.4528269432
 20
11.2954011177
 30
0.0
 10
15.4751444945
 20
11.2606860305
 30
0.0
 10
15.500199209
 20
11.2278655454
 30
0.0
 10
15.5129967902
 20
11.2127004541
 30
0.0
  0
SPLINE
  5
3D5
100
AcDbEntity
  8
0
100
AcDbSpline
 62
7
  6
CONTINUOUS
 70
0
 71
3
 72
10
 73
6
 74
0
 42
0.0000001
 43
0.0000001
 44
0.0000000001
 40
0.0
 40
0.0
 40
0.0
 40
0.0
 40
0.2667484442
 40
0.5220263867
 40
1.0
 40
1.0
 40
1.0
 40
1.0
 10
15.5133718181
 20
11.2122564803
 30
0.0
 10
15.5200448304
 20
11.2043643921
 30
0.0
 10
15.5335049413
 20
11.1892488338
 30
0.0
 10
15.5608875883
 20
11.1618255846
 30
0.0
 10
15.5828054839
 20
11.143568615
 30
0.0
 10
15.5979052879
 20
11.1328472568
 30
0.0
  0
SPLINE
  5
3D6
100
AcDbEntity
  8
0
100
AcDbSpline
 62
7
  6
CONTINUOUS
 70
0
 71
3
 72
9
 73
5
 74
0
 42
0.0000001
 43
0.0000001
 44
0.0000000001
 40
0.0
 40
0.0
 40
0.0
 40
0.0
 40
0.5160381943
 40
1.0
 40
1.0
 40
1.0
 40
1.0
 10
15.5979052879
 20
11.1328472568
 30
0.0
 10
15.6104867926
 20
11.1239139741
 30
0.0
 10
15.6360235342
 20
11.1081440329
 30
0.0
 10
15.6637316867
 20
11.0964931843
 30
0.0
 10
15.6775160077
 20
11.0920874578
 30
0.0
  0
SPLINE
  5
3D7
100
AcDbEntity
  8
0
100
AcDbSpline
 62
7
  6
CONTINUOUS
 70
0
 71
3
 72
9
 73
5
 74
0
 42
0.0000001
 43
0.0000001
 44
0.0000000001
 40
0.0
 40
0.0
 40
0.0
 40
0.0
 40
0.2531001387
 40
1.0
 40
1.0
 40
1.0
 40
1.0
 10
15.678615394
 20
11.0917389229
 30
0.0
 10
15.6815224921
 20
11.0908248282
 30
0.0
 10
15.6930745843
 20
11.0874280082
 30
0.0
 10
15.704888202
 20
11.0849125658
 30
0.0
 10
15.7137814612
 20
11.0835771583
 30
0.0
  0
SPLINE
  5
3D8
100
AcDbEntity
  8
0
100
AcDbSpline
 62
7
  6
CONTINUOUS
 70
0
 71
3
 72
9
 73
5
 74
0
 42
0.0000001
 43
0.0000001
 44
0.0000000001
 40
0.0
 40
0.0
 40
0.0
 40
0.0
 40
0.4964690789
 40
1.0
 40
1.0
 40
1.0
 40
1.0
 10
15.7630151213
 20
11.0817865814
 30
0.0
 10
15.770121519
 20
11.0823351415
 30
0.0
 10
15.7843893803
 20
11.0841428437
 30
0.0
 10
15.7984167682
 20
11.0873084497
 30
0.0
 10
15.8053882901
 20
11.0892203052
 30
0.0
  0
SPLINE
  5
3D9
100
AcDbEntity
  8
0
100
AcDbSpline
 62
7
  6
CONTINUOUS
 70
0
 71
3
 72
23
 73
19
 74
0
 42
0.0000001
 43
0.0000001
 44
0.0000000001
 40
0.0
 40
0.0
 40
0.0
 40
0.0
 40
0.0427311581
 40
0.0870903336
 40
0.1334861649
 40
0.1822544128
 40
0.2336628767
 40
0.2879200558
 40
0.3451728066
 40
0.4055225701
 40
0.4690279581
 40
0.5357031941
 40
0.605536551
 40
0.6784927152
 40
0.7545158929
 40
0.8335318057
 40
0.9154127313
 40
1.0
 40
1.0
 40
1.0
 40
1.0
 10
15.8053882901
 20
11.0892203052
 30
0.0
 10
15.8146797737
 20
11.0917683821
 30
0.0
 10
15.8333153609
 20
11.0981220225
 30
0.0
 10
15.8605822202
 20
11.1109929486
 30
0.0
 10
15.8875354359
 20
11.1273149999
 30
0.0
 10
15.9141103782
 20
11.1470323691
 30
0.0
 10
15.9402510271
 20
11.1700909716
 30
0.0
 10
15.9658948998
 20
11.1964353727
 30
0.0
 10
15.9909892102
 20
11.2259961106
 30
0.0
 10
16.0154746868
 20
11.2587034172
 30
0.0
 10
16.0392920922
 20
11.2944786334
 30
0.0
 10
16.0623895265
 20
11.3332312977
 30
0.0
 10
16.084708382
 20
11.3748693845
 30
0.0
 10
16.1061958718
 20
11.4192940656
 30
0.0
 10
16.1268037206
 20
11.4664008925
 30
0.0
 10
16.1464765405
 20
11.516075592
 30
0.0
 10
16.1651663607
 20
11.5681829311
 30
0.0
 10
16.1767565497
 20
11.6038887387
 30
0.0
 10
16.1823874439
 20
11.622110319
 30
0.0
  0
SPLINE
  5
3DA
100
AcDbEntity
  8
0
100
AcDbSpline
 62
7
  6
CONTINUOUS
 70
0
 71
3
 72
24
 73
20
 74
0
 42
0.0000001
 43
0.0000001
 44
0.0000000001
 40
0.0
 40
0.0
 40
0.0
 40
0.0
 40
0.0155298628
 40
0.0314188259
 40
0.0654543784
 40
0.1042208134
 40
0.1488210455
 40
0.1996866413
 40
0.2567313428
 40
0.3195685709
 40
0.3875396882
 40
0.4598429603
 40
0.5355253091
 40
0.6135598293
 40
0.6928299987
 40
0.772211326
 40
0.8506225867
 40
0.9269604728
 40
1.0
 40
1.0
 40
1.0
 40
1.0
 10
15.9349773839
 20
13.0807605459
 30
0.0
 10
15.9357585048
 20
13.0807601399
 30
0.0
 10
15.9373417784
 20
13.0806256245
 30
0.0
 10
15.9405453639
 20
13.0798141201
 30
0.0
 10
15.9445519117
 20
13.0777098821
 30
0.0
 10
15.948989368
 20
13.0737532315
 30
0.0
 10
15.9531607619
 20
13.0684091453
 30
0.0
 10
15.9570130925
 20
13.0617543658
 30
0.0
 10
15.960502573
 20
13.0538925879
 30
0.0
 10
15.963567993
 20
13.0449444671
 30
0.0
 10
15.9661654327
 20
13.035055922
 30
0.0
 10
15.9682454469
 20
13.0243879753
 30
0.0
 10
15.9697780055
 20
13.0131175456
 30
0.0
 10
15.970731508
 20
13.0014322951
 30
0.0
 10
15.9710957552
 20
12.9895279773
 30
0.0
 10
15.9708592004
 20
12.9776015253
 30
0.0
 10
15.9700291331
 20
12.9658491257
 30
0.0
 10
15.9686152585
 20
12.9544740968
 30
0.0
 10
15.9672708698
 20
12.9470765706
 30
0.0
 10
15.9664970833
 20
12.943485243
 30
0.0
  0
SPLINE
  5
3DB
100
AcDbEntity
  8
0
100
AcDbSpline
 62
7
  6
CONTINUOUS
 70
0
 71
3
 72
18
 73
14
 74
0
 42
0.0000001
 43
0.0000001
 44
0.0000000001
 40
0.0
 40
0.0
 40
0.0
 40
0.0
 40
0.049511705
 40
0.099137149
 40
0.1493398973
 40
0.2005626404
 40
0.2532172239
 40
0.3076755471
 40
0.423144987
 40
0.5490790783
 40
0.6868046715
 40
0.8370763094
 40
1.0
 40
1.0
 40
1.0
 40
1.0
 10
15.7506252051
 20
13.19697126
 30
0.0
 10
15.7542810898
 20
13.1972637463
 30
0.0
 10
15.7616381003
 20
13.197464978
 30
0.0
 10
15.7726855745
 20
13.19659191
 30
0.0
 10
15.7837067322
 20
13.1945478417
 30
0.0
 10
15.7946792084
 20
13.1913397172
 30
0.0
 10
15.8055839852
 20
13.1869741913
 30
0.0
 10
15.8202900097
 20
13.1794766961
 30
0.0
 10
15.8384614265
 20
13.1670486688
 30
0.0
 10
15.8592163085
 20
13.1480195996
 30
0.0
 10
15.8792511693
 20
13.1247279192
 30
0.0
 10
15.8984405061
 20
13.0973346156
 30
0.0
 10
15.910133118
 20
13.0772656149
 30
0.0
 10
15.915844484
 20
13.0666340735
 30
0.0
  0
ENDSEC
  0
SECTION
  2
OBJECTS
  0
DICTIONARY
  5
C
100
AcDbDictionary
280
0
281
1
  3
ACAD_GROUP
350
D
  3
ACAD_MLINESTYLE
350
17
  3
ACAD_LAYOUT
350
1A
  3
ACAD_PLOTSETTINGS
350
19
  3
ACAD_PLOTSTYLENAME
350
E
  0
DICTIONARY
  5
D
102
{ACAD_REACTORS
330
C
102
}
100
AcDbDictionary
280
0
281
1
  0
ACDBDICTIONARYWDFLT
  5
E
102
{ACAD_REACTORS
330
C
102
}
100
AcDbDictionary
281
1
  3
Normal
350
F
100
AcDbDictionaryWithDefault
340
F
  0
DICTIONARY
  5
17
102
{ACAD_REACTORS
330
C
102
}
100
AcDbDictionary
280
0
281
1
  3
Standard
350
18
  0
DICTIONARY
  5
19
102
{ACAD_REACTORS
330
C
102
}
100
AcDbDictionary
281
1
  0
DICTIONARY
  5
1A
102
{ACAD_REACTORS
330
C
102
}
100
AcDbDictionary
281
1
  3
Model
350
3DC
  3
Layout1
350
3DD
  0
ACDBPLACEHOLDER
  5
F
102
{ACAD_REACTORS
330
E
102
}
  0
MLINESTYLE
  5
18
102
{ACAD_REACTORS
330
17
102
}
100
AcDbMlineStyle
  2
STANDARD
 70
0
  3

 62
256
 51
90.0
 52
90.0
 71
2
 49
0.5
 62
256
  6
BYLAYER
 49
-0.5
 62
256
  6
BYLAYER
  0
LAYOUT
  5
3DC
102
{ACAD_REACTORS
330
1A
102
}
100
AcDbPlotSettings
  1

  2
none_device
  4
ANSI_C_(22.00_x_17.00_Inches)
  6

 40
0.0
 41
0.0
 42
0.0
 43
0.0
 44
558.8
 45
431.8
 46
0.0
 47
0.0
 48
0.0
 49
0.0
140
0.0
141
0.0
142
1.0
143
1.0
 70
1024
 72
0
 73
0
 74
0
  7

 75
0
147
1.0
148
0.0
149
0.0
100
AcDbLayout
  1
Model
 70
0
 71
0
 10
0.0
 20
0.0
 11
22.0
 21
17.0
 12
0.0
 22
0.0
 32
0.0
 14
0.0
 24
0.0
 34
0.0
 15
0.0
 25
0.0
 35
0.0
146
0.0
 13
0.0
 23
0.0
 33
0.0
 16
1.0
 26
0.0
 36
0.0
 17
0.0
 27
1.0
 37
0.0
 76
0
330
216
345
0
346
0
  0
LAYOUT
  5
3DD
102
{ACAD_REACTORS
330
1A
102
}
100
AcDbPlotSettings
  1

  2
none_device
  4
ANSI_C_(22.00_x_17.00_Inches)
  6

 40
0.0
 41
0.0
 42
0.0
 43
0.0
 44
558.8
 45
431.8
 46
0.0
 47
0.0
 48
0.0
 49
0.0
140
0.0
141
0.0
142
1.0
143
1.0
 70
0
 72
0
 73
0
 74
0
  7

 75
0
147
1.0
148
0.0
149
0.0
100
AcDbLayout
  1
Layout1
 70
0
 71
1
 10
0.0
 20
0.0
 11
22.0
 21
17.0
 12
0.0
 22
0.0
 32
0.0
 14
0.0
 24
0.0
 34
0.0
 15
0.0
 25
0.0
 35
0.0
146
0.0
 13
0.0
 23
0.0
 33
0.0
 16
1.0
 26
0.0
 36
0.0
 17
0.0
 27
1.0
 37
0.0
 76
0
330
217
345
0
346
0
  0
ENDSEC
  0
EOF