999
DXF file: _cgs_temp_output.dxf
999
Pro/ENGINEER 2015110 by Parametric Technology Corporation
  0
SECTION
  2
HEADER
  9
$ACADVER
  1
AC1021
  9
$DWGCODEPAGE
  3
ANSI_1252
  9
$EXTMAX
 10
22.0
 20
17.0
 30
0.0
  9
$EXTMIN
 10
0.0
 20
0.0
 30
0.0
  9
$LIMMIN
 10
0.0
 20
0.0
  9
$LIMMAX
 10
22.0
 20
17.0
  9
$VIEWCTR
 10
11.0
 20
8.5
  9
$VIEWSIZE
 40
17.0
  9
$CLAYER
  8
0
  9
$LTSCALE
 40
1.21
  9
$CELTYPE
  6
BYLAYER
  9
$DIMSCALE
 40
1.0
  9
$DIMASZ
 40
0.1875
  9
$DIMEXO
 40
0.0625
  9
$DIMDLI
 40
0.836
  9
$DIMEXE
 40
0.125
  9
$DIMCEN
 40
0.198
  9
$DIMLFAC
 40
1.0
  9
$DIMBLK
  1
_CLOSED
  9
$DIMALT
 70
0
  9
$DIMALTF
 40
25.4
  9
$DIMTXT
 40
0.15625
  9
$DIMTOL
 70
0
  9
$DIMLIM
 70
0
  9
$DIMTFAC
 40
1.0
  9
$DIMGAP
 40
0.09
  9
$DIMDSEP
 70
46
  9
$AUNITS
 70
0
  9
$PDMODE
 70
3
  9
$PDSIZE
 40
0.3125
  9
$HANDSEED
  5
345
  9
$TILEMODE
 70
1
  9
$MEASUREMENT
 70
0
  9
$INSUNITS
 70
1
  0
ENDSEC
  0
SECTION
  2
CLASSES
  0
CLASS
  1
ACDBDICTIONARYWDFLT
  2
AcDbDictionaryWithDefault
  3
AutoCAD 2000
 90
0
 91
1
280
0
281
0
  0
CLASS
  1
ACDBPLACEHOLDER
  2
AcDbPlaceHolder
  3
AutoCAD 2000
 90
0
 91
1
280
0
281
0
  0
CLASS
  1
LAYOUT
  2
AcDbLayout
  3
AutoCAD 2000
 90
0
 91
0
280
0
281
0
  0
ENDSEC
  0
SECTION
  2
TABLES
  0
TABLE
  2
VPORT
  5
8
100
AcDbSymbolTable
 70
2
  0
VPORT
  5
1F4
100
AcDbSymbolTableRecord
100
AcDbViewportTableRecord
  2
*ACTIVE
 70
0
 10
0.0
 20
0.0
 11
1.0
 21
1.0
 12
11.0
 22
8.5
 13
0.0
 23
0.0
 14
1.0
 24
1.0
 15
0.0
 25
0.0
 16
0.0
 26
0.0
 36
1.0
 17
0.0
 27
0.0
 37
0.0
 40
17.0
 41
1.2941176471
 42
50.0
 43
0.0
 44
0.0
 50
0.0
 51
0.0
 71
0
 72
100
 73
1
 74
1
 75
0
 76
0
 77
0
 78
0
  0
ENDTAB
  0
TABLE
  2
LTYPE
  5
5
100
AcDbSymbolTable
 70
6
  0
LTYPE
  5
14
100
AcDbSymbolTableRecord
100
AcDbLinetypeTableRecord
  2
BYBLOCK
 70
0
  3

 72
65
 73
0
 40
0.0
  0
LTYPE
  5
15
100
AcDbSymbolTableRecord
100
AcDbLinetypeTableRecord
  2
BYLAYER
 70
0
  3

 72
65
 73
0
 40
0.0
  0
LTYPE
  5
16
100
AcDbSymbolTableRecord
100
AcDbLinetypeTableRecord
  2
CONTINUOUS
 70
64
  3
Solid line
 72
65
 73
0
 40
0.0
  0
LTYPE
  5
1F5
100
AcDbSymbolTableRecord
100
AcDbLinetypeTableRecord
  2
CENTER
 70
64
  3
____ _ ____ _ ____ _ ____ _ ____ _ ____ _ ____
 72
65
 73
4
 40
0.6
 49
0.375
 74
0
 49
-0.075
 74
0
 49
0.075
 74
0
 49
-0.075
 74
0
  0
LTYPE
  5
1F6
100
AcDbSymbolTableRecord
100
AcDbLinetypeTableRecord
  2
HIDDEN
 70
64
  3
- - - - - - - - - - - - - - - - - - - -
 72
65
 73
2
 40
0.2
 49
0.1
 74
0
 49
-0.1
 74
0
  0
LTYPE
  5
1F7
100
AcDbSymbolTableRecord
100
AcDbLinetypeTableRecord
  2
PHANTOM
 70
64
  3
_____ _ _ _____ _ _ _____ _ _ _____
 72
65
 73
6
 40
0.8
 49
0.45
 74
0
 49
-0.05
 74
0
 49
0.1
 74
0
 49
-0.05
 74
0
 49
0.1
 74
0
 49
-0.05
 74
0
  0
LTYPE
  5
1F8
100
AcDbSymbolTableRecord
100
AcDbLinetypeTableRecord
  2
DOT
 70
64
  3
. . . . . . . . . . . . . . . . . . . .
 72
65
 73
2
 40
0.2
 49
0.1
 74
0
 49
-0.1
 74
0
  0
LTYPE
  5
1F9
100
AcDbSymbolTableRecord
100
AcDbLinetypeTableRecord
  2
DASHED
 70
64
  3
- - - - - - - - - - - - - - - - - - - -
 72
65
 73
2
 40
0.2
 49
0.1
 74
0
 49
-0.1
 74
0
  0
ENDTAB
  0
TABLE
  2
LAYER
  5
2
100
AcDbSymbolTable
 70
36
  0
LAYER
  5
10
100
AcDbSymbolTableRecord
100
AcDbLayerTableRecord
  2
0
 70
0
 62
7
  6
CONTINUOUS
370
-3
390
F
  0
LAYER
  5
1FA
100
AcDbSymbolTableRecord
100
AcDbLayerTableRecord
  2
DEFAULT_1
 70
0
 62
7
  6
CENTER
370
-3
390
F
  0
LAYER
  5
1FB
100
AcDbSymbolTableRecord
100
AcDbLayerTableRecord
  2
DEFAULT_2
 70
0
 62
8
  6
HIDDEN
370
-3
390
F
  0
LAYER
  5
1FC
100
AcDbSymbolTableRecord
100
AcDbLayerTableRecord
  2
DEFAULT_3
 70
0
 62
7
  6
PHANTOM
370
-3
390
F
  0
LAYER
  5
1FD
100
AcDbSymbolTableRecord
100
AcDbLayerTableRecord
  2
01_ALL_DTM_PLN
 70
0
 62
7
  6
CONTINUOUS
370
-3
390
F
  0
LAYER
  5
1FE
100
AcDbSymbolTableRecord
100
AcDbLayerTableRecord
  2
01__ASM_ALL_DTM_PLN
 70
0
 62
7
  6
CONTINUOUS
370
-3
390
F
  0
LAYER
  5
1FF
100
AcDbSymbolTableRecord
100
AcDbLayerTableRecord
  2
01__ASM_DEF_DTM_PLN
 70
0
 62
7
  6
CONTINUOUS
370
-3
390
F
  0
LAYER
  5
200
100
AcDbSymbolTableRecord
100
AcDbLayerTableRecord
  2
01___PRT_ALL_DTM_PLN
 70
0
 62
7
  6
CONTINUOUS
370
-3
390
F
  0
LAYER
  5
201
100
AcDbSymbolTableRecord
100
AcDbLayerTableRecord
  2
01___PRT_DEF_DTM_PLN
 70
0
 62
7
  6
CONTINUOUS
370
-3
390
F
  0
LAYER
  5
202
100
AcDbSymbolTableRecord
100
AcDbLayerTableRecord
  2
02_ALL_AXES
 70
0
 62
7
  6
CONTINUOUS
370
-3
390
F
  0
LAYER
  5
203
100
AcDbSymbolTableRecord
100
AcDbLayerTableRecord
  2
02__ASM_ALL_AXES
 70
0
 62
7
  6
CONTINUOUS
370
-3
390
F
  0
LAYER
  5
204
100
AcDbSymbolTableRecord
100
AcDbLayerTableRecord
  2
02___PRT_ALL_AXES
 70
0
 62
7
  6
CONTINUOUS
370
-3
390
F
  0
LAYER
  5
205
100
AcDbSymbolTableRecord
100
AcDbLayerTableRecord
  2
03_ALL_CURVES
 70
0
 62
7
  6
CONTINUOUS
370
-3
390
F
  0
LAYER
  5
206
100
AcDbSymbolTableRecord
100
AcDbLayerTableRecord
  2
03__ASM_ALL_CURVES
 70
0
 62
7
  6
CONTINUOUS
370
-3
390
F
  0
LAYER
  5
207
100
AcDbSymbolTableRecord
100
AcDbLayerTableRecord
  2
03___PRT_ALL_CURVES
 70
0
 62
7
  6
CONTINUOUS
370
-3
390
F
  0
LAYER
  5
208
100
AcDbSymbolTableRecord
100
AcDbLayerTableRecord
  2
04_ALL_DTM_PNT
 70
0
 62
7
  6
CONTINUOUS
370
-3
390
F
  0
LAYER
  5
209
100
AcDbSymbolTableRecord
100
AcDbLayerTableRecord
  2
04__ASM_ALL_DTM_PNT
 70
0
 62
7
  6
CONTINUOUS
370
-3
390
F
  0
LAYER
  5
20A
100
AcDbSymbolTableRecord
100
AcDbLayerTableRecord
  2
04___PRT_ALL_DTM_PNT
 70
0
 62
7
  6
CONTINUOUS
370
-3
390
F
  0
LAYER
  5
20B
100
AcDbSymbolTableRecord
100
AcDbLayerTableRecord
  2
05_ALL_DTM_CSYS
 70
0
 62
7
  6
CONTINUOUS
370
-3
390
F
  0
LAYER
  5
20C
100
AcDbSymbolTableRecord
100
AcDbLayerTableRecord
  2
05__ASM_ALL_DTM_CSYS
 70
0
 62
7
  6
CONTINUOUS
370
-3
390
F
  0
LAYER
  5
20D
100
AcDbSymbolTableRecord
100
AcDbLayerTableRecord
  2
05__ASM_DEF_DTM_CSYS
 70
0
 62
7
  6
CONTINUOUS
370
-3
390
F
  0
LAYER
  5
20E
100
AcDbSymbolTableRecord
100
AcDbLayerTableRecord
  2
05___PRT_ALL_DTM_CSYS
 70
0
 62
7
  6
CONTINUOUS
370
-3
390
F
  0
LAYER
  5
20F
100
AcDbSymbolTableRecord
100
AcDbLayerTableRecord
  2
05___PRT_DEF_DTM_CSYS
 70
0
 62
7
  6
CONTINUOUS
370
-3
390
F
  0
LAYER
  5
210
100
AcDbSymbolTableRecord
100
AcDbLayerTableRecord
  2
06_ALL_SURFS
 70
0
 62
7
  6
CONTINUOUS
370
-3
390
F
  0
LAYER
  5
211
100
AcDbSymbolTableRecord
100
AcDbLayerTableRecord
  2
06__ASM_ALL_SURFS
 70
0
 62
7
  6
CONTINUOUS
370
-3
390
F
  0
LAYER
  5
212
100
AcDbSymbolTableRecord
100
AcDbLayerTableRecord
  2
06___PRT_ALL_SURFS
 70
0
 62
7
  6
CONTINUOUS
370
-3
390
F
  0
LAYER
  5
213
100
AcDbSymbolTableRecord
100
AcDbLayerTableRecord
  2
07__ASM_ALL_SKELETONS
 70
0
 62
7
  6
CONTINUOUS
370
-3
390
F
  0
ENDTAB
  0
TABLE
  2
STYLE
  5
3
100
AcDbSymbolTable
 70
1
  0
STYLE
  5
11
100
AcDbSymbolTableRecord
100
AcDbTextStyleTableRecord
  2
STANDARD
 70
0
 40
0.0
 41
0.8
 50
0.0
 71
0
 42
0.2
  3
txt
  4

  0
STYLE
  5
214
100
AcDbSymbolTableRecord
100
AcDbTextStyleTableRecord
  2
TEXTSTYLE_1
 70
0
 40
0.0
 41
0.8
 50
0.0
 71
0
 42
0.2
  3
gdt
  4

  0
ENDTAB
  0
TABLE
  2
VIEW
  5
6
100
AcDbSymbolTable
 70
0
  0
ENDTAB
  0
TABLE
  2
UCS
  5
7
100
AcDbSymbolTable
 70
0
  0
ENDTAB
  0
TABLE
  2
APPID
  5
9
100
AcDbSymbolTable
 70
1
  0
APPID
  5
215
100
AcDbSymbolTableRecord
100
AcDbRegAppTableRecord
  2
ACAD
 70
0
  0
ENDTAB
  0
TABLE
  2
BLOCK_RECORD
  5
1
100
AcDbSymbolTable
 70
0
  0
BLOCK_RECORD
  5
216
100
AcDbSymbolTableRecord
100
AcDbBlockTableRecord
  2
*Model_Space
  0
BLOCK_RECORD
  5
217
100
AcDbSymbolTableRecord
100
AcDbBlockTableRecord
  2
*Paper_Space
  0
ENDTAB
  0
TABLE
  2
DIMSTYLE
  5
A
100
AcDbSymbolTable
 70
1
100
AcDbDimStyleTable
 71
0
  0
DIMSTYLE
105
218
100
AcDbSymbolTableRecord
100
AcDbDimStyleTableRecord
  2
STANDARD
 70
0
  3

  4

 40
1.0
 41
0.1875
 42
0.0625
 43
0.38
 44
0.125
 45
0.0
 46
0.0
 47
0.0001
 48
0.0001
140
0.15625
141
0.09
142
0.0
143
25.4
144
1.0
145
0.0
146
1.0
147
0.09
 71
0.0
 72
0.0
 73
1
 74
1
 75
0
 76
0
 77
0
 78
4
170
0
171
2
172
0
173
0
174
0
175
0
176
0
177
0
178
0
270
2
271
4
272
4
273
2
274
2
275
0
280
0
281
0
282
0
283
1
284
4
285
0
286
0
287
3
288
0
340
11
278
46
  0
ENDTAB
  0
ENDSEC
  0
SECTION
  2
BLOCKS
  0
BLOCK
  5
20
100
AcDbEntity
  8
0
100
AcDbBlockBegin
  2
*Model_Space
 70
0
 10
0.0
 20
0.0
 30
0.0
  3
*Model_Space
  1

  0
ENDBLK
  5
21
100
AcDbEntity
  8
0
100
AcDbBlockEnd
  0
BLOCK
  5
1C
100
AcDbEntity
  8
0
100
AcDbBlockBegin
  2
*Paper_Space
 70
0
 10
0.0
 20
0.0
 30
0.0
  3
*Paper_Space
  1

  0
ENDBLK
  5
1D
100
AcDbEntity
  8
0
100
AcDbBlockEnd
  0
ENDSEC
  0
SECTION
  2
ENTITIES
  0
MTEXT
  5
219
100
AcDbEntity
  8
0
100
AcDbMText
 62
7
  6
CONTINUOUS
  7
STANDARD
 71
1
 72
1
 10
15.9560215477
 20
0.9479130325
 30
0.0
 11
1.0
 21
0.0
 31
0.0
 44
0.9
  1
SCALE: 1:2.000
 40
0.3
 41
3.36
  0
LINE
  5
21A
100
AcDbEntity
  8
0
100
AcDbLine
 62
7
  6
CONTINUOUS
 10
0.0
 20
0.0
 11
0.0
 21
17.0
  0
LINE
  5
21B
100
AcDbEntity
  8
0
100
AcDbLine
 62
7
  6
CONTINUOUS
 10
0.0
 20
0.0
 11
22.0
 21
0.0
  0
LINE
  5
21C
100
AcDbEntity
  8
0
100
AcDbLine
 62
7
  6
CONTINUOUS
 10
0.0
 20
17.0
 11
22.0
 21
17.0
  0
LINE
  5
21D
100
AcDbEntity
  8
0
100
AcDbLine
 62
7
  6
CONTINUOUS
 10
22.0
 20
0.0
 11
22.0
 21
17.0
  0
LINE
  5
21E
100
AcDbEntity
  8
0
100
AcDbLine
 62
7
  6
CONTINUOUS
 10
4.2406034966
 20
5.5681513928
 11
4.2406034966
 21
5.4720884007
  0
LINE
  5
21F
100
AcDbEntity
  8
0
100
AcDbLine
 62
7
  6
CONTINUOUS
 10
4.5233900441
 20
5.1980726527
 11
4.587738209
 21
5.1980726527
  0
LINE
  5
220
100
AcDbEntity
  8
0
100
AcDbLine
 62
7
  6
CONTINUOUS
 10
5.1533113039
 20
5.1980726527
 11
5.2176594689
 21
5.1980726527
  0
LINE
  5
221
100
AcDbEntity
  8
0
100
AcDbLine
 62
7
  6
CONTINUOUS
 10
5.7832325638
 20
5.1980726527
 11
5.8475807287
 21
5.1980726527
  0
LINE
  5
222
100
AcDbEntity
  8
0
100
AcDbLine
 62
7
  6
CONTINUOUS
 10
6.4131538236
 20
5.1980726527
 11
6.4775019886
 21
5.1980726527
  0
LINE
  5
223
100
AcDbEntity
  8
0
100
AcDbLine
 62
7
  6
CONTINUOUS
 10
7.0430750835
 20
5.1980726527
 11
7.1074232484
 21
5.1980726527
  0
LINE
  5
224
100
AcDbEntity
  8
0
100
AcDbLine
 62
7
  6
CONTINUOUS
 10
7.6729963433
 20
5.1980726527
 11
7.7373445083
 21
5.1980726527
  0
LINE
  5
225
100
AcDbEntity
  8
0
100
AcDbLine
 62
7
  6
CONTINUOUS
 10
4.2406034966
 20
5.4720884007
 11
4.2783558694
 21
5.4720884007
  0
LINE
  5
226
100
AcDbEntity
  8
0
100
AcDbLine
 62
7
  6
CONTINUOUS
 10
4.8327723837
 20
5.4720884007
 11
4.9082771293
 21
5.4720884007
  0
LINE
  5
227
100
AcDbEntity
  8
0
100
AcDbLine
 62
7
  6
CONTINUOUS
 10
5.4626936435
 20
5.4720884007
 11
5.5381983891
 21
5.4720884007
  0
LINE
  5
228
100
AcDbEntity
  8
0
100
AcDbLine
 62
7
  6
CONTINUOUS
 10
6.0926149034
 20
5.4720884007
 11
6.1681196489
 21
5.4720884007
  0
LINE
  5
229
100
AcDbEntity
  8
0
100
AcDbLine
 62
7
  6
CONTINUOUS
 10
6.7225361632
 20
5.4720884007
 11
6.7980409088
 21
5.4720884007
  0
LINE
  5
22A
100
AcDbEntity
  8
0
100
AcDbLine
 62
7
  6
CONTINUOUS
 10
7.3524574231
 20
5.4720884007
 11
7.4279621686
 21
5.4720884007
  0
LINE
  5
22B
100
AcDbEntity
  8
0
100
AcDbLine
 62
7
  6
CONTINUOUS
 10
7.9823786829
 20
5.4720884007
 11
8.0201310557
 21
5.4720884007
  0
LINE
  5
22C
100
AcDbEntity
  8
0
100
AcDbLine
 62
7
  6
CONTINUOUS
 10
8.0201310557
 20
5.5681513928
 11
7.9823786829
 21
5.5681513928
  0
LINE
  5
22D
100
AcDbEntity
  8
0
100
AcDbLine
 62
7
  6
CONTINUOUS
 10
7.4279621686
 20
5.5681513928
 11
7.3524574231
 21
5.5681513928
  0
LINE
  5
22E
100
AcDbEntity
  8
0
100
AcDbLine
 62
7
  6
CONTINUOUS
 10
6.7980409088
 20
5.5681513928
 11
6.7225361632
 21
5.5681513928
  0
LINE
  5
22F
100
AcDbEntity
  8
0
100
AcDbLine
 62
7
  6
CONTINUOUS
 10
6.1681196489
 20
5.5681513928
 11
6.0926149034
 21
5.5681513928
  0
LINE
  5
230
100
AcDbEntity
  8
0
100
AcDbLine
 62
7
  6
CONTINUOUS
 10
5.5381983891
 20
5.5681513928
 11
5.4626936435
 21
5.5681513928
  0
LINE
  5
231
100
AcDbEntity
  8
0
100
AcDbLine
 62
7
  6
CONTINUOUS
 10
4.9082771293
 20
5.5681513928
 11
4.8327723837
 21
5.5681513928
  0
LINE
  5
232
100
AcDbEntity
  8
0
100
AcDbLine
 62
7
  6
CONTINUOUS
 10
4.2783558694
 20
5.5681513928
 11
4.2406034966
 21
5.5681513928
  0
LINE
  5
233
100
AcDbEntity
  8
0
100
AcDbLine
 62
7
  6
CONTINUOUS
 10
7.7373445083
 20
5.8421671408
 11
7.6729963433
 21
5.8421671408
  0
LINE
  5
234
100
AcDbEntity
  8
0
100
AcDbLine
 62
7
  6
CONTINUOUS
 10
7.1074232484
 20
5.8421671408
 11
7.0430750835
 21
5.8421671408
  0
LINE
  5
235
100
AcDbEntity
  8
0
100
AcDbLine
 62
7
  6
CONTINUOUS
 10
6.4775019886
 20
5.8421671408
 11
6.4131538236
 21
5.8421671408
  0
LINE
  5
236
100
AcDbEntity
  8
0
100
AcDbLine
 62
7
  6
CONTINUOUS
 10
5.8475807287
 20
5.8421671408
 11
5.7832325638
 21
5.8421671408
  0
LINE
  5
237
100
AcDbEntity
  8
0
100
AcDbLine
 62
7
  6
CONTINUOUS
 10
5.2176594689
 20
5.8421671408
 11
5.1533113039
 21
5.8421671408
  0
LINE
  5
238
100
AcDbEntity
  8
0
100
AcDbLine
 62
7
  6
CONTINUOUS
 10
4.587738209
 20
5.8421671408
 11
4.5233900441
 21
5.8421671408
  0
LINE
  5
239
100
AcDbEntity
  8
0
100
AcDbLine
 62
7
  6
CONTINUOUS
 10
8.0201310557
 20
5.4720884007
 11
8.0201310557
 21
5.5681513928
  0
LINE
  5
23A
100
AcDbEntity
  8
0
100
AcDbLine
 62
7
  6
CONTINUOUS
 10
4.1811083043
 20
13.7811501436
 11
4.1811083043
 21
11.4189454192
  0
LINE
  5
23B
100
AcDbEntity
  8
0
100
AcDbLine
 62
7
  6
CONTINUOUS
 10
7.9606358634
 20
11.4189454192
 11
4.1811083043
 21
11.4189454192
  0
LINE
  5
23C
100
AcDbEntity
  8
0
100
AcDbLine
 62
7
  6
CONTINUOUS
 10
4.1811083043
 20
13.7811501436
 11
7.9606358634
 21
13.7811501436
  0
LINE
  5
23D
100
AcDbEntity
  8
0
100
AcDbLine
 62
7
  6
CONTINUOUS
 10
7.9606358634
 20
13.7811501436
 11
7.9606358634
 21
11.4189454192
  0
LINE
  5
23E
100
AcDbEntity
  8
0
100
AcDbLine
 62
7
  6
CONTINUOUS
 10
14.3792528947
 20
5.1385774604
 11
14.3792528947
 21
5.7826719485
  0
LINE
  5
23F
100
AcDbEntity
  8
0
100
AcDbLine
 62
7
  6
CONTINUOUS
 10
14.3792528947
 20
5.1385774604
 11
16.7414576191
 21
5.1385774604
  0
LINE
  5
240
100
AcDbEntity
  8
0
100
AcDbLine
 62
7
  6
CONTINUOUS
 10
16.7414576191
 20
5.4125932084
 11
14.3792528947
 21
5.4125932084
  0
LINE
  5
241
100
AcDbEntity
  8
0
100
AcDbLine
 62
7
  6
CONTINUOUS
 10
16.7414576191
 20
5.5086562005
 11
14.3792528947
 21
5.5086562005
  0
LINE
  5
242
100
AcDbEntity
  8
0
100
AcDbLine
 62
7
  6
CONTINUOUS
 10
14.3792528947
 20
5.7826719485
 11
16.7414576191
 21
5.7826719485
  0
LINE
  5
243
100
AcDbEntity
  8
0
100
AcDbLine
 62
7
  6
CONTINUOUS
 10
16.7414576191
 20
5.1385774604
 11
16.7414576191
 21
5.7826719485
  0
LINE
  5
244
100
AcDbEntity
  8
0
100
AcDbLine
 62
7
  6
CONTINUOUS
 10
13.4299680397
 20
11.6154725863
 11
13.4592712741
 21
11.5557588728
  0
LINE
  5
245
100
AcDbEntity
  8
0
100
AcDbLine
 62
7
  6
CONTINUOUS
 10
13.521492052
 20
11.7429743249
 11
13.5207982204
 21
11.7404538481
  0
LINE
  5
246
100
AcDbEntity
  8
0
100
AcDbLine
 62
7
  6
CONTINUOUS
 10
14.0017782524
 20
13.465851113
 11
13.4299680397
 21
11.6154725863
  0
LINE
  5
247
100
AcDbEntity
  8
0
100
AcDbLine
 62
7
  6
CONTINUOUS
 10
13.521493851
 20
11.7429737696
 11
14.0933040638
 21
13.5933522963
  0
LINE
  5
248
100
AcDbEntity
  8
0
100
AcDbLine
 62
7
  6
CONTINUOUS
 10
13.9479431636
 20
11.4282571343
 11
13.9486369952
 21
11.430777611
  0
LINE
  5
249
100
AcDbEntity
  8
0
100
AcDbLine
 62
7
  6
CONTINUOUS
 10
14.1016879537
 20
11.7429743249
 11
14.1009941221
 21
11.7404538481
  0
LINE
  5
24A
100
AcDbEntity
  8
0
100
AcDbLine
 62
7
  6
CONTINUOUS
 10
13.9487128366
 20
11.4307541742
 11
13.9868914848
 21
11.554300325
  0
LINE
  5
24B
100
AcDbEntity
  8
0
100
AcDbLine
 62
7
  6
CONTINUOUS
 10
14.1016897527
 20
11.7429737696
 11
14.6734999655
 21
13.5933522963
  0
LINE
  5
24C
100
AcDbEntity
  8
0
100
AcDbLine
 62
7
  6
CONTINUOUS
 10
13.8033212078
 20
11.3854279524
 11
13.8625897926
 21
11.3854279524
  0
LINE
  5
24D
100
AcDbEntity
  8
0
100
AcDbLine
 62
7
  6
CONTINUOUS
 10
14.3835171096
 20
11.3854279524
 11
14.4427856944
 21
11.3854279524
  0
LINE
  5
24E
100
AcDbEntity
  8
0
100
AcDbLine
 62
7
  6
CONTINUOUS
 10
14.9637130113
 20
11.3854279524
 11
15.0229815961
 21
11.3854279524
  0
LINE
  5
24F
100
AcDbEntity
  8
0
100
AcDbLine
 62
7
  6
CONTINUOUS
 10
15.543908913
 20
11.3854279524
 11
15.6031774978
 21
11.3854279524
  0
LINE
  5
250
100
AcDbEntity
  8
0
100
AcDbLine
 62
7
  6
CONTINUOUS
 10
16.1241048148
 20
11.3854279524
 11
16.1833733996
 21
11.3854279524
  0
LINE
  5
251
100
AcDbEntity
  8
0
100
AcDbLine
 62
7
  6
CONTINUOUS
 10
16.7043007165
 20
11.3854279524
 11
16.7635693013
 21
11.3854279524
  0
LINE
  5
252
100
AcDbEntity
  8
0
100
AcDbLine
 62
7
  6
CONTINUOUS
 10
13.4592712741
 20
11.5557588728
 11
13.4940435121
 21
11.5557588728
  0
LINE
  5
253
100
AcDbEntity
  8
0
100
AcDbLine
 62
7
  6
CONTINUOUS
 10
14.0046949378
 20
11.5557588728
 11
14.0742394138
 21
11.5557588728
  0
LINE
  5
254
100
AcDbEntity
  8
0
100
AcDbLine
 62
7
  6
CONTINUOUS
 10
14.5848908396
 20
11.5557588728
 11
14.6544353156
 21
11.5557588728
  0
LINE
  5
255
100
AcDbEntity
  8
0
100
AcDbLine
 62
7
  6
CONTINUOUS
 10
15.1650867413
 20
11.5557588728
 11
15.2346312173
 21
11.5557588728
  0
LINE
  5
256
100
AcDbEntity
  8
0
100
AcDbLine
 62
7
  6
CONTINUOUS
 10
15.745282643
 20
11.5557588728
 11
15.814827119
 21
11.5557588728
  0
LINE
  5
257
100
AcDbEntity
  8
0
100
AcDbLine
 62
7
  6
CONTINUOUS
 10
16.3254785448
 20
11.5557588728
 11
16.3950230208
 21
11.5557588728
  0
LINE
  5
258
100
AcDbEntity
  8
0
100
AcDbLine
 62
7
  6
CONTINUOUS
 10
16.9056744465
 20
11.5557588728
 11
16.9404466845
 21
11.5557588728
  0
LINE
  5
259
100
AcDbEntity
  8
0
100
AcDbLine
 62
7
  6
CONTINUOUS
 10
16.9111434501
 20
11.6154725863
 11
16.8763712121
 21
11.6154725863
  0
LINE
  5
25A
100
AcDbEntity
  8
0
100
AcDbLine
 62
7
  6
CONTINUOUS
 10
16.3657197863
 20
11.6154725863
 11
16.2961753103
 21
11.6154725863
  0
LINE
  5
25B
100
AcDbEntity
  8
0
100
AcDbLine
 62
7
  6
CONTINUOUS
 10
15.7855238846
 20
11.6154725863
 11
15.7159794086
 21
11.6154725863
  0
LINE
  5
25C
100
AcDbEntity
  8
0
100
AcDbLine
 62
7
  6
CONTINUOUS
 10
15.2053279829
 20
11.6154725863
 11
15.1357835069
 21
11.6154725863
  0
LINE
  5
25D
100
AcDbEntity
  8
0
100
AcDbLine
 62
7
  6
CONTINUOUS
 10
14.6251320811
 20
11.6154725863
 11
14.5555876051
 21
11.6154725863
  0
LINE
  5
25E
100
AcDbEntity
  8
0
100
AcDbLine
 62
7
  6
CONTINUOUS
 10
14.0449361794
 20
11.6154725863
 11
13.9753917034
 21
11.6154725863
  0
LINE
  5
25F
100
AcDbEntity
  8
0
100
AcDbLine
 62
7
  6
CONTINUOUS
 10
13.4647402777
 20
11.6154725863
 11
13.4299680397
 21
11.6154725863
  0
LINE
  5
260
100
AcDbEntity
  8
0
100
AcDbLine
 62
7
  6
CONTINUOUS
 10
14.5281390653
 20
11.4282571343
 11
14.5288328969
 21
11.430777611
  0
LINE
  5
261
100
AcDbEntity
  8
0
100
AcDbLine
 62
7
  6
CONTINUOUS
 10
16.5670935163
 20
11.7858035068
 11
16.5078249316
 21
11.7858035068
  0
LINE
  5
262
100
AcDbEntity
  8
0
100
AcDbLine
 62
7
  6
CONTINUOUS
 10
15.9868976146
 20
11.7858035068
 11
15.9276290298
 21
11.7858035068
  0
LINE
  5
263
100
AcDbEntity
  8
0
100
AcDbLine
 62
7
  6
CONTINUOUS
 10
15.4067017129
 20
11.7858035068
 11
15.3474331281
 21
11.7858035068
  0
LINE
  5
264
100
AcDbEntity
  8
0
100
AcDbLine
 62
7
  6
CONTINUOUS
 10
14.8265058111
 20
11.7858035068
 11
14.7672372263
 21
11.7858035068
  0
LINE
  5
265
100
AcDbEntity
  8
0
100
AcDbLine
 62
7
  6
CONTINUOUS
 10
14.2463099094
 20
11.7858035068
 11
14.1870413246
 21
11.7858035068
  0
LINE
  5
266
100
AcDbEntity
  8
0
100
AcDbLine
 62
7
  6
CONTINUOUS
 10
13.6661140077
 20
11.7858035068
 11
13.6068454229
 21
11.7858035068
  0
LINE
  5
267
100
AcDbEntity
  8
0
100
AcDbLine
 62
7
  6
CONTINUOUS
 10
14.6818838554
 20
11.7429743249
 11
14.6811900238
 21
11.7404538481
  0
LINE
  5
268
100
AcDbEntity
  8
0
100
AcDbLine
 62
7
  6
CONTINUOUS
 10
14.5289087384
 20
11.4307541742
 11
14.5670873865
 21
11.554300325
  0
LINE
  5
269
100
AcDbEntity
  8
0
100
AcDbLine
 62
7
  6
CONTINUOUS
 10
14.6818856545
 20
11.7429737696
 11
15.2536958673
 21
13.5933522963
  0
LINE
  5
26A
100
AcDbEntity
  8
0
100
AcDbLine
 62
7
  6
CONTINUOUS
 10
15.108334967
 20
11.4282571343
 11
15.1090287986
 21
11.430777611
  0
LINE
  5
26B
100
AcDbEntity
  8
0
100
AcDbLine
 62
7
  6
CONTINUOUS
 10
15.2620797572
 20
11.7429743249
 11
15.2613859256
 21
11.7404538481
  0
LINE
  5
26C
100
AcDbEntity
  8
0
100
AcDbLine
 62
7
  6
CONTINUOUS
 10
15.1091046401
 20
11.4307541742
 11
15.1472832883
 21
11.554300325
  0
LINE
  5
26D
100
AcDbEntity
  8
0
100
AcDbLine
 62
7
  6
CONTINUOUS
 10
15.2620815562
 20
11.7429737696
 11
15.833891769
 21
13.5933522963
  0
LINE
  5
26E
100
AcDbEntity
  8
0
100
AcDbLine
 62
7
  6
CONTINUOUS
 10
15.6885308688
 20
11.4282571343
 11
15.6892247004
 21
11.430777611
  0
LINE
  5
26F
100
AcDbEntity
  8
0
100
AcDbLine
 62
7
  6
CONTINUOUS
 10
15.8422756589
 20
11.7429743249
 11
15.8415818273
 21
11.7404538481
  0
LINE
  5
270
100
AcDbEntity
  8
0
100
AcDbLine
 62
7
  6
CONTINUOUS
 10
15.6893005418
 20
11.4307541742
 11
15.72747919
 21
11.554300325
  0
LINE
  5
271
100
AcDbEntity
  8
0
100
AcDbLine
 62
7
  6
CONTINUOUS
 10
15.842277458
 20
11.7429737696
 11
16.4140876707
 21
13.5933522963
  0
LINE
  5
272
100
AcDbEntity
  8
0
100
AcDbLine
 62
7
  6
CONTINUOUS
 10
16.9404466845
 20
11.5557588728
 11
16.9111434501
 21
11.6154725863
  0
LINE
  5
273
100
AcDbEntity
  8
0
100
AcDbLine
 62
7
  6
CONTINUOUS
 10
16.2687267705
 20
11.4282571343
 11
16.2694206021
 21
11.430777611
  0
LINE
  5
274
100
AcDbEntity
  8
0
100
AcDbLine
 62
7
  6
CONTINUOUS
 10
16.2694964436
 20
11.4307541742
 11
16.3076750917
 21
11.554300325
  0
LINE
  5
275
100
AcDbEntity
  8
0
100
AcDbLine
 62
7
  6
CONTINUOUS
 10
17.4829536628
 20
13.465851113
 11
17.4481814248
 21
13.465851113
  0
LINE
  5
276
100
AcDbEntity
  8
0
100
AcDbLine
 62
7
  6
CONTINUOUS
 10
14.0365504904
 20
13.465851113
 11
14.0017782524
 21
13.465851113
  0
LINE
  5
277
100
AcDbEntity
  8
0
100
AcDbLine
 62
7
  6
CONTINUOUS
 10
14.5472019162
 20
13.465851113
 11
14.6167463922
 21
13.465851113
  0
LINE
  5
278
100
AcDbEntity
  8
0
100
AcDbLine
 62
7
  6
CONTINUOUS
 10
15.1273978179
 20
13.465851113
 11
15.1969422939
 21
13.465851113
  0
LINE
  5
279
100
AcDbEntity
  8
0
100
AcDbLine
 62
7
  6
CONTINUOUS
 10
15.7075937196
 20
13.465851113
 11
15.7771381956
 21
13.465851113
  0
LINE
  5
27A
100
AcDbEntity
  8
0
100
AcDbLine
 62
7
  6
CONTINUOUS
 10
16.2877896214
 20
13.465851113
 11
16.3573340974
 21
13.465851113
  0
LINE
  5
27B
100
AcDbEntity
  8
0
100
AcDbLine
 62
7
  6
CONTINUOUS
 10
16.8679855231
 20
13.465851113
 11
16.9375299991
 21
13.465851113
  0
LINE
  5
27C
100
AcDbEntity
  8
0
100
AcDbLine
 62
7
  6
CONTINUOUS
 10
16.4224715606
 20
11.7429743249
 11
16.421777729
 21
11.7404538481
  0
LINE
  5
27D
100
AcDbEntity
  8
0
100
AcDbLine
 62
7
  6
CONTINUOUS
 10
16.4224733597
 20
11.7429737696
 11
16.9942835725
 21
13.5933522963
  0
LINE
  5
27E
100
AcDbEntity
  8
0
100
AcDbLine
 62
7
  6
CONTINUOUS
 10
17.1389037291
 20
13.6361820334
 11
17.0796351443
 21
13.6361820334
  0
LINE
  5
27F
100
AcDbEntity
  8
0
100
AcDbLine
 62
7
  6
CONTINUOUS
 10
16.5587078274
 20
13.6361820334
 11
16.4994392426
 21
13.6361820334
  0
LINE
  5
280
100
AcDbEntity
  8
0
100
AcDbLine
 62
7
  6
CONTINUOUS
 10
15.9785119256
 20
13.6361820334
 11
15.9192433409
 21
13.6361820334
  0
LINE
  5
281
100
AcDbEntity
  8
0
100
AcDbLine
 62
7
  6
CONTINUOUS
 10
15.3983160239
 20
13.6361820334
 11
15.3390474391
 21
13.6361820334
  0
LINE
  5
282
100
AcDbEntity
  8
0
100
AcDbLine
 62
7
  6
CONTINUOUS
 10
14.8181201222
 20
13.6361820334
 11
14.7588515374
 21
13.6361820334
  0
LINE
  5
283
100
AcDbEntity
  8
0
100
AcDbLine
 62
7
  6
CONTINUOUS
 10
14.2379242204
 20
13.6361820334
 11
14.1786556357
 21
13.6361820334
  0
LINE
  5
284
100
AcDbEntity
  8
0
100
AcDbLine
 62
7
  6
CONTINUOUS
 10
16.8489226722
 20
11.4282571343
 11
16.8496165038
 21
11.430777611
  0
LINE
  5
285
100
AcDbEntity
  8
0
100
AcDbLine
 62
7
  6
CONTINUOUS
 10
16.8496923453
 20
11.4307541742
 11
16.8878709935
 21
11.554300325
  0
LINE
  5
286
100
AcDbEntity
  8
0
100
AcDbLine
 62
7
  6
CONTINUOUS
 10
17.4829536628
 20
13.465851113
 11
16.9111434501
 21
11.6154725863
  0
LINE
  5
287
100
AcDbEntity
  8
0
100
AcDbLine
 62
7
  6
CONTINUOUS
 10
17.5122568973
 20
13.4061373995
 11
16.9404466845
 21
11.5557588728
  0
LINE
  5
288
100
AcDbEntity
  8
0
100
AcDbLine
 62
7
  6
CONTINUOUS
 10
17.5122568973
 20
13.4061373995
 11
17.4829536628
 21
13.465851113
  0
ARC
  5
289
100
AcDbEntity
  8
0
100
AcDbCircle
 62
7
  6
CONTINUOUS
 10
4.8114696384
 20
5.4720884007
 40
0.4527559055
100
AcDbArc
 50
189.3197114863
 51
206.364596849
  0
ARC
  5
28A
100
AcDbEntity
  8
0
100
AcDbCircle
 62
7
  6
CONTINUOUS
 10
4.2996586147
 20
5.4720884007
 40
0.4527559055
100
AcDbArc
 50
333.635403151
 51
350.6802885137
  0
ARC
  5
28B
100
AcDbEntity
  8
0
100
AcDbCircle
 62
7
  6
CONTINUOUS
 10
5.4413908982
 20
5.4720884007
 40
0.4527559055
100
AcDbArc
 50
189.3197114863
 51
206.364596849
  0
ARC
  5
28C
100
AcDbEntity
  8
0
100
AcDbCircle
 62
7
  6
CONTINUOUS
 10
4.9295798746
 20
5.4720884007
 40
0.4527559055
100
AcDbArc
 50
333.635403151
 51
350.6802885137
  0
ARC
  5
28D
100
AcDbEntity
  8
0
100
AcDbCircle
 62
7
  6
CONTINUOUS
 10
6.0713121581
 20
5.4720884007
 40
0.4527559055
100
AcDbArc
 50
189.3197114863
 51
206.364596849
  0
ARC
  5
28E
100
AcDbEntity
  8
0
100
AcDbCircle
 62
7
  6
CONTINUOUS
 10
5.5595011344
 20
5.4720884007
 40
0.4527559055
100
AcDbArc
 50
333.635403151
 51
350.6802885137
  0
ARC
  5
28F
100
AcDbEntity
  8
0
100
AcDbCircle
 62
7
  6
CONTINUOUS
 10
4.5233900441
 20
5.3293062485
 40
0.1312335958
100
AcDbArc
 50
206.364596849
 51
270.0
  0
ARC
  5
290
100
AcDbEntity
  8
0
100
AcDbCircle
 62
7
  6
CONTINUOUS
 10
4.587738209
 20
5.3293062485
 40
0.1312335958
100
AcDbArc
 50
270.0
 51
333.635403151
  0
ARC
  5
291
100
AcDbEntity
  8
0
100
AcDbCircle
 62
7
  6
CONTINUOUS
 10
5.1533113039
 20
5.3293062485
 40
0.1312335958
100
AcDbArc
 50
206.364596849
 51
270.0
  0
ARC
  5
292
100
AcDbEntity
  8
0
100
AcDbCircle
 62
7
  6
CONTINUOUS
 10
5.2176594689
 20
5.3293062485
 40
0.1312335958
100
AcDbArc
 50
270.0
 51
333.635403151
  0
ARC
  5
293
100
AcDbEntity
  8
0
100
AcDbCircle
 62
7
  6
CONTINUOUS
 10
5.7832325638
 20
5.3293062485
 40
0.1312335958
100
AcDbArc
 50
206.364596849
 51
270.0
  0
ARC
  5
294
100
AcDbEntity
  8
0
100
AcDbCircle
 62
7
  6
CONTINUOUS
 10
5.8475807287
 20
5.3293062485
 40
0.1312335958
100
AcDbArc
 50
270.0
 51
333.635403151
  0
ARC
  5
295
100
AcDbEntity
  8
0
100
AcDbCircle
 62
7
  6
CONTINUOUS
 10
4.8327723837
 20
5.3845993368
 40
0.0874890639
100
AcDbArc
 50
90.0
 51
170.6802885137
  0
ARC
  5
296
100
AcDbEntity
  8
0
100
AcDbCircle
 62
7
  6
CONTINUOUS
 10
4.2783558694
 20
5.3845993368
 40
0.0874890639
100
AcDbArc
 50
9.3197114863
 51
90.0
  0
ARC
  5
297
100
AcDbEntity
  8
0
100
AcDbCircle
 62
7
  6
CONTINUOUS
 10
5.4626936435
 20
5.3845993368
 40
0.0874890639
100
AcDbArc
 50
90.0
 51
170.6802885137
  0
ARC
  5
298
100
AcDbEntity
  8
0
100
AcDbCircle
 62
7
  6
CONTINUOUS
 10
4.9082771293
 20
5.3845993368
 40
0.0874890639
100
AcDbArc
 50
9.3197114863
 51
90.0
  0
ARC
  5
299
100
AcDbEntity
  8
0
100
AcDbCircle
 62
7
  6
CONTINUOUS
 10
6.0926149034
 20
5.3845993368
 40
0.0874890639
100
AcDbArc
 50
90.0
 51
170.6802885137
  0
ARC
  5
29A
100
AcDbEntity
  8
0
100
AcDbCircle
 62
7
  6
CONTINUOUS
 10
5.5381983891
 20
5.3845993368
 40
0.0874890639
100
AcDbArc
 50
9.3197114863
 51
90.0
  0
ARC
  5
29B
100
AcDbEntity
  8
0
100
AcDbCircle
 62
7
  6
CONTINUOUS
 10
4.8114696384
 20
5.5681513928
 40
0.4527559055
100
AcDbArc
 50
153.635403151
 51
170.6802885137
  0
ARC
  5
29C
100
AcDbEntity
  8
0
100
AcDbCircle
 62
7
  6
CONTINUOUS
 10
4.2996586147
 20
5.5681513928
 40
0.4527559055
100
AcDbArc
 50
9.3197114863
 51
26.364596849
  0
ARC
  5
29D
100
AcDbEntity
  8
0
100
AcDbCircle
 62
7
  6
CONTINUOUS
 10
5.4413908982
 20
5.5681513928
 40
0.4527559055
100
AcDbArc
 50
153.635403151
 51
170.6802885137
  0
ARC
  5
29E
100
AcDbEntity
  8
0
100
AcDbCircle
 62
7
  6
CONTINUOUS
 10
4.9295798746
 20
5.5681513928
 40
0.4527559055
100
AcDbArc
 50
9.3197114863
 51
26.364596849
  0
ARC
  5
29F
100
AcDbEntity
  8
0
100
AcDbCircle
 62
7
  6
CONTINUOUS
 10
6.0713121581
 20
5.5681513928
 40
0.4527559055
100
AcDbArc
 50
153.635403151
 51
170.6802885137
  0
ARC
  5
2A0
100
AcDbEntity
  8
0
100
AcDbCircle
 62
7
  6
CONTINUOUS
 10
5.5595011344
 20
5.5681513928
 40
0.4527559055
100
AcDbArc
 50
9.3197114863
 51
26.364596849
  0
ARC
  5
2A1
100
AcDbEntity
  8
0
100
AcDbCircle
 62
7
  6
CONTINUOUS
 10
4.587738209
 20
5.710933545
 40
0.1312335958
100
AcDbArc
 50
26.364596849
 51
90.0
  0
ARC
  5
2A2
100
AcDbEntity
  8
0
100
AcDbCircle
 62
7
  6
CONTINUOUS
 10
4.5233900441
 20
5.710933545
 40
0.1312335958
100
AcDbArc
 50
90.0
 51
153.635403151
  0
ARC
  5
2A3
100
AcDbEntity
  8
0
100
AcDbCircle
 62
7
  6
CONTINUOUS
 10
5.1533113039
 20
5.710933545
 40
0.1312335958
100
AcDbArc
 50
90.0
 51
153.635403151
  0
ARC
  5
2A4
100
AcDbEntity
  8
0
100
AcDbCircle
 62
7
  6
CONTINUOUS
 10
5.2176594689
 20
5.710933545
 40
0.1312335958
100
AcDbArc
 50
26.364596849
 51
90.0
  0
ARC
  5
2A5
100
AcDbEntity
  8
0
100
AcDbCircle
 62
7
  6
CONTINUOUS
 10
5.7832325638
 20
5.710933545
 40
0.1312335958
100
AcDbArc
 50
90.0
 51
153.635403151
  0
ARC
  5
2A6
100
AcDbEntity
  8
0
100
AcDbCircle
 62
7
  6
CONTINUOUS
 10
5.8475807287
 20
5.710933545
 40
0.1312335958
100
AcDbArc
 50
26.364596849
 51
90.0
  0
ARC
  5
2A7
100
AcDbEntity
  8
0
100
AcDbCircle
 62
7
  6
CONTINUOUS
 10
4.8327723837
 20
5.6556404567
 40
0.0874890639
100
AcDbArc
 50
189.3197114863
 51
270.0
  0
ARC
  5
2A8
100
AcDbEntity
  8
0
100
AcDbCircle
 62
7
  6
CONTINUOUS
 10
4.2783558694
 20
5.6556404567
 40
0.0874890639
100
AcDbArc
 50
270.0
 51
350.6802885137
  0
ARC
  5
2A9
100
AcDbEntity
  8
0
100
AcDbCircle
 62
7
  6
CONTINUOUS
 10
5.4626936435
 20
5.6556404567
 40
0.0874890639
100
AcDbArc
 50
189.3197114863
 51
270.0
  0
ARC
  5
2AA
100
AcDbEntity
  8
0
100
AcDbCircle
 62
7
  6
CONTINUOUS
 10
4.9082771293
 20
5.6556404567
 40
0.0874890639
100
AcDbArc
 50
270.0
 51
350.6802885137
  0
ARC
  5
2AB
100
AcDbEntity
  8
0
100
AcDbCircle
 62
7
  6
CONTINUOUS
 10
6.0926149034
 20
5.6556404567
 40
0.0874890639
100
AcDbArc
 50
189.3197114863
 51
270.0
  0
ARC
  5
2AC
100
AcDbEntity
  8
0
100
AcDbCircle
 62
7
  6
CONTINUOUS
 10
5.5381983891
 20
5.6556404567
 40
0.0874890639
100
AcDbArc
 50
270.0
 51
350.6802885137
  0
ARC
  5
2AD
100
AcDbEntity
  8
0
100
AcDbCircle
 62
7
  6
CONTINUOUS
 10
6.7012334179
 20
5.4720884007
 40
0.4527559055
100
AcDbArc
 50
189.3197114863
 51
206.364596849
  0
ARC
  5
2AE
100
AcDbEntity
  8
0
100
AcDbCircle
 62
7
  6
CONTINUOUS
 10
6.1894223943
 20
5.4720884007
 40
0.4527559055
100
AcDbArc
 50
333.635403151
 51
350.6802885137
  0
ARC
  5
2AF
100
AcDbEntity
  8
0
100
AcDbCircle
 62
7
  6
CONTINUOUS
 10
7.3311546777
 20
5.4720884007
 40
0.4527559055
100
AcDbArc
 50
189.3197114863
 51
206.364596849
  0
ARC
  5
2B0
100
AcDbEntity
  8
0
100
AcDbCircle
 62
7
  6
CONTINUOUS
 10
6.8193436541
 20
5.4720884007
 40
0.4527559055
100
AcDbArc
 50
333.635403151
 51
350.6802885137
  0
ARC
  5
2B1
100
AcDbEntity
  8
0
100
AcDbCircle
 62
7
  6
CONTINUOUS
 10
7.449264914
 20
5.4720884007
 40
0.4527559055
100
AcDbArc
 50
333.635403151
 51
350.6802885137
  0
ARC
  5
2B2
100
AcDbEntity
  8
0
100
AcDbCircle
 62
7
  6
CONTINUOUS
 10
7.9610759376
 20
5.4720884007
 40
0.4527559055
100
AcDbArc
 50
189.3197114863
 51
206.364596849
  0
ARC
  5
2B3
100
AcDbEntity
  8
0
100
AcDbCircle
 62
7
  6
CONTINUOUS
 10
6.4131538236
 20
5.3293062485
 40
0.1312335958
100
AcDbArc
 50
206.364596849
 51
270.0
  0
ARC
  5
2B4
100
AcDbEntity
  8
0
100
AcDbCircle
 62
7
  6
CONTINUOUS
 10
6.4775019886
 20
5.3293062485
 40
0.1312335958
100
AcDbArc
 50
270.0
 51
333.635403151
  0
ARC
  5
2B5
100
AcDbEntity
  8
0
100
AcDbCircle
 62
7
  6
CONTINUOUS
 10
7.0430750835
 20
5.3293062485
 40
0.1312335958
100
AcDbArc
 50
206.364596849
 51
270.0
  0
ARC
  5
2B6
100
AcDbEntity
  8
0
100
AcDbCircle
 62
7
  6
CONTINUOUS
 10
7.1074232484
 20
5.3293062485
 40
0.1312335958
100
AcDbArc
 50
270.0
 51
333.635403151
  0
ARC
  5
2B7
100
AcDbEntity
  8
0
100
AcDbCircle
 62
7
  6
CONTINUOUS
 10
7.7373445083
 20
5.3293062485
 40
0.1312335958
100
AcDbArc
 50
270.0
 51
333.635403151
  0
ARC
  5
2B8
100
AcDbEntity
  8
0
100
AcDbCircle
 62
7
  6
CONTINUOUS
 10
7.6729963433
 20
5.3293062485
 40
0.1312335958
100
AcDbArc
 50
206.364596849
 51
270.0
  0
ARC
  5
2B9
100
AcDbEntity
  8
0
100
AcDbCircle
 62
7
  6
CONTINUOUS
 10
6.7225361632
 20
5.3845993368
 40
0.0874890639
100
AcDbArc
 50
90.0
 51
170.6802885137
  0
ARC
  5
2BA
100
AcDbEntity
  8
0
100
AcDbCircle
 62
7
  6
CONTINUOUS
 10
6.1681196489
 20
5.3845993368
 40
0.0874890639
100
AcDbArc
 50
9.3197114863
 51
90.0
  0
ARC
  5
2BB
100
AcDbEntity
  8
0
100
AcDbCircle
 62
7
  6
CONTINUOUS
 10
7.3524574231
 20
5.3845993368
 40
0.0874890639
100
AcDbArc
 50
90.0
 51
170.6802885137
  0
ARC
  5
2BC
100
AcDbEntity
  8
0
100
AcDbCircle
 62
7
  6
CONTINUOUS
 10
6.7980409088
 20
5.3845993368
 40
0.0874890639
100
AcDbArc
 50
9.3197114863
 51
90.0
  0
ARC
  5
2BD
100
AcDbEntity
  8
0
100
AcDbCircle
 62
7
  6
CONTINUOUS
 10
7.9823786829
 20
5.3845993368
 40
0.0874890639
100
AcDbArc
 50
90.0
 51
170.6802885137
  0
ARC
  5
2BE
100
AcDbEntity
  8
0
100
AcDbCircle
 62
7
  6
CONTINUOUS
 10
7.4279621686
 20
5.3845993368
 40
0.0874890639
100
AcDbArc
 50
9.3197114863
 51
90.0
  0
ARC
  5
2BF
100
AcDbEntity
  8
0
100
AcDbCircle
 62
7
  6
CONTINUOUS
 10
6.7012334179
 20
5.5681513928
 40
0.4527559055
100
AcDbArc
 50
153.635403151
 51
170.6802885137
  0
ARC
  5
2C0
100
AcDbEntity
  8
0
100
AcDbCircle
 62
7
  6
CONTINUOUS
 10
6.1894223943
 20
5.5681513928
 40
0.4527559055
100
AcDbArc
 50
9.3197114863
 51
26.364596849
  0
ARC
  5
2C1
100
AcDbEntity
  8
0
100
AcDbCircle
 62
7
  6
CONTINUOUS
 10
7.3311546777
 20
5.5681513928
 40
0.4527559055
100
AcDbArc
 50
153.635403151
 51
170.6802885137
  0
ARC
  5
2C2
100
AcDbEntity
  8
0
100
AcDbCircle
 62
7
  6
CONTINUOUS
 10
6.8193436541
 20
5.5681513928
 40
0.4527559055
100
AcDbArc
 50
9.3197114863
 51
26.364596849
  0
ARC
  5
2C3
100
AcDbEntity
  8
0
100
AcDbCircle
 62
7
  6
CONTINUOUS
 10
7.9610759376
 20
5.5681513928
 40
0.4527559055
100
AcDbArc
 50
153.635403151
 51
170.6802885137
  0
ARC
  5
2C4
100
AcDbEntity
  8
0
100
AcDbCircle
 62
7
  6
CONTINUOUS
 10
7.449264914
 20
5.5681513928
 40
0.4527559055
100
AcDbArc
 50
9.3197114863
 51
26.364596849
  0
ARC
  5
2C5
100
AcDbEntity
  8
0
100
AcDbCircle
 62
7
  6
CONTINUOUS
 10
6.4131538236
 20
5.710933545
 40
0.1312335958
100
AcDbArc
 50
90.0
 51
153.635403151
  0
ARC
  5
2C6
100
AcDbEntity
  8
0
100
AcDbCircle
 62
7
  6
CONTINUOUS
 10
6.4775019886
 20
5.710933545
 40
0.1312335958
100
AcDbArc
 50
26.364596849
 51
90.0
  0
ARC
  5
2C7
100
AcDbEntity
  8
0
100
AcDbCircle
 62
7
  6
CONTINUOUS
 10
7.0430750835
 20
5.710933545
 40
0.1312335958
100
AcDbArc
 50
90.0
 51
153.635403151
  0
ARC
  5
2C8
100
AcDbEntity
  8
0
100
AcDbCircle
 62
7
  6
CONTINUOUS
 10
7.1074232484
 20
5.710933545
 40
0.1312335958
100
AcDbArc
 50
26.364596849
 51
90.0
  0
ARC
  5
2C9
100
AcDbEntity
  8
0
100
AcDbCircle
 62
7
  6
CONTINUOUS
 10
7.6729963433
 20
5.710933545
 40
0.1312335958
100
AcDbArc
 50
90.0
 51
153.635403151
  0
ARC
  5
2CA
100
AcDbEntity
  8
0
100
AcDbCircle
 62
7
  6
CONTINUOUS
 10
7.7373445083
 20
5.710933545
 40
0.1312335958
100
AcDbArc
 50
26.364596849
 51
90.0
  0
ARC
  5
2CB
100
AcDbEntity
  8
0
100
AcDbCircle
 62
7
  6
CONTINUOUS
 10
6.7225361632
 20
5.6556404567
 40
0.0874890639
100
AcDbArc
 50
189.3197114863
 51
270.0
  0
ARC
  5
2CC
100
AcDbEntity
  8
0
100
AcDbCircle
 62
7
  6
CONTINUOUS
 10
6.1681196489
 20
5.6556404567
 40
0.0874890639
100
AcDbArc
 50
270.0
 51
350.6802885137
  0
ARC
  5
2CD
100
AcDbEntity
  8
0
100
AcDbCircle
 62
7
  6
CONTINUOUS
 10
7.3524574231
 20
5.6556404567
 40
0.0874890639
100
AcDbArc
 50
189.3197114863
 51
270.0
  0
ARC
  5
2CE
100
AcDbEntity
  8
0
100
AcDbCircle
 62
7
  6
CONTINUOUS
 10
6.7980409088
 20
5.6556404567
 40
0.0874890639
100
AcDbArc
 50
270.0
 51
350.6802885137
  0
ARC
  5
2CF
100
AcDbEntity
  8
0
100
AcDbCircle
 62
7
  6
CONTINUOUS
 10
7.9823786829
 20
5.6556404567
 40
0.0874890639
100
AcDbArc
 50
189.3197114863
 51
270.0
  0
ARC
  5
2D0
100
AcDbEntity
  8
0
100
AcDbCircle
 62
7
  6
CONTINUOUS
 10
7.4279621686
 20
5.6556404567
 40
0.0874890639
100
AcDbArc
 50
270.0
 51
350.6802885137
  0
SPLINE
  5
2D1
100
AcDbEntity
  8
0
100
AcDbSpline
 62
7
  6
CONTINUOUS
 70
0
 71
3
 72
9
 73
5
 74
0
 42
0.0000001
 43
0.0000001
 44
0.0000000001
 40
0.0
 40
0.0
 40
0.0
 40
0.0
 40
0.4816193489
 40
1.0
 40
1.0
 40
1.0
 40
1.0
 10
14.4453169276
 20
13.5114280497
 30
0.0
 10
14.4348008997
 20
13.5257571025
 30
0.0
 10
14.4106875905
 20
13.5538680838
 30
0.0
 10
14.3833004299
 20
13.5787354716
 30
0.0
 10
14.3684801832
 20
13.5908323748
 30
0.0
  0
SPLINE
  5
2D2
100
AcDbEntity
  8
0
100
AcDbSpline
 62
7
  6
CONTINUOUS
 70
0
 71
3
 72
11
 73
7
 74
0
 42
0.0000001
 43
0.0000001
 44
0.0000000001
 40
0.0
 40
0.0
 40
0.0
 40
0.0
 40
0.2476652128
 40
0.5055533591
 40
0.7605521817
 40
1.0
 40
1.0
 40
1.0
 40
1.0
 10
14.2379242204
 20
13.6361820334
 30
0.0
 10
14.2495268817
 20
13.6361820334
 30
0.0
 10
14.2732428665
 20
13.6339117025
 30
0.0
 10
14.3078452547
 20
13.624853209
 30
0.0
 10
14.3402739264
 20
13.6106943833
 30
0.0
 10
14.3597899117
 20
13.5979257367
 30
0.0
 10
14.3684801832
 20
13.5908323748
 30
0.0
  0
SPLINE
  5
2D3
100
AcDbEntity
  8
0
100
AcDbSpline
 62
7
  6
CONTINUOUS
 70
0
 71
3
 72
12
 73
8
 74
0
 42
0.0000001
 43
0.0000001
 44
0.0000000001
 40
0.0
 40
0.0
 40
0.0
 40
0.0
 40
0.0998482132
 40
0.2032561568
 40
0.4308041567
 40
0.69657606
 40
1.0
 40
1.0
 40
1.0
 40
1.0
 10
13.947794008
 20
11.5272056691
 30
0.0
 10
13.948459625
 20
11.5293590781
 30
0.0
 10
13.9503455133
 20
11.5335964026
 30
0.0
 10
13.9562639031
 20
11.5414047951
 30
0.0
 10
13.9676190757
 20
11.5492448486
 30
0.0
 10
13.9849447504
 20
11.5546656256
 30
0.0
 10
13.9978455675
 20
11.5557588728
 30
0.0
 10
14.0046949378
 20
11.5557588728
 30
0.0
  0
SPLINE
  5
2D4
100
AcDbEntity
  8
0
100
AcDbSpline
 62
7
  6
CONTINUOUS
 70
0
 71
3
 72
12
 73
8
 74
0
 42
0.0000001
 43
0.0000001
 44
0.0000000001
 40
0.0
 40
0.0
 40
0.0
 40
0.0
 40
0.0998482132
 40
0.2032561568
 40
0.4308041567
 40
0.69657606
 40
1.0
 40
1.0
 40
1.0
 40
1.0
 10
14.5279899097
 20
11.5272056691
 30
0.0
 10
14.5286555267
 20
11.5293590781
 30
0.0
 10
14.530541415
 20
11.5335964026
 30
0.0
 10
14.5364598049
 20
11.5414047951
 30
0.0
 10
14.5478149775
 20
11.5492448486
 30
0.0
 10
14.5651406522
 20
11.5546656256
 30
0.0
 10
14.5780414692
 20
11.5557588728
 30
0.0
 10
14.5848908396
 20
11.5557588728
 30
0.0
  0
SPLINE
  5
2D5
100
AcDbEntity
  8
0
100
AcDbSpline
 62
7
  6
CONTINUOUS
 70
0
 71
3
 72
12
 73
8
 74
0
 42
0.0000001
 43
0.0000001
 44
0.0000000001
 40
0.0
 40
0.0
 40
0.0
 40
0.0
 40
0.0998482132
 40
0.2032561568
 40
0.4308041567
 40
0.69657606
 40
1.0
 40
1.0
 40
1.0
 40
1.0
 10
15.1081858115
 20
11.5272056691
 30
0.0
 10
15.1088514284
 20
11.5293590781
 30
0.0
 10
15.1107373168
 20
11.5335964026
 30
0.0
 10
15.1166557066
 20
11.5414047951
 30
0.0
 10
15.1280108792
 20
11.5492448486
 30
0.0
 10
15.1453365539
 20
11.5546656256
 30
0.0
 10
15.158237371
 20
11.5557588728
 30
0.0
 10
15.1650867413
 20
11.5557588728
 30
0.0
  0
SPLINE
  5
2D6
100
AcDbEntity
  8
0
100
AcDbSpline
 62
7
  6
CONTINUOUS
 70
0
 71
3
 72
12
 73
8
 74
0
 42
0.0000001
 43
0.0000001
 44
0.0000000001
 40
0.0
 40
0.0
 40
0.0
 40
0.0
 40
0.0998482132
 40
0.2032561568
 40
0.4308041567
 40
0.69657606
 40
1.0
 40
1.0
 40
1.0
 40
1.0
 10
15.6883817132
 20
11.5272056691
 30
0.0
 10
15.6890473302
 20
11.5293590781
 30
0.0
 10
15.6909332185
 20
11.5335964026
 30
0.0
 10
15.6968516083
 20
11.5414047951
 30
0.0
 10
15.7082067809
 20
11.5492448486
 30
0.0
 10
15.7255324556
 20
11.5546656256
 30
0.0
 10
15.7384332727
 20
11.5557588728
 30
0.0
 10
15.745282643
 20
11.5557588728
 30
0.0
  0
SPLINE
  5
2D7
100
AcDbEntity
  8
0
100
AcDbSpline
 62
7
  6
CONTINUOUS
 70
0
 71
3
 72
12
 73
8
 74
0
 42
0.0000001
 43
0.0000001
 44
0.0000000001
 40
0.0
 40
0.0
 40
0.0
 40
0.0
 40
0.0998482132
 40
0.2032561568
 40
0.4308041567
 40
0.69657606
 40
1.0
 40
1.0
 40
1.0
 40
1.0
 10
16.2685776149
 20
11.5272056691
 30
0.0
 10
16.2692432319
 20
11.5293590781
 30
0.0
 10
16.2711291202
 20
11.5335964026
 30
0.0
 10
16.2770475101
 20
11.5414047951
 30
0.0
 10
16.2884026827
 20
11.5492448486
 30
0.0
 10
16.3057283574
 20
11.5546656256
 30
0.0
 10
16.3186291744
 20
11.5557588728
 30
0.0
 10
16.3254785448
 20
11.5557588728
 30
0.0
  0
SPLINE
  5
2D8
100
AcDbEntity
  8
0
100
AcDbSpline
 62
7
  6
CONTINUOUS
 70
0
 71
3
 72
12
 73
8
 74
0
 42
0.0000001
 43
0.0000001
 44
0.0000000001
 40
0.0
 40
0.0
 40
0.0
 40
0.0
 40
0.0998482132
 40
0.2032561568
 40
0.4308041567
 40
0.69657606
 40
1.0
 40
1.0
 40
1.0
 40
1.0
 10
16.8487735167
 20
11.5272056691
 30
0.0
 10
16.8494391336
 20
11.5293590781
 30
0.0
 10
16.851325022
 20
11.5335964026
 30
0.0
 10
16.8572434118
 20
11.5414047951
 30
0.0
 10
16.8685985844
 20
11.5492448486
 30
0.0
 10
16.8859242591
 20
11.5546656256
 30
0.0
 10
16.8988250762
 20
11.5557588728
 30
0.0
 10
16.9056744465
 20
11.5557588728
 30
0.0
  0
SPLINE
  5
2D9
100
AcDbEntity
  8
0
100
AcDbSpline
 62
7
  6
CONTINUOUS
 70
0
 71
3
 72
13
 73
9
 74
0
 42
0.0000001
 43
0.0000001
 44
0.0000000001
 40
0.0
 40
0.0
 40
0.0
 40
0.0
 40
0.0997724167
 40
0.2031216397
 40
0.3129402347
 40
0.4313511405
 40
0.6968632552
 40
1.0
 40
1.0
 40
1.0
 40
1.0
 10
14.0933045095
 20
13.5933521576
 30
0.0
 10
14.0943038145
 20
13.5965825268
 30
0.0
 10
14.0971338666
 20
13.6029394649
 30
0.0
 10
14.1035879265
 20
13.6114567436
 30
0.0
 10
14.1121177727
 20
13.6188810469
 30
0.0
 10
14.126554525
 20
13.6274853793
 30
0.0
 10
14.1490515698
 20
13.6345591722
 30
0.0
 10
14.1683819753
 20
13.6361820334
 30
0.0
 10
14.1786556357
 20
13.6361820334
 30
0.0
  0
SPLINE
  5
2DA
100
AcDbEntity
  8
0
100
AcDbSpline
 62
7
  6
CONTINUOUS
 70
0
 71
3
 72
9
 73
5
 74
0
 42
0.0000001
 43
0.0000001
 44
0.0000000001
 40
0.0
 40
0.0
 40
0.0
 40
0.0
 40
0.4816198055
 40
1.0
 40
1.0
 40
1.0
 40
1.0
 10
17.3462964363
 20
13.5114280497
 30
0.0
 10
17.3357803975
 20
13.5257571174
 30
0.0
 10
17.3116672004
 20
13.5538682044
 30
0.0
 10
17.2842799269
 20
13.5787354812
 30
0.0
 10
17.2694596919
 20
13.5908323748
 30
0.0
  0
SPLINE
  5
2DB
100
AcDbEntity
  8
0
100
AcDbSpline
 62
7
  6
CONTINUOUS
 70
0
 71
3
 72
11
 73
7
 74
0
 42
0.0000001
 43
0.0000001
 44
0.0000000001
 40
0.0
 40
0.0
 40
0.0
 40
0.0
 40
0.2476652128
 40
0.5055533591
 40
0.7605521817
 40
1.0
 40
1.0
 40
1.0
 40
1.0
 10
17.1389037291
 20
13.6361820334
 30
0.0
 10
17.1505063904
 20
13.6361820334
 30
0.0
 10
17.1742223752
 20
13.6339117025
 30
0.0
 10
17.2088247634
 20
13.624853209
 30
0.0
 10
17.2412534351
 20
13.6106943833
 30
0.0
 10
17.2607694203
 20
13.5979257367
 30
0.0
 10
17.2694596919
 20
13.5908323748
 30
0.0
  0
SPLINE
  5
2DC
100
AcDbEntity
  8
0
100
AcDbSpline
 62
7
  6
CONTINUOUS
 70
0
 71
3
 72
9
 73
5
 74
0
 42
0.0000001
 43
0.0000001
 44
0.0000000001
 40
0.0
 40
0.0
 40
0.0
 40
0.0
 40
0.4816202791
 40
1.0
 40
1.0
 40
1.0
 40
1.0
 10
16.7661005345
 20
13.5114280497
 30
0.0
 10
16.7555844864
 20
13.5257571302
 30
0.0
 10
16.7314711728
 20
13.5538681084
 30
0.0
 10
16.7040840103
 20
13.5787354934
 30
0.0
 10
16.6892637901
 20
13.5908323748
 30
0.0
  0
SPLINE
  5
2DD
100
AcDbEntity
  8
0
100
AcDbSpline
 62
7
  6
CONTINUOUS
 70
0
 71
3
 72
11
 73
7
 74
0
 42
0.0000001
 43
0.0000001
 44
0.0000000001
 40
0.0
 40
0.0
 40
0.0
 40
0.0
 40
0.2476652128
 40
0.5055533591
 40
0.7605521817
 40
1.0
 40
1.0
 40
1.0
 40
1.0
 10
16.5587078274
 20
13.6361820334
 30
0.0
 10
16.5703104887
 20
13.6361820334
 30
0.0
 10
16.5940264734
 20
13.6339117025
 30
0.0
 10
16.6286288617
 20
13.624853209
 30
0.0
 10
16.6610575334
 20
13.6106943833
 30
0.0
 10
16.6805735186
 20
13.5979257367
 30
0.0
 10
16.6892637901
 20
13.5908323748
 30
0.0
  0
SPLINE
  5
2DE
100
AcDbEntity
  8
0
100
AcDbSpline
 62
7
  6
CONTINUOUS
 70
0
 71
3
 72
13
 73
9
 74
0
 42
0.0000001
 43
0.0000001
 44
0.0000000001
 40
0.0
 40
0.0
 40
0.0
 40
0.0
 40
0.0997724167
 40
0.2031216397
 40
0.3129402347
 40
0.4313511405
 40
0.6968632552
 40
1.0
 40
1.0
 40
1.0
 40
1.0
 10
14.6735004112
 20
13.5933521576
 30
0.0
 10
14.6744997162
 20
13.5965825268
 30
0.0
 10
14.6773297683
 20
13.6029394649
 30
0.0
 10
14.6837838282
 20
13.6114567436
 30
0.0
 10
14.6923136744
 20
13.6188810469
 30
0.0
 10
14.7067504267
 20
13.6274853793
 30
0.0
 10
14.7292474715
 20
13.6345591722
 30
0.0
 10
14.7485778771
 20
13.6361820334
 30
0.0
 10
14.7588515374
 20
13.6361820334
 30
0.0
  0
SPLINE
  5
2DF
100
AcDbEntity
  8
0
100
AcDbSpline
 62
7
  6
CONTINUOUS
 70
0
 71
3
 72
9
 73
5
 74
0
 42
0.0000001
 43
0.0000001
 44
0.0000000001
 40
0.0
 40
0.0
 40
0.0
 40
0.0
 40
0.4816193489
 40
1.0
 40
1.0
 40
1.0
 40
1.0
 10
16.1859046328
 20
13.5114280497
 30
0.0
 10
16.1753886049
 20
13.5257571025
 30
0.0
 10
16.1512752957
 20
13.5538680838
 30
0.0
 10
16.1238881351
 20
13.5787354716
 30
0.0
 10
16.1090678884
 20
13.5908323748
 30
0.0
  0
SPLINE
  5
2E0
100
AcDbEntity
  8
0
100
AcDbSpline
 62
7
  6
CONTINUOUS
 70
0
 71
3
 72
11
 73
7
 74
0
 42
0.0000001
 43
0.0000001
 44
0.0000000001
 40
0.0
 40
0.0
 40
0.0
 40
0.0
 40
0.2476652128
 40
0.5055533591
 40
0.7605521817
 40
1.0
 40
1.0
 40
1.0
 40
1.0
 10
15.9785119256
 20
13.6361820334
 30
0.0
 10
15.9901145869
 20
13.6361820334
 30
0.0
 10
16.0138305717
 20
13.6339117025
 30
0.0
 10
16.0484329599
 20
13.624853209
 30
0.0
 10
16.0808616316
 20
13.6106943833
 30
0.0
 10
16.1003776169
 20
13.5979257367
 30
0.0
 10
16.1090678884
 20
13.5908323748
 30
0.0
  0
SPLINE
  5
2E1
100
AcDbEntity
  8
0
100
AcDbSpline
 62
7
  6
CONTINUOUS
 70
0
 71
3
 72
9
 73
5
 74
0
 42
0.0000001
 43
0.0000001
 44
0.0000000001
 40
0.0
 40
0.0
 40
0.0
 40
0.0
 40
0.4816193489
 40
1.0
 40
1.0
 40
1.0
 40
1.0
 10
15.6057087311
 20
13.5114280497
 30
0.0
 10
15.5951927032
 20
13.5257571025
 30
0.0
 10
15.571079394
 20
13.5538680838
 30
0.0
 10
15.5436922334
 20
13.5787354716
 30
0.0
 10
15.5288719867
 20
13.5908323748
 30
0.0
  0
SPLINE
  5
2E2
100
AcDbEntity
  8
0
100
AcDbSpline
 62
7
  6
CONTINUOUS
 70
0
 71
3
 72
11
 73
7
 74
0
 42
0.0000001
 43
0.0000001
 44
0.0000000001
 40
0.0
 40
0.0
 40
0.0
 40
0.0
 40
0.2476652128
 40
0.5055533591
 40
0.7605521817
 40
1.0
 40
1.0
 40
1.0
 40
1.0
 10
15.3983160239
 20
13.6361820334
 30
0.0
 10
15.4099186852
 20
13.6361820334
 30
0.0
 10
15.43363467
 20
13.6339117025
 30
0.0
 10
15.4682370582
 20
13.624853209
 30
0.0
 10
15.5006657299
 20
13.6106943833
 30
0.0
 10
15.5201817151
 20
13.5979257367
 30
0.0
 10
15.5288719867
 20
13.5908323748
 30
0.0
  0
SPLINE
  5
2E3
100
AcDbEntity
  8
0
100
AcDbSpline
 62
7
  6
CONTINUOUS
 70
0
 71
3
 72
13
 73
9
 74
0
 42
0.0000001
 43
0.0000001
 44
0.0000000001
 40
0.0
 40
0.0
 40
0.0
 40
0.0
 40
0.0997724167
 40
0.2031216397
 40
0.3129402347
 40
0.4313511405
 40
0.6968632552
 40
1.0
 40
1.0
 40
1.0
 40
1.0
 10
15.253696313
 20
13.5933521576
 30
0.0
 10
15.254695618
 20
13.5965825268
 30
0.0
 10
15.25752567
 20
13.6029394649
 30
0.0
 10
15.26397973
 20
13.6114567436
 30
0.0
 10
15.2725095761
 20
13.6188810469
 30
0.0
 10
15.2869463285
 20
13.6274853793
 30
0.0
 10
15.3094433732
 20
13.6345591722
 30
0.0
 10
15.3287737788
 20
13.6361820334
 30
0.0
 10
15.3390474391
 20
13.6361820334
 30
0.0
  0
SPLINE
  5
2E4
100
AcDbEntity
  8
0
100
AcDbSpline
 62
7
  6
CONTINUOUS
 70
0
 71
3
 72
9
 73
5
 74
0
 42
0.0000001
 43
0.0000001
 44
0.0000000001
 40
0.0
 40
0.0
 40
0.0
 40
0.0
 40
0.4816193489
 40
1.0
 40
1.0
 40
1.0
 40
1.0
 10
15.0255128293
 20
13.5114280497
 30
0.0
 10
15.0149968015
 20
13.5257571025
 30
0.0
 10
14.9908834922
 20
13.5538680838
 30
0.0
 10
14.9634963317
 20
13.5787354716
 30
0.0
 10
14.9486760849
 20
13.5908323748
 30
0.0
  0
SPLINE
  5
2E5
100
AcDbEntity
  8
0
100
AcDbSpline
 62
7
  6
CONTINUOUS
 70
0
 71
3
 72
11
 73
7
 74
0
 42
0.0000001
 43
0.0000001
 44
0.0000000001
 40
0.0
 40
0.0
 40
0.0
 40
0.0
 40
0.2476652128
 40
0.5055533591
 40
0.7605521817
 40
1.0
 40
1.0
 40
1.0
 40
1.0
 10
14.8181201222
 20
13.6361820334
 30
0.0
 10
14.8297227835
 20
13.6361820334
 30
0.0
 10
14.8534387682
 20
13.6339117025
 30
0.0
 10
14.8880411565
 20
13.624853209
 30
0.0
 10
14.9204698282
 20
13.6106943833
 30
0.0
 10
14.9399858134
 20
13.5979257367
 30
0.0
 10
14.9486760849
 20
13.5908323748
 30
0.0
  0
SPLINE
  5
2E6
100
AcDbEntity
  8
0
100
AcDbSpline
 62
7
  6
CONTINUOUS
 70
0
 71
3
 72
9
 73
5
 74
0
 42
0.0000001
 43
0.0000001
 44
0.0000000001
 40
0.0
 40
0.0
 40
0.0
 40
0.0
 40
0.4873570824
 40
1.0
 40
1.0
 40
1.0
 40
1.0
 10
14.1009941221
 20
11.7404538481
 30
0.0
 10
14.0979173926
 20
11.7278272184
 30
0.0
 10
14.0950418975
 20
11.7009812621
 30
0.0
 10
14.0988042529
 20
11.6743192988
 30
0.0
 10
14.102089344
 20
11.661049523
 30
0.0
  0
SPLINE
  5
2E7
100
AcDbEntity
  8
0
100
AcDbSpline
 62
7
  6
CONTINUOUS
 70
0
 71
3
 72
9
 73
5
 74
0
 42
0.0000001
 43
0.0000001
 44
0.0000000001
 40
0.0
 40
0.0
 40
0.0
 40
0.0
 40
0.4873570824
 40
1.0
 40
1.0
 40
1.0
 40
1.0
 10
14.6811900238
 20
11.7404538481
 30
0.0
 10
14.6781132944
 20
11.7278272184
 30
0.0
 10
14.6752377992
 20
11.7009812621
 30
0.0
 10
14.6790001546
 20
11.6743192988
 30
0.0
 10
14.6822852457
 20
11.661049523
 30
0.0
  0
SPLINE
  5
2E8
100
AcDbEntity
  8
0
100
AcDbSpline
 62
7
  6
CONTINUOUS
 70
0
 71
3
 72
9
 73
5
 74
0
 42
0.0000001
 43
0.0000001
 44
0.0000000001
 40
0.0
 40
0.0
 40
0.0
 40
0.0
 40
0.4873570824
 40
1.0
 40
1.0
 40
1.0
 40
1.0
 10
15.2613859256
 20
11.7404538481
 30
0.0
 10
15.2583091961
 20
11.7278272184
 30
0.0
 10
15.2554337009
 20
11.7009812621
 30
0.0
 10
15.2591960563
 20
11.6743192988
 30
0.0
 10
15.2624811475
 20
11.661049523
 30
0.0
  0
SPLINE
  5
2E9
100
AcDbEntity
  8
0
100
AcDbSpline
 62
7
  6
CONTINUOUS
 70
0
 71
3
 72
9
 73
5
 74
0
 42
0.0000001
 43
0.0000001
 44
0.0000000001
 40
0.0
 40
0.0
 40
0.0
 40
0.0
 40
0.4873561617
 40
1.0
 40
1.0
 40
1.0
 40
1.0
 10
15.8415818273
 20
11.7404538481
 30
0.0
 10
15.8385051036
 20
11.7278272422
 30
0.0
 10
15.8356296016
 20
11.7009812881
 30
0.0
 10
15.8393919522
 20
11.6743193226
 30
0.0
 10
15.8426770492
 20
11.661049523
 30
0.0
  0
SPLINE
  5
2EA
100
AcDbEntity
  8
0
100
AcDbSpline
 62
7
  6
CONTINUOUS
 70
0
 71
3
 72
9
 73
5
 74
0
 42
0.0000001
 43
0.0000001
 44
0.0000000001
 40
0.0
 40
0.0
 40
0.0
 40
0.0
 40
0.4873559464
 40
1.0
 40
1.0
 40
1.0
 40
1.0
 10
16.421777729
 20
11.7404538481
 30
0.0
 10
16.4187010057
 20
11.7278272437
 30
0.0
 10
16.4158252858
 20
11.7009812926
 30
0.0
 10
16.4195878514
 20
11.6743193326
 30
0.0
 10
16.4228729509
 20
11.661049523
 30
0.0
  0
SPLINE
  5
2EB
100
AcDbEntity
  8
0
100
AcDbSpline
 62
7
  6
CONTINUOUS
 70
0
 71
3
 72
13
 73
9
 74
0
 42
0.0000001
 43
0.0000001
 44
0.0000000001
 40
0.0
 40
0.0
 40
0.0
 40
0.0
 40
0.3031367448
 40
0.5686488595
 40
0.6870597653
 40
0.7968783603
 40
0.9002275833
 40
1.0
 40
1.0
 40
1.0
 40
1.0
 10
16.7635693013
 20
11.3854279524
 30
0.0
 10
16.7738429616
 20
11.3854279524
 30
0.0
 10
16.7931733672
 20
11.3870508136
 30
0.0
 10
16.8156704119
 20
11.3941246065
 30
0.0
 10
16.8301071643
 20
11.4027289389
 30
0.0
 10
16.8386370104
 20
11.4101532422
 30
0.0
 10
16.8450910704
 20
11.4186705209
 30
0.0
 10
16.8479211224
 20
11.425027459
 30
0.0
 10
16.8489204275
 20
11.4282578282
 30
0.0
  0
SPLINE
  5
2EC
100
AcDbEntity
  8
0
100
AcDbSpline
 62
7
  6
CONTINUOUS
 70
0
 71
3
 72
11
 73
7
 74
0
 42
0.0000001
 43
0.0000001
 44
0.0000000001
 40
0.0
 40
0.0
 40
0.0
 40
0.0
 40
0.2394478183
 40
0.4944466409
 40
0.7523347872
 40
1.0
 40
1.0
 40
1.0
 40
1.0
 10
16.5737447538
 20
11.430777611
 30
0.0
 10
16.5824350253
 20
11.4236842492
 30
0.0
 10
16.6019510105
 20
11.4109156025
 30
0.0
 10
16.6343796822
 20
11.3967567768
 30
0.0
 10
16.6689820705
 20
11.3876982833
 30
0.0
 10
16.6926980552
 20
11.3854279524
 30
0.0
 10
16.7043007165
 20
11.3854279524
 30
0.0
  0
SPLINE
  5
2ED
100
AcDbEntity
  8
0
100
AcDbSpline
 62
7
  6
CONTINUOUS
 70
0
 71
3
 72
9
 73
5
 74
0
 42
0.0000001
 43
0.0000001
 44
0.0000000001
 40
0.0
 40
0.0
 40
0.0
 40
0.0
 40
0.4816198055
 40
1.0
 40
1.0
 40
1.0
 40
1.0
 10
16.4969080094
 20
11.5101819361
 30
0.0
 10
16.5074240481
 20
11.4958528684
 30
0.0
 10
16.5315372453
 20
11.4677417814
 30
0.0
 10
16.5589245187
 20
11.4428745046
 30
0.0
 10
16.5737447538
 20
11.430777611
 30
0.0
  0
SPLINE
  5
2EE
100
AcDbEntity
  8
0
100
AcDbSpline
 62
7
  6
CONTINUOUS
 70
0
 71
3
 72
13
 73
9
 74
0
 42
0.0000001
 43
0.0000001
 44
0.0000000001
 40
0.0
 40
0.0
 40
0.0
 40
0.0
 40
0.3031367448
 40
0.5686488595
 40
0.6870597653
 40
0.7968783603
 40
0.9002275833
 40
1.0
 40
1.0
 40
1.0
 40
1.0
 10
16.1833733996
 20
11.3854279524
 30
0.0
 10
16.1936470599
 20
11.3854279524
 30
0.0
 10
16.2129774654
 20
11.3870508136
 30
0.0
 10
16.2354745102
 20
11.3941246065
 30
0.0
 10
16.2499112626
 20
11.4027289389
 30
0.0
 10
16.2584411087
 20
11.4101532422
 30
0.0
 10
16.2648951686
 20
11.4186705209
 30
0.0
 10
16.2677252207
 20
11.425027459
 30
0.0
 10
16.2687245257
 20
11.4282578282
 30
0.0
  0
SPLINE
  5
2EF
100
AcDbEntity
  8
0
100
AcDbSpline
 62
7
  6
CONTINUOUS
 70
0
 71
3
 72
11
 73
7
 74
0
 42
0.0000001
 43
0.0000001
 44
0.0000000001
 40
0.0
 40
0.0
 40
0.0
 40
0.0
 40
0.2394478183
 40
0.4944466409
 40
0.7523347872
 40
1.0
 40
1.0
 40
1.0
 40
1.0
 10
15.993548852
 20
11.430777611
 30
0.0
 10
16.0022391235
 20
11.4236842492
 30
0.0
 10
16.0217551088
 20
11.4109156025
 30
0.0
 10
16.0541837805
 20
11.3967567768
 30
0.0
 10
16.0887861687
 20
11.3876982833
 30
0.0
 10
16.1125021535
 20
11.3854279524
 30
0.0
 10
16.1241048148
 20
11.3854279524
 30
0.0
  0
SPLINE
  5
2F0
100
AcDbEntity
  8
0
100
AcDbSpline
 62
7
  6
CONTINUOUS
 70
0
 71
3
 72
9
 73
5
 74
0
 42
0.0000001
 43
0.0000001
 44
0.0000000001
 40
0.0
 40
0.0
 40
0.0
 40
0.0
 40
0.4816202791
 40
1.0
 40
1.0
 40
1.0
 40
1.0
 10
15.9167121076
 20
11.5101819361
 30
0.0
 10
15.9272281558
 20
11.4958528556
 30
0.0
 10
15.9513414694
 20
11.4677418774
 30
0.0
 10
15.9787286319
 20
11.4428744925
 30
0.0
 10
15.993548852
 20
11.430777611
 30
0.0
  0
SPLINE
  5
2F1
100
AcDbEntity
  8
0
100
AcDbSpline
 62
7
  6
CONTINUOUS
 70
0
 71
3
 72
13
 73
9
 74
0
 42
0.0000001
 43
0.0000001
 44
0.0000000001
 40
0.0
 40
0.0
 40
0.0
 40
0.0
 40
0.3031367448
 40
0.5686488595
 40
0.6870597653
 40
0.7968783603
 40
0.9002275833
 40
1.0
 40
1.0
 40
1.0
 40
1.0
 10
15.6031774978
 20
11.3854279524
 30
0.0
 10
15.6134511581
 20
11.3854279524
 30
0.0
 10
15.6327815637
 20
11.3870508136
 30
0.0
 10
15.6552786085
 20
11.3941246065
 30
0.0
 10
15.6697153608
 20
11.4027289389
 30
0.0
 10
15.678245207
 20
11.4101532422
 30
0.0
 10
15.6846992669
 20
11.4186705209
 30
0.0
 10
15.687529319
 20
11.425027459
 30
0.0
 10
15.688528624
 20
11.4282578282
 30
0.0
  0
SPLINE
  5
2F2
100
AcDbEntity
  8
0
100
AcDbSpline
 62
7
  6
CONTINUOUS
 70
0
 71
3
 72
11
 73
7
 74
0
 42
0.0000001
 43
0.0000001
 44
0.0000000001
 40
0.0
 40
0.0
 40
0.0
 40
0.0
 40
0.2394478183
 40
0.4944466409
 40
0.7523347872
 40
1.0
 40
1.0
 40
1.0
 40
1.0
 10
15.4133529503
 20
11.430777611
 30
0.0
 10
15.4220432218
 20
11.4236842492
 30
0.0
 10
15.441559207
 20
11.4109156025
 30
0.0
 10
15.4739878787
 20
11.3967567768
 30
0.0
 10
15.508590267
 20
11.3876982833
 30
0.0
 10
15.5323062517
 20
11.3854279524
 30
0.0
 10
15.543908913
 20
11.3854279524
 30
0.0
  0
SPLINE
  5
2F3
100
AcDbEntity
  8
0
100
AcDbSpline
 62
7
  6
CONTINUOUS
 70
0
 71
3
 72
9
 73
5
 74
0
 42
0.0000001
 43
0.0000001
 44
0.0000000001
 40
0.0
 40
0.0
 40
0.0
 40
0.0
 40
0.4816193489
 40
1.0
 40
1.0
 40
1.0
 40
1.0
 10
15.3365162059
 20
11.5101819361
 30
0.0
 10
15.3470322337
 20
11.4958528833
 30
0.0
 10
15.371145543
 20
11.4677419021
 30
0.0
 10
15.3985327035
 20
11.4428745142
 30
0.0
 10
15.4133529503
 20
11.430777611
 30
0.0
  0
SPLINE
  5
2F4
100
AcDbEntity
  8
0
100
AcDbSpline
 62
7
  6
CONTINUOUS
 70
0
 71
3
 72
13
 73
9
 74
0
 42
0.0000001
 43
0.0000001
 44
0.0000000001
 40
0.0
 40
0.0
 40
0.0
 40
0.0
 40
0.3031367448
 40
0.5686488595
 40
0.6870597653
 40
0.7968783603
 40
0.9002275833
 40
1.0
 40
1.0
 40
1.0
 40
1.0
 10
15.0229815961
 20
11.3854279524
 30
0.0
 10
15.0332552564
 20
11.3854279524
 30
0.0
 10
15.052585662
 20
11.3870508136
 30
0.0
 10
15.0750827067
 20
11.3941246065
 30
0.0
 10
15.0895194591
 20
11.4027289389
 30
0.0
 10
15.0980493052
 20
11.4101532422
 30
0.0
 10
15.1045033652
 20
11.4186705209
 30
0.0
 10
15.1073334172
 20
11.425027459
 30
0.0
 10
15.1083327223
 20
11.4282578282
 30
0.0
  0
SPLINE
  5
2F5
100
AcDbEntity
  8
0
100
AcDbSpline
 62
7
  6
CONTINUOUS
 70
0
 71
3
 72
11
 73
7
 74
0
 42
0.0000001
 43
0.0000001
 44
0.0000000001
 40
0.0
 40
0.0
 40
0.0
 40
0.0
 40
0.2394478183
 40
0.4944466409
 40
0.7523347872
 40
1.0
 40
1.0
 40
1.0
 40
1.0
 10
14.8331570486
 20
11.430777611
 30
0.0
 10
14.8418473201
 20
11.4236842492
 30
0.0
 10
14.8613633053
 20
11.4109156025
 30
0.0
 10
14.893791977
 20
11.3967567768
 30
0.0
 10
14.9283943653
 20
11.3876982833
 30
0.0
 10
14.95211035
 20
11.3854279524
 30
0.0
 10
14.9637130113
 20
11.3854279524
 30
0.0
  0
SPLINE
  5
2F6
100
AcDbEntity
  8
0
100
AcDbSpline
 62
7
  6
CONTINUOUS
 70
0
 71
3
 72
9
 73
5
 74
0
 42
0.0000001
 43
0.0000001
 44
0.0000000001
 40
0.0
 40
0.0
 40
0.0
 40
0.0
 40
0.4816193489
 40
1.0
 40
1.0
 40
1.0
 40
1.0
 10
14.7563203042
 20
11.5101819361
 30
0.0
 10
14.766836332
 20
11.4958528833
 30
0.0
 10
14.7909496413
 20
11.4677419021
 30
0.0
 10
14.8183368018
 20
11.4428745142
 30
0.0
 10
14.8331570486
 20
11.430777611
 30
0.0
  0
SPLINE
  5
2F7
100
AcDbEntity
  8
0
100
AcDbSpline
 62
7
  6
CONTINUOUS
 70
0
 71
3
 72
13
 73
9
 74
0
 42
0.0000001
 43
0.0000001
 44
0.0000000001
 40
0.0
 40
0.0
 40
0.0
 40
0.0
 40
0.3031367448
 40
0.5686488595
 40
0.6870597653
 40
0.7968783603
 40
0.9002275833
 40
1.0
 40
1.0
 40
1.0
 40
1.0
 10
14.4427856944
 20
11.3854279524
 30
0.0
 10
14.4530593547
 20
11.3854279524
 30
0.0
 10
14.4723897602
 20
11.3870508136
 30
0.0
 10
14.494886805
 20
11.3941246065
 30
0.0
 10
14.5093235573
 20
11.4027289389
 30
0.0
 10
14.5178534035
 20
11.4101532422
 30
0.0
 10
14.5243074634
 20
11.4186705209
 30
0.0
 10
14.5271375155
 20
11.425027459
 30
0.0
 10
14.5281368205
 20
11.4282578282
 30
0.0
  0
SPLINE
  5
2F8
100
AcDbEntity
  8
0
100
AcDbSpline
 62
7
  6
CONTINUOUS
 70
0
 71
3
 72
11
 73
7
 74
0
 42
0.0000001
 43
0.0000001
 44
0.0000000001
 40
0.0
 40
0.0
 40
0.0
 40
0.0
 40
0.2394478183
 40
0.4944466409
 40
0.7523347872
 40
1.0
 40
1.0
 40
1.0
 40
1.0
 10
14.2529611468
 20
11.430777611
 30
0.0
 10
14.2616514183
 20
11.4236842492
 30
0.0
 10
14.2811674036
 20
11.4109156025
 30
0.0
 10
14.3135960753
 20
11.3967567768
 30
0.0
 10
14.3481984635
 20
11.3876982833
 30
0.0
 10
14.3719144483
 20
11.3854279524
 30
0.0
 10
14.3835171096
 20
11.3854279524
 30
0.0
  0
SPLINE
  5
2F9
100
AcDbEntity
  8
0
100
AcDbSpline
 62
7
  6
CONTINUOUS
 70
0
 71
3
 72
9
 73
5
 74
0
 42
0.0000001
 43
0.0000001
 44
0.0000000001
 40
0.0
 40
0.0
 40
0.0
 40
0.0
 40
0.4816193489
 40
1.0
 40
1.0
 40
1.0
 40
1.0
 10
14.1761244024
 20
11.5101819361
 30
0.0
 10
14.1866404303
 20
11.4958528833
 30
0.0
 10
14.2107537395
 20
11.4677419021
 30
0.0
 10
14.2381409001
 20
11.4428745142
 30
0.0
 10
14.2529611468
 20
11.430777611
 30
0.0
  0
SPLINE
  5
2FA
100
AcDbEntity
  8
0
100
AcDbSpline
 62
7
  6
CONTINUOUS
 70
0
 71
3
 72
13
 73
9
 74
0
 42
0.0000001
 43
0.0000001
 44
0.0000000001
 40
0.0
 40
0.0
 40
0.0
 40
0.0
 40
0.3031367448
 40
0.5686488595
 40
0.6870597653
 40
0.7968783603
 40
0.9002275833
 40
1.0
 40
1.0
 40
1.0
 40
1.0
 10
13.8625897926
 20
11.3854279524
 30
0.0
 10
13.8728634529
 20
11.3854279524
 30
0.0
 10
13.8921938585
 20
11.3870508136
 30
0.0
 10
13.9146909033
 20
11.3941246065
 30
0.0
 10
13.9291276556
 20
11.4027289389
 30
0.0
 10
13.9376575018
 20
11.4101532422
 30
0.0
 10
13.9441115617
 20
11.4186705209
 30
0.0
 10
13.9469416138
 20
11.425027459
 30
0.0
 10
13.9479409188
 20
11.4282578282
 30
0.0
  0
SPLINE
  5
2FB
100
AcDbEntity
  8
0
100
AcDbSpline
 62
7
  6
CONTINUOUS
 70
0
 71
3
 72
11
 73
7
 74
0
 42
0.0000001
 43
0.0000001
 44
0.0000000001
 40
0.0
 40
0.0
 40
0.0
 40
0.0
 40
0.2394478183
 40
0.4944466409
 40
0.7523347872
 40
1.0
 40
1.0
 40
1.0
 40
1.0
 10
13.6727652451
 20
11.430777611
 30
0.0
 10
13.6814555166
 20
11.4236842492
 30
0.0
 10
13.7009715018
 20
11.4109156025
 30
0.0
 10
13.7334001735
 20
11.3967567768
 30
0.0
 10
13.7680025618
 20
11.3876982833
 30
0.0
 10
13.7917185465
 20
11.3854279524
 30
0.0
 10
13.8033212078
 20
11.3854279524
 30
0.0
  0
SPLINE
  5
2FC
100
AcDbEntity
  8
0
100
AcDbSpline
 62
7
  6
CONTINUOUS
 70
0
 71
3
 72
9
 73
5
 74
0
 42
0.0000001
 43
0.0000001
 44
0.0000000001
 40
0.0
 40
0.0
 40
0.0
 40
0.0
 40
0.4816193489
 40
1.0
 40
1.0
 40
1.0
 40
1.0
 10
13.5959285007
 20
11.5101819361
 30
0.0
 10
13.6064445285
 20
11.4958528833
 30
0.0
 10
13.6305578378
 20
11.4677419021
 30
0.0
 10
13.6579449983
 20
11.4428745142
 30
0.0
 10
13.6727652451
 20
11.430777611
 30
0.0
  0
SPLINE
  5
2FD
100
AcDbEntity
  8
0
100
AcDbSpline
 62
7
  6
CONTINUOUS
 70
0
 71
3
 72
9
 73
5
 74
0
 42
0.0000001
 43
0.0000001
 44
0.0000000001
 40
0.0
 40
0.0
 40
0.0
 40
0.0
 40
0.4873570824
 40
1.0
 40
1.0
 40
1.0
 40
1.0
 10
13.5207982204
 20
11.7404538481
 30
0.0
 10
13.5177214909
 20
11.7278272184
 30
0.0
 10
13.5148459957
 20
11.7009812621
 30
0.0
 10
13.5186083511
 20
11.6743192988
 30
0.0
 10
13.5218934423
 20
11.661049523
 30
0.0
  0
SPLINE
  5
2FE
100
AcDbEntity
  8
0
100
AcDbSpline
 62
7
  6
CONTINUOUS
 70
0
 71
3
 72
13
 73
9
 74
0
 42
0.0000001
 43
0.0000001
 44
0.0000000001
 40
0.0
 40
0.0
 40
0.0
 40
0.0
 40
0.0997724167
 40
0.2031216397
 40
0.3129402347
 40
0.4313511405
 40
0.6968632552
 40
1.0
 40
1.0
 40
1.0
 40
1.0
 10
15.8338922147
 20
13.5933521576
 30
0.0
 10
15.8348915197
 20
13.5965825268
 30
0.0
 10
15.8377215718
 20
13.6029394649
 30
0.0
 10
15.8441756317
 20
13.6114567436
 30
0.0
 10
15.8527054779
 20
13.6188810469
 30
0.0
 10
15.8671422302
 20
13.6274853793
 30
0.0
 10
15.889639275
 20
13.6345591722
 30
0.0
 10
15.9089696806
 20
13.6361820334
 30
0.0
 10
15.9192433409
 20
13.6361820334
 30
0.0
  0
SPLINE
  5
2FF
100
AcDbEntity
  8
0
100
AcDbSpline
 62
7
  6
CONTINUOUS
 70
0
 71
3
 72
13
 73
9
 74
0
 42
0.0000001
 43
0.0000001
 44
0.0000000001
 40
0.0
 40
0.0
 40
0.0
 40
0.0
 40
0.0997724167
 40
0.2031216397
 40
0.3129402347
 40
0.4313511405
 40
0.6968632552
 40
1.0
 40
1.0
 40
1.0
 40
1.0
 10
16.4140881164
 20
13.5933521576
 30
0.0
 10
16.4150874214
 20
13.5965825268
 30
0.0
 10
16.4179174735
 20
13.6029394649
 30
0.0
 10
16.4243715334
 20
13.6114567436
 30
0.0
 10
16.4329013796
 20
13.6188810469
 30
0.0
 10
16.447338132
 20
13.6274853793
 30
0.0
 10
16.4698351767
 20
13.6345591722
 30
0.0
 10
16.4891655823
 20
13.6361820334
 30
0.0
 10
16.4994392426
 20
13.6361820334
 30
0.0
  0
SPLINE
  5
300
100
AcDbEntity
  8
0
100
AcDbSpline
 62
7
  6
CONTINUOUS
 70
0
 71
3
 72
13
 73
9
 74
0
 42
0.0000001
 43
0.0000001
 44
0.0000000001
 40
0.0
 40
0.0
 40
0.0
 40
0.0
 40
0.0997724167
 40
0.2031216397
 40
0.3129402347
 40
0.4313511405
 40
0.6968632552
 40
1.0
 40
1.0
 40
1.0
 40
1.0
 10
16.9942840182
 20
13.5933521576
 30
0.0
 10
16.9952833232
 20
13.5965825268
 30
0.0
 10
16.9981133752
 20
13.6029394649
 30
0.0
 10
17.0045674352
 20
13.6114567436
 30
0.0
 10
17.0130972813
 20
13.6188810469
 30
0.0
 10
17.0275340337
 20
13.6274853793
 30
0.0
 10
17.0500310784
 20
13.6345591722
 30
0.0
 10
17.069361484
 20
13.6361820334
 30
0.0
 10
17.0796351443
 20
13.6361820334
 30
0.0
  0
SPLINE
  5
301
100
AcDbEntity
  8
0
100
AcDbSpline
 62
7
  6
CONTINUOUS
 70
0
 71
3
 72
11
 73
7
 74
0
 42
0.0000001
 43
0.0000001
 44
0.0000000001
 40
0.0
 40
0.0
 40
0.0
 40
0.0
 40
0.2575925283
 40
0.5240194709
 40
0.7775848616
 40
1.0
 40
1.0
 40
1.0
 40
1.0
 10
13.4940435121
 20
11.5557588728
 30
0.0
 10
13.5039142147
 20
11.5557588728
 30
0.0
 10
13.5240300814
 20
11.5533204037
 30
0.0
 10
13.5525054238
 20
11.5439403442
 30
0.0
 10
13.5773881789
 20
11.5297741126
 30
0.0
 10
13.5908859514
 20
11.5170528723
 30
0.0
 10
13.5959285007
 20
11.5101819361
 30
0.0
  0
SPLINE
  5
302
100
AcDbEntity
  8
0
100
AcDbSpline
 62
7
  6
CONTINUOUS
 70
0
 71
3
 72
11
 73
7
 74
0
 42
0.0000001
 43
0.0000001
 44
0.0000000001
 40
0.0
 40
0.0
 40
0.0
 40
0.0
 40
0.2224151384
 40
0.4759805291
 40
0.7424074717
 40
1.0
 40
1.0
 40
1.0
 40
1.0
 10
14.4453169276
 20
13.5114280497
 30
0.0
 10
14.4503594769
 20
13.5045571136
 30
0.0
 10
14.4638572494
 20
13.4918358732
 30
0.0
 10
14.4887400045
 20
13.4776696416
 30
0.0
 10
14.5172153468
 20
13.4682895821
 30
0.0
 10
14.5373312136
 20
13.465851113
 30
0.0
 10
14.5472019162
 20
13.465851113
 30
0.0
  0
SPLINE
  5
303
100
AcDbEntity
  8
0
100
AcDbSpline
 62
7
  6
CONTINUOUS
 70
0
 71
3
 72
9
 73
5
 74
0
 42
0.0000001
 43
0.0000001
 44
0.0000000001
 40
0.0
 40
0.0
 40
0.0
 40
0.0
 40
0.5127289368
 40
1.0
 40
1.0
 40
1.0
 40
1.0
 10
13.5218934423
 20
11.661049523
 30
0.0
 10
13.5225992898
 20
11.6581983271
 30
0.0
 10
13.5233417263
 20
11.6524463992
 30
0.0
 10
13.5224655535
 20
11.6466927204
 30
0.0
 10
13.5216412075
 20
11.64402579
 30
0.0
  0
SPLINE
  5
304
100
AcDbEntity
  8
0
100
AcDbSpline
 62
7
  6
CONTINUOUS
 70
0
 71
3
 72
9
 73
5
 74
0
 42
0.0000001
 43
0.0000001
 44
0.0000000001
 40
0.0
 40
0.0
 40
0.0
 40
0.0
 40
0.2583565811
 40
1.0
 40
1.0
 40
1.0
 40
1.0
 10
14.0365504904
 20
13.465851113
 30
0.0
 10
14.0380900413
 20
13.465851113
 30
0.0
 10
14.0440478617
 20
13.4659676059
 30
0.0
 10
14.0500013271
 20
13.4665544118
 30
0.0
 10
14.0543562573
 20
13.4673069077
 30
0.0
  0
SPLINE
  5
305
100
AcDbEntity
  8
0
100
AcDbSpline
 62
7
  6
CONTINUOUS
 70
0
 71
3
 72
11
 73
7
 74
0
 42
0.0000001
 43
0.0000001
 44
0.0000000001
 40
0.0
 40
0.0
 40
0.0
 40
0.0
 40
0.2575925283
 40
0.5240194709
 40
0.7775848616
 40
1.0
 40
1.0
 40
1.0
 40
1.0
 10
14.0742394138
 20
11.5557588728
 30
0.0
 10
14.0841101164
 20
11.5557588728
 30
0.0
 10
14.1042259832
 20
11.5533204037
 30
0.0
 10
14.1327013255
 20
11.5439403442
 30
0.0
 10
14.1575840807
 20
11.5297741126
 30
0.0
 10
14.1710818531
 20
11.5170528723
 30
0.0
 10
14.1761244024
 20
11.5101819361
 30
0.0
  0
SPLINE
  5
306
100
AcDbEntity
  8
0
100
AcDbSpline
 62
7
  6
CONTINUOUS
 70
0
 71
3
 72
11
 73
7
 74
0
 42
0.0000001
 43
0.0000001
 44
0.0000000001
 40
0.0
 40
0.0
 40
0.0
 40
0.0
 40
0.2224151384
 40
0.4759805291
 40
0.7424074717
 40
1.0
 40
1.0
 40
1.0
 40
1.0
 10
15.0255128293
 20
13.5114280497
 30
0.0
 10
15.0305553786
 20
13.5045571136
 30
0.0
 10
15.0440531511
 20
13.4918358732
 30
0.0
 10
15.0689359062
 20
13.4776696416
 30
0.0
 10
15.0974112486
 20
13.4682895821
 30
0.0
 10
15.1175271153
 20
13.465851113
 30
0.0
 10
15.1273978179
 20
13.465851113
 30
0.0
  0
SPLINE
  5
307
100
AcDbEntity
  8
0
100
AcDbSpline
 62
7
  6
CONTINUOUS
 70
0
 71
3
 72
9
 73
5
 74
0
 42
0.0000001
 43
0.0000001
 44
0.0000000001
 40
0.0
 40
0.0
 40
0.0
 40
0.0
 40
0.5127289368
 40
1.0
 40
1.0
 40
1.0
 40
1.0
 10
14.102089344
 20
11.661049523
 30
0.0
 10
14.1027951915
 20
11.6581983271
 30
0.0
 10
14.1035376281
 20
11.6524463992
 30
0.0
 10
14.1026614552
 20
11.6466927204
 30
0.0
 10
14.1018371092
 20
11.64402579
 30
0.0
  0
SPLINE
  5
308
100
AcDbEntity
  8
0
100
AcDbSpline
 62
7
  6
CONTINUOUS
 70
0
 71
3
 72
9
 73
5
 74
0
 42
0.0000001
 43
0.0000001
 44
0.0000000001
 40
0.0
 40
0.0
 40
0.0
 40
0.0
 40
0.2583565811
 40
1.0
 40
1.0
 40
1.0
 40
1.0
 10
14.6167463922
 20
13.465851113
 30
0.0
 10
14.618285943
 20
13.465851113
 30
0.0
 10
14.6242437634
 20
13.4659676059
 30
0.0
 10
14.6301972289
 20
13.4665544118
 30
0.0
 10
14.634552159
 20
13.4673069077
 30
0.0
  0
SPLINE
  5
309
100
AcDbEntity
  8
0
100
AcDbSpline
 62
7
  6
CONTINUOUS
 70
0
 71
3
 72
11
 73
7
 74
0
 42
0.0000001
 43
0.0000001
 44
0.0000000001
 40
0.0
 40
0.0
 40
0.0
 40
0.0
 40
0.2575925283
 40
0.5240194709
 40
0.7775848616
 40
1.0
 40
1.0
 40
1.0
 40
1.0
 10
14.6544353156
 20
11.5557588728
 30
0.0
 10
14.6643060182
 20
11.5557588728
 30
0.0
 10
14.6844218849
 20
11.5533204037
 30
0.0
 10
14.7128972273
 20
11.5439403442
 30
0.0
 10
14.7377799824
 20
11.5297741126
 30
0.0
 10
14.7512777548
 20
11.5170528723
 30
0.0
 10
14.7563203042
 20
11.5101819361
 30
0.0
  0
SPLINE
  5
30A
100
AcDbEntity
  8
0
100
AcDbSpline
 62
7
  6
CONTINUOUS
 70
0
 71
3
 72
11
 73
7
 74
0
 42
0.0000001
 43
0.0000001
 44
0.0000000001
 40
0.0
 40
0.0
 40
0.0
 40
0.0
 40
0.2224151384
 40
0.4759805291
 40
0.7424074717
 40
1.0
 40
1.0
 40
1.0
 40
1.0
 10
15.6057087311
 20
13.5114280497
 30
0.0
 10
15.6107512804
 20
13.5045571136
 30
0.0
 10
15.6242490528
 20
13.4918358732
 30
0.0
 10
15.6491318079
 20
13.4776696416
 30
0.0
 10
15.6776071503
 20
13.4682895821
 30
0.0
 10
15.697723017
 20
13.465851113
 30
0.0
 10
15.7075937196
 20
13.465851113
 30
0.0
  0
SPLINE
  5
30B
100
AcDbEntity
  8
0
100
AcDbSpline
 62
7
  6
CONTINUOUS
 70
0
 71
3
 72
9
 73
5
 74
0
 42
0.0000001
 43
0.0000001
 44
0.0000000001
 40
0.0
 40
0.0
 40
0.0
 40
0.0
 40
0.5127289368
 40
1.0
 40
1.0
 40
1.0
 40
1.0
 10
14.6822852457
 20
11.661049523
 30
0.0
 10
14.6829910933
 20
11.6581983271
 30
0.0
 10
14.6837335298
 20
11.6524463992
 30
0.0
 10
14.6828573569
 20
11.6466927204
 30
0.0
 10
14.682033011
 20
11.64402579
 30
0.0
  0
SPLINE
  5
30C
100
AcDbEntity
  8
0
100
AcDbSpline
 62
7
  6
CONTINUOUS
 70
0
 71
3
 72
9
 73
5
 74
0
 42
0.0000001
 43
0.0000001
 44
0.0000000001
 40
0.0
 40
0.0
 40
0.0
 40
0.0
 40
0.2583565811
 40
1.0
 40
1.0
 40
1.0
 40
1.0
 10
15.1969422939
 20
13.465851113
 30
0.0
 10
15.1984818448
 20
13.465851113
 30
0.0
 10
15.2044396652
 20
13.4659676059
 30
0.0
 10
15.2103931306
 20
13.4665544118
 30
0.0
 10
15.2147480608
 20
13.4673069077
 30
0.0
  0
SPLINE
  5
30D
100
AcDbEntity
  8
0
100
AcDbSpline
 62
7
  6
CONTINUOUS
 70
0
 71
3
 72
11
 73
7
 74
0
 42
0.0000001
 43
0.0000001
 44
0.0000000001
 40
0.0
 40
0.0
 40
0.0
 40
0.0
 40
0.2575925283
 40
0.5240194709
 40
0.7775848616
 40
1.0
 40
1.0
 40
1.0
 40
1.0
 10
15.2346312173
 20
11.5557588728
 30
0.0
 10
15.2445019199
 20
11.5557588728
 30
0.0
 10
15.2646177866
 20
11.5533204037
 30
0.0
 10
15.293093129
 20
11.5439403442
 30
0.0
 10
15.3179758841
 20
11.5297741126
 30
0.0
 10
15.3314736566
 20
11.5170528723
 30
0.0
 10
15.3365162059
 20
11.5101819361
 30
0.0
  0
SPLINE
  5
30E
100
AcDbEntity
  8
0
100
AcDbSpline
 62
7
  6
CONTINUOUS
 70
0
 71
3
 72
11
 73
7
 74
0
 42
0.0000001
 43
0.0000001
 44
0.0000000001
 40
0.0
 40
0.0
 40
0.0
 40
0.0
 40
0.2224151384
 40
0.4759805291
 40
0.7424074717
 40
1.0
 40
1.0
 40
1.0
 40
1.0
 10
16.1859046328
 20
13.5114280497
 30
0.0
 10
16.1909471821
 20
13.5045571136
 30
0.0
 10
16.2044449546
 20
13.4918358732
 30
0.0
 10
16.2293277097
 20
13.4776696416
 30
0.0
 10
16.2578030521
 20
13.4682895821
 30
0.0
 10
16.2779189188
 20
13.465851113
 30
0.0
 10
16.2877896214
 20
13.465851113
 30
0.0
  0
SPLINE
  5
30F
100
AcDbEntity
  8
0
100
AcDbSpline
 62
7
  6
CONTINUOUS
 70
0
 71
3
 72
9
 73
5
 74
0
 42
0.0000001
 43
0.0000001
 44
0.0000000001
 40
0.0
 40
0.0
 40
0.0
 40
0.0
 40
0.5127289368
 40
1.0
 40
1.0
 40
1.0
 40
1.0
 10
15.2624811475
 20
11.661049523
 30
0.0
 10
15.263186995
 20
11.6581983271
 30
0.0
 10
15.2639294315
 20
11.6524463992
 30
0.0
 10
15.2630532587
 20
11.6466927204
 30
0.0
 10
15.2622289127
 20
11.64402579
 30
0.0
  0
SPLINE
  5
310
100
AcDbEntity
  8
0
100
AcDbSpline
 62
7
  6
CONTINUOUS
 70
0
 71
3
 72
9
 73
5
 74
0
 42
0.0000001
 43
0.0000001
 44
0.0000000001
 40
0.0
 40
0.0
 40
0.0
 40
0.0
 40
0.2583565811
 40
1.0
 40
1.0
 40
1.0
 40
1.0
 10
15.7771381956
 20
13.465851113
 30
0.0
 10
15.7786777465
 20
13.465851113
 30
0.0
 10
15.7846355669
 20
13.4659676059
 30
0.0
 10
15.7905890323
 20
13.4665544118
 30
0.0
 10
15.7949439625
 20
13.4673069077
 30
0.0
  0
SPLINE
  5
311
100
AcDbEntity
  8
0
100
AcDbSpline
 62
7
  6
CONTINUOUS
 70
0
 71
3
 72
11
 73
7
 74
0
 42
0.0000001
 43
0.0000001
 44
0.0000000001
 40
0.0
 40
0.0
 40
0.0
 40
0.0
 40
0.2575925283
 40
0.5240194709
 40
0.7775848616
 40
1.0
 40
1.0
 40
1.0
 40
1.0
 10
15.814827119
 20
11.5557588728
 30
0.0
 10
15.8246978216
 20
11.5557588728
 30
0.0
 10
15.8448136884
 20
11.5533204037
 30
0.0
 10
15.8732890308
 20
11.5439403442
 30
0.0
 10
15.8981717859
 20
11.5297741126
 30
0.0
 10
15.9116695583
 20
11.5170528723
 30
0.0
 10
15.9167121076
 20
11.5101819361
 30
0.0
  0
SPLINE
  5
312
100
AcDbEntity
  8
0
100
AcDbSpline
 62
7
  6
CONTINUOUS
 70
0
 71
3
 72
11
 73
7
 74
0
 42
0.0000001
 43
0.0000001
 44
0.0000000001
 40
0.0
 40
0.0
 40
0.0
 40
0.0
 40
0.2224151384
 40
0.4759805291
 40
0.7424074717
 40
1.0
 40
1.0
 40
1.0
 40
1.0
 10
16.7661005345
 20
13.5114280497
 30
0.0
 10
16.7711430838
 20
13.5045571136
 30
0.0
 10
16.7846408563
 20
13.4918358732
 30
0.0
 10
16.8095236114
 20
13.4776696416
 30
0.0
 10
16.8379989538
 20
13.4682895821
 30
0.0
 10
16.8581148205
 20
13.465851113
 30
0.0
 10
16.8679855231
 20
13.465851113
 30
0.0
  0
SPLINE
  5
313
100
AcDbEntity
  8
0
100
AcDbSpline
 62
7
  6
CONTINUOUS
 70
0
 71
3
 72
9
 73
5
 74
0
 42
0.0000001
 43
0.0000001
 44
0.0000000001
 40
0.0
 40
0.0
 40
0.0
 40
0.0
 40
0.5127289368
 40
1.0
 40
1.0
 40
1.0
 40
1.0
 10
15.8426770492
 20
11.661049523
 30
0.0
 10
15.8433828967
 20
11.6581983271
 30
0.0
 10
15.8441253333
 20
11.6524463992
 30
0.0
 10
15.8432491604
 20
11.6466927204
 30
0.0
 10
15.8424248144
 20
11.64402579
 30
0.0
  0
SPLINE
  5
314
100
AcDbEntity
  8
0
100
AcDbSpline
 62
7
  6
CONTINUOUS
 70
0
 71
3
 72
9
 73
5
 74
0
 42
0.0000001
 43
0.0000001
 44
0.0000000001
 40
0.0
 40
0.0
 40
0.0
 40
0.0
 40
0.2583565811
 40
1.0
 40
1.0
 40
1.0
 40
1.0
 10
16.3573340974
 20
13.465851113
 30
0.0
 10
16.3588736482
 20
13.465851113
 30
0.0
 10
16.3648314686
 20
13.4659676059
 30
0.0
 10
16.3707849341
 20
13.4665544118
 30
0.0
 10
16.3751398642
 20
13.4673069077
 30
0.0
  0
SPLINE
  5
315
100
AcDbEntity
  8
0
100
AcDbSpline
 62
7
  6
CONTINUOUS
 70
0
 71
3
 72
11
 73
7
 74
0
 42
0.0000001
 43
0.0000001
 44
0.0000000001
 40
0.0
 40
0.0
 40
0.0
 40
0.0
 40
0.2575925283
 40
0.5240194709
 40
0.7775848616
 40
1.0
 40
1.0
 40
1.0
 40
1.0
 10
16.3950230208
 20
11.5557588728
 30
0.0
 10
16.4048937234
 20
11.5557588728
 30
0.0
 10
16.4250095901
 20
11.5533204037
 30
0.0
 10
16.4534849325
 20
11.5439403442
 30
0.0
 10
16.4783676876
 20
11.5297741126
 30
0.0
 10
16.49186546
 20
11.5170528723
 30
0.0
 10
16.4969080094
 20
11.5101819361
 30
0.0
  0
SPLINE
  5
316
100
AcDbEntity
  8
0
100
AcDbSpline
 62
7
  6
CONTINUOUS
 70
0
 71
3
 72
11
 73
7
 74
0
 42
0.0000001
 43
0.0000001
 44
0.0000000001
 40
0.0
 40
0.0
 40
0.0
 40
0.0
 40
0.2224151384
 40
0.4759805291
 40
0.7424074717
 40
1.0
 40
1.0
 40
1.0
 40
1.0
 10
17.3462964363
 20
13.5114280497
 30
0.0
 10
17.3513389856
 20
13.5045571136
 30
0.0
 10
17.364836758
 20
13.4918358732
 30
0.0
 10
17.3897195131
 20
13.4776696416
 30
0.0
 10
17.4181948555
 20
13.4682895821
 30
0.0
 10
17.4383107222
 20
13.465851113
 30
0.0
 10
17.4481814248
 20
13.465851113
 30
0.0
  0
SPLINE
  5
317
100
AcDbEntity
  8
0
100
AcDbSpline
 62
7
  6
CONTINUOUS
 70
0
 71
3
 72
9
 73
5
 74
0
 42
0.0000001
 43
0.0000001
 44
0.0000000001
 40
0.0
 40
0.0
 40
0.0
 40
0.0
 40
0.5127289368
 40
1.0
 40
1.0
 40
1.0
 40
1.0
 10
16.4228729509
 20
11.661049523
 30
0.0
 10
16.4235787985
 20
11.6581983271
 30
0.0
 10
16.424321235
 20
11.6524463992
 30
0.0
 10
16.4234450622
 20
11.6466927204
 30
0.0
 10
16.4226207162
 20
11.64402579
 30
0.0
  0
SPLINE
  5
318
100
AcDbEntity
  8
0
100
AcDbSpline
 62
7
  6
CONTINUOUS
 70
0
 71
3
 72
9
 73
5
 74
0
 42
0.0000001
 43
0.0000001
 44
0.0000000001
 40
0.0
 40
0.0
 40
0.0
 40
0.0
 40
0.2583565811
 40
1.0
 40
1.0
 40
1.0
 40
1.0
 10
16.9375299991
 20
13.465851113
 30
0.0
 10
16.93906955
 20
13.465851113
 30
0.0
 10
16.9450273704
 20
13.4659676059
 30
0.0
 10
16.9509808358
 20
13.4665544118
 30
0.0
 10
16.955335766
 20
13.4673069077
 30
0.0
  0
SPLINE
  5
319
100
AcDbEntity
  8
0
100
AcDbSpline
 62
7
  6
CONTINUOUS
 70
0
 71
3
 72
9
 73
5
 74
0
 42
0.0000001
 43
0.0000001
 44
0.0000000001
 40
0.0
 40
0.0
 40
0.0
 40
0.0
 40
0.4873559464
 40
1.0
 40
1.0
 40
1.0
 40
1.0
 10
16.8496165038
 20
11.430777611
 30
0.0
 10
16.8526932271
 20
11.4434042155
 30
0.0
 10
16.8555689471
 20
11.4702501665
 30
0.0
 10
16.8518063814
 20
11.4969121265
 30
0.0
 10
16.8485212819
 20
11.5101819361
 30
0.0
  0
SPLINE
  5
31A
100
AcDbEntity
  8
0
100
AcDbSpline
 62
7
  6
CONTINUOUS
 70
0
 71
3
 72
12
 73
8
 74
0
 42
0.0000001
 43
0.0000001
 44
0.0000000001
 40
0.0
 40
0.0
 40
0.0
 40
0.0
 40
0.0998482132
 40
0.2032561568
 40
0.4308041567
 40
0.69657606
 40
1.0
 40
1.0
 40
1.0
 40
1.0
 10
15.8424248144
 20
11.64402579
 30
0.0
 10
15.8417591975
 20
11.641872381
 30
0.0
 10
15.8398733091
 20
11.6376350566
 30
0.0
 10
15.8339549193
 20
11.629826664
 30
0.0
 10
15.8225997467
 20
11.6219866105
 30
0.0
 10
15.805274072
 20
11.6165658336
 30
0.0
 10
15.7923732549
 20
11.6154725863
 30
0.0
 10
15.7855238846
 20
11.6154725863
 30
0.0
  0
SPLINE
  5
31B
100
AcDbEntity
  8
0
100
AcDbSpline
 62
7
  6
CONTINUOUS
 70
0
 71
3
 72
12
 73
8
 74
0
 42
0.0000001
 43
0.0000001
 44
0.0000000001
 40
0.0
 40
0.0
 40
0.0
 40
0.0
 40
0.0998482132
 40
0.2032561568
 40
0.4308041567
 40
0.69657606
 40
1.0
 40
1.0
 40
1.0
 40
1.0
 10
14.1018371092
 20
11.64402579
 30
0.0
 10
14.1011714923
 20
11.641872381
 30
0.0
 10
14.0992856039
 20
11.6376350566
 30
0.0
 10
14.0933672141
 20
11.629826664
 30
0.0
 10
14.0820120415
 20
11.6219866105
 30
0.0
 10
14.0646863668
 20
11.6165658336
 30
0.0
 10
14.0517855497
 20
11.6154725863
 30
0.0
 10
14.0449361794
 20
11.6154725863
 30
0.0
  0
SPLINE
  5
31C
100
AcDbEntity
  8
0
100
AcDbSpline
 62
7
  6
CONTINUOUS
 70
0
 71
3
 72
9
 73
5
 74
0
 42
0.0000001
 43
0.0000001
 44
0.0000000001
 40
0.0
 40
0.0
 40
0.0
 40
0.0
 40
0.4816193489
 40
1.0
 40
1.0
 40
1.0
 40
1.0
 10
13.8735067148
 20
11.661049523
 30
0.0
 10
13.862990687
 20
11.6753785759
 30
0.0
 10
13.8388773777
 20
11.7034895571
 30
0.0
 10
13.8114902172
 20
11.728356945
 30
0.0
 10
13.7966699704
 20
11.7404538481
 30
0.0
  0
SPLINE
  5
31D
100
AcDbEntity
  8
0
100
AcDbSpline
 62
7
  6
CONTINUOUS
 70
0
 71
3
 72
9
 73
5
 74
0
 42
0.0000001
 43
0.0000001
 44
0.0000000001
 40
0.0
 40
0.0
 40
0.0
 40
0.0
 40
0.4873561617
 40
1.0
 40
1.0
 40
1.0
 40
1.0
 10
16.2694206021
 20
11.430777611
 30
0.0
 10
16.2724973257
 20
11.4434042169
 30
0.0
 10
16.2753728278
 20
11.470250171
 30
0.0
 10
16.2716104772
 20
11.4969121365
 30
0.0
 10
16.2683253802
 20
11.5101819361
 30
0.0
  0
SPLINE
  5
31E
100
AcDbEntity
  8
0
100
AcDbSpline
 62
7
  6
CONTINUOUS
 70
0
 71
3
 72
12
 73
8
 74
0
 42
0.0000001
 43
0.0000001
 44
0.0000000001
 40
0.0
 40
0.0
 40
0.0
 40
0.0
 40
0.0998482132
 40
0.2032561568
 40
0.4308041567
 40
0.69657606
 40
1.0
 40
1.0
 40
1.0
 40
1.0
 10
14.682033011
 20
11.64402579
 30
0.0
 10
14.681367394
 20
11.641872381
 30
0.0
 10
14.6794815057
 20
11.6376350566
 30
0.0
 10
14.6735631159
 20
11.629826664
 30
0.0
 10
14.6622079432
 20
11.6219866105
 30
0.0
 10
14.6448822686
 20
11.6165658336
 30
0.0
 10
14.6319814515
 20
11.6154725863
 30
0.0
 10
14.6251320811
 20
11.6154725863
 30
0.0
  0
SPLINE
  5
31F
100
AcDbEntity
  8
0
100
AcDbSpline
 62
7
  6
CONTINUOUS
 70
0
 71
3
 72
13
 73
9
 74
0
 42
0.0000001
 43
0.0000001
 44
0.0000000001
 40
0.0
 40
0.0
 40
0.0
 40
0.0
 40
0.3031367448
 40
0.5686488595
 40
0.6870597653
 40
0.7968783603
 40
0.9002275833
 40
1.0
 40
1.0
 40
1.0
 40
1.0
 10
14.1870413246
 20
11.7858035068
 30
0.0
 10
14.1767676643
 20
11.7858035068
 30
0.0
 10
14.1574372587
 20
11.7841806455
 30
0.0
 10
14.134940214
 20
11.7771068526
 30
0.0
 10
14.1205034616
 20
11.7685025202
 30
0.0
 10
14.1119736155
 20
11.7610782169
 30
0.0
 10
14.1055195555
 20
11.7525609382
 30
0.0
 10
14.1026895035
 20
11.7462040001
 30
0.0
 10
14.1016901985
 20
11.742973631
 30
0.0
  0
SPLINE
  5
320
100
AcDbEntity
  8
0
100
AcDbSpline
 62
7
  6
CONTINUOUS
 70
0
 71
3
 72
11
 73
7
 74
0
 42
0.0000001
 43
0.0000001
 44
0.0000000001
 40
0.0
 40
0.0
 40
0.0
 40
0.0
 40
0.2394478183
 40
0.4944466409
 40
0.7523347872
 40
1.0
 40
1.0
 40
1.0
 40
1.0
 10
14.3768658721
 20
11.7404538481
 30
0.0
 10
14.3681756006
 20
11.74754721
 30
0.0
 10
14.3486596154
 20
11.7603158566
 30
0.0
 10
14.3162309437
 20
11.7744746824
 30
0.0
 10
14.2816285554
 20
11.7835331759
 30
0.0
 10
14.2579125707
 20
11.7858035068
 30
0.0
 10
14.2463099094
 20
11.7858035068
 30
0.0
  0
SPLINE
  5
321
100
AcDbEntity
  8
0
100
AcDbSpline
 62
7
  6
CONTINUOUS
 70
0
 71
3
 72
9
 73
5
 74
0
 42
0.0000001
 43
0.0000001
 44
0.0000000001
 40
0.0
 40
0.0
 40
0.0
 40
0.0
 40
0.4873570824
 40
1.0
 40
1.0
 40
1.0
 40
1.0
 10
15.6892247004
 20
11.430777611
 30
0.0
 10
15.6923014298
 20
11.4434042407
 30
0.0
 10
15.695176925
 20
11.470250197
 30
0.0
 10
15.6914145696
 20
11.4969121603
 30
0.0
 10
15.6881294784
 20
11.5101819361
 30
0.0
  0
SPLINE
  5
322
100
AcDbEntity
  8
0
100
AcDbSpline
 62
7
  6
CONTINUOUS
 70
0
 71
3
 72
9
 73
5
 74
0
 42
0.0000001
 43
0.0000001
 44
0.0000000001
 40
0.0
 40
0.0
 40
0.0
 40
0.0
 40
0.5127289368
 40
1.0
 40
1.0
 40
1.0
 40
1.0
 10
13.9475417732
 20
11.5101819361
 30
0.0
 10
13.9468359257
 20
11.513033132
 30
0.0
 10
13.9460934892
 20
11.5187850599
 30
0.0
 10
13.946969662
 20
11.5245387387
 30
0.0
 10
13.947794008
 20
11.5272056691
 30
0.0
  0
SPLINE
  5
323
100
AcDbEntity
  8
0
100
AcDbSpline
 62
7
  6
CONTINUOUS
 70
0
 71
3
 72
9
 73
5
 74
0
 42
0.0000001
 43
0.0000001
 44
0.0000000001
 40
0.0
 40
0.0
 40
0.0
 40
0.0
 40
0.4816193489
 40
1.0
 40
1.0
 40
1.0
 40
1.0
 10
14.4537026166
 20
11.661049523
 30
0.0
 10
14.4431865887
 20
11.6753785759
 30
0.0
 10
14.4190732794
 20
11.7034895571
 30
0.0
 10
14.3916861189
 20
11.728356945
 30
0.0
 10
14.3768658721
 20
11.7404538481
 30
0.0
  0
SPLINE
  5
324
100
AcDbEntity
  8
0
100
AcDbSpline
 62
7
  6
CONTINUOUS
 70
0
 71
3
 72
11
 73
7
 74
0
 42
0.0000001
 43
0.0000001
 44
0.0000000001
 40
0.0
 40
0.0
 40
0.0
 40
0.0
 40
0.2575925283
 40
0.5240194709
 40
0.7775848616
 40
1.0
 40
1.0
 40
1.0
 40
1.0
 10
13.9753917034
 20
11.6154725863
 30
0.0
 10
13.9655210008
 20
11.6154725863
 30
0.0
 10
13.9454051341
 20
11.6179110555
 30
0.0
 10
13.9169297917
 20
11.6272911149
 30
0.0
 10
13.8920470366
 20
11.6414573466
 30
0.0
 10
13.8785492641
 20
11.6541785869
 30
0.0
 10
13.8735067148
 20
11.661049523
 30
0.0
  0
SPLINE
  5
325
100
AcDbEntity
  8
0
100
AcDbSpline
 62
7
  6
CONTINUOUS
 70
0
 71
3
 72
12
 73
8
 74
0
 42
0.0000001
 43
0.0000001
 44
0.0000000001
 40
0.0
 40
0.0
 40
0.0
 40
0.0
 40
0.0998482132
 40
0.2032561568
 40
0.4308041567
 40
0.69657606
 40
1.0
 40
1.0
 40
1.0
 40
1.0
 10
13.5216412075
 20
11.64402579
 30
0.0
 10
13.5209755905
 20
11.641872381
 30
0.0
 10
13.5190897022
 20
11.6376350566
 30
0.0
 10
13.5131713124
 20
11.629826664
 30
0.0
 10
13.5018161398
 20
11.6219866105
 30
0.0
 10
13.4844904651
 20
11.6165658336
 30
0.0
 10
13.471589648
 20
11.6154725863
 30
0.0
 10
13.4647402777
 20
11.6154725863
 30
0.0
  0
SPLINE
  5
326
100
AcDbEntity
  8
0
100
AcDbSpline
 62
7
  6
CONTINUOUS
 70
0
 71
3
 72
13
 73
9
 74
0
 42
0.0000001
 43
0.0000001
 44
0.0000000001
 40
0.0
 40
0.0
 40
0.0
 40
0.0
 40
0.3031367448
 40
0.5686488595
 40
0.6870597653
 40
0.7968783603
 40
0.9002275833
 40
1.0
 40
1.0
 40
1.0
 40
1.0
 10
14.7672372263
 20
11.7858035068
 30
0.0
 10
14.756963566
 20
11.7858035068
 30
0.0
 10
14.7376331605
 20
11.7841806455
 30
0.0
 10
14.7151361157
 20
11.7771068526
 30
0.0
 10
14.7006993634
 20
11.7685025202
 30
0.0
 10
14.6921695172
 20
11.7610782169
 30
0.0
 10
14.6857154573
 20
11.7525609382
 30
0.0
 10
14.6828854052
 20
11.7462040001
 30
0.0
 10
14.6818861002
 20
11.742973631
 30
0.0
  0
SPLINE
  5
327
100
AcDbEntity
  8
0
100
AcDbSpline
 62
7
  6
CONTINUOUS
 70
0
 71
3
 72
9
 73
5
 74
0
 42
0.0000001
 43
0.0000001
 44
0.0000000001
 40
0.0
 40
0.0
 40
0.0
 40
0.0
 40
0.4873570824
 40
1.0
 40
1.0
 40
1.0
 40
1.0
 10
15.1090287986
 20
11.430777611
 30
0.0
 10
15.1121055281
 20
11.4434042407
 30
0.0
 10
15.1149810232
 20
11.470250197
 30
0.0
 10
15.1112186679
 20
11.4969121603
 30
0.0
 10
15.1079335767
 20
11.5101819361
 30
0.0
  0
SPLINE
  5
328
100
AcDbEntity
  8
0
100
AcDbSpline
 62
7
  6
CONTINUOUS
 70
0
 71
3
 72
11
 73
7
 74
0
 42
0.0000001
 43
0.0000001
 44
0.0000000001
 40
0.0
 40
0.0
 40
0.0
 40
0.0
 40
0.2394478183
 40
0.4944466409
 40
0.7523347872
 40
1.0
 40
1.0
 40
1.0
 40
1.0
 10
14.9570617739
 20
11.7404538481
 30
0.0
 10
14.9483715024
 20
11.74754721
 30
0.0
 10
14.9288555171
 20
11.7603158566
 30
0.0
 10
14.8964268454
 20
11.7744746824
 30
0.0
 10
14.8618244572
 20
11.7835331759
 30
0.0
 10
14.8381084724
 20
11.7858035068
 30
0.0
 10
14.8265058111
 20
11.7858035068
 30
0.0
  0
SPLINE
  5
329
100
AcDbEntity
  8
0
100
AcDbSpline
 62
7
  6
CONTINUOUS
 70
0
 71
3
 72
9
 73
5
 74
0
 42
0.0000001
 43
0.0000001
 44
0.0000000001
 40
0.0
 40
0.0
 40
0.0
 40
0.0
 40
0.5127289368
 40
1.0
 40
1.0
 40
1.0
 40
1.0
 10
14.527737675
 20
11.5101819361
 30
0.0
 10
14.5270318274
 20
11.513033132
 30
0.0
 10
14.5262893909
 20
11.5187850599
 30
0.0
 10
14.5271655638
 20
11.5245387387
 30
0.0
 10
14.5279899097
 20
11.5272056691
 30
0.0
  0
SPLINE
  5
32A
100
AcDbEntity
  8
0
100
AcDbSpline
 62
7
  6
CONTINUOUS
 70
0
 71
3
 72
9
 73
5
 74
0
 42
0.0000001
 43
0.0000001
 44
0.0000000001
 40
0.0
 40
0.0
 40
0.0
 40
0.0
 40
0.4816193489
 40
1.0
 40
1.0
 40
1.0
 40
1.0
 10
15.0338985183
 20
11.661049523
 30
0.0
 10
15.0233824904
 20
11.6753785759
 30
0.0
 10
14.9992691812
 20
11.7034895571
 30
0.0
 10
14.9718820206
 20
11.728356945
 30
0.0
 10
14.9570617739
 20
11.7404538481
 30
0.0
  0
SPLINE
  5
32B
100
AcDbEntity
  8
0
100
AcDbSpline
 62
7
  6
CONTINUOUS
 70
0
 71
3
 72
11
 73
7
 74
0
 42
0.0000001
 43
0.0000001
 44
0.0000000001
 40
0.0
 40
0.0
 40
0.0
 40
0.0
 40
0.2575925283
 40
0.5240194709
 40
0.7775848616
 40
1.0
 40
1.0
 40
1.0
 40
1.0
 10
14.5555876051
 20
11.6154725863
 30
0.0
 10
14.5457169025
 20
11.6154725863
 30
0.0
 10
14.5256010358
 20
11.6179110555
 30
0.0
 10
14.4971256934
 20
11.6272911149
 30
0.0
 10
14.4722429383
 20
11.6414573466
 30
0.0
 10
14.4587451659
 20
11.6541785869
 30
0.0
 10
14.4537026166
 20
11.661049523
 30
0.0
  0
SPLINE
  5
32C
100
AcDbEntity
  8
0
100
AcDbSpline
 62
7
  6
CONTINUOUS
 70
0
 71
3
 72
12
 73
8
 74
0
 42
0.0000001
 43
0.0000001
 44
0.0000000001
 40
0.0
 40
0.0
 40
0.0
 40
0.0
 40
0.0998482132
 40
0.2032561568
 40
0.4308041567
 40
0.69657606
 40
1.0
 40
1.0
 40
1.0
 40
1.0
 10
15.2622289127
 20
11.64402579
 30
0.0
 10
15.2615632957
 20
11.641872381
 30
0.0
 10
15.2596774074
 20
11.6376350566
 30
0.0
 10
15.2537590176
 20
11.629826664
 30
0.0
 10
15.242403845
 20
11.6219866105
 30
0.0
 10
15.2250781703
 20
11.6165658336
 30
0.0
 10
15.2121773532
 20
11.6154725863
 30
0.0
 10
15.2053279829
 20
11.6154725863
 30
0.0
  0
SPLINE
  5
32D
100
AcDbEntity
  8
0
100
AcDbSpline
 62
7
  6
CONTINUOUS
 70
0
 71
3
 72
13
 73
9
 74
0
 42
0.0000001
 43
0.0000001
 44
0.0000000001
 40
0.0
 40
0.0
 40
0.0
 40
0.0
 40
0.3031367448
 40
0.5686488595
 40
0.6870597653
 40
0.7968783603
 40
0.9002275833
 40
1.0
 40
1.0
 40
1.0
 40
1.0
 10
15.3474331281
 20
11.7858035068
 30
0.0
 10
15.3371594678
 20
11.7858035068
 30
0.0
 10
15.3178290622
 20
11.7841806455
 30
0.0
 10
15.2953320174
 20
11.7771068526
 30
0.0
 10
15.2808952651
 20
11.7685025202
 30
0.0
 10
15.2723654189
 20
11.7610782169
 30
0.0
 10
15.265911359
 20
11.7525609382
 30
0.0
 10
15.2630813069
 20
11.7462040001
 30
0.0
 10
15.2620820019
 20
11.742973631
 30
0.0
  0
SPLINE
  5
32E
100
AcDbEntity
  8
0
100
AcDbSpline
 62
7
  6
CONTINUOUS
 70
0
 71
3
 72
9
 73
5
 74
0
 42
0.0000001
 43
0.0000001
 44
0.0000000001
 40
0.0
 40
0.0
 40
0.0
 40
0.0
 40
0.4873570824
 40
1.0
 40
1.0
 40
1.0
 40
1.0
 10
14.5288328969
 20
11.430777611
 30
0.0
 10
14.5319096263
 20
11.4434042407
 30
0.0
 10
14.5347851215
 20
11.470250197
 30
0.0
 10
14.5310227661
 20
11.4969121603
 30
0.0
 10
14.527737675
 20
11.5101819361
 30
0.0
  0
SPLINE
  5
32F
100
AcDbEntity
  8
0
100
AcDbSpline
 62
7
  6
CONTINUOUS
 70
0
 71
3
 72
9
 73
5
 74
0
 42
0.0000001
 43
0.0000001
 44
0.0000000001
 40
0.0
 40
0.0
 40
0.0
 40
0.0
 40
0.5127289368
 40
1.0
 40
1.0
 40
1.0
 40
1.0
 10
15.1079335767
 20
11.5101819361
 30
0.0
 10
15.1072277292
 20
11.513033132
 30
0.0
 10
15.1064852927
 20
11.5187850599
 30
0.0
 10
15.1073614655
 20
11.5245387387
 30
0.0
 10
15.1081858115
 20
11.5272056691
 30
0.0
  0
SPLINE
  5
330
100
AcDbEntity
  8
0
100
AcDbSpline
 62
7
  6
CONTINUOUS
 70
0
 71
3
 72
11
 73
7
 74
0
 42
0.0000001
 43
0.0000001
 44
0.0000000001
 40
0.0
 40
0.0
 40
0.0
 40
0.0
 40
0.2394478183
 40
0.4944466409
 40
0.7523347872
 40
1.0
 40
1.0
 40
1.0
 40
1.0
 10
15.5372576756
 20
11.7404538481
 30
0.0
 10
15.5285674041
 20
11.74754721
 30
0.0
 10
15.5090514189
 20
11.7603158566
 30
0.0
 10
15.4766227472
 20
11.7744746824
 30
0.0
 10
15.4420203589
 20
11.7835331759
 30
0.0
 10
15.4183043742
 20
11.7858035068
 30
0.0
 10
15.4067017129
 20
11.7858035068
 30
0.0
  0
SPLINE
  5
331
100
AcDbEntity
  8
0
100
AcDbSpline
 62
7
  6
CONTINUOUS
 70
0
 71
3
 72
11
 73
7
 74
0
 42
0.0000001
 43
0.0000001
 44
0.0000000001
 40
0.0
 40
0.0
 40
0.0
 40
0.0
 40
0.2575925283
 40
0.5240194709
 40
0.7775848616
 40
1.0
 40
1.0
 40
1.0
 40
1.0
 10
15.1357835069
 20
11.6154725863
 30
0.0
 10
15.1259128043
 20
11.6154725863
 30
0.0
 10
15.1057969375
 20
11.6179110555
 30
0.0
 10
15.0773215952
 20
11.6272911149
 30
0.0
 10
15.0524388401
 20
11.6414573466
 30
0.0
 10
15.0389410676
 20
11.6541785869
 30
0.0
 10
15.0338985183
 20
11.661049523
 30
0.0
  0
SPLINE
  5
332
100
AcDbEntity
  8
0
100
AcDbSpline
 62
7
  6
CONTINUOUS
 70
0
 71
3
 72
9
 73
5
 74
0
 42
0.0000001
 43
0.0000001
 44
0.0000000001
 40
0.0
 40
0.0
 40
0.0
 40
0.0
 40
0.4816193489
 40
1.0
 40
1.0
 40
1.0
 40
1.0
 10
15.61409442
 20
11.661049523
 30
0.0
 10
15.6035783922
 20
11.6753785759
 30
0.0
 10
15.5794650829
 20
11.7034895571
 30
0.0
 10
15.5520779224
 20
11.728356945
 30
0.0
 10
15.5372576756
 20
11.7404538481
 30
0.0
  0
SPLINE
  5
333
100
AcDbEntity
  8
0
100
AcDbSpline
 62
7
  6
CONTINUOUS
 70
0
 71
3
 72
12
 73
8
 74
0
 42
0.0000001
 43
0.0000001
 44
0.0000000001
 40
0.0
 40
0.0
 40
0.0
 40
0.0
 40
0.0998482132
 40
0.2032561568
 40
0.4308041567
 40
0.69657606
 40
1.0
 40
1.0
 40
1.0
 40
1.0
 10
16.4226207162
 20
11.64402579
 30
0.0
 10
16.4219550992
 20
11.641872381
 30
0.0
 10
16.4200692109
 20
11.6376350566
 30
0.0
 10
16.4141508211
 20
11.629826664
 30
0.0
 10
16.4027956484
 20
11.6219866105
 30
0.0
 10
16.3854699738
 20
11.6165658336
 30
0.0
 10
16.3725691567
 20
11.6154725863
 30
0.0
 10
16.3657197863
 20
11.6154725863
 30
0.0
  0
SPLINE
  5
334
100
AcDbEntity
  8
0
100
AcDbSpline
 62
7
  6
CONTINUOUS
 70
0
 71
3
 72
9
 73
5
 74
0
 42
0.0000001
 43
0.0000001
 44
0.0000000001
 40
0.0
 40
0.0
 40
0.0
 40
0.0
 40
0.4873570824
 40
1.0
 40
1.0
 40
1.0
 40
1.0
 10
13.9486369952
 20
11.430777611
 30
0.0
 10
13.9517137246
 20
11.4434042407
 30
0.0
 10
13.9545892198
 20
11.470250197
 30
0.0
 10
13.9508268644
 20
11.4969121603
 30
0.0
 10
13.9475417732
 20
11.5101819361
 30
0.0
  0
SPLINE
  5
335
100
AcDbEntity
  8
0
100
AcDbSpline
 62
7
  6
CONTINUOUS
 70
0
 71
3
 72
13
 73
9
 74
0
 42
0.0000001
 43
0.0000001
 44
0.0000000001
 40
0.0
 40
0.0
 40
0.0
 40
0.0
 40
0.3031367448
 40
0.5686488595
 40
0.6870597653
 40
0.7968783603
 40
0.9002275833
 40
1.0
 40
1.0
 40
1.0
 40
1.0
 10
15.9276290298
 20
11.7858035068
 30
0.0
 10
15.9173553695
 20
11.7858035068
 30
0.0
 10
15.8980249639
 20
11.7841806455
 30
0.0
 10
15.8755279192
 20
11.7771068526
 30
0.0
 10
15.8610911668
 20
11.7685025202
 30
0.0
 10
15.8525613207
 20
11.7610782169
 30
0.0
 10
15.8461072607
 20
11.7525609382
 30
0.0
 10
15.8432772087
 20
11.7462040001
 30
0.0
 10
15.8422779037
 20
11.742973631
 30
0.0
  0
SPLINE
  5
336
100
AcDbEntity
  8
0
100
AcDbSpline
 62
7
  6
CONTINUOUS
 70
0
 71
3
 72
9
 73
5
 74
0
 42
0.0000001
 43
0.0000001
 44
0.0000000001
 40
0.0
 40
0.0
 40
0.0
 40
0.0
 40
0.5127289368
 40
1.0
 40
1.0
 40
1.0
 40
1.0
 10
15.6881294784
 20
11.5101819361
 30
0.0
 10
15.6874236309
 20
11.513033132
 30
0.0
 10
15.6866811944
 20
11.5187850599
 30
0.0
 10
15.6875573672
 20
11.5245387387
 30
0.0
 10
15.6883817132
 20
11.5272056691
 30
0.0
  0
SPLINE
  5
337
100
AcDbEntity
  8
0
100
AcDbSpline
 62
7
  6
CONTINUOUS
 70
0
 71
3
 72
11
 73
7
 74
0
 42
0.0000001
 43
0.0000001
 44
0.0000000001
 40
0.0
 40
0.0
 40
0.0
 40
0.0
 40
0.2575925283
 40
0.5240194709
 40
0.7775848616
 40
1.0
 40
1.0
 40
1.0
 40
1.0
 10
15.7159794086
 20
11.6154725863
 30
0.0
 10
15.706108706
 20
11.6154725863
 30
0.0
 10
15.6859928393
 20
11.6179110555
 30
0.0
 10
15.6575174969
 20
11.6272911149
 30
0.0
 10
15.6326347418
 20
11.6414573466
 30
0.0
 10
15.6191369693
 20
11.6541785869
 30
0.0
 10
15.61409442
 20
11.661049523
 30
0.0
  0
SPLINE
  5
338
100
AcDbEntity
  8
0
100
AcDbSpline
 62
7
  6
CONTINUOUS
 70
0
 71
3
 72
11
 73
7
 74
0
 42
0.0000001
 43
0.0000001
 44
0.0000000001
 40
0.0
 40
0.0
 40
0.0
 40
0.0
 40
0.2394478183
 40
0.4944466409
 40
0.7523347872
 40
1.0
 40
1.0
 40
1.0
 40
1.0
 10
16.1174535774
 20
11.7404538481
 30
0.0
 10
16.1087633058
 20
11.74754721
 30
0.0
 10
16.0892473206
 20
11.7603158566
 30
0.0
 10
16.0568186489
 20
11.7744746824
 30
0.0
 10
16.0222162606
 20
11.7835331759
 30
0.0
 10
15.9985002759
 20
11.7858035068
 30
0.0
 10
15.9868976146
 20
11.7858035068
 30
0.0
  0
SPLINE
  5
339
100
AcDbEntity
  8
0
100
AcDbSpline
 62
7
  6
CONTINUOUS
 70
0
 71
3
 72
9
 73
5
 74
0
 42
0.0000001
 43
0.0000001
 44
0.0000000001
 40
0.0
 40
0.0
 40
0.0
 40
0.0
 40
0.4816202791
 40
1.0
 40
1.0
 40
1.0
 40
1.0
 10
16.1942903218
 20
11.661049523
 30
0.0
 10
16.1837742736
 20
11.6753786035
 30
0.0
 10
16.15966096
 20
11.7034895818
 30
0.0
 10
16.1322737975
 20
11.7283569667
 30
0.0
 10
16.1174535774
 20
11.7404538481
 30
0.0
  0
SPLINE
  5
33A
100
AcDbEntity
  8
0
100
AcDbSpline
 62
7
  6
CONTINUOUS
 70
0
 71
3
 72
13
 73
9
 74
0
 42
0.0000001
 43
0.0000001
 44
0.0000000001
 40
0.0
 40
0.0
 40
0.0
 40
0.0
 40
0.3031367448
 40
0.5686488595
 40
0.6870597653
 40
0.7968783603
 40
0.9002275833
 40
1.0
 40
1.0
 40
1.0
 40
1.0
 10
16.5078249316
 20
11.7858035068
 30
0.0
 10
16.4975512712
 20
11.7858035068
 30
0.0
 10
16.4782208657
 20
11.7841806455
 30
0.0
 10
16.4557238209
 20
11.7771068526
 30
0.0
 10
16.4412870686
 20
11.7685025202
 30
0.0
 10
16.4327572224
 20
11.7610782169
 30
0.0
 10
16.4263031625
 20
11.7525609382
 30
0.0
 10
16.4234731104
 20
11.7462040001
 30
0.0
 10
16.4224738054
 20
11.742973631
 30
0.0
  0
SPLINE
  5
33B
100
AcDbEntity
  8
0
100
AcDbSpline
 62
7
  6
CONTINUOUS
 70
0
 71
3
 72
9
 73
5
 74
0
 42
0.0000001
 43
0.0000001
 44
0.0000000001
 40
0.0
 40
0.0
 40
0.0
 40
0.0
 40
0.5127289368
 40
1.0
 40
1.0
 40
1.0
 40
1.0
 10
16.2683253802
 20
11.5101819361
 30
0.0
 10
16.2676195326
 20
11.513033132
 30
0.0
 10
16.2668770961
 20
11.5187850599
 30
0.0
 10
16.267753269
 20
11.5245387387
 30
0.0
 10
16.2685776149
 20
11.5272056691
 30
0.0
  0
SPLINE
  5
33C
100
AcDbEntity
  8
0
100
AcDbSpline
 62
7
  6
CONTINUOUS
 70
0
 71
3
 72
11
 73
7
 74
0
 42
0.0000001
 43
0.0000001
 44
0.0000000001
 40
0.0
 40
0.0
 40
0.0
 40
0.0
 40
0.2575925283
 40
0.5240194709
 40
0.7775848616
 40
1.0
 40
1.0
 40
1.0
 40
1.0
 10
16.2961753103
 20
11.6154725863
 30
0.0
 10
16.2863046077
 20
11.6154725863
 30
0.0
 10
16.266188741
 20
11.6179110555
 30
0.0
 10
16.2377133986
 20
11.6272911149
 30
0.0
 10
16.2128306435
 20
11.6414573466
 30
0.0
 10
16.1993328711
 20
11.6541785869
 30
0.0
 10
16.1942903218
 20
11.661049523
 30
0.0
  0
SPLINE
  5
33D
100
AcDbEntity
  8
0
100
AcDbSpline
 62
7
  6
CONTINUOUS
 70
0
 71
3
 72
13
 73
9
 74
0
 42
0.0000001
 43
0.0000001
 44
0.0000000001
 40
0.0
 40
0.0
 40
0.0
 40
0.0
 40
0.3031367448
 40
0.5686488595
 40
0.6870597653
 40
0.7968783603
 40
0.9002275833
 40
1.0
 40
1.0
 40
1.0
 40
1.0
 10
13.6068454229
 20
11.7858035068
 30
0.0
 10
13.5965717626
 20
11.7858035068
 30
0.0
 10
13.577241357
 20
11.7841806455
 30
0.0
 10
13.5547443122
 20
11.7771068526
 30
0.0
 10
13.5403075599
 20
11.7685025202
 30
0.0
 10
13.5317777137
 20
11.7610782169
 30
0.0
 10
13.5253236538
 20
11.7525609382
 30
0.0
 10
13.5224936017
 20
11.7462040001
 30
0.0
 10
13.5214942967
 20
11.742973631
 30
0.0
  0
SPLINE
  5
33E
100
AcDbEntity
  8
0
100
AcDbSpline
 62
7
  6
CONTINUOUS
 70
0
 71
3
 72
11
 73
7
 74
0
 42
0.0000001
 43
0.0000001
 44
0.0000000001
 40
0.0
 40
0.0
 40
0.0
 40
0.0
 40
0.2394478183
 40
0.4944466409
 40
0.7523347872
 40
1.0
 40
1.0
 40
1.0
 40
1.0
 10
13.7966699704
 20
11.7404538481
 30
0.0
 10
13.7879796989
 20
11.74754721
 30
0.0
 10
13.7684637137
 20
11.7603158566
 30
0.0
 10
13.736035042
 20
11.7744746824
 30
0.0
 10
13.7014326537
 20
11.7835331759
 30
0.0
 10
13.677716669
 20
11.7858035068
 30
0.0
 10
13.6661140077
 20
11.7858035068
 30
0.0
  0
SPLINE
  5
33F
100
AcDbEntity
  8
0
100
AcDbSpline
 62
7
  6
CONTINUOUS
 70
0
 71
3
 72
9
 73
5
 74
0
 42
0.0000001
 43
0.0000001
 44
0.0000000001
 40
0.0
 40
0.0
 40
0.0
 40
0.0
 40
0.5127289368
 40
1.0
 40
1.0
 40
1.0
 40
1.0
 10
16.8485212819
 20
11.5101819361
 30
0.0
 10
16.8478154344
 20
11.513033132
 30
0.0
 10
16.8470729979
 20
11.5187850599
 30
0.0
 10
16.8479491707
 20
11.5245387387
 30
0.0
 10
16.8487735167
 20
11.5272056691
 30
0.0
  0
SPLINE
  5
340
100
AcDbEntity
  8
0
100
AcDbSpline
 62
7
  6
CONTINUOUS
 70
0
 71
3
 72
11
 73
7
 74
0
 42
0.0000001
 43
0.0000001
 44
0.0000000001
 40
0.0
 40
0.0
 40
0.0
 40
0.0
 40
0.2394478183
 40
0.4944466409
 40
0.7523347872
 40
1.0
 40
1.0
 40
1.0
 40
1.0
 10
16.6976494791
 20
11.7404538481
 30
0.0
 10
16.6889592076
 20
11.74754721
 30
0.0
 10
16.6694432223
 20
11.7603158566
 30
0.0
 10
16.6370145506
 20
11.7744746824
 30
0.0
 10
16.6024121624
 20
11.7835331759
 30
0.0
 10
16.5786961776
 20
11.7858035068
 30
0.0
 10
16.5670935163
 20
11.7858035068
 30
0.0
  0
SPLINE
  5
341
100
AcDbEntity
  8
0
100
AcDbSpline
 62
7
  6
CONTINUOUS
 70
0
 71
3
 72
11
 73
7
 74
0
 42
0.0000001
 43
0.0000001
 44
0.0000000001
 40
0.0
 40
0.0
 40
0.0
 40
0.0
 40
0.2575925283
 40
0.5240194709
 40
0.7775848616
 40
1.0
 40
1.0
 40
1.0
 40
1.0
 10
16.8763712121
 20
11.6154725863
 30
0.0
 10
16.8665005095
 20
11.6154725863
 30
0.0
 10
16.8463846427
 20
11.6179110555
 30
0.0
 10
16.8179093004
 20
11.6272911149
 30
0.0
 10
16.7930265453
 20
11.6414573466
 30
0.0
 10
16.7795287728
 20
11.6541785869
 30
0.0
 10
16.7744862235
 20
11.661049523
 30
0.0
  0
SPLINE
  5
342
100
AcDbEntity
  8
0
100
AcDbSpline
 62
7
  6
CONTINUOUS
 70
0
 71
3
 72
9
 73
5
 74
0
 42
0.0000001
 43
0.0000001
 44
0.0000000001
 40
0.0
 40
0.0
 40
0.0
 40
0.0
 40
0.4816198055
 40
1.0
 40
1.0
 40
1.0
 40
1.0
 10
16.7744862235
 20
11.661049523
 30
0.0
 10
16.7639701847
 20
11.6753785907
 30
0.0
 10
16.7398569876
 20
11.7034896777
 30
0.0
 10
16.7124697141
 20
11.7283569545
 30
0.0
 10
16.6976494791
 20
11.7404538481
 30
0.0
  0
ENDSEC
  0
SECTION
  2
OBJECTS
  0
DICTIONARY
  5
C
100
AcDbDictionary
280
0
281
1
  3
ACAD_GROUP
350
D
  3
ACAD_MLINESTYLE
350
17
  3
ACAD_LAYOUT
350
1A
  3
ACAD_PLOTSETTINGS
350
19
  3
ACAD_PLOTSTYLENAME
350
E
  0
DICTIONARY
  5
D
102
{ACAD_REACTORS
330
C
102
}
100
AcDbDictionary
280
0
281
1
  0
ACDBDICTIONARYWDFLT
  5
E
102
{ACAD_REACTORS
330
C
102
}
100
AcDbDictionary
281
1
  3
Normal
350
F
100
AcDbDictionaryWithDefault
340
F
  0
DICTIONARY
  5
17
102
{ACAD_REACTORS
330
C
102
}
100
AcDbDictionary
280
0
281
1
  3
Standard
350
18
  0
DICTIONARY
  5
19
102
{ACAD_REACTORS
330
C
102
}
100
AcDbDictionary
281
1
  0
DICTIONARY
  5
1A
102
{ACAD_REACTORS
330
C
102
}
100
AcDbDictionary
281
1
  3
Model
350
343
  3
Layout1
350
344
  0
ACDBPLACEHOLDER
  5
F
102
{ACAD_REACTORS
330
E
102
}
  0
MLINESTYLE
  5
18
102
{ACAD_REACTORS
330
17
102
}
100
AcDbMlineStyle
  2
STANDARD
 70
0
  3

 62
256
 51
90.0
 52
90.0
 71
2
 49
0.5
 62
256
  6
BYLAYER
 49
-0.5
 62
256
  6
BYLAYER
  0
LAYOUT
  5
343
102
{ACAD_REACTORS
330
1A
102
}
100
AcDbPlotSettings
  1

  2
none_device
  4
ANSI_C_(22.00_x_17.00_Inches)
  6

 40
0.0
 41
0.0
 42
0.0
 43
0.0
 44
558.8
 45
431.8
 46
0.0
 47
0.0
 48
0.0
 49
0.0
140
0.0
141
0.0
142
1.0
143
1.0
 70
1024
 72
0
 73
0
 74
0
  7

 75
0
147
1.0
148
0.0
149
0.0
100
AcDbLayout
  1
Model
 70
0
 71
0
 10
0.0
 20
0.0
 11
22.0
 21
17.0
 12
0.0
 22
0.0
 32
0.0
 14
0.0
 24
0.0
 34
0.0
 15
0.0
 25
0.0
 35
0.0
146
0.0
 13
0.0
 23
0.0
 33
0.0
 16
1.0
 26
0.0
 36
0.0
 17
0.0
 27
1.0
 37
0.0
 76
0
330
216
345
0
346
0
  0
LAYOUT
  5
344
102
{ACAD_REACTORS
330
1A
102
}
100
AcDbPlotSettings
  1

  2
none_device
  4
ANSI_C_(22.00_x_17.00_Inches)
  6

 40
0.0
 41
0.0
 42
0.0
 43
0.0
 44
558.8
 45
431.8
 46
0.0
 47
0.0
 48
0.0
 49
0.0
140
0.0
141
0.0
142
1.0
143
1.0
 70
0
 72
0
 73
0
 74
0
  7

 75
0
147
1.0
148
0.0
149
0.0
100
AcDbLayout
  1
Layout1
 70
0
 71
1
 10
0.0
 20
0.0
 11
22.0
 21
17.0
 12
0.0
 22
0.0
 32
0.0
 14
0.0
 24
0.0
 34
0.0
 15
0.0
 25
0.0
 35
0.0
146
0.0
 13
0.0
 23
0.0
 33
0.0
 16
1.0
 26
0.0
 36
0.0
 17
0.0
 27
1.0
 37
0.0
 76
0
330
217
345
0
346
0
  0
ENDSEC
  0
EOF