999
DXF file: _cgs_temp_output.dxf
999
Pro/ENGINEER 2015110 by Parametric Technology Corporation
  0
SECTION
  2
HEADER
  9
$ACADVER
  1
AC1021
  9
$DWGCODEPAGE
  3
ANSI_1252
  9
$EXTMAX
 10
22.0
 20
17.0
 30
0.0
  9
$EXTMIN
 10
0.0
 20
0.0
 30
0.0
  9
$LIMMIN
 10
0.0
 20
0.0
  9
$LIMMAX
 10
22.0
 20
17.0
  9
$VIEWCTR
 10
11.0
 20
8.5
  9
$VIEWSIZE
 40
17.0
  9
$CLAYER
  8
0
  9
$LTSCALE
 40
1.21
  9
$CELTYPE
  6
BYLAYER
  9
$DIMSCALE
 40
1.0
  9
$DIMASZ
 40
0.1875
  9
$DIMEXO
 40
0.0625
  9
$DIMDLI
 40
0.836
  9
$DIMEXE
 40
0.125
  9
$DIMCEN
 40
0.198
  9
$DIMLFAC
 40
1.0
  9
$DIMBLK
  1
_CLOSED
  9
$DIMALT
 70
0
  9
$DIMALTF
 40
25.4
  9
$DIMTXT
 40
0.15625
  9
$DIMTOL
 70
0
  9
$DIMLIM
 70
0
  9
$DIMTFAC
 40
1.0
  9
$DIMGAP
 40
0.09
  9
$DIMDSEP
 70
46
  9
$AUNITS
 70
0
  9
$PDMODE
 70
3
  9
$PDSIZE
 40
0.3125
  9
$HANDSEED
  5
37A
  9
$TILEMODE
 70
1
  9
$MEASUREMENT
 70
0
  9
$INSUNITS
 70
1
  0
ENDSEC
  0
SECTION
  2
CLASSES
  0
CLASS
  1
ACDBDICTIONARYWDFLT
  2
AcDbDictionaryWithDefault
  3
AutoCAD 2000
 90
0
 91
1
280
0
281
0
  0
CLASS
  1
ACDBPLACEHOLDER
  2
AcDbPlaceHolder
  3
AutoCAD 2000
 90
0
 91
1
280
0
281
0
  0
CLASS
  1
LAYOUT
  2
AcDbLayout
  3
AutoCAD 2000
 90
0
 91
0
280
0
281
0
  0
ENDSEC
  0
SECTION
  2
TABLES
  0
TABLE
  2
VPORT
  5
8
100
AcDbSymbolTable
 70
2
  0
VPORT
  5
1F4
100
AcDbSymbolTableRecord
100
AcDbViewportTableRecord
  2
*ACTIVE
 70
0
 10
0.0
 20
0.0
 11
1.0
 21
1.0
 12
11.0
 22
8.5
 13
0.0
 23
0.0
 14
1.0
 24
1.0
 15
0.0
 25
0.0
 16
0.0
 26
0.0
 36
1.0
 17
0.0
 27
0.0
 37
0.0
 40
17.0
 41
1.2941176471
 42
50.0
 43
0.0
 44
0.0
 50
0.0
 51
0.0
 71
0
 72
100
 73
1
 74
1
 75
0
 76
0
 77
0
 78
0
  0
ENDTAB
  0
TABLE
  2
LTYPE
  5
5
100
AcDbSymbolTable
 70
6
  0
LTYPE
  5
14
100
AcDbSymbolTableRecord
100
AcDbLinetypeTableRecord
  2
BYBLOCK
 70
0
  3

 72
65
 73
0
 40
0.0
  0
LTYPE
  5
15
100
AcDbSymbolTableRecord
100
AcDbLinetypeTableRecord
  2
BYLAYER
 70
0
  3

 72
65
 73
0
 40
0.0
  0
LTYPE
  5
16
100
AcDbSymbolTableRecord
100
AcDbLinetypeTableRecord
  2
CONTINUOUS
 70
64
  3
Solid line
 72
65
 73
0
 40
0.0
  0
LTYPE
  5
1F5
100
AcDbSymbolTableRecord
100
AcDbLinetypeTableRecord
  2
CENTER
 70
64
  3
____ _ ____ _ ____ _ ____ _ ____ _ ____ _ ____
 72
65
 73
4
 40
0.6
 49
0.375
 74
0
 49
-0.075
 74
0
 49
0.075
 74
0
 49
-0.075
 74
0
  0
LTYPE
  5
1F6
100
AcDbSymbolTableRecord
100
AcDbLinetypeTableRecord
  2
HIDDEN
 70
64
  3
- - - - - - - - - - - - - - - - - - - -
 72
65
 73
2
 40
0.2
 49
0.1
 74
0
 49
-0.1
 74
0
  0
LTYPE
  5
1F7
100
AcDbSymbolTableRecord
100
AcDbLinetypeTableRecord
  2
PHANTOM
 70
64
  3
_____ _ _ _____ _ _ _____ _ _ _____
 72
65
 73
6
 40
0.8
 49
0.45
 74
0
 49
-0.05
 74
0
 49
0.1
 74
0
 49
-0.05
 74
0
 49
0.1
 74
0
 49
-0.05
 74
0
  0
LTYPE
  5
1F8
100
AcDbSymbolTableRecord
100
AcDbLinetypeTableRecord
  2
DOT
 70
64
  3
. . . . . . . . . . . . . . . . . . . .
 72
65
 73
2
 40
0.2
 49
0.1
 74
0
 49
-0.1
 74
0
  0
LTYPE
  5
1F9
100
AcDbSymbolTableRecord
100
AcDbLinetypeTableRecord
  2
DASHED
 70
64
  3
- - - - - - - - - - - - - - - - - - - -
 72
65
 73
2
 40
0.2
 49
0.1
 74
0
 49
-0.1
 74
0
  0
ENDTAB
  0
TABLE
  2
LAYER
  5
2
100
AcDbSymbolTable
 70
36
  0
LAYER
  5
10
100
AcDbSymbolTableRecord
100
AcDbLayerTableRecord
  2
0
 70
0
 62
7
  6
CONTINUOUS
370
-3
390
F
  0
LAYER
  5
1FA
100
AcDbSymbolTableRecord
100
AcDbLayerTableRecord
  2
DEFAULT_1
 70
0
 62
7
  6
CENTER
370
-3
390
F
  0
LAYER
  5
1FB
100
AcDbSymbolTableRecord
100
AcDbLayerTableRecord
  2
DEFAULT_2
 70
0
 62
8
  6
HIDDEN
370
-3
390
F
  0
LAYER
  5
1FC
100
AcDbSymbolTableRecord
100
AcDbLayerTableRecord
  2
DEFAULT_3
 70
0
 62
7
  6
PHANTOM
370
-3
390
F
  0
LAYER
  5
1FD
100
AcDbSymbolTableRecord
100
AcDbLayerTableRecord
  2
01_ALL_DTM_PLN
 70
0
 62
7
  6
CONTINUOUS
370
-3
390
F
  0
LAYER
  5
1FE
100
AcDbSymbolTableRecord
100
AcDbLayerTableRecord
  2
01__ASM_ALL_DTM_PLN
 70
0
 62
7
  6
CONTINUOUS
370
-3
390
F
  0
LAYER
  5
1FF
100
AcDbSymbolTableRecord
100
AcDbLayerTableRecord
  2
01__ASM_DEF_DTM_PLN
 70
0
 62
7
  6
CONTINUOUS
370
-3
390
F
  0
LAYER
  5
200
100
AcDbSymbolTableRecord
100
AcDbLayerTableRecord
  2
01___PRT_ALL_DTM_PLN
 70
0
 62
7
  6
CONTINUOUS
370
-3
390
F
  0
LAYER
  5
201
100
AcDbSymbolTableRecord
100
AcDbLayerTableRecord
  2
01___PRT_DEF_DTM_PLN
 70
0
 62
7
  6
CONTINUOUS
370
-3
390
F
  0
LAYER
  5
202
100
AcDbSymbolTableRecord
100
AcDbLayerTableRecord
  2
02_ALL_AXES
 70
0
 62
7
  6
CONTINUOUS
370
-3
390
F
  0
LAYER
  5
203
100
AcDbSymbolTableRecord
100
AcDbLayerTableRecord
  2
02__ASM_ALL_AXES
 70
0
 62
7
  6
CONTINUOUS
370
-3
390
F
  0
LAYER
  5
204
100
AcDbSymbolTableRecord
100
AcDbLayerTableRecord
  2
02___PRT_ALL_AXES
 70
0
 62
7
  6
CONTINUOUS
370
-3
390
F
  0
LAYER
  5
205
100
AcDbSymbolTableRecord
100
AcDbLayerTableRecord
  2
03_ALL_CURVES
 70
0
 62
7
  6
CONTINUOUS
370
-3
390
F
  0
LAYER
  5
206
100
AcDbSymbolTableRecord
100
AcDbLayerTableRecord
  2
03__ASM_ALL_CURVES
 70
0
 62
7
  6
CONTINUOUS
370
-3
390
F
  0
LAYER
  5
207
100
AcDbSymbolTableRecord
100
AcDbLayerTableRecord
  2
03___PRT_ALL_CURVES
 70
0
 62
7
  6
CONTINUOUS
370
-3
390
F
  0
LAYER
  5
208
100
AcDbSymbolTableRecord
100
AcDbLayerTableRecord
  2
04_ALL_DTM_PNT
 70
0
 62
7
  6
CONTINUOUS
370
-3
390
F
  0
LAYER
  5
209
100
AcDbSymbolTableRecord
100
AcDbLayerTableRecord
  2
04__ASM_ALL_DTM_PNT
 70
0
 62
7
  6
CONTINUOUS
370
-3
390
F
  0
LAYER
  5
20A
100
AcDbSymbolTableRecord
100
AcDbLayerTableRecord
  2
04___PRT_ALL_DTM_PNT
 70
0
 62
7
  6
CONTINUOUS
370
-3
390
F
  0
LAYER
  5
20B
100
AcDbSymbolTableRecord
100
AcDbLayerTableRecord
  2
05_ALL_DTM_CSYS
 70
0
 62
7
  6
CONTINUOUS
370
-3
390
F
  0
LAYER
  5
20C
100
AcDbSymbolTableRecord
100
AcDbLayerTableRecord
  2
05__ASM_ALL_DTM_CSYS
 70
0
 62
7
  6
CONTINUOUS
370
-3
390
F
  0
LAYER
  5
20D
100
AcDbSymbolTableRecord
100
AcDbLayerTableRecord
  2
05__ASM_DEF_DTM_CSYS
 70
0
 62
7
  6
CONTINUOUS
370
-3
390
F
  0
LAYER
  5
20E
100
AcDbSymbolTableRecord
100
AcDbLayerTableRecord
  2
05___PRT_ALL_DTM_CSYS
 70
0
 62
7
  6
CONTINUOUS
370
-3
390
F
  0
LAYER
  5
20F
100
AcDbSymbolTableRecord
100
AcDbLayerTableRecord
  2
05___PRT_DEF_DTM_CSYS
 70
0
 62
7
  6
CONTINUOUS
370
-3
390
F
  0
LAYER
  5
210
100
AcDbSymbolTableRecord
100
AcDbLayerTableRecord
  2
06_ALL_SURFS
 70
0
 62
7
  6
CONTINUOUS
370
-3
390
F
  0
LAYER
  5
211
100
AcDbSymbolTableRecord
100
AcDbLayerTableRecord
  2
06__ASM_ALL_SURFS
 70
0
 62
7
  6
CONTINUOUS
370
-3
390
F
  0
LAYER
  5
212
100
AcDbSymbolTableRecord
100
AcDbLayerTableRecord
  2
06___PRT_ALL_SURFS
 70
0
 62
7
  6
CONTINUOUS
370
-3
390
F
  0
LAYER
  5
213
100
AcDbSymbolTableRecord
100
AcDbLayerTableRecord
  2
07__ASM_ALL_SKELETONS
 70
0
 62
7
  6
CONTINUOUS
370
-3
390
F
  0
ENDTAB
  0
TABLE
  2
STYLE
  5
3
100
AcDbSymbolTable
 70
1
  0
STYLE
  5
11
100
AcDbSymbolTableRecord
100
AcDbTextStyleTableRecord
  2
STANDARD
 70
0
 40
0.0
 41
0.8
 50
0.0
 71
0
 42
0.2
  3
txt
  4

  0
STYLE
  5
214
100
AcDbSymbolTableRecord
100
AcDbTextStyleTableRecord
  2
TEXTSTYLE_1
 70
0
 40
0.0
 41
0.8
 50
0.0
 71
0
 42
0.2
  3
gdt
  4

  0
ENDTAB
  0
TABLE
  2
VIEW
  5
6
100
AcDbSymbolTable
 70
0
  0
ENDTAB
  0
TABLE
  2
UCS
  5
7
100
AcDbSymbolTable
 70
0
  0
ENDTAB
  0
TABLE
  2
APPID
  5
9
100
AcDbSymbolTable
 70
1
  0
APPID
  5
215
100
AcDbSymbolTableRecord
100
AcDbRegAppTableRecord
  2
ACAD
 70
0
  0
ENDTAB
  0
TABLE
  2
BLOCK_RECORD
  5
1
100
AcDbSymbolTable
 70
0
  0
BLOCK_RECORD
  5
216
100
AcDbSymbolTableRecord
100
AcDbBlockTableRecord
  2
*Model_Space
  0
BLOCK_RECORD
  5
217
100
AcDbSymbolTableRecord
100
AcDbBlockTableRecord
  2
*Paper_Space
  0
ENDTAB
  0
TABLE
  2
DIMSTYLE
  5
A
100
AcDbSymbolTable
 70
1
100
AcDbDimStyleTable
 71
0
  0
DIMSTYLE
105
218
100
AcDbSymbolTableRecord
100
AcDbDimStyleTableRecord
  2
STANDARD
 70
0
  3

  4

 40
1.0
 41
0.1875
 42
0.0625
 43
0.38
 44
0.125
 45
0.0
 46
0.0
 47
0.0001
 48
0.0001
140
0.15625
141
0.09
142
0.0
143
25.4
144
1.0
145
0.0
146
1.0
147
0.09
 71
0.0
 72
0.0
 73
1
 74
1
 75
0
 76
0
 77
0
 78
4
170
0
171
2
172
0
173
0
174
0
175
0
176
0
177
0
178
0
270
2
271
4
272
4
273
2
274
2
275
0
280
0
281
0
282
0
283
1
284
4
285
0
286
0
287
3
288
0
340
11
278
46
  0
ENDTAB
  0
ENDSEC
  0
SECTION
  2
BLOCKS
  0
BLOCK
  5
20
100
AcDbEntity
  8
0
100
AcDbBlockBegin
  2
*Model_Space
 70
0
 10
0.0
 20
0.0
 30
0.0
  3
*Model_Space
  1

  0
ENDBLK
  5
21
100
AcDbEntity
  8
0
100
AcDbBlockEnd
  0
BLOCK
  5
1C
100
AcDbEntity
  8
0
100
AcDbBlockBegin
  2
*Paper_Space
 70
0
 10
0.0
 20
0.0
 30
0.0
  3
*Paper_Space
  1

  0
ENDBLK
  5
1D
100
AcDbEntity
  8
0
100
AcDbBlockEnd
  0
ENDSEC
  0
SECTION
  2
ENTITIES
  0
MTEXT
  5
219
100
AcDbEntity
  8
0
100
AcDbMText
 62
7
  6
CONTINUOUS
  7
STANDARD
 71
1
 72
1
 10
15.9560215477
 20
0.9479130325
 30
0.0
 11
1.0
 21
0.0
 31
0.0
 44
0.9
  1
SCALE: 1:1.000
 40
0.3
 41
3.36
  0
LINE
  5
21A
100
AcDbEntity
  8
0
100
AcDbLine
 62
7
  6
CONTINUOUS
 10
0.0
 20
0.0
 11
0.0
 21
17.0
  0
LINE
  5
21B
100
AcDbEntity
  8
0
100
AcDbLine
 62
7
  6
CONTINUOUS
 10
0.0
 20
0.0
 11
22.0
 21
0.0
  0
LINE
  5
21C
100
AcDbEntity
  8
0
100
AcDbLine
 62
7
  6
CONTINUOUS
 10
0.0
 20
17.0
 11
22.0
 21
17.0
  0
LINE
  5
21D
100
AcDbEntity
  8
0
100
AcDbLine
 62
7
  6
CONTINUOUS
 10
22.0
 20
0.0
 11
22.0
 21
17.0
  0
LINE
  5
21E
100
AcDbEntity
  8
0
100
AcDbLine
 62
7
  6
CONTINUOUS
 10
4.6303672762
 20
5.5551198968
 11
4.6303672762
 21
5.4851198968
  0
LINE
  5
21F
100
AcDbEntity
  8
0
100
AcDbLine
 62
7
  6
CONTINUOUS
 10
4.8371572762
 20
5.3951198968
 11
4.9235772762
 21
5.3951198968
  0
LINE
  5
220
100
AcDbEntity
  8
0
100
AcDbLine
 62
7
  6
CONTINUOUS
 10
5.3371572762
 20
5.3951198968
 11
5.4235772762
 21
5.3951198968
  0
LINE
  5
221
100
AcDbEntity
  8
0
100
AcDbLine
 62
7
  6
CONTINUOUS
 10
5.8371572762
 20
5.3951198968
 11
5.9235772762
 21
5.3951198968
  0
LINE
  5
222
100
AcDbEntity
  8
0
100
AcDbLine
 62
7
  6
CONTINUOUS
 10
6.3371572762
 20
5.3951198968
 11
6.4235772762
 21
5.3951198968
  0
LINE
  5
223
100
AcDbEntity
  8
0
100
AcDbLine
 62
7
  6
CONTINUOUS
 10
6.8371572762
 20
5.3951198968
 11
6.9235772762
 21
5.3951198968
  0
LINE
  5
224
100
AcDbEntity
  8
0
100
AcDbLine
 62
7
  6
CONTINUOUS
 10
7.3371572762
 20
5.3951198968
 11
7.4235772762
 21
5.3951198968
  0
LINE
  5
225
100
AcDbEntity
  8
0
100
AcDbLine
 62
7
  6
CONTINUOUS
 10
4.6303672762
 20
5.4851198968
 11
4.7274372762
 21
5.4851198968
  0
LINE
  5
226
100
AcDbEntity
  8
0
100
AcDbLine
 62
7
  6
CONTINUOUS
 10
5.0332972762
 20
5.4851198968
 11
5.2274372762
 21
5.4851198968
  0
LINE
  5
227
100
AcDbEntity
  8
0
100
AcDbLine
 62
7
  6
CONTINUOUS
 10
5.5332972762
 20
5.4851198968
 11
5.7274372762
 21
5.4851198968
  0
LINE
  5
228
100
AcDbEntity
  8
0
100
AcDbLine
 62
7
  6
CONTINUOUS
 10
6.0332972762
 20
5.4851198968
 11
6.2274372762
 21
5.4851198968
  0
LINE
  5
229
100
AcDbEntity
  8
0
100
AcDbLine
 62
7
  6
CONTINUOUS
 10
6.5332972762
 20
5.4851198968
 11
6.7274372762
 21
5.4851198968
  0
LINE
  5
22A
100
AcDbEntity
  8
0
100
AcDbLine
 62
7
  6
CONTINUOUS
 10
7.0332972762
 20
5.4851198968
 11
7.2274372762
 21
5.4851198968
  0
LINE
  5
22B
100
AcDbEntity
  8
0
100
AcDbLine
 62
7
  6
CONTINUOUS
 10
7.5332972762
 20
5.4851198968
 11
7.6303672762
 21
5.4851198968
  0
LINE
  5
22C
100
AcDbEntity
  8
0
100
AcDbLine
 62
7
  6
CONTINUOUS
 10
7.6303672762
 20
5.5551198968
 11
7.5332972762
 21
5.5551198968
  0
LINE
  5
22D
100
AcDbEntity
  8
0
100
AcDbLine
 62
7
  6
CONTINUOUS
 10
7.2274372762
 20
5.5551198968
 11
7.0332972762
 21
5.5551198968
  0
LINE
  5
22E
100
AcDbEntity
  8
0
100
AcDbLine
 62
7
  6
CONTINUOUS
 10
6.7274372762
 20
5.5551198968
 11
6.5332972762
 21
5.5551198968
  0
LINE
  5
22F
100
AcDbEntity
  8
0
100
AcDbLine
 62
7
  6
CONTINUOUS
 10
6.2274372762
 20
5.5551198968
 11
6.0332972762
 21
5.5551198968
  0
LINE
  5
230
100
AcDbEntity
  8
0
100
AcDbLine
 62
7
  6
CONTINUOUS
 10
5.7274372762
 20
5.5551198968
 11
5.5332972762
 21
5.5551198968
  0
LINE
  5
231
100
AcDbEntity
  8
0
100
AcDbLine
 62
7
  6
CONTINUOUS
 10
5.2274372762
 20
5.5551198968
 11
5.0332972762
 21
5.5551198968
  0
LINE
  5
232
100
AcDbEntity
  8
0
100
AcDbLine
 62
7
  6
CONTINUOUS
 10
4.7274372762
 20
5.5551198968
 11
4.6303672762
 21
5.5551198968
  0
LINE
  5
233
100
AcDbEntity
  8
0
100
AcDbLine
 62
7
  6
CONTINUOUS
 10
7.4235772762
 20
5.6451198968
 11
7.3371572762
 21
5.6451198968
  0
LINE
  5
234
100
AcDbEntity
  8
0
100
AcDbLine
 62
7
  6
CONTINUOUS
 10
6.9235772762
 20
5.6451198968
 11
6.8371572762
 21
5.6451198968
  0
LINE
  5
235
100
AcDbEntity
  8
0
100
AcDbLine
 62
7
  6
CONTINUOUS
 10
6.4235772762
 20
5.6451198968
 11
6.3371572762
 21
5.6451198968
  0
LINE
  5
236
100
AcDbEntity
  8
0
100
AcDbLine
 62
7
  6
CONTINUOUS
 10
5.9235772762
 20
5.6451198968
 11
5.8371572762
 21
5.6451198968
  0
LINE
  5
237
100
AcDbEntity
  8
0
100
AcDbLine
 62
7
  6
CONTINUOUS
 10
5.4235772762
 20
5.6451198968
 11
5.3371572762
 21
5.6451198968
  0
LINE
  5
238
100
AcDbEntity
  8
0
100
AcDbLine
 62
7
  6
CONTINUOUS
 10
4.9235772762
 20
5.6451198968
 11
4.8371572762
 21
5.6451198968
  0
LINE
  5
239
100
AcDbEntity
  8
0
100
AcDbLine
 62
7
  6
CONTINUOUS
 10
7.6303672762
 20
5.4851198968
 11
7.6303672762
 21
5.5551198968
  0
LINE
  5
23A
100
AcDbEntity
  8
0
100
AcDbLine
 62
7
  6
CONTINUOUS
 10
4.5708720839
 20
13.3500477814
 11
4.5708720839
 21
11.8500477814
  0
LINE
  5
23B
100
AcDbEntity
  8
0
100
AcDbLine
 62
7
  6
CONTINUOUS
 10
7.5708720839
 20
11.8500477814
 11
4.5708720839
 21
11.8500477814
  0
LINE
  5
23C
100
AcDbEntity
  8
0
100
AcDbLine
 62
7
  6
CONTINUOUS
 10
4.5708720839
 20
13.3500477814
 11
7.5708720839
 21
13.3500477814
  0
LINE
  5
23D
100
AcDbEntity
  8
0
100
AcDbLine
 62
7
  6
CONTINUOUS
 10
7.5708720839
 20
13.3500477814
 11
7.5708720839
 21
11.8500477814
  0
LINE
  5
23E
100
AcDbEntity
  8
0
100
AcDbLine
 62
7
  6
CONTINUOUS
 10
14.8103552569
 20
5.3356247044
 11
14.8103552569
 21
5.5856247044
  0
LINE
  5
23F
100
AcDbEntity
  8
0
100
AcDbLine
 62
7
  6
CONTINUOUS
 10
16.3103552569
 20
5.3356247044
 11
14.8103552569
 21
5.3356247044
  0
LINE
  5
240
100
AcDbEntity
  8
0
100
AcDbLine
 62
7
  6
CONTINUOUS
 10
16.3103552569
 20
5.4256247044
 11
14.8103552569
 21
5.4256247044
  0
LINE
  5
241
100
AcDbEntity
  8
0
100
AcDbLine
 62
7
  6
CONTINUOUS
 10
16.3103552569
 20
5.4956247044
 11
14.8103552569
 21
5.4956247044
  0
LINE
  5
242
100
AcDbEntity
  8
0
100
AcDbLine
 62
7
  6
CONTINUOUS
 10
16.3103552569
 20
5.5856247044
 11
14.8103552569
 21
5.5856247044
  0
LINE
  5
243
100
AcDbEntity
  8
0
100
AcDbLine
 62
7
  6
CONTINUOUS
 10
16.3103552569
 20
5.3356247044
 11
16.3103552569
 21
5.5856247044
  0
LINE
  5
244
100
AcDbEntity
  8
0
100
AcDbLine
 62
7
  6
CONTINUOUS
 10
13.8972947696
 20
11.9450661596
 11
13.9186477002
 21
11.9015534618
  0
LINE
  5
245
100
AcDbEntity
  8
0
100
AcDbLine
 62
7
  6
CONTINUOUS
 10
14.0188994593
 20
11.9631519661
 11
14.0183596908
 21
11.9609755408
  0
LINE
  5
246
100
AcDbEntity
  8
0
100
AcDbLine
 62
7
  6
CONTINUOUS
 10
14.2603942547
 20
13.120056524
 11
13.8972947696
 21
11.9450661596
  0
LINE
  5
247
100
AcDbEntity
  8
0
100
AcDbLine
 62
7
  6
CONTINUOUS
 10
14.3846610024
 20
13.1555871783
 11
14.0228077739
 21
11.9846297016
  0
LINE
  5
248
100
AcDbEntity
  8
0
100
AcDbLine
 62
7
  6
CONTINUOUS
 10
14.2575735075
 20
11.8834676553
 11
14.258113276
 21
11.8856440805
  0
LINE
  5
249
100
AcDbEntity
  8
0
100
AcDbLine
 62
7
  6
CONTINUOUS
 10
14.2633591979
 20
11.8933597314
 11
14.2565766789
 21
11.871411492
  0
LINE
  5
24A
100
AcDbEntity
  8
0
100
AcDbLine
 62
7
  6
CONTINUOUS
 10
14.4794299563
 20
11.9631519661
 11
14.4789091381
 21
11.9609696318
  0
LINE
  5
24B
100
AcDbEntity
  8
0
100
AcDbLine
 62
7
  6
CONTINUOUS
 10
14.8451914994
 20
13.1555871783
 11
14.4833382709
 21
11.9846297016
  0
LINE
  5
24C
100
AcDbEntity
  8
0
100
AcDbLine
 62
7
  6
CONTINUOUS
 10
14.7181040045
 20
11.8834676553
 11
14.7186248228
 21
11.8856499896
  0
LINE
  5
24D
100
AcDbEntity
  8
0
100
AcDbLine
 62
7
  6
CONTINUOUS
 10
14.1365676712
 20
11.8456085647
 11
14.2161657623
 21
11.8456085647
  0
LINE
  5
24E
100
AcDbEntity
  8
0
100
AcDbLine
 62
7
  6
CONTINUOUS
 10
14.5970981682
 20
11.8456085647
 11
14.6766962593
 21
11.8456085647
  0
LINE
  5
24F
100
AcDbEntity
  8
0
100
AcDbLine
 62
7
  6
CONTINUOUS
 10
15.0576286652
 20
11.8456085647
 11
15.1372267563
 21
11.8456085647
  0
LINE
  5
250
100
AcDbEntity
  8
0
100
AcDbLine
 62
7
  6
CONTINUOUS
 10
15.5181591622
 20
11.8456085647
 11
15.5977572533
 21
11.8456085647
  0
LINE
  5
251
100
AcDbEntity
  8
0
100
AcDbLine
 62
7
  6
CONTINUOUS
 10
15.9786896592
 20
11.8456085647
 11
16.0582877503
 21
11.8456085647
  0
LINE
  5
252
100
AcDbEntity
  8
0
100
AcDbLine
 62
7
  6
CONTINUOUS
 10
16.4392201562
 20
11.8456085647
 11
16.5188182473
 21
11.8456085647
  0
LINE
  5
253
100
AcDbEntity
  8
0
100
AcDbLine
 62
7
  6
CONTINUOUS
 10
13.9186477002
 20
11.9015534618
 11
14.0080550909
 21
11.9015534618
  0
LINE
  5
254
100
AcDbEntity
  8
0
100
AcDbLine
 62
7
  6
CONTINUOUS
 10
14.2897708066
 20
11.9015534618
 11
14.4685855879
 21
11.9015534618
  0
LINE
  5
255
100
AcDbEntity
  8
0
100
AcDbLine
 62
7
  6
CONTINUOUS
 10
14.7503013036
 20
11.9015534618
 11
14.9291160849
 21
11.9015534618
  0
LINE
  5
256
100
AcDbEntity
  8
0
100
AcDbLine
 62
7
  6
CONTINUOUS
 10
15.2108318006
 20
11.9015534618
 11
15.3896465819
 21
11.9015534618
  0
LINE
  5
257
100
AcDbEntity
  8
0
100
AcDbLine
 62
7
  6
CONTINUOUS
 10
15.6713622976
 20
11.9015534618
 11
15.8501770789
 21
11.9015534618
  0
LINE
  5
258
100
AcDbEntity
  8
0
100
AcDbLine
 62
7
  6
CONTINUOUS
 10
16.1318927946
 20
11.9015534618
 11
16.3107075759
 21
11.9015534618
  0
LINE
  5
259
100
AcDbEntity
  8
0
100
AcDbLine
 62
7
  6
CONTINUOUS
 10
16.5924232916
 20
11.9015534618
 11
16.6818306823
 21
11.9015534618
  0
LINE
  5
25A
100
AcDbEntity
  8
0
100
AcDbLine
 62
7
  6
CONTINUOUS
 10
16.6604777516
 20
11.9450661596
 11
16.5710703609
 21
11.9450661596
  0
LINE
  5
25B
100
AcDbEntity
  8
0
100
AcDbLine
 62
7
  6
CONTINUOUS
 10
16.2893546453
 20
11.9450661596
 11
16.1105398639
 21
11.9450661596
  0
LINE
  5
25C
100
AcDbEntity
  8
0
100
AcDbLine
 62
7
  6
CONTINUOUS
 10
15.8288241483
 20
11.9450661596
 11
15.6500093669
 21
11.9450661596
  0
LINE
  5
25D
100
AcDbEntity
  8
0
100
AcDbLine
 62
7
  6
CONTINUOUS
 10
15.3682936513
 20
11.9450661596
 11
15.1894788699
 21
11.9450661596
  0
LINE
  5
25E
100
AcDbEntity
  8
0
100
AcDbLine
 62
7
  6
CONTINUOUS
 10
14.9077631543
 20
11.9450661596
 11
14.7289483729
 21
11.9450661596
  0
LINE
  5
25F
100
AcDbEntity
  8
0
100
AcDbLine
 62
7
  6
CONTINUOUS
 10
14.4472326573
 20
11.9450661596
 11
14.2684178759
 21
11.9450661596
  0
LINE
  5
260
100
AcDbEntity
  8
0
100
AcDbLine
 62
7
  6
CONTINUOUS
 10
13.9867021603
 20
11.9450661596
 11
13.8972947696
 21
11.9450661596
  0
LINE
  5
261
100
AcDbEntity
  8
0
100
AcDbLine
 62
7
  6
CONTINUOUS
 10
14.7237450098
 20
11.89289153
 11
14.717107176
 21
11.871411492
  0
LINE
  5
262
100
AcDbEntity
  8
0
100
AcDbLine
 62
7
  6
CONTINUOUS
 10
16.4425577806
 20
12.0010110567
 11
16.3629596895
 21
12.0010110567
  0
LINE
  5
263
100
AcDbEntity
  8
0
100
AcDbLine
 62
7
  6
CONTINUOUS
 10
15.9820272836
 20
12.0010110567
 11
15.9024291925
 21
12.0010110567
  0
LINE
  5
264
100
AcDbEntity
  8
0
100
AcDbLine
 62
7
  6
CONTINUOUS
 10
15.5214967866
 20
12.0010110567
 11
15.4418986955
 21
12.0010110567
  0
LINE
  5
265
100
AcDbEntity
  8
0
100
AcDbLine
 62
7
  6
CONTINUOUS
 10
15.0609662896
 20
12.0010110567
 11
14.9813681985
 21
12.0010110567
  0
LINE
  5
266
100
AcDbEntity
  8
0
100
AcDbLine
 62
7
  6
CONTINUOUS
 10
14.6004357926
 20
12.0010110567
 11
14.5208377015
 21
12.0010110567
  0
LINE
  5
267
100
AcDbEntity
  8
0
100
AcDbLine
 62
7
  6
CONTINUOUS
 10
14.1399052956
 20
12.0010110567
 11
14.0603072045
 21
12.0010110567
  0
LINE
  5
268
100
AcDbEntity
  8
0
100
AcDbLine
 62
7
  6
CONTINUOUS
 10
14.9399604533
 20
11.9631519661
 11
14.9394396351
 21
11.9609696318
  0
LINE
  5
269
100
AcDbEntity
  8
0
100
AcDbLine
 62
7
  6
CONTINUOUS
 10
15.3057219964
 20
13.1555871783
 11
14.9438687679
 21
11.9846297016
  0
LINE
  5
26A
100
AcDbEntity
  8
0
100
AcDbLine
 62
7
  6
CONTINUOUS
 10
15.1786345015
 20
11.8834676553
 11
15.1791553198
 21
11.8856499896
  0
LINE
  5
26B
100
AcDbEntity
  8
0
100
AcDbLine
 62
7
  6
CONTINUOUS
 10
15.1842755068
 20
11.89289153
 11
15.177637673
 21
11.871411492
  0
LINE
  5
26C
100
AcDbEntity
  8
0
100
AcDbLine
 62
7
  6
CONTINUOUS
 10
15.4004909503
 20
11.9631519661
 11
15.3999701321
 21
11.9609696318
  0
LINE
  5
26D
100
AcDbEntity
  8
0
100
AcDbLine
 62
7
  6
CONTINUOUS
 10
15.7662524934
 20
13.1555871783
 11
15.4043992649
 21
11.9846297016
  0
LINE
  5
26E
100
AcDbEntity
  8
0
100
AcDbLine
 62
7
  6
CONTINUOUS
 10
15.6391649985
 20
11.8834676553
 11
15.6396858168
 21
11.8856499896
  0
LINE
  5
26F
100
AcDbEntity
  8
0
100
AcDbLine
 62
7
  6
CONTINUOUS
 10
15.6448060038
 20
11.89289153
 11
15.63816817
 21
11.871411492
  0
LINE
  5
270
100
AcDbEntity
  8
0
100
AcDbLine
 62
7
  6
CONTINUOUS
 10
15.8610214473
 20
11.9631519661
 11
15.8605006291
 21
11.9609696318
  0
LINE
  5
271
100
AcDbEntity
  8
0
100
AcDbLine
 62
7
  6
CONTINUOUS
 10
16.2267829904
 20
13.1555871783
 11
15.8649297619
 21
11.9846297016
  0
LINE
  5
272
100
AcDbEntity
  8
0
100
AcDbLine
 62
7
  6
CONTINUOUS
 10
17.0235772367
 20
13.120056524
 11
16.934169846
 21
13.120056524
  0
LINE
  5
273
100
AcDbEntity
  8
0
100
AcDbLine
 62
7
  6
CONTINUOUS
 10
14.3498016454
 20
13.120056524
 11
14.2603942547
 21
13.120056524
  0
LINE
  5
274
100
AcDbEntity
  8
0
100
AcDbLine
 62
7
  6
CONTINUOUS
 10
14.631517361
 20
13.120056524
 11
14.8103321424
 21
13.120056524
  0
LINE
  5
275
100
AcDbEntity
  8
0
100
AcDbLine
 62
7
  6
CONTINUOUS
 10
15.092047858
 20
13.120056524
 11
15.2708626394
 21
13.120056524
  0
LINE
  5
276
100
AcDbEntity
  8
0
100
AcDbLine
 62
7
  6
CONTINUOUS
 10
15.552578355
 20
13.120056524
 11
15.7313931364
 21
13.120056524
  0
LINE
  5
277
100
AcDbEntity
  8
0
100
AcDbLine
 62
7
  6
CONTINUOUS
 10
16.013108852
 20
13.120056524
 11
16.1919236334
 21
13.120056524
  0
LINE
  5
278
100
AcDbEntity
  8
0
100
AcDbLine
 62
7
  6
CONTINUOUS
 10
16.473639349
 20
13.120056524
 11
16.6524541304
 21
13.120056524
  0
LINE
  5
279
100
AcDbEntity
  8
0
100
AcDbLine
 62
7
  6
CONTINUOUS
 10
16.8056572658
 20
13.1760014212
 11
16.7260591747
 21
13.1760014212
  0
LINE
  5
27A
100
AcDbEntity
  8
0
100
AcDbLine
 62
7
  6
CONTINUOUS
 10
16.3451267688
 20
13.1760014212
 11
16.2655286777
 21
13.1760014212
  0
LINE
  5
27B
100
AcDbEntity
  8
0
100
AcDbLine
 62
7
  6
CONTINUOUS
 10
15.8845962718
 20
13.1760014212
 11
15.8049981806
 21
13.1760014212
  0
LINE
  5
27C
100
AcDbEntity
  8
0
100
AcDbLine
 62
7
  6
CONTINUOUS
 10
15.4240657748
 20
13.1760014212
 11
15.3444676836
 21
13.1760014212
  0
LINE
  5
27D
100
AcDbEntity
  8
0
100
AcDbLine
 62
7
  6
CONTINUOUS
 10
14.9635352777
 20
13.1760014212
 11
14.8839371866
 21
13.1760014212
  0
LINE
  5
27E
100
AcDbEntity
  8
0
100
AcDbLine
 62
7
  6
CONTINUOUS
 10
14.5030047807
 20
13.1760014212
 11
14.4234066896
 21
13.1760014212
  0
LINE
  5
27F
100
AcDbEntity
  8
0
100
AcDbLine
 62
7
  6
CONTINUOUS
 10
16.0996954955
 20
11.8834676553
 11
16.1002163138
 21
11.8856499896
  0
LINE
  5
280
100
AcDbEntity
  8
0
100
AcDbLine
 62
7
  6
CONTINUOUS
 10
16.1053365008
 20
11.89289153
 11
16.098698667
 21
11.871411492
  0
LINE
  5
281
100
AcDbEntity
  8
0
100
AcDbLine
 62
7
  6
CONTINUOUS
 10
16.6818306823
 20
11.9015534618
 11
16.6604777516
 21
11.9450661596
  0
LINE
  5
282
100
AcDbEntity
  8
0
100
AcDbLine
 62
7
  6
CONTINUOUS
 10
16.3215519443
 20
11.9631519661
 11
16.3210370668
 21
11.9609677937
  0
LINE
  5
283
100
AcDbEntity
  8
0
100
AcDbLine
 62
7
  6
CONTINUOUS
 10
16.6873134874
 20
13.1555871783
 11
16.3254602589
 21
11.9846297016
  0
LINE
  5
284
100
AcDbEntity
  8
0
100
AcDbLine
 62
7
  6
CONTINUOUS
 10
16.5602259925
 20
11.8834676553
 11
16.56074087
 21
11.8856518276
  0
LINE
  5
285
100
AcDbEntity
  8
0
100
AcDbLine
 62
7
  6
CONTINUOUS
 10
16.56598477
 20
11.8932726411
 11
16.559229164
 21
11.871411492
  0
LINE
  5
286
100
AcDbEntity
  8
0
100
AcDbLine
 62
7
  6
CONTINUOUS
 10
17.0235772367
 20
13.120056524
 11
16.6604777516
 21
11.9450661596
  0
LINE
  5
287
100
AcDbEntity
  8
0
100
AcDbLine
 62
7
  6
CONTINUOUS
 10
17.0449301674
 20
13.0765438262
 11
16.6818306823
 21
11.9015534618
  0
LINE
  5
288
100
AcDbEntity
  8
0
100
AcDbLine
 62
7
  6
CONTINUOUS
 10
17.0449301674
 20
13.0765438262
 11
17.0235772367
 21
13.120056524
  0
ARC
  5
289
100
AcDbEntity
  8
0
100
AcDbCircle
 62
7
  6
CONTINUOUS
 10
4.7426847325
 20
5.2230637398
 40
0.57834
100
AcDbArc
 50
21.6998722745
 51
23.7539541897
  0
ARC
  5
28A
100
AcDbEntity
  8
0
100
AcDbCircle
 62
7
  6
CONTINUOUS
 10
6.0180498198
 20
5.2230637398
 40
0.57834
100
AcDbArc
 50
156.2460458103
 51
158.3001277255
  0
ARC
  5
28B
100
AcDbEntity
  8
0
100
AcDbCircle
 62
7
  6
CONTINUOUS
 10
5.2426847325
 20
5.2230637398
 40
0.57834
100
AcDbArc
 50
21.6998722745
 51
23.7539541897
  0
ARC
  5
28C
100
AcDbEntity
  8
0
100
AcDbCircle
 62
7
  6
CONTINUOUS
 10
5.7426847325
 20
5.2230637398
 40
0.57834
100
AcDbArc
 50
21.6998722745
 51
23.7539541897
  0
ARC
  5
28D
100
AcDbEntity
  8
0
100
AcDbCircle
 62
7
  6
CONTINUOUS
 10
5.5180498198
 20
5.2230637398
 40
0.57834
100
AcDbArc
 50
156.2460458103
 51
158.3001277255
  0
ARC
  5
28E
100
AcDbEntity
  8
0
100
AcDbCircle
 62
7
  6
CONTINUOUS
 10
4.2426847325
 20
5.2230637398
 40
0.57834
100
AcDbArc
 50
21.6998722745
 51
23.7539541897
  0
ARC
  5
28F
100
AcDbEntity
  8
0
100
AcDbCircle
 62
7
  6
CONTINUOUS
 10
5.3589872762
 20
5.4683187178
 40
0.084969
100
AcDbArc
 50
201.6998722745
 51
213.3351729967
  0
ARC
  5
290
100
AcDbEntity
  8
0
100
AcDbCircle
 62
7
  6
CONTINUOUS
 10
5.4017472762
 20
5.4683187178
 40
0.084969
100
AcDbArc
 50
326.6648270033
 51
338.3001277255
  0
ARC
  5
291
100
AcDbEntity
  8
0
100
AcDbCircle
 62
7
  6
CONTINUOUS
 10
5.8589872762
 20
5.4683187178
 40
0.084969
100
AcDbArc
 50
201.6998722745
 51
213.3351729967
  0
ARC
  5
292
100
AcDbEntity
  8
0
100
AcDbCircle
 62
7
  6
CONTINUOUS
 10
5.9017472762
 20
5.4683187178
 40
0.084969
100
AcDbArc
 50
326.6648270033
 51
338.3001277255
  0
ARC
  5
293
100
AcDbEntity
  8
0
100
AcDbCircle
 62
7
  6
CONTINUOUS
 10
4.9017472762
 20
5.4683187178
 40
0.084969
100
AcDbArc
 50
326.6648270033
 51
338.3001277255
  0
ARC
  5
294
100
AcDbEntity
  8
0
100
AcDbCircle
 62
7
  6
CONTINUOUS
 10
4.8589872762
 20
5.4683187178
 40
0.084969
100
AcDbArc
 50
201.6998722745
 51
213.3351729967
  0
ARC
  5
295
100
AcDbEntity
  8
0
100
AcDbCircle
 62
7
  6
CONTINUOUS
 10
5.3371572762
 20
5.4539598968
 40
0.05884
100
AcDbArc
 50
213.3351729967
 51
270.0
  0
ARC
  5
296
100
AcDbEntity
  8
0
100
AcDbCircle
 62
7
  6
CONTINUOUS
 10
5.4235772762
 20
5.4539598968
 40
0.05884
100
AcDbArc
 50
270.0
 51
326.6648270033
  0
ARC
  5
297
100
AcDbEntity
  8
0
100
AcDbCircle
 62
7
  6
CONTINUOUS
 10
5.8371572762
 20
5.4539598968
 40
0.05884
100
AcDbArc
 50
213.3351729967
 51
270.0
  0
ARC
  5
298
100
AcDbEntity
  8
0
100
AcDbCircle
 62
7
  6
CONTINUOUS
 10
5.9235772762
 20
5.4539598968
 40
0.05884
100
AcDbArc
 50
270.0
 51
326.6648270033
  0
ARC
  5
299
100
AcDbEntity
  8
0
100
AcDbCircle
 62
7
  6
CONTINUOUS
 10
4.9235772762
 20
5.4539598968
 40
0.05884
100
AcDbArc
 50
270.0
 51
326.6648270033
  0
ARC
  5
29A
100
AcDbEntity
  8
0
100
AcDbCircle
 62
7
  6
CONTINUOUS
 10
4.8371572762
 20
5.4539598968
 40
0.05884
100
AcDbArc
 50
213.3351729967
 51
270.0
  0
ARC
  5
29B
100
AcDbEntity
  8
0
100
AcDbCircle
 62
7
  6
CONTINUOUS
 10
5.2274372762
 20
5.4363998968
 40
0.04872
100
AcDbArc
 50
23.7539541897
 51
90.0
  0
ARC
  5
29C
100
AcDbEntity
  8
0
100
AcDbCircle
 62
7
  6
CONTINUOUS
 10
5.5332972762
 20
5.4363998968
 40
0.04872
100
AcDbArc
 50
90.0
 51
156.2460458103
  0
ARC
  5
29D
100
AcDbEntity
  8
0
100
AcDbCircle
 62
7
  6
CONTINUOUS
 10
5.7274372762
 20
5.4363998968
 40
0.04872
100
AcDbArc
 50
23.7539541897
 51
90.0
  0
ARC
  5
29E
100
AcDbEntity
  8
0
100
AcDbCircle
 62
7
  6
CONTINUOUS
 10
6.0332972762
 20
5.4363998968
 40
0.04872
100
AcDbArc
 50
90.0
 51
156.2460458103
  0
ARC
  5
29F
100
AcDbEntity
  8
0
100
AcDbCircle
 62
7
  6
CONTINUOUS
 10
5.0332972762
 20
5.4363998968
 40
0.04872
100
AcDbArc
 50
90.0
 51
156.2460458103
  0
ARC
  5
2A0
100
AcDbEntity
  8
0
100
AcDbCircle
 62
7
  6
CONTINUOUS
 10
4.7274372762
 20
5.4363998968
 40
0.04872
100
AcDbArc
 50
23.7539541897
 51
90.0
  0
ARC
  5
2A1
100
AcDbEntity
  8
0
100
AcDbCircle
 62
7
  6
CONTINUOUS
 10
5.7426847325
 20
5.8171760537
 40
0.57834
100
AcDbArc
 50
336.2460458103
 51
338.3001277255
  0
ARC
  5
2A2
100
AcDbEntity
  8
0
100
AcDbCircle
 62
7
  6
CONTINUOUS
 10
5.2426847325
 20
5.8171760537
 40
0.57834
100
AcDbArc
 50
336.2460458103
 51
338.3001277255
  0
ARC
  5
2A3
100
AcDbEntity
  8
0
100
AcDbCircle
 62
7
  6
CONTINUOUS
 10
6.0180498198
 20
5.8171760537
 40
0.57834
100
AcDbArc
 50
201.6998722745
 51
203.7539541897
  0
ARC
  5
2A4
100
AcDbEntity
  8
0
100
AcDbCircle
 62
7
  6
CONTINUOUS
 10
4.7426847325
 20
5.8171760537
 40
0.57834
100
AcDbArc
 50
336.2460458103
 51
338.3001277255
  0
ARC
  5
2A5
100
AcDbEntity
  8
0
100
AcDbCircle
 62
7
  6
CONTINUOUS
 10
5.5180498198
 20
5.8171760537
 40
0.57834
100
AcDbArc
 50
201.6998722745
 51
203.7539541897
  0
ARC
  5
2A6
100
AcDbEntity
  8
0
100
AcDbCircle
 62
7
  6
CONTINUOUS
 10
4.2426847325
 20
5.8171760537
 40
0.57834
100
AcDbArc
 50
336.2460458103
 51
338.3001277255
  0
ARC
  5
2A7
100
AcDbEntity
  8
0
100
AcDbCircle
 62
7
  6
CONTINUOUS
 10
5.9017472762
 20
5.5719210757
 40
0.084969
100
AcDbArc
 50
21.6998722745
 51
33.3351729967
  0
ARC
  5
2A8
100
AcDbEntity
  8
0
100
AcDbCircle
 62
7
  6
CONTINUOUS
 10
5.8589872762
 20
5.5719210757
 40
0.084969
100
AcDbArc
 50
146.6648270033
 51
158.3001277255
  0
ARC
  5
2A9
100
AcDbEntity
  8
0
100
AcDbCircle
 62
7
  6
CONTINUOUS
 10
5.4017472762
 20
5.5719210757
 40
0.084969
100
AcDbArc
 50
21.6998722745
 51
33.3351729967
  0
ARC
  5
2AA
100
AcDbEntity
  8
0
100
AcDbCircle
 62
7
  6
CONTINUOUS
 10
5.3589872762
 20
5.5719210757
 40
0.084969
100
AcDbArc
 50
146.6648270033
 51
158.3001277255
  0
ARC
  5
2AB
100
AcDbEntity
  8
0
100
AcDbCircle
 62
7
  6
CONTINUOUS
 10
4.9017472762
 20
5.5719210757
 40
0.084969
100
AcDbArc
 50
21.6998722745
 51
33.3351729967
  0
ARC
  5
2AC
100
AcDbEntity
  8
0
100
AcDbCircle
 62
7
  6
CONTINUOUS
 10
4.8589872762
 20
5.5719210757
 40
0.084969
100
AcDbArc
 50
146.6648270033
 51
158.3001277255
  0
ARC
  5
2AD
100
AcDbEntity
  8
0
100
AcDbCircle
 62
7
  6
CONTINUOUS
 10
5.9235772762
 20
5.5862798968
 40
0.05884
100
AcDbArc
 50
33.3351729967
 51
90.0
  0
ARC
  5
2AE
100
AcDbEntity
  8
0
100
AcDbCircle
 62
7
  6
CONTINUOUS
 10
5.8371572762
 20
5.5862798968
 40
0.05884
100
AcDbArc
 50
90.0
 51
146.6648270033
  0
ARC
  5
2AF
100
AcDbEntity
  8
0
100
AcDbCircle
 62
7
  6
CONTINUOUS
 10
5.4235772762
 20
5.5862798968
 40
0.05884
100
AcDbArc
 50
33.3351729967
 51
90.0
  0
ARC
  5
2B0
100
AcDbEntity
  8
0
100
AcDbCircle
 62
7
  6
CONTINUOUS
 10
5.3371572762
 20
5.5862798968
 40
0.05884
100
AcDbArc
 50
90.0
 51
146.6648270033
  0
ARC
  5
2B1
100
AcDbEntity
  8
0
100
AcDbCircle
 62
7
  6
CONTINUOUS
 10
4.9235772762
 20
5.5862798968
 40
0.05884
100
AcDbArc
 50
33.3351729967
 51
90.0
  0
ARC
  5
2B2
100
AcDbEntity
  8
0
100
AcDbCircle
 62
7
  6
CONTINUOUS
 10
4.8371572762
 20
5.5862798968
 40
0.05884
100
AcDbArc
 50
90.0
 51
146.6648270033
  0
ARC
  5
2B3
100
AcDbEntity
  8
0
100
AcDbCircle
 62
7
  6
CONTINUOUS
 10
6.0332972762
 20
5.6038398968
 40
0.04872
100
AcDbArc
 50
203.7539541897
 51
270.0
  0
ARC
  5
2B4
100
AcDbEntity
  8
0
100
AcDbCircle
 62
7
  6
CONTINUOUS
 10
5.7274372762
 20
5.6038398968
 40
0.04872
100
AcDbArc
 50
270.0
 51
336.2460458103
  0
ARC
  5
2B5
100
AcDbEntity
  8
0
100
AcDbCircle
 62
7
  6
CONTINUOUS
 10
5.5332972762
 20
5.6038398968
 40
0.04872
100
AcDbArc
 50
203.7539541897
 51
270.0
  0
ARC
  5
2B6
100
AcDbEntity
  8
0
100
AcDbCircle
 62
7
  6
CONTINUOUS
 10
5.2274372762
 20
5.6038398968
 40
0.04872
100
AcDbArc
 50
270.0
 51
336.2460458103
  0
ARC
  5
2B7
100
AcDbEntity
  8
0
100
AcDbCircle
 62
7
  6
CONTINUOUS
 10
5.0332972762
 20
5.6038398968
 40
0.04872
100
AcDbArc
 50
203.7539541897
 51
270.0
  0
ARC
  5
2B8
100
AcDbEntity
  8
0
100
AcDbCircle
 62
7
  6
CONTINUOUS
 10
4.7274372762
 20
5.6038398968
 40
0.04872
100
AcDbArc
 50
270.0
 51
336.2460458103
  0
ARC
  5
2B9
100
AcDbEntity
  8
0
100
AcDbCircle
 62
7
  6
CONTINUOUS
 10
6.5180498198
 20
5.2230637398
 40
0.57834
100
AcDbArc
 50
156.2460458103
 51
158.3001277255
  0
ARC
  5
2BA
100
AcDbEntity
  8
0
100
AcDbCircle
 62
7
  6
CONTINUOUS
 10
7.0180498198
 20
5.2230637398
 40
0.57834
100
AcDbArc
 50
156.2460458103
 51
158.3001277255
  0
ARC
  5
2BB
100
AcDbEntity
  8
0
100
AcDbCircle
 62
7
  6
CONTINUOUS
 10
6.2426847325
 20
5.2230637398
 40
0.57834
100
AcDbArc
 50
21.6998722745
 51
23.7539541897
  0
ARC
  5
2BC
100
AcDbEntity
  8
0
100
AcDbCircle
 62
7
  6
CONTINUOUS
 10
7.5180498198
 20
5.2230637398
 40
0.57834
100
AcDbArc
 50
156.2460458103
 51
158.3001277255
  0
ARC
  5
2BD
100
AcDbEntity
  8
0
100
AcDbCircle
 62
7
  6
CONTINUOUS
 10
6.7426847325
 20
5.2230637398
 40
0.57834
100
AcDbArc
 50
21.6998722745
 51
23.7539541897
  0
ARC
  5
2BE
100
AcDbEntity
  8
0
100
AcDbCircle
 62
7
  6
CONTINUOUS
 10
8.0180498198
 20
5.2230637398
 40
0.57834
100
AcDbArc
 50
156.2460458103
 51
158.3001277255
  0
ARC
  5
2BF
100
AcDbEntity
  8
0
100
AcDbCircle
 62
7
  6
CONTINUOUS
 10
6.3589872762
 20
5.4683187178
 40
0.084969
100
AcDbArc
 50
201.6998722745
 51
213.3351729967
  0
ARC
  5
2C0
100
AcDbEntity
  8
0
100
AcDbCircle
 62
7
  6
CONTINUOUS
 10
6.4017472762
 20
5.4683187178
 40
0.084969
100
AcDbArc
 50
326.6648270033
 51
338.3001277255
  0
ARC
  5
2C1
100
AcDbEntity
  8
0
100
AcDbCircle
 62
7
  6
CONTINUOUS
 10
6.8589872762
 20
5.4683187178
 40
0.084969
100
AcDbArc
 50
201.6998722745
 51
213.3351729967
  0
ARC
  5
2C2
100
AcDbEntity
  8
0
100
AcDbCircle
 62
7
  6
CONTINUOUS
 10
6.9017472762
 20
5.4683187178
 40
0.084969
100
AcDbArc
 50
326.6648270033
 51
338.3001277255
  0
ARC
  5
2C3
100
AcDbEntity
  8
0
100
AcDbCircle
 62
7
  6
CONTINUOUS
 10
7.3589872762
 20
5.4683187178
 40
0.084969
100
AcDbArc
 50
201.6998722745
 51
213.3351729967
  0
ARC
  5
2C4
100
AcDbEntity
  8
0
100
AcDbCircle
 62
7
  6
CONTINUOUS
 10
7.4017472762
 20
5.4683187178
 40
0.084969
100
AcDbArc
 50
326.6648270033
 51
338.3001277255
  0
ARC
  5
2C5
100
AcDbEntity
  8
0
100
AcDbCircle
 62
7
  6
CONTINUOUS
 10
6.3371572762
 20
5.4539598968
 40
0.05884
100
AcDbArc
 50
213.3351729967
 51
270.0
  0
ARC
  5
2C6
100
AcDbEntity
  8
0
100
AcDbCircle
 62
7
  6
CONTINUOUS
 10
6.4235772762
 20
5.4539598968
 40
0.05884
100
AcDbArc
 50
270.0
 51
326.6648270033
  0
ARC
  5
2C7
100
AcDbEntity
  8
0
100
AcDbCircle
 62
7
  6
CONTINUOUS
 10
6.8371572762
 20
5.4539598968
 40
0.05884
100
AcDbArc
 50
213.3351729967
 51
270.0
  0
ARC
  5
2C8
100
AcDbEntity
  8
0
100
AcDbCircle
 62
7
  6
CONTINUOUS
 10
6.9235772762
 20
5.4539598968
 40
0.05884
100
AcDbArc
 50
270.0
 51
326.6648270033
  0
ARC
  5
2C9
100
AcDbEntity
  8
0
100
AcDbCircle
 62
7
  6
CONTINUOUS
 10
7.3371572762
 20
5.4539598968
 40
0.05884
100
AcDbArc
 50
213.3351729967
 51
270.0
  0
ARC
  5
2CA
100
AcDbEntity
  8
0
100
AcDbCircle
 62
7
  6
CONTINUOUS
 10
7.4235772762
 20
5.4539598968
 40
0.05884
100
AcDbArc
 50
270.0
 51
326.6648270033
  0
ARC
  5
2CB
100
AcDbEntity
  8
0
100
AcDbCircle
 62
7
  6
CONTINUOUS
 10
6.2274372762
 20
5.4363998968
 40
0.04872
100
AcDbArc
 50
23.7539541897
 51
90.0
  0
ARC
  5
2CC
100
AcDbEntity
  8
0
100
AcDbCircle
 62
7
  6
CONTINUOUS
 10
6.5332972762
 20
5.4363998968
 40
0.04872
100
AcDbArc
 50
90.0
 51
156.2460458103
  0
ARC
  5
2CD
100
AcDbEntity
  8
0
100
AcDbCircle
 62
7
  6
CONTINUOUS
 10
6.7274372762
 20
5.4363998968
 40
0.04872
100
AcDbArc
 50
23.7539541897
 51
90.0
  0
ARC
  5
2CE
100
AcDbEntity
  8
0
100
AcDbCircle
 62
7
  6
CONTINUOUS
 10
7.0332972762
 20
5.4363998968
 40
0.04872
100
AcDbArc
 50
90.0
 51
156.2460458103
  0
ARC
  5
2CF
100
AcDbEntity
  8
0
100
AcDbCircle
 62
7
  6
CONTINUOUS
 10
7.2274372762
 20
5.4363998968
 40
0.04872
100
AcDbArc
 50
23.7539541897
 51
90.0
  0
ARC
  5
2D0
100
AcDbEntity
  8
0
100
AcDbCircle
 62
7
  6
CONTINUOUS
 10
7.5332972762
 20
5.4363998968
 40
0.04872
100
AcDbArc
 50
90.0
 51
156.2460458103
  0
ARC
  5
2D1
100
AcDbEntity
  8
0
100
AcDbCircle
 62
7
  6
CONTINUOUS
 10
8.0180498198
 20
5.8171760537
 40
0.57834
100
AcDbArc
 50
201.6998722745
 51
203.7539541897
  0
ARC
  5
2D2
100
AcDbEntity
  8
0
100
AcDbCircle
 62
7
  6
CONTINUOUS
 10
6.7426847325
 20
5.8171760537
 40
0.57834
100
AcDbArc
 50
336.2460458103
 51
338.3001277255
  0
ARC
  5
2D3
100
AcDbEntity
  8
0
100
AcDbCircle
 62
7
  6
CONTINUOUS
 10
7.5180498198
 20
5.8171760537
 40
0.57834
100
AcDbArc
 50
201.6998722745
 51
203.7539541897
  0
ARC
  5
2D4
100
AcDbEntity
  8
0
100
AcDbCircle
 62
7
  6
CONTINUOUS
 10
6.2426847325
 20
5.8171760537
 40
0.57834
100
AcDbArc
 50
336.2460458103
 51
338.3001277255
  0
ARC
  5
2D5
100
AcDbEntity
  8
0
100
AcDbCircle
 62
7
  6
CONTINUOUS
 10
7.0180498198
 20
5.8171760537
 40
0.57834
100
AcDbArc
 50
201.6998722745
 51
203.7539541897
  0
ARC
  5
2D6
100
AcDbEntity
  8
0
100
AcDbCircle
 62
7
  6
CONTINUOUS
 10
6.5180498198
 20
5.8171760537
 40
0.57834
100
AcDbArc
 50
201.6998722745
 51
203.7539541897
  0
ARC
  5
2D7
100
AcDbEntity
  8
0
100
AcDbCircle
 62
7
  6
CONTINUOUS
 10
7.4017472762
 20
5.5719210757
 40
0.084969
100
AcDbArc
 50
21.6998722745
 51
33.3351729967
  0
ARC
  5
2D8
100
AcDbEntity
  8
0
100
AcDbCircle
 62
7
  6
CONTINUOUS
 10
7.3589872762
 20
5.5719210757
 40
0.084969
100
AcDbArc
 50
146.6648270033
 51
158.3001277255
  0
ARC
  5
2D9
100
AcDbEntity
  8
0
100
AcDbCircle
 62
7
  6
CONTINUOUS
 10
6.9017472762
 20
5.5719210757
 40
0.084969
100
AcDbArc
 50
21.6998722745
 51
33.3351729967
  0
ARC
  5
2DA
100
AcDbEntity
  8
0
100
AcDbCircle
 62
7
  6
CONTINUOUS
 10
6.8589872762
 20
5.5719210757
 40
0.084969
100
AcDbArc
 50
146.6648270033
 51
158.3001277255
  0
ARC
  5
2DB
100
AcDbEntity
  8
0
100
AcDbCircle
 62
7
  6
CONTINUOUS
 10
6.4017472762
 20
5.5719210757
 40
0.084969
100
AcDbArc
 50
21.6998722745
 51
33.3351729967
  0
ARC
  5
2DC
100
AcDbEntity
  8
0
100
AcDbCircle
 62
7
  6
CONTINUOUS
 10
6.3589872762
 20
5.5719210757
 40
0.084969
100
AcDbArc
 50
146.6648270033
 51
158.3001277255
  0
ARC
  5
2DD
100
AcDbEntity
  8
0
100
AcDbCircle
 62
7
  6
CONTINUOUS
 10
7.4235772762
 20
5.5862798968
 40
0.05884
100
AcDbArc
 50
33.3351729967
 51
90.0
  0
ARC
  5
2DE
100
AcDbEntity
  8
0
100
AcDbCircle
 62
7
  6
CONTINUOUS
 10
7.3371572762
 20
5.5862798968
 40
0.05884
100
AcDbArc
 50
90.0
 51
146.6648270033
  0
ARC
  5
2DF
100
AcDbEntity
  8
0
100
AcDbCircle
 62
7
  6
CONTINUOUS
 10
6.9235772762
 20
5.5862798968
 40
0.05884
100
AcDbArc
 50
33.3351729967
 51
90.0
  0
ARC
  5
2E0
100
AcDbEntity
  8
0
100
AcDbCircle
 62
7
  6
CONTINUOUS
 10
6.8371572762
 20
5.5862798968
 40
0.05884
100
AcDbArc
 50
90.0
 51
146.6648270033
  0
ARC
  5
2E1
100
AcDbEntity
  8
0
100
AcDbCircle
 62
7
  6
CONTINUOUS
 10
6.4235772762
 20
5.5862798968
 40
0.05884
100
AcDbArc
 50
33.3351729967
 51
90.0
  0
ARC
  5
2E2
100
AcDbEntity
  8
0
100
AcDbCircle
 62
7
  6
CONTINUOUS
 10
6.3371572762
 20
5.5862798968
 40
0.05884
100
AcDbArc
 50
90.0
 51
146.6648270033
  0
ARC
  5
2E3
100
AcDbEntity
  8
0
100
AcDbCircle
 62
7
  6
CONTINUOUS
 10
7.5332972762
 20
5.6038398968
 40
0.04872
100
AcDbArc
 50
203.7539541897
 51
270.0
  0
ARC
  5
2E4
100
AcDbEntity
  8
0
100
AcDbCircle
 62
7
  6
CONTINUOUS
 10
7.2274372762
 20
5.6038398968
 40
0.04872
100
AcDbArc
 50
270.0
 51
336.2460458103
  0
ARC
  5
2E5
100
AcDbEntity
  8
0
100
AcDbCircle
 62
7
  6
CONTINUOUS
 10
7.0332972762
 20
5.6038398968
 40
0.04872
100
AcDbArc
 50
203.7539541897
 51
270.0
  0
ARC
  5
2E6
100
AcDbEntity
  8
0
100
AcDbCircle
 62
7
  6
CONTINUOUS
 10
6.7274372762
 20
5.6038398968
 40
0.04872
100
AcDbArc
 50
270.0
 51
336.2460458103
  0
ARC
  5
2E7
100
AcDbEntity
  8
0
100
AcDbCircle
 62
7
  6
CONTINUOUS
 10
6.5332972762
 20
5.6038398968
 40
0.04872
100
AcDbArc
 50
203.7539541897
 51
270.0
  0
ARC
  5
2E8
100
AcDbEntity
  8
0
100
AcDbCircle
 62
7
  6
CONTINUOUS
 10
6.2274372762
 20
5.6038398968
 40
0.04872
100
AcDbArc
 50
270.0
 51
336.2460458103
  0
ARC
  5
2E9
100
AcDbEntity
  8
0
100
AcDbCircle
 62
7
  6
CONTINUOUS
 10
13.6374334207
 20
11.40277499
 40
0.638704998
100
AcDbArc
 50
47.2222834731
 51
48.8165500072
  0
ARC
  5
2EA
100
AcDbEntity
  8
0
100
AcDbCircle
 62
7
  6
CONTINUOUS
 10
15.0190249117
 20
11.40277499
 40
0.638704998
100
AcDbArc
 50
47.2222834731
 51
48.8165500072
  0
ARC
  5
2EB
100
AcDbEntity
  8
0
100
AcDbCircle
 62
7
  6
CONTINUOUS
 10
15.0995700431
 20
12.4438446314
 40
0.638704998
100
AcDbArc
 50
227.2222834731
 51
228.8165500072
  0
ARC
  5
2EC
100
AcDbEntity
  8
0
100
AcDbCircle
 62
7
  6
CONTINUOUS
 10
14.5584944147
 20
11.40277499
 40
0.638704998
100
AcDbArc
 50
47.222283473
 51
48.8165500072
  0
ARC
  5
2ED
100
AcDbEntity
  8
0
100
AcDbCircle
 62
7
  6
CONTINUOUS
 10
14.0979639177
 20
11.40277499
 40
0.638704998
100
AcDbArc
 50
47.222283473
 51
48.8165500072
  0
ARC
  5
2EE
100
AcDbEntity
  8
0
100
AcDbCircle
 62
7
  6
CONTINUOUS
 10
14.6390395461
 20
12.4438446314
 40
0.638704998
100
AcDbArc
 50
227.222283473
 51
228.8165500072
  0
ARC
  5
2EF
100
AcDbEntity
  8
0
100
AcDbCircle
 62
7
  6
CONTINUOUS
 10
13.8257890021
 20
11.9942831839
 40
0.1956036845
100
AcDbArc
 50
350.8421728857
 51
354.3538923847
  0
ARC
  5
2F0
100
AcDbEntity
  8
0
100
AcDbCircle
 62
7
  6
CONTINUOUS
 10
14.2863194991
 20
11.9942831839
 40
0.1956036845
100
AcDbArc
 50
350.8421728857
 51
354.3538923847
  0
ARC
  5
2F1
100
AcDbEntity
  8
0
100
AcDbCircle
 62
7
  6
CONTINUOUS
 10
14.7468499961
 20
11.9942831839
 40
0.1956036845
100
AcDbArc
 50
350.8421728857
 51
354.3538923847
  0
ARC
  5
2F2
100
AcDbEntity
  8
0
100
AcDbCircle
 62
7
  6
CONTINUOUS
 10
15.2073804931
 20
11.9942831839
 40
0.1956036845
100
AcDbArc
 50
350.8421728857
 51
354.3538923847
  0
ARC
  5
2F3
100
AcDbEntity
  8
0
100
AcDbCircle
 62
7
  6
CONTINUOUS
 10
14.4506839647
 20
11.8523364375
 40
0.1956036845
100
AcDbArc
 50
170.8421728857
 51
174.3538923847
  0
ARC
  5
2F4
100
AcDbEntity
  8
0
100
AcDbCircle
 62
7
  6
CONTINUOUS
 10
15.3717449587
 20
11.8523364375
 40
0.1956036845
100
AcDbArc
 50
170.8421728857
 51
174.3538923847
  0
ARC
  5
2F5
100
AcDbEntity
  8
0
100
AcDbCircle
 62
7
  6
CONTINUOUS
 10
14.9112144617
 20
11.8523364375
 40
0.1956036845
100
AcDbArc
 50
170.8421728857
 51
174.3538923847
  0
ARC
  5
2F6
100
AcDbEntity
  8
0
100
AcDbCircle
 62
7
  6
CONTINUOUS
 10
14.0484158707
 20
11.9723045727
 40
0.0281054762
100
AcDbArc
 50
154.1673306625
 51
174.4168540287
  0
ARC
  5
2F7
100
AcDbEntity
  8
0
100
AcDbCircle
 62
7
  6
CONTINUOUS
 10
14.5089463677
 20
11.9723045727
 40
0.0281054762
100
AcDbArc
 50
154.1673306622
 51
174.4168540286
  0
ARC
  5
2F8
100
AcDbEntity
  8
0
100
AcDbCircle
 62
7
  6
CONTINUOUS
 10
14.9694768647
 20
11.9723045727
 40
0.0281054762
100
AcDbArc
 50
154.1673306625
 51
174.4168540287
  0
ARC
  5
2F9
100
AcDbEntity
  8
0
100
AcDbCircle
 62
7
  6
CONTINUOUS
 10
15.4300073617
 20
11.9723045727
 40
0.0281054762
100
AcDbArc
 50
154.1673306624
 51
174.4168540287
  0
ARC
  5
2FA
100
AcDbEntity
  8
0
100
AcDbCircle
 62
7
  6
CONTINUOUS
 10
14.2280570961
 20
11.8743150486
 40
0.0281054762
100
AcDbArc
 50
334.1673306622
 51
354.4168540287
  0
ARC
  5
2FB
100
AcDbEntity
  8
0
100
AcDbCircle
 62
7
  6
CONTINUOUS
 10
15.1491180901
 20
11.8743150486
 40
0.0281054762
100
AcDbArc
 50
334.1673306622
 51
354.4168540287
  0
ARC
  5
2FC
100
AcDbEntity
  8
0
100
AcDbCircle
 62
7
  6
CONTINUOUS
 10
14.6885875931
 20
11.8743150486
 40
0.0281054762
100
AcDbArc
 50
334.1673306625
 51
354.4168540288
  0
ARC
  5
2FD
100
AcDbEntity
  8
0
100
AcDbCircle
 62
7
  6
CONTINUOUS
 10
15.0021390312
 20
13.6188349958
 40
0.638704998
100
AcDbArc
 50
227.222283473
 51
228.8165500072
  0
ARC
  5
2FE
100
AcDbEntity
  8
0
100
AcDbCircle
 62
7
  6
CONTINUOUS
 10
15.4626695282
 20
13.6188349958
 40
0.638704998
100
AcDbArc
 50
227.222283473
 51
228.8165500072
  0
ARC
  5
2FF
100
AcDbEntity
  8
0
100
AcDbCircle
 62
7
  6
CONTINUOUS
 10
14.4115111246
 20
13.1472782672
 40
0.0281063569
100
AcDbArc
 50
154.1673306622
 51
162.8050439066
  0
ARC
  5
300
100
AcDbEntity
  8
0
100
AcDbCircle
 62
7
  6
CONTINUOUS
 10
15.3325721186
 20
13.1472782672
 40
0.0281063569
100
AcDbArc
 50
154.1673306624
 51
162.8050439065
  0
ARC
  5
301
100
AcDbEntity
  8
0
100
AcDbCircle
 62
7
  6
CONTINUOUS
 10
14.8720416216
 20
13.1472782672
 40
0.0281063569
100
AcDbArc
 50
154.1673306625
 51
162.8050439064
  0
ARC
  5
302
100
AcDbEntity
  8
0
100
AcDbCircle
 62
7
  6
CONTINUOUS
 10
15.9400859057
 20
11.40277499
 40
0.638704998
100
AcDbArc
 50
47.222283473
 51
48.8165500072
  0
ARC
  5
303
100
AcDbEntity
  8
0
100
AcDbCircle
 62
7
  6
CONTINUOUS
 10
15.4795554087
 20
11.40277499
 40
0.638704998
100
AcDbArc
 50
47.222283473
 51
48.8165500072
  0
ARC
  5
304
100
AcDbEntity
  8
0
100
AcDbCircle
 62
7
  6
CONTINUOUS
 10
16.0206310371
 20
12.4438446314
 40
0.638704998
100
AcDbArc
 50
227.2222834731
 51
228.8165500072
  0
ARC
  5
305
100
AcDbEntity
  8
0
100
AcDbCircle
 62
7
  6
CONTINUOUS
 10
16.4811615341
 20
12.4438446314
 40
0.638704998
100
AcDbArc
 50
227.222283473
 51
228.8165500072
  0
ARC
  5
306
100
AcDbEntity
  8
0
100
AcDbCircle
 62
7
  6
CONTINUOUS
 10
16.9416920311
 20
12.4438446314
 40
0.638704998
100
AcDbArc
 50
227.222283473
 51
228.8165500072
  0
ARC
  5
307
100
AcDbEntity
  8
0
100
AcDbCircle
 62
7
  6
CONTINUOUS
 10
15.5601005401
 20
12.4438446314
 40
0.638704998
100
AcDbArc
 50
227.222283473
 51
228.8165500072
  0
ARC
  5
308
100
AcDbEntity
  8
0
100
AcDbCircle
 62
7
  6
CONTINUOUS
 10
15.6679109901
 20
11.9942831839
 40
0.1956036845
100
AcDbArc
 50
350.8421728857
 51
354.3538923847
  0
ARC
  5
309
100
AcDbEntity
  8
0
100
AcDbCircle
 62
7
  6
CONTINUOUS
 10
16.1284414871
 20
11.9942831839
 40
0.1956036845
100
AcDbArc
 50
350.8421728857
 51
354.3538923847
  0
ARC
  5
30A
100
AcDbEntity
  8
0
100
AcDbCircle
 62
7
  6
CONTINUOUS
 10
16.7533364497
 20
11.8523364375
 40
0.1956036845
100
AcDbArc
 50
170.8421728857
 51
174.3538923847
  0
ARC
  5
30B
100
AcDbEntity
  8
0
100
AcDbCircle
 62
7
  6
CONTINUOUS
 10
16.2928059527
 20
11.8523364375
 40
0.1956036846
100
AcDbArc
 50
170.8421728858
 51
174.3538923847
  0
ARC
  5
30C
100
AcDbEntity
  8
0
100
AcDbCircle
 62
7
  6
CONTINUOUS
 10
15.8322754557
 20
11.8523364375
 40
0.1956036845
100
AcDbArc
 50
170.8421728857
 51
174.3538923847
  0
ARC
  5
30D
100
AcDbEntity
  8
0
100
AcDbCircle
 62
7
  6
CONTINUOUS
 10
15.8905378587
 20
11.9723045727
 40
0.0281054762
100
AcDbArc
 50
154.1673306623
 51
174.4168540288
  0
ARC
  5
30E
100
AcDbEntity
  8
0
100
AcDbCircle
 62
7
  6
CONTINUOUS
 10
16.3510683557
 20
11.9723045727
 40
0.0281054762
100
AcDbArc
 50
154.1673306625
 51
174.4168540288
  0
ARC
  5
30F
100
AcDbEntity
  8
0
100
AcDbCircle
 62
7
  6
CONTINUOUS
 10
16.5307095812
 20
11.8743150486
 40
0.0281054762
100
AcDbArc
 50
334.1673306623
 51
354.4168540287
  0
ARC
  5
310
100
AcDbEntity
  8
0
100
AcDbCircle
 62
7
  6
CONTINUOUS
 10
15.6096485872
 20
11.8743150486
 40
0.0281054762
100
AcDbArc
 50
334.1673306625
 51
354.4168540288
  0
ARC
  5
311
100
AcDbEntity
  8
0
100
AcDbCircle
 62
7
  6
CONTINUOUS
 10
16.0701790842
 20
11.8743150486
 40
0.0281054762
100
AcDbArc
 50
334.1673306622
 51
354.4168540288
  0
ARC
  5
312
100
AcDbEntity
  8
0
100
AcDbCircle
 62
7
  6
CONTINUOUS
 10
16.3837305222
 20
13.6188349958
 40
0.638704998
100
AcDbArc
 50
227.2222834731
 51
228.8165500072
  0
ARC
  5
313
100
AcDbEntity
  8
0
100
AcDbCircle
 62
7
  6
CONTINUOUS
 10
15.9232000252
 20
13.6188349958
 40
0.638704998
100
AcDbArc
 50
227.2222834731
 51
228.8165500072
  0
ARC
  5
314
100
AcDbEntity
  8
0
100
AcDbCircle
 62
7
  6
CONTINUOUS
 10
17.3047915162
 20
13.6188349958
 40
0.638704998
100
AcDbArc
 50
227.222283473
 51
228.8165500072
  0
ARC
  5
315
100
AcDbEntity
  8
0
100
AcDbCircle
 62
7
  6
CONTINUOUS
 10
16.8442610192
 20
13.6188349958
 40
0.638704998
100
AcDbArc
 50
227.222283473
 51
228.8165500073
  0
ARC
  5
316
100
AcDbEntity
  8
0
100
AcDbCircle
 62
7
  6
CONTINUOUS
 10
16.7141636096
 20
13.1472782672
 40
0.0281063569
100
AcDbArc
 50
154.1673306624
 51
162.8050439064
  0
ARC
  5
317
100
AcDbEntity
  8
0
100
AcDbCircle
 62
7
  6
CONTINUOUS
 10
16.2536331126
 20
13.1472782672
 40
0.0281063569
100
AcDbArc
 50
154.1673306624
 51
162.8050439065
  0
ARC
  5
318
100
AcDbEntity
  8
0
100
AcDbCircle
 62
7
  6
CONTINUOUS
 10
15.7931026156
 20
13.1472782672
 40
0.0281063569
100
AcDbArc
 50
154.1673306624
 51
162.8050439065
  0
SPLINE
  5
319
100
AcDbEntity
  8
0
100
AcDbSpline
 62
7
  6
CONTINUOUS
 70
0
 71
3
 72
13
 73
9
 74
0
 42
0.0000001
 43
0.0000001
 44
0.0000000001
 40
0.0
 40
0.0
 40
0.0
 40
0.0
 40
0.1220777926
 40
0.2488756815
 40
0.5079295526
 40
0.7628129667
 40
0.884590511
 40
1.0
 40
1.0
 40
1.0
 40
1.0
 10
14.631517361
 20
13.120056524
 30
0.0
 10
14.629314569
 20
13.120056524
 30
0.0
 10
14.6248215786
 20
13.12028392
 30
0.0
 10
14.6157352594
 20
13.1215503238
 30
0.0
 10
14.6045235206
 20
13.124592925
 30
0.0
 10
14.5940339527
 20
13.1293834336
 30
0.0
 10
14.5865226257
 20
13.1341376214
 30
0.0
 10
14.583136813
 20
13.136770997
 30
0.0
 10
14.5815696124
 20
13.1381423305
 30
0.0
  0
SPLINE
  5
31A
100
AcDbEntity
  8
0
100
AcDbSpline
 62
7
  6
CONTINUOUS
 70
0
 71
3
 72
9
 73
5
 74
0
 42
0.0000001
 43
0.0000001
 44
0.0000000001
 40
0.0
 40
0.0
 40
0.0
 40
0.0
 40
0.2423988484
 40
1.0
 40
1.0
 40
1.0
 40
1.0
 10
14.5683587694
 20
13.1500293229
 30
0.0
 10
14.5674513352
 20
13.1508692453
 30
0.0
 10
14.5636374609
 20
13.1542579763
 30
0.0
 10
14.5595606054
 20
13.1573470671
 30
0.0
 10
14.5563685079
 20
13.1595254542
 30
0.0
  0
SPLINE
  5
31B
100
AcDbEntity
  8
0
100
AcDbSpline
 62
7
  6
CONTINUOUS
 70
0
 71
3
 72
13
 73
9
 74
0
 42
0.0000001
 43
0.0000001
 44
0.0000000001
 40
0.0
 40
0.0
 40
0.0
 40
0.0
 40
0.1203837678
 40
0.2448858705
 40
0.5000359659
 40
0.7551674118
 40
0.8796468281
 40
1.0
 40
1.0
 40
1.0
 40
1.0
 10
14.5563685079
 20
13.1595254542
 30
0.0
 10
14.5544923292
 20
13.1608058172
 30
0.0
 10
14.5505623274
 20
13.1632473035
 30
0.0
 10
14.5421853404
 20
13.1676032362
 30
0.0
 10
14.5309753646
 20
13.1719432844
 30
0.0
 10
14.5192702702
 20
13.1746783256
 30
0.0
 10
14.5098969959
 20
13.1758027172
 30
0.0
 10
14.5052756295
 20
13.1760014212
 30
0.0
 10
14.5030047807
 20
13.1760014212
 30
0.0
  0
SPLINE
  5
31C
100
AcDbEntity
  8
0
100
AcDbSpline
 62
7
  6
CONTINUOUS
 70
0
 71
3
 72
15
 73
11
 74
0
 42
0.0000001
 43
0.0000001
 44
0.0000000001
 40
0.0
 40
0.0
 40
0.0
 40
0.0
 40
0.1530780943
 40
0.2990728638
 40
0.4366363831
 40
0.5650828719
 40
0.6846338945
 40
0.796035822
 40
0.9005658846
 40
1.0
 40
1.0
 40
1.0
 40
1.0
 10
14.4234066896
 20
13.1760014212
 30
0.0
 10
14.421227491
 20
13.1760014212
 30
0.0
 10
14.4169672916
 20
13.175825356
 30
0.0
 10
14.4107961241
 20
13.1750101534
 30
0.0
 10
14.4050769623
 20
13.1736580946
 30
0.0
 10
14.3999048468
 20
13.1717794731
 30
0.0
 10
14.3953529802
 20
13.1694055672
 30
0.0
 10
14.3914925973
 20
13.1665559006
 30
0.0
 10
14.3883876035
 20
13.163279451
 30
0.0
 10
14.386829994
 20
13.1607996466
 30
0.0
 10
14.3862134229
 20
13.1595254542
 30
0.0
  0
SPLINE
  5
31D
100
AcDbEntity
  8
0
100
AcDbSpline
 62
7
  6
CONTINUOUS
 70
0
 71
3
 72
13
 73
9
 74
0
 42
0.0000001
 43
0.0000001
 44
0.0000000001
 40
0.0
 40
0.0
 40
0.0
 40
0.0
 40
0.2129656442
 40
0.3286511744
 40
0.4508735487
 40
0.5796906043
 40
0.7146398501
 40
1.0
 40
1.0
 40
1.0
 40
1.0
 10
14.3763798531
 20
13.128161168
 30
0.0
 10
14.3748894763
 20
13.1268074914
 30
0.0
 10
14.3722832618
 20
13.1250427922
 30
0.0
 10
14.3684176808
 20
13.1232400634
 30
0.0
 10
14.3651415963
 20
13.1220870267
 30
0.0
 10
14.3616014591
 20
13.1211848534
 30
0.0
 10
14.3564817387
 20
13.1203020726
 30
0.0
 10
14.3524994322
 20
13.120056524
 30
0.0
 10
14.3498016454
 20
13.120056524
 30
0.0
  0
SPLINE
  5
31E
100
AcDbEntity
  8
0
100
AcDbSpline
 62
7
  6
CONTINUOUS
 70
0
 71
3
 72
15
 73
11
 74
0
 42
0.0000001
 43
0.0000001
 44
0.0000000001
 40
0.0
 40
0.0
 40
0.0
 40
0.0
 40
0.0996554863
 40
0.2030136132
 40
0.3127633415
 40
0.4310002129
 40
0.5589716022
 40
0.6971420601
 40
0.8446717856
 40
1.0
 40
1.0
 40
1.0
 40
1.0
 10
14.2580869879
 20
11.885652222
 30
0.0
 10
14.2584597852
 20
11.8868505567
 30
0.0
 10
14.2595146476
 20
11.889208998
 30
0.0
 10
14.2619049739
 20
11.8923765369
 30
0.0
 10
14.2650713829
 20
11.8951348957
 30
0.0
 10
14.2689388805
 20
11.8974404823
 30
0.0
 10
14.2734379979
 20
11.8992691604
 30
0.0
 10
14.2784917251
 20
11.9005849975
 30
0.0
 10
14.2839979074
 20
11.9013814226
 30
0.0
 10
14.287814724
 20
11.9015534618
 30
0.0
 10
14.2897708066
 20
11.9015534618
 30
0.0
  0
SPLINE
  5
31F
100
AcDbEntity
  8
0
100
AcDbSpline
 62
7
  6
CONTINUOUS
 70
0
 71
3
 72
12
 73
8
 74
0
 42
0.0000001
 43
0.0000001
 44
0.0000000001
 40
0.0
 40
0.0
 40
0.0
 40
0.0
 40
0.2121425101
 40
0.3275624019
 40
0.4495695023
 40
0.7131364635
 40
1.0
 40
1.0
 40
1.0
 40
1.0
 10
14.837285633
 20
13.1285110527
 30
0.0
 10
14.8358070241
 20
13.12710377
 30
0.0
 10
14.8331957113
 20
13.1252615964
 30
0.0
 10
14.8292954191
 20
13.123383389
 30
0.0
 10
14.8247564811
 20
13.1217351167
 30
0.0
 10
14.8183964056
 20
13.1203857643
 30
0.0
 10
14.8130923724
 20
13.120056524
 30
0.0
 10
14.8103321424
 20
13.120056524
 30
0.0
  0
SPLINE
  5
320
100
AcDbEntity
  8
0
100
AcDbSpline
 62
7
  6
CONTINUOUS
 70
0
 71
3
 72
9
 73
5
 74
0
 42
0.0000001
 43
0.0000001
 44
0.0000000001
 40
0.0
 40
0.0
 40
0.0
 40
0.0
 40
0.4944528547
 40
1.0
 40
1.0
 40
1.0
 40
1.0
 10
14.7186159513
 20
11.8856527332
 30
0.0
 10
14.7189035945
 20
11.8865813523
 30
0.0
 10
14.7196590231
 20
11.888409704
 30
0.0
 10
14.7207268828
 20
11.8900737186
 30
0.0
 10
14.7213313146
 20
11.8908627815
 30
0.0
  0
SPLINE
  5
321
100
AcDbEntity
  8
0
100
AcDbSpline
 62
7
  6
CONTINUOUS
 70
0
 71
3
 72
14
 73
10
 74
0
 42
0.0000001
 43
0.0000001
 44
0.0000000001
 40
0.0
 40
0.0
 40
0.0
 40
0.0
 40
0.1011706613
 40
0.2079584709
 40
0.3215083982
 40
0.442515737
 40
0.7072637476
 40
0.8506392902
 40
1.0
 40
1.0
 40
1.0
 40
1.0
 10
14.7213313146
 20
11.8908627815
 30
0.0
 10
14.7219852473
 20
11.891716466
 30
0.0
 10
14.723489876
 20
11.8933525078
 30
0.0
 10
14.7261790502
 20
11.8954800942
 30
0.0
 10
14.7293199038
 20
11.8973180571
 30
0.0
 10
14.7342055518
 20
11.8994178978
 30
0.0
 10
14.7397106375
 20
11.9007639794
 30
0.0
 10
14.7456000436
 20
11.9014407547
 30
0.0
 10
14.7487137192
 20
11.9015534618
 30
0.0
 10
14.7503013036
 20
11.9015534618
 30
0.0
  0
SPLINE
  5
322
100
AcDbEntity
  8
0
100
AcDbSpline
 62
7
  6
CONTINUOUS
 70
0
 71
3
 72
12
 73
8
 74
0
 42
0.0000001
 43
0.0000001
 44
0.0000000001
 40
0.0
 40
0.0
 40
0.0
 40
0.0
 40
0.2121425101
 40
0.3275624019
 40
0.4495695023
 40
0.7131364635
 40
1.0
 40
1.0
 40
1.0
 40
1.0
 10
15.29781613
 20
13.1285110527
 30
0.0
 10
15.2963375211
 20
13.12710377
 30
0.0
 10
15.2937262083
 20
13.1252615964
 30
0.0
 10
15.2898259161
 20
13.123383389
 30
0.0
 10
15.2852869781
 20
13.1217351167
 30
0.0
 10
15.2789269026
 20
13.1203857643
 30
0.0
 10
15.2736228694
 20
13.120056524
 30
0.0
 10
15.2708626394
 20
13.120056524
 30
0.0
  0
SPLINE
  5
323
100
AcDbEntity
  8
0
100
AcDbSpline
 62
7
  6
CONTINUOUS
 70
0
 71
3
 72
9
 73
5
 74
0
 42
0.0000001
 43
0.0000001
 44
0.0000000001
 40
0.0
 40
0.0
 40
0.0
 40
0.0
 40
0.4944528547
 40
1.0
 40
1.0
 40
1.0
 40
1.0
 10
15.1791464483
 20
11.8856527332
 30
0.0
 10
15.1794340915
 20
11.8865813523
 30
0.0
 10
15.1801895201
 20
11.888409704
 30
0.0
 10
15.1812573798
 20
11.8900737186
 30
0.0
 10
15.1818618116
 20
11.8908627815
 30
0.0
  0
SPLINE
  5
324
100
AcDbEntity
  8
0
100
AcDbSpline
 62
7
  6
CONTINUOUS
 70
0
 71
3
 72
14
 73
10
 74
0
 42
0.0000001
 43
0.0000001
 44
0.0000000001
 40
0.0
 40
0.0
 40
0.0
 40
0.0
 40
0.1011706613
 40
0.2079584709
 40
0.3215083982
 40
0.442515737
 40
0.7072637476
 40
0.8506392902
 40
1.0
 40
1.0
 40
1.0
 40
1.0
 10
15.1818618116
 20
11.8908627815
 30
0.0
 10
15.1825157443
 20
11.891716466
 30
0.0
 10
15.184020373
 20
11.8933525078
 30
0.0
 10
15.1867095472
 20
11.8954800942
 30
0.0
 10
15.1898504008
 20
11.8973180571
 30
0.0
 10
15.1947360488
 20
11.8994178978
 30
0.0
 10
15.2002411345
 20
11.9007639794
 30
0.0
 10
15.2061305406
 20
11.9014407547
 30
0.0
 10
15.2092442162
 20
11.9015534618
 30
0.0
 10
15.2108318006
 20
11.9015534618
 30
0.0
  0
SPLINE
  5
325
100
AcDbEntity
  8
0
100
AcDbSpline
 62
7
  6
CONTINUOUS
 70
0
 71
3
 72
12
 73
8
 74
0
 42
0.0000001
 43
0.0000001
 44
0.0000000001
 40
0.0
 40
0.0
 40
0.0
 40
0.0
 40
0.2121425101
 40
0.3275624019
 40
0.4495695023
 40
0.7131364635
 40
1.0
 40
1.0
 40
1.0
 40
1.0
 10
15.758346627
 20
13.1285110527
 30
0.0
 10
15.7568680181
 20
13.12710377
 30
0.0
 10
15.7542567053
 20
13.1252615964
 30
0.0
 10
15.7503564131
 20
13.123383389
 30
0.0
 10
15.7458174752
 20
13.1217351167
 30
0.0
 10
15.7394573996
 20
13.1203857643
 30
0.0
 10
15.7341533664
 20
13.120056524
 30
0.0
 10
15.7313931364
 20
13.120056524
 30
0.0
  0
SPLINE
  5
326
100
AcDbEntity
  8
0
100
AcDbSpline
 62
7
  6
CONTINUOUS
 70
0
 71
3
 72
9
 73
5
 74
0
 42
0.0000001
 43
0.0000001
 44
0.0000000001
 40
0.0
 40
0.0
 40
0.0
 40
0.0
 40
0.4944528547
 40
1.0
 40
1.0
 40
1.0
 40
1.0
 10
15.6396769453
 20
11.8856527332
 30
0.0
 10
15.6399645885
 20
11.8865813523
 30
0.0
 10
15.6407200171
 20
11.888409704
 30
0.0
 10
15.6417878769
 20
11.8900737186
 30
0.0
 10
15.6423923086
 20
11.8908627815
 30
0.0
  0
SPLINE
  5
327
100
AcDbEntity
  8
0
100
AcDbSpline
 62
7
  6
CONTINUOUS
 70
0
 71
3
 72
14
 73
10
 74
0
 42
0.0000001
 43
0.0000001
 44
0.0000000001
 40
0.0
 40
0.0
 40
0.0
 40
0.0
 40
0.1011706613
 40
0.2079584709
 40
0.3215083982
 40
0.442515737
 40
0.7072637476
 40
0.8506392902
 40
1.0
 40
1.0
 40
1.0
 40
1.0
 10
15.6423923086
 20
11.8908627815
 30
0.0
 10
15.6430462413
 20
11.891716466
 30
0.0
 10
15.64455087
 20
11.8933525078
 30
0.0
 10
15.6472400442
 20
11.8954800942
 30
0.0
 10
15.6503808978
 20
11.8973180571
 30
0.0
 10
15.6552665458
 20
11.8994178978
 30
0.0
 10
15.6607716315
 20
11.9007639794
 30
0.0
 10
15.6666610376
 20
11.9014407547
 30
0.0
 10
15.6697747132
 20
11.9015534618
 30
0.0
 10
15.6713622976
 20
11.9015534618
 30
0.0
  0
SPLINE
  5
328
100
AcDbEntity
  8
0
100
AcDbSpline
 62
7
  6
CONTINUOUS
 70
0
 71
3
 72
12
 73
8
 74
0
 42
0.0000001
 43
0.0000001
 44
0.0000000001
 40
0.0
 40
0.0
 40
0.0
 40
0.0
 40
0.2121425101
 40
0.3275624019
 40
0.4495695023
 40
0.7131364635
 40
1.0
 40
1.0
 40
1.0
 40
1.0
 10
16.218877124
 20
13.1285110527
 30
0.0
 10
16.2173985151
 20
13.12710377
 30
0.0
 10
16.2147872023
 20
13.1252615964
 30
0.0
 10
16.2108869101
 20
13.123383389
 30
0.0
 10
16.2063479722
 20
13.1217351167
 30
0.0
 10
16.1999878966
 20
13.1203857643
 30
0.0
 10
16.1946838634
 20
13.120056524
 30
0.0
 10
16.1919236334
 20
13.120056524
 30
0.0
  0
SPLINE
  5
329
100
AcDbEntity
  8
0
100
AcDbSpline
 62
7
  6
CONTINUOUS
 70
0
 71
3
 72
9
 73
5
 74
0
 42
0.0000001
 43
0.0000001
 44
0.0000000001
 40
0.0
 40
0.0
 40
0.0
 40
0.0
 40
0.4944528547
 40
1.0
 40
1.0
 40
1.0
 40
1.0
 10
16.1002074423
 20
11.8856527332
 30
0.0
 10
16.1004950855
 20
11.8865813523
 30
0.0
 10
16.1012505141
 20
11.888409704
 30
0.0
 10
16.1023183739
 20
11.8900737186
 30
0.0
 10
16.1029228056
 20
11.8908627815
 30
0.0
  0
SPLINE
  5
32A
100
AcDbEntity
  8
0
100
AcDbSpline
 62
7
  6
CONTINUOUS
 70
0
 71
3
 72
14
 73
10
 74
0
 42
0.0000001
 43
0.0000001
 44
0.0000000001
 40
0.0
 40
0.0
 40
0.0
 40
0.0
 40
0.1011706613
 40
0.2079584709
 40
0.3215083982
 40
0.442515737
 40
0.7072637476
 40
0.8506392902
 40
1.0
 40
1.0
 40
1.0
 40
1.0
 10
16.1029228056
 20
11.8908627815
 30
0.0
 10
16.1035767383
 20
11.891716466
 30
0.0
 10
16.105081367
 20
11.8933525078
 30
0.0
 10
16.1077705412
 20
11.8954800942
 30
0.0
 10
16.1109113948
 20
11.8973180571
 30
0.0
 10
16.1157970428
 20
11.8994178978
 30
0.0
 10
16.1213021285
 20
11.9007639794
 30
0.0
 10
16.1271915346
 20
11.9014407547
 30
0.0
 10
16.1303052102
 20
11.9015534618
 30
0.0
 10
16.1318927946
 20
11.9015534618
 30
0.0
  0
SPLINE
  5
32B
100
AcDbEntity
  8
0
100
AcDbSpline
 62
7
  6
CONTINUOUS
 70
0
 71
3
 72
12
 73
8
 74
0
 42
0.0000001
 43
0.0000001
 44
0.0000000001
 40
0.0
 40
0.0
 40
0.0
 40
0.0
 40
0.2129063219
 40
0.4504080461
 40
0.578957232
 40
0.713795517
 40
1.0
 40
1.0
 40
1.0
 40
1.0
 10
16.6791022021
 20
13.1282257026
 30
0.0
 10
16.6776125793
 20
13.1268629089
 30
0.0
 10
16.6740412977
 20
13.1244278297
 30
0.0
 10
16.6689128197
 20
13.122378291
 30
0.0
 10
16.6643092153
 20
13.1211914202
 30
0.0
 10
16.6591698409
 20
13.1202996629
 30
0.0
 10
16.6551681608
 20
13.120056524
 30
0.0
 10
16.6524541304
 20
13.120056524
 30
0.0
  0
SPLINE
  5
32C
100
AcDbEntity
  8
0
100
AcDbSpline
 62
7
  6
CONTINUOUS
 70
0
 71
3
 72
9
 73
5
 74
0
 42
0.0000001
 43
0.0000001
 44
0.0000000001
 40
0.0
 40
0.0
 40
0.0
 40
0.0
 40
0.4970656586
 40
1.0
 40
1.0
 40
1.0
 40
1.0
 10
16.5607374482
 20
11.8856528854
 30
0.0
 10
16.5609449863
 20
11.8863237637
 30
0.0
 10
16.5614521072
 20
11.887647295
 30
0.0
 10
16.5621269083
 20
11.8888934664
 30
0.0
 10
16.562503766
 20
11.8894958297
 30
0.0
  0
SPLINE
  5
32D
100
AcDbEntity
  8
0
100
AcDbSpline
 62
7
  6
CONTINUOUS
 70
0
 71
3
 72
15
 73
11
 74
0
 42
0.0000001
 43
0.0000001
 44
0.0000000001
 40
0.0
 40
0.0
 40
0.0
 40
0.0
 40
0.1002094141
 40
0.2057752028
 40
0.3182902825
 40
0.4386528898
 40
0.5672541698
 40
0.7040721381
 40
0.8486831991
 40
1.0
 40
1.0
 40
1.0
 40
1.0
 10
16.562503766
 20
11.8894958297
 30
0.0
 10
16.5630982936
 20
11.8904461132
 30
0.0
 10
16.5645160814
 20
11.89227955
 30
0.0
 10
16.5671686654
 20
11.8946777442
 30
0.0
 10
16.5703516208
 20
11.8967528607
 30
0.0
 10
16.5740177522
 20
11.8984841651
 30
0.0
 10
16.578120955
 20
11.8998494438
 30
0.0
 10
16.5826080953
 20
11.9008350877
 30
0.0
 10
16.5874186658
 20
11.9014264096
 30
0.0
 10
16.5907306689
 20
11.9015534618
 30
0.0
 10
16.5924232916
 20
11.9015534618
 30
0.0
  0
SPLINE
  5
32E
100
AcDbEntity
  8
0
100
AcDbSpline
 62
7
  6
CONTINUOUS
 70
0
 71
3
 72
15
 73
11
 74
0
 42
0.0000001
 43
0.0000001
 44
0.0000000001
 40
0.0
 40
0.0
 40
0.0
 40
0.0
 40
0.1222817011
 40
0.2489157101
 40
0.3780263748
 40
0.5079164659
 40
0.6367627405
 40
0.7627815246
 40
0.8844047757
 40
1.0
 40
1.0
 40
1.0
 40
1.0
 10
16.934169846
 20
13.120056524
 30
0.0
 10
16.9319623157
 20
13.120056524
 30
0.0
 10
16.9274665064
 20
13.1202803438
 30
0.0
 10
16.9206996728
 20
13.1212246727
 30
0.0
 10
16.9139029334
 20
13.1227693329
 30
0.0
 10
16.9072190388
 20
13.1248811952
 30
0.0
 10
16.9007831587
 20
13.1275149834
 30
0.0
 10
16.894726916
 20
13.1306194648
 30
0.0
 10
16.8891778719
 20
13.1341301766
 30
0.0
 10
16.8857925735
 20
13.1367681309
 30
0.0
 10
16.8842220975
 20
13.1381423305
 30
0.0
  0
SPLINE
  5
32F
100
AcDbEntity
  8
0
100
AcDbSpline
 62
7
  6
CONTINUOUS
 70
0
 71
3
 72
9
 73
5
 74
0
 42
0.0000001
 43
0.0000001
 44
0.0000000001
 40
0.0
 40
0.0
 40
0.0
 40
0.0
 40
0.2423988484
 40
1.0
 40
1.0
 40
1.0
 40
1.0
 10
16.8710112544
 20
13.1500293229
 30
0.0
 10
16.8701038202
 20
13.1508692453
 30
0.0
 10
16.8662899459
 20
13.1542579763
 30
0.0
 10
16.8622130904
 20
13.1573470671
 30
0.0
 10
16.8590209929
 20
13.1595254542
 30
0.0
  0
SPLINE
  5
330
100
AcDbEntity
  8
0
100
AcDbSpline
 62
7
  6
CONTINUOUS
 70
0
 71
3
 72
13
 73
9
 74
0
 42
0.0000001
 43
0.0000001
 44
0.0000000001
 40
0.0
 40
0.0
 40
0.0
 40
0.0
 40
0.1205724429
 40
0.2449984083
 40
0.5000359535
 40
0.7550549225
 40
0.8794582258
 40
1.0
 40
1.0
 40
1.0
 40
1.0
 10
16.8590209929
 20
13.1595254542
 30
0.0
 10
16.8571418534
 20
13.1608078377
 30
0.0
 10
16.853211321
 20
13.1632525691
 30
0.0
 10
16.8448333864
 20
13.1676073435
 30
0.0
 10
16.8336267714
 20
13.1719397949
 30
0.0
 10
16.8219287352
 20
13.1746792157
 30
0.0
 10
16.8125553308
 20
13.1758050992
 30
0.0
 10
16.8079316976
 20
13.1760014212
 30
0.0
 10
16.8056572658
 20
13.1760014212
 30
0.0
  0
SPLINE
  5
331
100
AcDbEntity
  8
0
100
AcDbSpline
 62
7
  6
CONTINUOUS
 70
0
 71
3
 72
15
 73
11
 74
0
 42
0.0000001
 43
0.0000001
 44
0.0000000001
 40
0.0
 40
0.0
 40
0.0
 40
0.0
 40
0.1533512302
 40
0.2992405476
 40
0.4366039312
 40
0.5650532778
 40
0.6846259244
 40
0.7959435865
 40
0.9004117086
 40
1.0
 40
1.0
 40
1.0
 40
1.0
 10
16.7260591747
 20
13.1760014212
 30
0.0
 10
16.7238760262
 20
13.1760014212
 30
0.0
 10
16.7196132603
 20
13.1758276282
 30
0.0
 10
16.7134421746
 20
13.1750121542
 30
0.0
 10
16.7077282867
 20
13.1736561699
 30
0.0
 10
16.7025584439
 20
13.1717783231
 30
0.0
 10
16.698007534
 20
13.1694045227
 30
0.0
 10
16.6941450266
 20
13.1665608018
 30
0.0
 10
16.6910384608
 20
13.163284688
 30
0.0
 10
16.6894834524
 20
13.1608016583
 30
0.0
 10
16.688865908
 20
13.1595254542
 30
0.0
  0
SPLINE
  5
332
100
AcDbEntity
  8
0
100
AcDbSpline
 62
7
  6
CONTINUOUS
 70
0
 71
3
 72
15
 73
11
 74
0
 42
0.0000001
 43
0.0000001
 44
0.0000000001
 40
0.0
 40
0.0
 40
0.0
 40
0.0
 40
0.1222057151
 40
0.2488986716
 40
0.3780641057
 40
0.507917285
 40
0.6367249041
 40
0.7627980176
 40
0.884475195
 40
1.0
 40
1.0
 40
1.0
 40
1.0
 10
16.473639349
 20
13.120056524
 30
0.0
 10
16.4714331968
 20
13.120056524
 30
0.0
 10
16.4669378021
 20
13.1202814483
 30
0.0
 10
16.4601700519
 20
13.121224008
 30
0.0
 10
16.4533722371
 20
13.1227701485
 30
0.0
 10
16.4466882264
 20
13.1248803478
 30
0.0
 10
16.4402533408
 20
13.127515492
 30
0.0
 10
16.4341954147
 20
13.1306194444
 30
0.0
 10
16.428646858
 20
13.1341321599
 30
0.0
 10
16.4252611153
 20
13.1367689719
 30
0.0
 10
16.4236916005
 20
13.1381423305
 30
0.0
  0
SPLINE
  5
333
100
AcDbEntity
  8
0
100
AcDbSpline
 62
7
  6
CONTINUOUS
 70
0
 71
3
 72
9
 73
5
 74
0
 42
0.0000001
 43
0.0000001
 44
0.0000000001
 40
0.0
 40
0.0
 40
0.0
 40
0.0
 40
0.2423988484
 40
1.0
 40
1.0
 40
1.0
 40
1.0
 10
16.4104807574
 20
13.1500293229
 30
0.0
 10
16.4095733232
 20
13.1508692453
 30
0.0
 10
16.4057594489
 20
13.1542579763
 30
0.0
 10
16.4016825934
 20
13.1573470671
 30
0.0
 10
16.3984904959
 20
13.1595254542
 30
0.0
  0
SPLINE
  5
334
100
AcDbEntity
  8
0
100
AcDbSpline
 62
7
  6
CONTINUOUS
 70
0
 71
3
 72
15
 73
11
 74
0
 42
0.0000001
 43
0.0000001
 44
0.0000000001
 40
0.0
 40
0.0
 40
0.0
 40
0.0
 40
0.120477493
 40
0.2449058997
 40
0.3718496822
 40
0.5000359264
 40
0.6282174994
 40
0.7551474115
 40
0.8795531466
 40
1.0
 40
1.0
 40
1.0
 40
1.0
 10
16.3984904959
 20
13.1595254542
 30
0.0
 10
16.3966122248
 20
13.1608072452
 30
0.0
 10
16.3926816472
 20
13.163251077
 30
0.0
 10
16.3864494285
 20
13.1664922963
 30
0.0
 10
16.3798613222
 20
13.1693226489
 30
0.0
 10
16.3730224675
 20
13.1717016489
 30
0.0
 10
16.3660330545
 20
13.1735921242
 30
0.0
 10
16.3589967864
 20
13.1749682952
 30
0.0
 10
16.3520233132
 20
13.1758043305
 30
0.0
 10
16.3474001497
 20
13.1760014212
 30
0.0
 10
16.3451267688
 20
13.1760014212
 30
0.0
  0
SPLINE
  5
335
100
AcDbEntity
  8
0
100
AcDbSpline
 62
7
  6
CONTINUOUS
 70
0
 71
3
 72
15
 73
11
 74
0
 42
0.0000001
 43
0.0000001
 44
0.0000000001
 40
0.0
 40
0.0
 40
0.0
 40
0.0
 40
0.1532740614
 40
0.2992263589
 40
0.4366312608
 40
0.5650592695
 40
0.6845998962
 40
0.7959558292
 40
0.9004572415
 40
1.0
 40
1.0
 40
1.0
 40
1.0
 10
16.2655286777
 20
13.1760014212
 30
0.0
 10
16.2633466388
 20
13.1760014212
 30
0.0
 10
16.2590841696
 20
13.175826829
 30
0.0
 10
16.2529125175
 20
13.1750126867
 30
0.0
 10
16.247197754
 20
13.1736555203
 30
0.0
 10
16.2420275746
 20
13.1717790303
 30
0.0
 10
16.2374775942
 20
13.1694040684
 30
0.0
 10
16.2336139165
 20
13.1665609138
 30
0.0
 10
16.2305084964
 20
13.1632832684
 30
0.0
 10
16.2289526699
 20
13.1608010683
 30
0.0
 10
16.228335411
 20
13.1595254542
 30
0.0
  0
SPLINE
  5
336
100
AcDbEntity
  8
0
100
AcDbSpline
 62
7
  6
CONTINUOUS
 70
0
 71
3
 72
15
 73
11
 74
0
 42
0.0000001
 43
0.0000001
 44
0.0000000001
 40
0.0
 40
0.0
 40
0.0
 40
0.0
 40
0.1222057151
 40
0.2488986716
 40
0.3780641057
 40
0.507917285
 40
0.6367249041
 40
0.7627980176
 40
0.884475195
 40
1.0
 40
1.0
 40
1.0
 40
1.0
 10
16.013108852
 20
13.120056524
 30
0.0
 10
16.0109026998
 20
13.120056524
 30
0.0
 10
16.0064073051
 20
13.1202814483
 30
0.0
 10
15.9996395549
 20
13.121224008
 30
0.0
 10
15.9928417401
 20
13.1227701485
 30
0.0
 10
15.9861577294
 20
13.1248803478
 30
0.0
 10
15.9797228438
 20
13.127515492
 30
0.0
 10
15.9736649177
 20
13.1306194444
 30
0.0
 10
15.968116361
 20
13.1341321599
 30
0.0
 10
15.9647306183
 20
13.1367689719
 30
0.0
 10
15.9631611035
 20
13.1381423305
 30
0.0
  0
SPLINE
  5
337
100
AcDbEntity
  8
0
100
AcDbSpline
 62
7
  6
CONTINUOUS
 70
0
 71
3
 72
9
 73
5
 74
0
 42
0.0000001
 43
0.0000001
 44
0.0000000001
 40
0.0
 40
0.0
 40
0.0
 40
0.0
 40
0.2423988484
 40
1.0
 40
1.0
 40
1.0
 40
1.0
 10
15.9499502604
 20
13.1500293229
 30
0.0
 10
15.9490428262
 20
13.1508692453
 30
0.0
 10
15.9452289519
 20
13.1542579763
 30
0.0
 10
15.9411520964
 20
13.1573470671
 30
0.0
 10
15.9379599989
 20
13.1595254542
 30
0.0
  0
SPLINE
  5
338
100
AcDbEntity
  8
0
100
AcDbSpline
 62
7
  6
CONTINUOUS
 70
0
 71
3
 72
13
 73
9
 74
0
 42
0.0000001
 43
0.0000001
 44
0.0000000001
 40
0.0
 40
0.0
 40
0.0
 40
0.0
 40
0.1203837678
 40
0.2448858705
 40
0.5000359659
 40
0.7551674118
 40
0.8796468281
 40
1.0
 40
1.0
 40
1.0
 40
1.0
 10
15.9379599989
 20
13.1595254542
 30
0.0
 10
15.9360838202
 20
13.1608058172
 30
0.0
 10
15.9321538184
 20
13.1632473035
 30
0.0
 10
15.9237768314
 20
13.1676032362
 30
0.0
 10
15.9125668556
 20
13.1719432844
 30
0.0
 10
15.9008617612
 20
13.1746783256
 30
0.0
 10
15.8914884869
 20
13.1758027172
 30
0.0
 10
15.8868671205
 20
13.1760014212
 30
0.0
 10
15.8845962718
 20
13.1760014212
 30
0.0
  0
SPLINE
  5
339
100
AcDbEntity
  8
0
100
AcDbSpline
 62
7
  6
CONTINUOUS
 70
0
 71
3
 72
15
 73
11
 74
0
 42
0.0000001
 43
0.0000001
 44
0.0000000001
 40
0.0
 40
0.0
 40
0.0
 40
0.0
 40
0.1530780943
 40
0.2990728638
 40
0.4366363831
 40
0.5650828719
 40
0.6846338945
 40
0.796035822
 40
0.9005658846
 40
1.0
 40
1.0
 40
1.0
 40
1.0
 10
15.8049981806
 20
13.1760014212
 30
0.0
 10
15.802818982
 20
13.1760014212
 30
0.0
 10
15.7985587826
 20
13.175825356
 30
0.0
 10
15.7923876151
 20
13.1750101534
 30
0.0
 10
15.7866684533
 20
13.1736580946
 30
0.0
 10
15.7814963378
 20
13.1717794731
 30
0.0
 10
15.7769444713
 20
13.1694055672
 30
0.0
 10
15.7730840883
 20
13.1665559006
 30
0.0
 10
15.7699790945
 20
13.163279451
 30
0.0
 10
15.768421485
 20
13.1607996466
 30
0.0
 10
15.767804914
 20
13.1595254542
 30
0.0
  0
SPLINE
  5
33A
100
AcDbEntity
  8
0
100
AcDbSpline
 62
7
  6
CONTINUOUS
 70
0
 71
3
 72
15
 73
11
 74
0
 42
0.0000001
 43
0.0000001
 44
0.0000000001
 40
0.0
 40
0.0
 40
0.0
 40
0.0
 40
0.1222057151
 40
0.2488986716
 40
0.3780641057
 40
0.507917285
 40
0.6367249041
 40
0.7627980176
 40
0.884475195
 40
1.0
 40
1.0
 40
1.0
 40
1.0
 10
15.552578355
 20
13.120056524
 30
0.0
 10
15.5503722028
 20
13.120056524
 30
0.0
 10
15.5458768081
 20
13.1202814483
 30
0.0
 10
15.5391090579
 20
13.121224008
 30
0.0
 10
15.5323112431
 20
13.1227701485
 30
0.0
 10
15.5256272324
 20
13.1248803478
 30
0.0
 10
15.5191923468
 20
13.127515492
 30
0.0
 10
15.5131344207
 20
13.1306194444
 30
0.0
 10
15.507585864
 20
13.1341321599
 30
0.0
 10
15.5042001213
 20
13.1367689719
 30
0.0
 10
15.5026306065
 20
13.1381423305
 30
0.0
  0
SPLINE
  5
33B
100
AcDbEntity
  8
0
100
AcDbSpline
 62
7
  6
CONTINUOUS
 70
0
 71
3
 72
9
 73
5
 74
0
 42
0.0000001
 43
0.0000001
 44
0.0000000001
 40
0.0
 40
0.0
 40
0.0
 40
0.0
 40
0.2423988484
 40
1.0
 40
1.0
 40
1.0
 40
1.0
 10
15.4894197634
 20
13.1500293229
 30
0.0
 10
15.4885123292
 20
13.1508692453
 30
0.0
 10
15.4846984549
 20
13.1542579763
 30
0.0
 10
15.4806215994
 20
13.1573470671
 30
0.0
 10
15.4774295019
 20
13.1595254542
 30
0.0
  0
SPLINE
  5
33C
100
AcDbEntity
  8
0
100
AcDbSpline
 62
7
  6
CONTINUOUS
 70
0
 71
3
 72
13
 73
9
 74
0
 42
0.0000001
 43
0.0000001
 44
0.0000000001
 40
0.0
 40
0.0
 40
0.0
 40
0.0
 40
0.1203837678
 40
0.2448858705
 40
0.5000359659
 40
0.7551674118
 40
0.8796468281
 40
1.0
 40
1.0
 40
1.0
 40
1.0
 10
15.4774295019
 20
13.1595254542
 30
0.0
 10
15.4755533232
 20
13.1608058172
 30
0.0
 10
15.4716233214
 20
13.1632473035
 30
0.0
 10
15.4632463344
 20
13.1676032362
 30
0.0
 10
15.4520363586
 20
13.1719432844
 30
0.0
 10
15.4403312642
 20
13.1746783256
 30
0.0
 10
15.4309579899
 20
13.1758027172
 30
0.0
 10
15.4263366235
 20
13.1760014212
 30
0.0
 10
15.4240657748
 20
13.1760014212
 30
0.0
  0
SPLINE
  5
33D
100
AcDbEntity
  8
0
100
AcDbSpline
 62
7
  6
CONTINUOUS
 70
0
 71
3
 72
15
 73
11
 74
0
 42
0.0000001
 43
0.0000001
 44
0.0000000001
 40
0.0
 40
0.0
 40
0.0
 40
0.0
 40
0.1530780943
 40
0.2990728638
 40
0.4366363831
 40
0.5650828719
 40
0.6846338945
 40
0.796035822
 40
0.9005658846
 40
1.0
 40
1.0
 40
1.0
 40
1.0
 10
15.3444676836
 20
13.1760014212
 30
0.0
 10
15.342288485
 20
13.1760014212
 30
0.0
 10
15.3380282856
 20
13.175825356
 30
0.0
 10
15.3318571181
 20
13.1750101534
 30
0.0
 10
15.3261379563
 20
13.1736580946
 30
0.0
 10
15.3209658408
 20
13.1717794731
 30
0.0
 10
15.3164139743
 20
13.1694055672
 30
0.0
 10
15.3125535913
 20
13.1665559006
 30
0.0
 10
15.3094485975
 20
13.163279451
 30
0.0
 10
15.307890988
 20
13.1607996466
 30
0.0
 10
15.307274417
 20
13.1595254542
 30
0.0
  0
SPLINE
  5
33E
100
AcDbEntity
  8
0
100
AcDbSpline
 62
7
  6
CONTINUOUS
 70
0
 71
3
 72
15
 73
11
 74
0
 42
0.0000001
 43
0.0000001
 44
0.0000000001
 40
0.0
 40
0.0
 40
0.0
 40
0.0
 40
0.1222057151
 40
0.2488986716
 40
0.3780641057
 40
0.507917285
 40
0.6367249041
 40
0.7627980176
 40
0.884475195
 40
1.0
 40
1.0
 40
1.0
 40
1.0
 10
15.092047858
 20
13.120056524
 30
0.0
 10
15.0898417058
 20
13.120056524
 30
0.0
 10
15.0853463111
 20
13.1202814483
 30
0.0
 10
15.0785785609
 20
13.121224008
 30
0.0
 10
15.0717807461
 20
13.1227701485
 30
0.0
 10
15.0650967354
 20
13.1248803478
 30
0.0
 10
15.0586618498
 20
13.127515492
 30
0.0
 10
15.0526039237
 20
13.1306194444
 30
0.0
 10
15.047055367
 20
13.1341321599
 30
0.0
 10
15.0436696243
 20
13.1367689719
 30
0.0
 10
15.0421001094
 20
13.1381423305
 30
0.0
  0
SPLINE
  5
33F
100
AcDbEntity
  8
0
100
AcDbSpline
 62
7
  6
CONTINUOUS
 70
0
 71
3
 72
9
 73
5
 74
0
 42
0.0000001
 43
0.0000001
 44
0.0000000001
 40
0.0
 40
0.0
 40
0.0
 40
0.0
 40
0.2423988484
 40
1.0
 40
1.0
 40
1.0
 40
1.0
 10
15.0288892664
 20
13.1500293229
 30
0.0
 10
15.0279818322
 20
13.1508692453
 30
0.0
 10
15.0241679579
 20
13.1542579763
 30
0.0
 10
15.0200911024
 20
13.1573470671
 30
0.0
 10
15.0168990049
 20
13.1595254542
 30
0.0
  0
SPLINE
  5
340
100
AcDbEntity
  8
0
100
AcDbSpline
 62
7
  6
CONTINUOUS
 70
0
 71
3
 72
13
 73
9
 74
0
 42
0.0000001
 43
0.0000001
 44
0.0000000001
 40
0.0
 40
0.0
 40
0.0
 40
0.0
 40
0.1203837678
 40
0.2448858705
 40
0.5000359659
 40
0.7551674118
 40
0.8796468281
 40
1.0
 40
1.0
 40
1.0
 40
1.0
 10
15.0168990049
 20
13.1595254542
 30
0.0
 10
15.0150228262
 20
13.1608058172
 30
0.0
 10
15.0110928244
 20
13.1632473035
 30
0.0
 10
15.0027158374
 20
13.1676032362
 30
0.0
 10
14.9915058616
 20
13.1719432844
 30
0.0
 10
14.9798007672
 20
13.1746783256
 30
0.0
 10
14.9704274929
 20
13.1758027172
 30
0.0
 10
14.9658061265
 20
13.1760014212
 30
0.0
 10
14.9635352777
 20
13.1760014212
 30
0.0
  0
SPLINE
  5
341
100
AcDbEntity
  8
0
100
AcDbSpline
 62
7
  6
CONTINUOUS
 70
0
 71
3
 72
15
 73
11
 74
0
 42
0.0000001
 43
0.0000001
 44
0.0000000001
 40
0.0
 40
0.0
 40
0.0
 40
0.0
 40
0.1530780943
 40
0.2990728638
 40
0.4366363831
 40
0.5650828719
 40
0.6846338945
 40
0.796035822
 40
0.9005658846
 40
1.0
 40
1.0
 40
1.0
 40
1.0
 10
14.8839371866
 20
13.1760014212
 30
0.0
 10
14.881757988
 20
13.1760014212
 30
0.0
 10
14.8774977886
 20
13.175825356
 30
0.0
 10
14.8713266211
 20
13.1750101534
 30
0.0
 10
14.8656074593
 20
13.1736580946
 30
0.0
 10
14.8604353438
 20
13.1717794731
 30
0.0
 10
14.8558834773
 20
13.1694055672
 30
0.0
 10
14.8520230943
 20
13.1665559006
 30
0.0
 10
14.8489181005
 20
13.163279451
 30
0.0
 10
14.847360491
 20
13.1607996466
 30
0.0
 10
14.84674392
 20
13.1595254542
 30
0.0
  0
SPLINE
  5
342
100
AcDbEntity
  8
0
100
AcDbSpline
 62
7
  6
CONTINUOUS
 70
0
 71
3
 72
15
 73
11
 74
0
 42
0.0000001
 43
0.0000001
 44
0.0000000001
 40
0.0
 40
0.0
 40
0.0
 40
0.0
 40
0.1530780943
 40
0.2990728638
 40
0.4366363831
 40
0.5650828719
 40
0.6846338945
 40
0.796035822
 40
0.9005658846
 40
1.0
 40
1.0
 40
1.0
 40
1.0
 10
14.2161657623
 20
11.8456085647
 30
0.0
 10
14.2183449609
 20
11.8456085647
 30
0.0
 10
14.2226051604
 20
11.8457846299
 30
0.0
 10
14.2287763278
 20
11.8465998324
 30
0.0
 10
14.2344954896
 20
11.8479518912
 30
0.0
 10
14.2396676051
 20
11.8498305127
 30
0.0
 10
14.2442194717
 20
11.8522044186
 30
0.0
 10
14.2480798546
 20
11.8550540852
 30
0.0
 10
14.2511848485
 20
11.8583305348
 30
0.0
 10
14.252742458
 20
11.8608103392
 30
0.0
 10
14.253359029
 20
11.8620845316
 30
0.0
  0
SPLINE
  5
343
100
AcDbEntity
  8
0
100
AcDbSpline
 62
7
  6
CONTINUOUS
 70
0
 71
3
 72
13
 73
9
 74
0
 42
0.0000001
 43
0.0000001
 44
0.0000000001
 40
0.0
 40
0.0
 40
0.0
 40
0.0
 40
0.1203837678
 40
0.2448858705
 40
0.5000359659
 40
0.7551674118
 40
0.8796468281
 40
1.0
 40
1.0
 40
1.0
 40
1.0
 10
14.083203944
 20
11.8620845316
 30
0.0
 10
14.0850801227
 20
11.8608041686
 30
0.0
 10
14.0890101245
 20
11.8583626823
 30
0.0
 10
14.0973871115
 20
11.8540067496
 30
0.0
 10
14.1085970873
 20
11.8496667014
 30
0.0
 10
14.1203021817
 20
11.8469316602
 30
0.0
 10
14.129675456
 20
11.8458072687
 30
0.0
 10
14.1342968225
 20
11.8456085647
 30
0.0
 10
14.1365676712
 20
11.8456085647
 30
0.0
  0
SPLINE
  5
344
100
AcDbEntity
  8
0
100
AcDbSpline
 62
7
  6
CONTINUOUS
 70
0
 71
3
 72
9
 73
5
 74
0
 42
0.0000001
 43
0.0000001
 44
0.0000000001
 40
0.0
 40
0.0
 40
0.0
 40
0.0
 40
0.2423988484
 40
1.0
 40
1.0
 40
1.0
 40
1.0
 10
14.0712136825
 20
11.8715806629
 30
0.0
 10
14.0721211168
 20
11.8707407405
 30
0.0
 10
14.075934991
 20
11.8673520095
 30
0.0
 10
14.0800118466
 20
11.8642629187
 30
0.0
 10
14.083203944
 20
11.8620845316
 30
0.0
  0
SPLINE
  5
345
100
AcDbEntity
  8
0
100
AcDbSpline
 62
7
  6
CONTINUOUS
 70
0
 71
3
 72
13
 73
9
 74
0
 42
0.0000001
 43
0.0000001
 44
0.0000000001
 40
0.0
 40
0.0
 40
0.0
 40
0.0
 40
0.1220777926
 40
0.2488756815
 40
0.5079295526
 40
0.7628129667
 40
0.884590511
 40
1.0
 40
1.0
 40
1.0
 40
1.0
 10
14.0080550909
 20
11.9015534618
 30
0.0
 10
14.010257883
 20
11.9015534618
 30
0.0
 10
14.0147508733
 20
11.9013260658
 30
0.0
 10
14.0238371925
 20
11.900059662
 30
0.0
 10
14.0350489314
 20
11.8970170608
 30
0.0
 10
14.0455384992
 20
11.8922265522
 30
0.0
 10
14.0530498263
 20
11.8874723644
 30
0.0
 10
14.0564356389
 20
11.8848389888
 30
0.0
 10
14.0580028395
 20
11.8834676553
 30
0.0
  0
SPLINE
  5
346
100
AcDbEntity
  8
0
100
AcDbSpline
 62
7
  6
CONTINUOUS
 70
0
 71
3
 72
15
 73
11
 74
0
 42
0.0000001
 43
0.0000001
 44
0.0000000001
 40
0.0
 40
0.0
 40
0.0
 40
0.0
 40
0.1533512302
 40
0.2992405476
 40
0.4366039312
 40
0.5650532778
 40
0.6846259244
 40
0.7959435865
 40
0.9004117086
 40
1.0
 40
1.0
 40
1.0
 40
1.0
 10
16.5188182473
 20
11.8456085647
 30
0.0
 10
16.5210013958
 20
11.8456085647
 30
0.0
 10
16.5252641617
 20
11.8457823576
 30
0.0
 10
16.5314352473
 20
11.8465978317
 30
0.0
 10
16.5371491352
 20
11.8479538159
 30
0.0
 10
16.542318978
 20
11.8498316627
 30
0.0
 10
16.546869888
 20
11.8522054631
 30
0.0
 10
16.5507323954
 20
11.855049184
 30
0.0
 10
16.5538389612
 20
11.8583252978
 30
0.0
 10
16.5553939696
 20
11.8608083276
 30
0.0
 10
16.556011514
 20
11.8620845316
 30
0.0
  0
SPLINE
  5
347
100
AcDbEntity
  8
0
100
AcDbSpline
 62
7
  6
CONTINUOUS
 70
0
 71
3
 72
13
 73
9
 74
0
 42
0.0000001
 43
0.0000001
 44
0.0000000001
 40
0.0
 40
0.0
 40
0.0
 40
0.0
 40
0.1205724429
 40
0.2449984083
 40
0.5000359535
 40
0.7550549225
 40
0.8794582258
 40
1.0
 40
1.0
 40
1.0
 40
1.0
 10
16.385856429
 20
11.8620845316
 30
0.0
 10
16.3877355685
 20
11.8608021481
 30
0.0
 10
16.391666101
 20
11.8583574167
 30
0.0
 10
16.4000440356
 20
11.8540026423
 30
0.0
 10
16.4112506506
 20
11.8496701909
 30
0.0
 10
16.4229486868
 20
11.8469307701
 30
0.0
 10
16.4323220912
 20
11.8458048866
 30
0.0
 10
16.4369457243
 20
11.8456085647
 30
0.0
 10
16.4392201562
 20
11.8456085647
 30
0.0
  0
SPLINE
  5
348
100
AcDbEntity
  8
0
100
AcDbSpline
 62
7
  6
CONTINUOUS
 70
0
 71
3
 72
9
 73
5
 74
0
 42
0.0000001
 43
0.0000001
 44
0.0000000001
 40
0.0
 40
0.0
 40
0.0
 40
0.0
 40
0.2423988484
 40
1.0
 40
1.0
 40
1.0
 40
1.0
 10
16.3738661675
 20
11.8715806629
 30
0.0
 10
16.3747736018
 20
11.8707407405
 30
0.0
 10
16.378587476
 20
11.8673520095
 30
0.0
 10
16.3826643316
 20
11.8642629187
 30
0.0
 10
16.385856429
 20
11.8620845316
 30
0.0
  0
SPLINE
  5
349
100
AcDbEntity
  8
0
100
AcDbSpline
 62
7
  6
CONTINUOUS
 70
0
 71
3
 72
15
 73
11
 74
0
 42
0.0000001
 43
0.0000001
 44
0.0000000001
 40
0.0
 40
0.0
 40
0.0
 40
0.0
 40
0.1222817011
 40
0.2489157101
 40
0.3780263748
 40
0.5079164659
 40
0.6367627405
 40
0.7627815246
 40
0.8844047757
 40
1.0
 40
1.0
 40
1.0
 40
1.0
 10
16.3107075759
 20
11.9015534618
 30
0.0
 10
16.3129151062
 20
11.9015534618
 30
0.0
 10
16.3174109155
 20
11.901329642
 30
0.0
 10
16.3241777492
 20
11.9003853131
 30
0.0
 10
16.3309744885
 20
11.8988406529
 30
0.0
 10
16.3376583831
 20
11.8967287906
 30
0.0
 10
16.3440942633
 20
11.8940950025
 30
0.0
 10
16.350150506
 20
11.8909905211
 30
0.0
 10
16.35569955
 20
11.8874798092
 30
0.0
 10
16.3590848484
 20
11.8848418549
 30
0.0
 10
16.3606553245
 20
11.8834676553
 30
0.0
  0
SPLINE
  5
34A
100
AcDbEntity
  8
0
100
AcDbSpline
 62
7
  6
CONTINUOUS
 70
0
 71
3
 72
15
 73
11
 74
0
 42
0.0000001
 43
0.0000001
 44
0.0000000001
 40
0.0
 40
0.0
 40
0.0
 40
0.0
 40
0.1532740614
 40
0.2992263589
 40
0.4366312608
 40
0.5650592695
 40
0.6845998962
 40
0.7959558292
 40
0.9004572415
 40
1.0
 40
1.0
 40
1.0
 40
1.0
 10
16.0582877503
 20
11.8456085647
 30
0.0
 10
16.0604697892
 20
11.8456085647
 30
0.0
 10
16.0647322583
 20
11.8457831568
 30
0.0
 10
16.0709039104
 20
11.8465972991
 30
0.0
 10
16.076618674
 20
11.8479544655
 30
0.0
 10
16.0817888534
 20
11.8498309555
 30
0.0
 10
16.0863388338
 20
11.8522059175
 30
0.0
 10
16.0902025115
 20
11.855049072
 30
0.0
 10
16.0933079316
 20
11.8583267174
 30
0.0
 10
16.094863758
 20
11.8608089175
 30
0.0
 10
16.095481017
 20
11.8620845316
 30
0.0
  0
SPLINE
  5
34B
100
AcDbEntity
  8
0
100
AcDbSpline
 62
7
  6
CONTINUOUS
 70
0
 71
3
 72
15
 73
11
 74
0
 42
0.0000001
 43
0.0000001
 44
0.0000000001
 40
0.0
 40
0.0
 40
0.0
 40
0.0
 40
0.120477493
 40
0.2449058997
 40
0.3718496822
 40
0.5000359264
 40
0.6282174994
 40
0.7551474115
 40
0.8795531466
 40
1.0
 40
1.0
 40
1.0
 40
1.0
 10
15.925325932
 20
11.8620845316
 30
0.0
 10
15.9272042032
 20
11.8608027407
 30
0.0
 10
15.9311347808
 20
11.8583589088
 30
0.0
 10
15.9373669995
 20
11.8551176895
 30
0.0
 10
15.9439551057
 20
11.8522873369
 30
0.0
 10
15.9507939604
 20
11.8499083369
 30
0.0
 10
15.9577833735
 20
11.8480178616
 30
0.0
 10
15.9648196416
 20
11.8466416907
 30
0.0
 10
15.9717931148
 20
11.8458056554
 30
0.0
 10
15.9764162783
 20
11.8456085647
 30
0.0
 10
15.9786896592
 20
11.8456085647
 30
0.0
  0
SPLINE
  5
34C
100
AcDbEntity
  8
0
100
AcDbSpline
 62
7
  6
CONTINUOUS
 70
0
 71
3
 72
9
 73
5
 74
0
 42
0.0000001
 43
0.0000001
 44
0.0000000001
 40
0.0
 40
0.0
 40
0.0
 40
0.0
 40
0.2423988484
 40
1.0
 40
1.0
 40
1.0
 40
1.0
 10
15.9133356705
 20
11.8715806629
 30
0.0
 10
15.9142431048
 20
11.8707407405
 30
0.0
 10
15.918056979
 20
11.8673520095
 30
0.0
 10
15.9221338346
 20
11.8642629187
 30
0.0
 10
15.925325932
 20
11.8620845316
 30
0.0
  0
SPLINE
  5
34D
100
AcDbEntity
  8
0
100
AcDbSpline
 62
7
  6
CONTINUOUS
 70
0
 71
3
 72
15
 73
11
 74
0
 42
0.0000001
 43
0.0000001
 44
0.0000000001
 40
0.0
 40
0.0
 40
0.0
 40
0.0
 40
0.1222057151
 40
0.2488986716
 40
0.3780641057
 40
0.507917285
 40
0.6367249041
 40
0.7627980176
 40
0.884475195
 40
1.0
 40
1.0
 40
1.0
 40
1.0
 10
15.8501770789
 20
11.9015534618
 30
0.0
 10
15.8523832312
 20
11.9015534618
 30
0.0
 10
15.8568786258
 20
11.9013285375
 30
0.0
 10
15.863646376
 20
11.9003859778
 30
0.0
 10
15.8704441909
 20
11.8988398373
 30
0.0
 10
15.8771282015
 20
11.896729638
 30
0.0
 10
15.8835630871
 20
11.8940944938
 30
0.0
 10
15.8896210132
 20
11.8909905414
 30
0.0
 10
15.8951695699
 20
11.8874778259
 30
0.0
 10
15.8985553126
 20
11.8848410139
 30
0.0
 10
15.9001248275
 20
11.8834676553
 30
0.0
  0
SPLINE
  5
34E
100
AcDbEntity
  8
0
100
AcDbSpline
 62
7
  6
CONTINUOUS
 70
0
 71
3
 72
15
 73
11
 74
0
 42
0.0000001
 43
0.0000001
 44
0.0000000001
 40
0.0
 40
0.0
 40
0.0
 40
0.0
 40
0.1530780943
 40
0.2990728638
 40
0.4366363831
 40
0.5650828719
 40
0.6846338945
 40
0.796035822
 40
0.9005658846
 40
1.0
 40
1.0
 40
1.0
 40
1.0
 10
15.5977572533
 20
11.8456085647
 30
0.0
 10
15.5999364519
 20
11.8456085647
 30
0.0
 10
15.6041966514
 20
11.8457846299
 30
0.0
 10
15.6103678188
 20
11.8465998324
 30
0.0
 10
15.6160869806
 20
11.8479518912
 30
0.0
 10
15.6212590961
 20
11.8498305127
 30
0.0
 10
15.6258109627
 20
11.8522044186
 30
0.0
 10
15.6296713456
 20
11.8550540852
 30
0.0
 10
15.6327763395
 20
11.8583305348
 30
0.0
 10
15.634333949
 20
11.8608103392
 30
0.0
 10
15.63495052
 20
11.8620845316
 30
0.0
  0
SPLINE
  5
34F
100
AcDbEntity
  8
0
100
AcDbSpline
 62
7
  6
CONTINUOUS
 70
0
 71
3
 72
13
 73
9
 74
0
 42
0.0000001
 43
0.0000001
 44
0.0000000001
 40
0.0
 40
0.0
 40
0.0
 40
0.0
 40
0.1203837678
 40
0.2448858705
 40
0.5000359659
 40
0.7551674118
 40
0.8796468281
 40
1.0
 40
1.0
 40
1.0
 40
1.0
 10
15.464795435
 20
11.8620845316
 30
0.0
 10
15.4666716137
 20
11.8608041686
 30
0.0
 10
15.4706016155
 20
11.8583626823
 30
0.0
 10
15.4789786025
 20
11.8540067496
 30
0.0
 10
15.4901885783
 20
11.8496667014
 30
0.0
 10
15.5018936727
 20
11.8469316602
 30
0.0
 10
15.511266947
 20
11.8458072687
 30
0.0
 10
15.5158883135
 20
11.8456085647
 30
0.0
 10
15.5181591622
 20
11.8456085647
 30
0.0
  0
SPLINE
  5
350
100
AcDbEntity
  8
0
100
AcDbSpline
 62
7
  6
CONTINUOUS
 70
0
 71
3
 72
9
 73
5
 74
0
 42
0.0000001
 43
0.0000001
 44
0.0000000001
 40
0.0
 40
0.0
 40
0.0
 40
0.0
 40
0.2423988484
 40
1.0
 40
1.0
 40
1.0
 40
1.0
 10
15.4528051735
 20
11.8715806629
 30
0.0
 10
15.4537126078
 20
11.8707407405
 30
0.0
 10
15.457526482
 20
11.8673520095
 30
0.0
 10
15.4616033376
 20
11.8642629187
 30
0.0
 10
15.464795435
 20
11.8620845316
 30
0.0
  0
SPLINE
  5
351
100
AcDbEntity
  8
0
100
AcDbSpline
 62
7
  6
CONTINUOUS
 70
0
 71
3
 72
15
 73
11
 74
0
 42
0.0000001
 43
0.0000001
 44
0.0000000001
 40
0.0
 40
0.0
 40
0.0
 40
0.0
 40
0.1222057151
 40
0.2488986716
 40
0.3780641057
 40
0.507917285
 40
0.6367249041
 40
0.7627980176
 40
0.884475195
 40
1.0
 40
1.0
 40
1.0
 40
1.0
 10
15.3896465819
 20
11.9015534618
 30
0.0
 10
15.3918527342
 20
11.9015534618
 30
0.0
 10
15.3963481288
 20
11.9013285375
 30
0.0
 10
15.403115879
 20
11.9003859778
 30
0.0
 10
15.4099136939
 20
11.8988398373
 30
0.0
 10
15.4165977045
 20
11.896729638
 30
0.0
 10
15.4230325901
 20
11.8940944938
 30
0.0
 10
15.4290905162
 20
11.8909905414
 30
0.0
 10
15.4346390729
 20
11.8874778259
 30
0.0
 10
15.4380248156
 20
11.8848410139
 30
0.0
 10
15.4395943305
 20
11.8834676553
 30
0.0
  0
SPLINE
  5
352
100
AcDbEntity
  8
0
100
AcDbSpline
 62
7
  6
CONTINUOUS
 70
0
 71
3
 72
15
 73
11
 74
0
 42
0.0000001
 43
0.0000001
 44
0.0000000001
 40
0.0
 40
0.0
 40
0.0
 40
0.0
 40
0.1530780943
 40
0.2990728638
 40
0.4366363831
 40
0.5650828719
 40
0.6846338945
 40
0.796035822
 40
0.9005658846
 40
1.0
 40
1.0
 40
1.0
 40
1.0
 10
15.1372267563
 20
11.8456085647
 30
0.0
 10
15.1394059549
 20
11.8456085647
 30
0.0
 10
15.1436661544
 20
11.8457846299
 30
0.0
 10
15.1498373218
 20
11.8465998324
 30
0.0
 10
15.1555564836
 20
11.8479518912
 30
0.0
 10
15.1607285991
 20
11.8498305127
 30
0.0
 10
15.1652804657
 20
11.8522044186
 30
0.0
 10
15.1691408486
 20
11.8550540852
 30
0.0
 10
15.1722458425
 20
11.8583305348
 30
0.0
 10
15.173803452
 20
11.8608103392
 30
0.0
 10
15.174420023
 20
11.8620845316
 30
0.0
  0
SPLINE
  5
353
100
AcDbEntity
  8
0
100
AcDbSpline
 62
7
  6
CONTINUOUS
 70
0
 71
3
 72
13
 73
9
 74
0
 42
0.0000001
 43
0.0000001
 44
0.0000000001
 40
0.0
 40
0.0
 40
0.0
 40
0.0
 40
0.1203837678
 40
0.2448858705
 40
0.5000359659
 40
0.7551674118
 40
0.8796468281
 40
1.0
 40
1.0
 40
1.0
 40
1.0
 10
15.004264938
 20
11.8620845316
 30
0.0
 10
15.0061411167
 20
11.8608041686
 30
0.0
 10
15.0100711185
 20
11.8583626823
 30
0.0
 10
15.0184481055
 20
11.8540067496
 30
0.0
 10
15.0296580813
 20
11.8496667014
 30
0.0
 10
15.0413631757
 20
11.8469316602
 30
0.0
 10
15.05073645
 20
11.8458072687
 30
0.0
 10
15.0553578165
 20
11.8456085647
 30
0.0
 10
15.0576286652
 20
11.8456085647
 30
0.0
  0
SPLINE
  5
354
100
AcDbEntity
  8
0
100
AcDbSpline
 62
7
  6
CONTINUOUS
 70
0
 71
3
 72
9
 73
5
 74
0
 42
0.0000001
 43
0.0000001
 44
0.0000000001
 40
0.0
 40
0.0
 40
0.0
 40
0.0
 40
0.2423988484
 40
1.0
 40
1.0
 40
1.0
 40
1.0
 10
14.9922746765
 20
11.8715806629
 30
0.0
 10
14.9931821108
 20
11.8707407405
 30
0.0
 10
14.996995985
 20
11.8673520095
 30
0.0
 10
15.0010728406
 20
11.8642629187
 30
0.0
 10
15.004264938
 20
11.8620845316
 30
0.0
  0
SPLINE
  5
355
100
AcDbEntity
  8
0
100
AcDbSpline
 62
7
  6
CONTINUOUS
 70
0
 71
3
 72
15
 73
11
 74
0
 42
0.0000001
 43
0.0000001
 44
0.0000000001
 40
0.0
 40
0.0
 40
0.0
 40
0.0
 40
0.1222057151
 40
0.2488986716
 40
0.3780641057
 40
0.507917285
 40
0.6367249041
 40
0.7627980176
 40
0.884475195
 40
1.0
 40
1.0
 40
1.0
 40
1.0
 10
14.9291160849
 20
11.9015534618
 30
0.0
 10
14.9313222372
 20
11.9015534618
 30
0.0
 10
14.9358176318
 20
11.9013285375
 30
0.0
 10
14.942585382
 20
11.9003859778
 30
0.0
 10
14.9493831969
 20
11.8988398373
 30
0.0
 10
14.9560672075
 20
11.896729638
 30
0.0
 10
14.9625020931
 20
11.8940944938
 30
0.0
 10
14.9685600192
 20
11.8909905414
 30
0.0
 10
14.9741085759
 20
11.8874778259
 30
0.0
 10
14.9774943186
 20
11.8848410139
 30
0.0
 10
14.9790638335
 20
11.8834676553
 30
0.0
  0
SPLINE
  5
356
100
AcDbEntity
  8
0
100
AcDbSpline
 62
7
  6
CONTINUOUS
 70
0
 71
3
 72
15
 73
11
 74
0
 42
0.0000001
 43
0.0000001
 44
0.0000000001
 40
0.0
 40
0.0
 40
0.0
 40
0.0
 40
0.1530780943
 40
0.2990728638
 40
0.4366363831
 40
0.5650828719
 40
0.6846338945
 40
0.796035822
 40
0.9005658846
 40
1.0
 40
1.0
 40
1.0
 40
1.0
 10
14.6766962593
 20
11.8456085647
 30
0.0
 10
14.6788754579
 20
11.8456085647
 30
0.0
 10
14.6831356574
 20
11.8457846299
 30
0.0
 10
14.6893068248
 20
11.8465998324
 30
0.0
 10
14.6950259866
 20
11.8479518912
 30
0.0
 10
14.7001981021
 20
11.8498305127
 30
0.0
 10
14.7047499687
 20
11.8522044186
 30
0.0
 10
14.7086103516
 20
11.8550540852
 30
0.0
 10
14.7117153455
 20
11.8583305348
 30
0.0
 10
14.713272955
 20
11.8608103392
 30
0.0
 10
14.713889526
 20
11.8620845316
 30
0.0
  0
SPLINE
  5
357
100
AcDbEntity
  8
0
100
AcDbSpline
 62
7
  6
CONTINUOUS
 70
0
 71
3
 72
13
 73
9
 74
0
 42
0.0000001
 43
0.0000001
 44
0.0000000001
 40
0.0
 40
0.0
 40
0.0
 40
0.0
 40
0.1203837678
 40
0.2448858705
 40
0.5000359659
 40
0.7551674118
 40
0.8796468281
 40
1.0
 40
1.0
 40
1.0
 40
1.0
 10
14.543734441
 20
11.8620845316
 30
0.0
 10
14.5456106197
 20
11.8608041686
 30
0.0
 10
14.5495406215
 20
11.8583626823
 30
0.0
 10
14.5579176085
 20
11.8540067496
 30
0.0
 10
14.5691275843
 20
11.8496667014
 30
0.0
 10
14.5808326787
 20
11.8469316602
 30
0.0
 10
14.590205953
 20
11.8458072687
 30
0.0
 10
14.5948273195
 20
11.8456085647
 30
0.0
 10
14.5970981682
 20
11.8456085647
 30
0.0
  0
SPLINE
  5
358
100
AcDbEntity
  8
0
100
AcDbSpline
 62
7
  6
CONTINUOUS
 70
0
 71
3
 72
9
 73
5
 74
0
 42
0.0000001
 43
0.0000001
 44
0.0000000001
 40
0.0
 40
0.0
 40
0.0
 40
0.0
 40
0.2423988484
 40
1.0
 40
1.0
 40
1.0
 40
1.0
 10
14.5317441795
 20
11.8715806629
 30
0.0
 10
14.5326516138
 20
11.8707407405
 30
0.0
 10
14.536465488
 20
11.8673520095
 30
0.0
 10
14.5405423436
 20
11.8642629187
 30
0.0
 10
14.543734441
 20
11.8620845316
 30
0.0
  0
SPLINE
  5
359
100
AcDbEntity
  8
0
100
AcDbSpline
 62
7
  6
CONTINUOUS
 70
0
 71
3
 72
15
 73
11
 74
0
 42
0.0000001
 43
0.0000001
 44
0.0000000001
 40
0.0
 40
0.0
 40
0.0
 40
0.0
 40
0.1222057151
 40
0.2488986716
 40
0.3780641057
 40
0.507917285
 40
0.6367249041
 40
0.7627980176
 40
0.884475195
 40
1.0
 40
1.0
 40
1.0
 40
1.0
 10
14.4685855879
 20
11.9015534618
 30
0.0
 10
14.4707917402
 20
11.9015534618
 30
0.0
 10
14.4752871348
 20
11.9013285375
 30
0.0
 10
14.482054885
 20
11.9003859778
 30
0.0
 10
14.4888526999
 20
11.8988398373
 30
0.0
 10
14.4955367105
 20
11.896729638
 30
0.0
 10
14.5019715961
 20
11.8940944938
 30
0.0
 10
14.5080295222
 20
11.8909905414
 30
0.0
 10
14.5135780789
 20
11.8874778259
 30
0.0
 10
14.5169638216
 20
11.8848410139
 30
0.0
 10
14.5185333365
 20
11.8834676553
 30
0.0
  0
SPLINE
  5
35A
100
AcDbEntity
  8
0
100
AcDbSpline
 62
7
  6
CONTINUOUS
 70
0
 71
3
 72
15
 73
11
 74
0
 42
0.0000001
 43
0.0000001
 44
0.0000000001
 40
0.0
 40
0.0
 40
0.0
 40
0.0
 40
0.1532740614
 40
0.2992263589
 40
0.4366312608
 40
0.5650592695
 40
0.6845998962
 40
0.7959558292
 40
0.9004572415
 40
1.0
 40
1.0
 40
1.0
 40
1.0
 10
15.9024291925
 20
12.0010110567
 30
0.0
 10
15.9002471537
 20
12.0010110567
 30
0.0
 10
15.8959846845
 20
12.0008364646
 30
0.0
 10
15.8898130324
 20
12.0000223222
 30
0.0
 10
15.8840982688
 20
11.9986651558
 30
0.0
 10
15.8789280895
 20
11.9967886658
 30
0.0
 10
15.8743781091
 20
11.9944137039
 30
0.0
 10
15.8705144314
 20
11.9915705493
 30
0.0
 10
15.8674090113
 20
11.9882929039
 30
0.0
 10
15.8658531848
 20
11.9858107039
 30
0.0
 10
15.8652359258
 20
11.9845350898
 30
0.0
  0
SPLINE
  5
35B
100
AcDbEntity
  8
0
100
AcDbSpline
 62
7
  6
CONTINUOUS
 70
0
 71
3
 72
15
 73
11
 74
0
 42
0.0000001
 43
0.0000001
 44
0.0000000001
 40
0.0
 40
0.0
 40
0.0
 40
0.0
 40
0.120477493
 40
0.2449058997
 40
0.3718496822
 40
0.5000359264
 40
0.6282174994
 40
0.7551474115
 40
0.8795531466
 40
1.0
 40
1.0
 40
1.0
 40
1.0
 10
16.0353910108
 20
11.9845350898
 30
0.0
 10
16.0335127397
 20
11.9858168807
 30
0.0
 10
16.0295821621
 20
11.9882607125
 30
0.0
 10
16.0233499434
 20
11.9915019319
 30
0.0
 10
16.0167618371
 20
11.9943322844
 30
0.0
 10
16.0099229824
 20
11.9967112845
 30
0.0
 10
16.0029335694
 20
11.9986017598
 30
0.0
 10
15.9958973012
 20
11.9999779307
 30
0.0
 10
15.9889238281
 20
12.000813966
 30
0.0
 10
15.9843006646
 20
12.0010110567
 30
0.0
 10
15.9820272836
 20
12.0010110567
 30
0.0
  0
SPLINE
  5
35C
100
AcDbEntity
  8
0
100
AcDbSpline
 62
7
  6
CONTINUOUS
 70
0
 71
3
 72
9
 73
5
 74
0
 42
0.0000001
 43
0.0000001
 44
0.0000000001
 40
0.0
 40
0.0
 40
0.0
 40
0.0
 40
0.2423988484
 40
1.0
 40
1.0
 40
1.0
 40
1.0
 10
16.0473812723
 20
11.9750389585
 30
0.0
 10
16.0464738381
 20
11.9758788808
 30
0.0
 10
16.0426599638
 20
11.9792676119
 30
0.0
 10
16.0385831083
 20
11.9823567027
 30
0.0
 10
16.0353910108
 20
11.9845350898
 30
0.0
  0
SPLINE
  5
35D
100
AcDbEntity
  8
0
100
AcDbSpline
 62
7
  6
CONTINUOUS
 70
0
 71
3
 72
15
 73
11
 74
0
 42
0.0000001
 43
0.0000001
 44
0.0000000001
 40
0.0
 40
0.0
 40
0.0
 40
0.0
 40
0.1222057151
 40
0.2488986716
 40
0.3780641057
 40
0.507917285
 40
0.6367249041
 40
0.7627980176
 40
0.884475195
 40
1.0
 40
1.0
 40
1.0
 40
1.0
 10
16.1105398639
 20
11.9450661596
 30
0.0
 10
16.1083337117
 20
11.9450661596
 30
0.0
 10
16.103838317
 20
11.9452910838
 30
0.0
 10
16.0970705668
 20
11.9462336435
 30
0.0
 10
16.090272752
 20
11.9477797841
 30
0.0
 10
16.0835887413
 20
11.9498899834
 30
0.0
 10
16.0771538557
 20
11.9525251276
 30
0.0
 10
16.0710959296
 20
11.95562908
 30
0.0
 10
16.0655473729
 20
11.9591417954
 30
0.0
 10
16.0621616302
 20
11.9617786075
 30
0.0
 10
16.0605921153
 20
11.9631519661
 30
0.0
  0
SPLINE
  5
35E
100
AcDbEntity
  8
0
100
AcDbSpline
 62
7
  6
CONTINUOUS
 70
0
 71
3
 72
15
 73
11
 74
0
 42
0.0000001
 43
0.0000001
 44
0.0000000001
 40
0.0
 40
0.0
 40
0.0
 40
0.0
 40
0.1533512302
 40
0.2992405476
 40
0.4366039312
 40
0.5650532778
 40
0.6846259244
 40
0.7959435865
 40
0.9004117086
 40
1.0
 40
1.0
 40
1.0
 40
1.0
 10
16.3629596895
 20
12.0010110567
 30
0.0
 10
16.3607765411
 20
12.0010110567
 30
0.0
 10
16.3565137752
 20
12.0008372638
 30
0.0
 10
16.3503426895
 20
12.0000217897
 30
0.0
 10
16.3446288016
 20
11.9986658054
 30
0.0
 10
16.3394589588
 20
11.9967879586
 30
0.0
 10
16.3349080489
 20
11.9944141583
 30
0.0
 10
16.3310455414
 20
11.9915704373
 30
0.0
 10
16.3279389757
 20
11.9882943236
 30
0.0
 10
16.3263839673
 20
11.9858112938
 30
0.0
 10
16.3257664228
 20
11.9845350898
 30
0.0
  0
SPLINE
  5
35F
100
AcDbEntity
  8
0
100
AcDbSpline
 62
7
  6
CONTINUOUS
 70
0
 71
3
 72
13
 73
9
 74
0
 42
0.0000001
 43
0.0000001
 44
0.0000000001
 40
0.0
 40
0.0
 40
0.0
 40
0.0
 40
0.1205724429
 40
0.2449984083
 40
0.5000359535
 40
0.7550549225
 40
0.8794582258
 40
1.0
 40
1.0
 40
1.0
 40
1.0
 10
16.4959215078
 20
11.9845350898
 30
0.0
 10
16.4940423683
 20
11.9858174733
 30
0.0
 10
16.4901118359
 20
11.9882622047
 30
0.0
 10
16.4817339013
 20
11.9926169791
 30
0.0
 10
16.4705272863
 20
11.9969494304
 30
0.0
 10
16.4588292501
 20
11.9996888513
 30
0.0
 10
16.4494558456
 20
12.0008147347
 30
0.0
 10
16.4448322125
 20
12.0010110567
 30
0.0
 10
16.4425577806
 20
12.0010110567
 30
0.0
  0
SPLINE
  5
360
100
AcDbEntity
  8
0
100
AcDbSpline
 62
7
  6
CONTINUOUS
 70
0
 71
3
 72
9
 73
5
 74
0
 42
0.0000001
 43
0.0000001
 44
0.0000000001
 40
0.0
 40
0.0
 40
0.0
 40
0.0
 40
0.2423988484
 40
1.0
 40
1.0
 40
1.0
 40
1.0
 10
16.5079117693
 20
11.9750389585
 30
0.0
 10
16.5070043351
 20
11.9758788808
 30
0.0
 10
16.5031904608
 20
11.9792676119
 30
0.0
 10
16.4991136053
 20
11.9823567027
 30
0.0
 10
16.4959215078
 20
11.9845350898
 30
0.0
  0
SPLINE
  5
361
100
AcDbEntity
  8
0
100
AcDbSpline
 62
7
  6
CONTINUOUS
 70
0
 71
3
 72
15
 73
11
 74
0
 42
0.0000001
 43
0.0000001
 44
0.0000000001
 40
0.0
 40
0.0
 40
0.0
 40
0.0
 40
0.1222817011
 40
0.2489157101
 40
0.3780263748
 40
0.5079164659
 40
0.6367627405
 40
0.7627815246
 40
0.8844047757
 40
1.0
 40
1.0
 40
1.0
 40
1.0
 10
16.5710703609
 20
11.9450661596
 30
0.0
 10
16.5688628306
 20
11.9450661596
 30
0.0
 10
16.5643670213
 20
11.9452899793
 30
0.0
 10
16.5576001877
 20
11.9462343082
 30
0.0
 10
16.5508034483
 20
11.9477789685
 30
0.0
 10
16.5441195537
 20
11.9498908308
 30
0.0
 10
16.5376836736
 20
11.9525246189
 30
0.0
 10
16.5316274309
 20
11.9556291003
 30
0.0
 10
16.5260783868
 20
11.9591398122
 30
0.0
 10
16.5226930884
 20
11.9617777664
 30
0.0
 10
16.5211226123
 20
11.9631519661
 30
0.0
  0
SPLINE
  5
362
100
AcDbEntity
  8
0
100
AcDbSpline
 62
7
  6
CONTINUOUS
 70
0
 71
3
 72
15
 73
11
 74
0
 42
0.0000001
 43
0.0000001
 44
0.0000000001
 40
0.0
 40
0.0
 40
0.0
 40
0.0
 40
0.0997126821
 40
0.2030020668
 40
0.3127270479
 40
0.4309652794
 40
0.5588927943
 40
0.6968347972
 40
0.8443613855
 40
1.0
 40
1.0
 40
1.0
 40
1.0
 10
14.9394485065
 20
11.9609668882
 30
0.0
 10
14.9390769466
 20
11.9597673546
 30
0.0
 10
14.9380263256
 20
11.957406551
 30
0.0
 10
14.9356303244
 20
11.9542429197
 30
0.0
 10
14.932462462
 20
11.9514886019
 30
0.0
 10
14.9285965509
 20
11.9491816067
 30
0.0
 10
14.9241005286
 20
11.9473542831
 30
0.0
 10
14.9190522365
 20
11.9460305655
 30
0.0
 10
14.9135440372
 20
11.9452365352
 30
0.0
 10
14.9097232361
 20
11.9450661596
 30
0.0
 10
14.9077631543
 20
11.9450661596
 30
0.0
  0
SPLINE
  5
363
100
AcDbEntity
  8
0
100
AcDbSpline
 62
7
  6
CONTINUOUS
 70
0
 71
3
 72
15
 73
11
 74
0
 42
0.0000001
 43
0.0000001
 44
0.0000000001
 40
0.0
 40
0.0
 40
0.0
 40
0.0
 40
0.0997126821
 40
0.2030020668
 40
0.3127270479
 40
0.4309652794
 40
0.5588927943
 40
0.6968347972
 40
0.8443613855
 40
1.0
 40
1.0
 40
1.0
 40
1.0
 10
14.4789180095
 20
11.9609668882
 30
0.0
 10
14.4785464496
 20
11.9597673546
 30
0.0
 10
14.4774958286
 20
11.957406551
 30
0.0
 10
14.4750998274
 20
11.9542429197
 30
0.0
 10
14.471931965
 20
11.9514886019
 30
0.0
 10
14.4680660539
 20
11.9491816067
 30
0.0
 10
14.4635700316
 20
11.9473542831
 30
0.0
 10
14.4585217395
 20
11.9460305655
 30
0.0
 10
14.4530135402
 20
11.9452365352
 30
0.0
 10
14.4491927391
 20
11.9450661596
 30
0.0
 10
14.4472326573
 20
11.9450661596
 30
0.0
  0
SPLINE
  5
364
100
AcDbEntity
  8
0
100
AcDbSpline
 62
7
  6
CONTINUOUS
 70
0
 71
3
 72
15
 73
11
 74
0
 42
0.0000001
 43
0.0000001
 44
0.0000000001
 40
0.0
 40
0.0
 40
0.0
 40
0.0
 40
0.0997187171
 40
0.2029508029
 40
0.3126581165
 40
0.4309581962
 40
0.5589001823
 40
0.6967751757
 40
0.8442372834
 40
1.0
 40
1.0
 40
1.0
 40
1.0
 10
16.3210404887
 20
11.9609667359
 30
0.0
 10
16.3206693407
 20
11.9597669799
 30
0.0
 10
16.3196195529
 20
11.9574062711
 30
0.0
 10
16.317222433
 20
11.9542446293
 30
0.0
 10
16.3140558972
 20
11.9514890773
 30
0.0
 10
16.3101885784
 20
11.9491827185
 30
0.0
 10
16.3056930106
 20
11.9473540155
 30
0.0
 10
16.3006459387
 20
11.9460311033
 30
0.0
 10
16.2951380005
 20
11.945235534
 30
0.0
 10
16.291316313
 20
11.9450661596
 30
0.0
 10
16.2893546453
 20
11.9450661596
 30
0.0
  0
SPLINE
  5
365
100
AcDbEntity
  8
0
100
AcDbSpline
 62
7
  6
CONTINUOUS
 70
0
 71
3
 72
15
 73
11
 74
0
 42
0.0000001
 43
0.0000001
 44
0.0000000001
 40
0.0
 40
0.0
 40
0.0
 40
0.0
 40
0.0997126821
 40
0.2030020668
 40
0.3127270479
 40
0.4309652794
 40
0.5588927943
 40
0.6968347972
 40
0.8443613855
 40
1.0
 40
1.0
 40
1.0
 40
1.0
 10
15.8605095005
 20
11.9609668882
 30
0.0
 10
15.8601379406
 20
11.9597673546
 30
0.0
 10
15.8590873196
 20
11.957406551
 30
0.0
 10
15.8566913184
 20
11.9542429197
 30
0.0
 10
15.853523456
 20
11.9514886019
 30
0.0
 10
15.8496575449
 20
11.9491816067
 30
0.0
 10
15.8451615226
 20
11.9473542831
 30
0.0
 10
15.8401132305
 20
11.9460305655
 30
0.0
 10
15.8346050312
 20
11.9452365352
 30
0.0
 10
15.8307842301
 20
11.9450661596
 30
0.0
 10
15.8288241483
 20
11.9450661596
 30
0.0
  0
SPLINE
  5
366
100
AcDbEntity
  8
0
100
AcDbSpline
 62
7
  6
CONTINUOUS
 70
0
 71
3
 72
15
 73
11
 74
0
 42
0.0000001
 43
0.0000001
 44
0.0000000001
 40
0.0
 40
0.0
 40
0.0
 40
0.0
 40
0.1530780943
 40
0.2990728638
 40
0.4366363831
 40
0.5650828719
 40
0.6846338945
 40
0.796035822
 40
0.9005658846
 40
1.0
 40
1.0
 40
1.0
 40
1.0
 10
14.0603072045
 20
12.0010110567
 30
0.0
 10
14.0581280059
 20
12.0010110567
 30
0.0
 10
14.0538678065
 20
12.0008349915
 30
0.0
 10
14.047696639
 20
12.000019789
 30
0.0
 10
14.0419774772
 20
11.9986677301
 30
0.0
 10
14.0368053617
 20
11.9967891087
 30
0.0
 10
14.0322534951
 20
11.9944152027
 30
0.0
 10
14.0283931122
 20
11.9915655361
 30
0.0
 10
14.0252881184
 20
11.9882890865
 30
0.0
 10
14.0237305089
 20
11.9858092822
 30
0.0
 10
14.0231139378
 20
11.9845350898
 30
0.0
  0
SPLINE
  5
367
100
AcDbEntity
  8
0
100
AcDbSpline
 62
7
  6
CONTINUOUS
 70
0
 71
3
 72
13
 73
9
 74
0
 42
0.0000001
 43
0.0000001
 44
0.0000000001
 40
0.0
 40
0.0
 40
0.0
 40
0.0
 40
0.1203837678
 40
0.2448858705
 40
0.5000359659
 40
0.7551674118
 40
0.8796468281
 40
1.0
 40
1.0
 40
1.0
 40
1.0
 10
14.1932690228
 20
11.9845350898
 30
0.0
 10
14.1913928441
 20
11.9858154528
 30
0.0
 10
14.1874628423
 20
11.988256939
 30
0.0
 10
14.1790858553
 20
11.9926128718
 30
0.0
 10
14.1678758795
 20
11.99695292
 30
0.0
 10
14.1561707851
 20
11.9996879611
 30
0.0
 10
14.1467975108
 20
12.0008123527
 30
0.0
 10
14.1421761444
 20
12.0010110567
 30
0.0
 10
14.1399052956
 20
12.0010110567
 30
0.0
  0
SPLINE
  5
368
100
AcDbEntity
  8
0
100
AcDbSpline
 62
7
  6
CONTINUOUS
 70
0
 71
3
 72
9
 73
5
 74
0
 42
0.0000001
 43
0.0000001
 44
0.0000000001
 40
0.0
 40
0.0
 40
0.0
 40
0.0
 40
0.2423988484
 40
1.0
 40
1.0
 40
1.0
 40
1.0
 10
14.2052592843
 20
11.9750389585
 30
0.0
 10
14.2043518501
 20
11.9758788808
 30
0.0
 10
14.2005379758
 20
11.9792676119
 30
0.0
 10
14.1964611203
 20
11.9823567027
 30
0.0
 10
14.1932690228
 20
11.9845350898
 30
0.0
  0
SPLINE
  5
369
100
AcDbEntity
  8
0
100
AcDbSpline
 62
7
  6
CONTINUOUS
 70
0
 71
3
 72
13
 73
9
 74
0
 42
0.0000001
 43
0.0000001
 44
0.0000000001
 40
0.0
 40
0.0
 40
0.0
 40
0.0
 40
0.1220777926
 40
0.2488756815
 40
0.5079295526
 40
0.7628129667
 40
0.884590511
 40
1.0
 40
1.0
 40
1.0
 40
1.0
 10
14.2684178759
 20
11.9450661596
 30
0.0
 10
14.2662150839
 20
11.9450661596
 30
0.0
 10
14.2617220935
 20
11.9452935555
 30
0.0
 10
14.2526357743
 20
11.9465599593
 30
0.0
 10
14.2414240355
 20
11.9496025606
 30
0.0
 10
14.2309344676
 20
11.9543930692
 30
0.0
 10
14.2234231405
 20
11.959147257
 30
0.0
 10
14.2200373279
 20
11.9617806326
 30
0.0
 10
14.2184701273
 20
11.9631519661
 30
0.0
  0
SPLINE
  5
36A
100
AcDbEntity
  8
0
100
AcDbSpline
 62
7
  6
CONTINUOUS
 70
0
 71
3
 72
15
 73
11
 74
0
 42
0.0000001
 43
0.0000001
 44
0.0000000001
 40
0.0
 40
0.0
 40
0.0
 40
0.0
 40
0.0996554863
 40
0.2030136132
 40
0.3127633415
 40
0.4310002129
 40
0.5589716022
 40
0.6971420601
 40
0.8446717856
 40
1.0
 40
1.0
 40
1.0
 40
1.0
 10
14.0183859789
 20
11.9609673993
 30
0.0
 10
14.0180131816
 20
11.9597690647
 30
0.0
 10
14.0169583192
 20
11.9574106234
 30
0.0
 10
14.0145679929
 20
11.9542430844
 30
0.0
 10
14.0114015839
 20
11.9514847257
 30
0.0
 10
14.0075340864
 20
11.9491791391
 30
0.0
 10
14.0030349689
 20
11.9473504609
 30
0.0
 10
13.9979812418
 20
11.9460346239
 30
0.0
 10
13.9924750595
 20
11.9452381988
 30
0.0
 10
13.9886582429
 20
11.9450661596
 30
0.0
 10
13.9867021603
 20
11.9450661596
 30
0.0
  0
SPLINE
  5
36B
100
AcDbEntity
  8
0
100
AcDbSpline
 62
7
  6
CONTINUOUS
 70
0
 71
3
 72
15
 73
11
 74
0
 42
0.0000001
 43
0.0000001
 44
0.0000000001
 40
0.0
 40
0.0
 40
0.0
 40
0.0
 40
0.1530780943
 40
0.2990728638
 40
0.4366363831
 40
0.5650828719
 40
0.6846338945
 40
0.796035822
 40
0.9005658846
 40
1.0
 40
1.0
 40
1.0
 40
1.0
 10
14.5208377015
 20
12.0010110567
 30
0.0
 10
14.5186585029
 20
12.0010110567
 30
0.0
 10
14.5143983035
 20
12.0008349915
 30
0.0
 10
14.508227136
 20
12.000019789
 30
0.0
 10
14.5025079742
 20
11.9986677301
 30
0.0
 10
14.4973358587
 20
11.9967891087
 30
0.0
 10
14.4927839921
 20
11.9944152027
 30
0.0
 10
14.4889236092
 20
11.9915655361
 30
0.0
 10
14.4858186154
 20
11.9882890865
 30
0.0
 10
14.4842610059
 20
11.9858092822
 30
0.0
 10
14.4836444348
 20
11.9845350898
 30
0.0
  0
SPLINE
  5
36C
100
AcDbEntity
  8
0
100
AcDbSpline
 62
7
  6
CONTINUOUS
 70
0
 71
3
 72
13
 73
9
 74
0
 42
0.0000001
 43
0.0000001
 44
0.0000000001
 40
0.0
 40
0.0
 40
0.0
 40
0.0
 40
0.1203837678
 40
0.2448858705
 40
0.5000359659
 40
0.7551674118
 40
0.8796468281
 40
1.0
 40
1.0
 40
1.0
 40
1.0
 10
14.6537995198
 20
11.9845350898
 30
0.0
 10
14.6519233411
 20
11.9858154528
 30
0.0
 10
14.6479933393
 20
11.988256939
 30
0.0
 10
14.6396163523
 20
11.9926128718
 30
0.0
 10
14.6284063765
 20
11.99695292
 30
0.0
 10
14.6167012821
 20
11.9996879611
 30
0.0
 10
14.6073280078
 20
12.0008123527
 30
0.0
 10
14.6027066414
 20
12.0010110567
 30
0.0
 10
14.6004357926
 20
12.0010110567
 30
0.0
  0
SPLINE
  5
36D
100
AcDbEntity
  8
0
100
AcDbSpline
 62
7
  6
CONTINUOUS
 70
0
 71
3
 72
9
 73
5
 74
0
 42
0.0000001
 43
0.0000001
 44
0.0000000001
 40
0.0
 40
0.0
 40
0.0
 40
0.0
 40
0.2423988484
 40
1.0
 40
1.0
 40
1.0
 40
1.0
 10
14.6657897813
 20
11.9750389585
 30
0.0
 10
14.6648823471
 20
11.9758788808
 30
0.0
 10
14.6610684728
 20
11.9792676119
 30
0.0
 10
14.6569916173
 20
11.9823567027
 30
0.0
 10
14.6537995198
 20
11.9845350898
 30
0.0
  0
SPLINE
  5
36E
100
AcDbEntity
  8
0
100
AcDbSpline
 62
7
  6
CONTINUOUS
 70
0
 71
3
 72
15
 73
11
 74
0
 42
0.0000001
 43
0.0000001
 44
0.0000000001
 40
0.0
 40
0.0
 40
0.0
 40
0.0
 40
0.1222057151
 40
0.2488986716
 40
0.3780641057
 40
0.507917285
 40
0.6367249041
 40
0.7627980176
 40
0.884475195
 40
1.0
 40
1.0
 40
1.0
 40
1.0
 10
14.7289483729
 20
11.9450661596
 30
0.0
 10
14.7267422207
 20
11.9450661596
 30
0.0
 10
14.722246826
 20
11.9452910838
 30
0.0
 10
14.7154790758
 20
11.9462336435
 30
0.0
 10
14.708681261
 20
11.9477797841
 30
0.0
 10
14.7019972503
 20
11.9498899834
 30
0.0
 10
14.6955623647
 20
11.9525251276
 30
0.0
 10
14.6895044386
 20
11.95562908
 30
0.0
 10
14.6839558819
 20
11.9591417954
 30
0.0
 10
14.6805701392
 20
11.9617786075
 30
0.0
 10
14.6790006243
 20
11.9631519661
 30
0.0
  0
SPLINE
  5
36F
100
AcDbEntity
  8
0
100
AcDbSpline
 62
7
  6
CONTINUOUS
 70
0
 71
3
 72
15
 73
11
 74
0
 42
0.0000001
 43
0.0000001
 44
0.0000000001
 40
0.0
 40
0.0
 40
0.0
 40
0.0
 40
0.1530780943
 40
0.2990728638
 40
0.4366363831
 40
0.5650828719
 40
0.6846338945
 40
0.796035822
 40
0.9005658846
 40
1.0
 40
1.0
 40
1.0
 40
1.0
 10
14.9813681985
 20
12.0010110567
 30
0.0
 10
14.9791889999
 20
12.0010110567
 30
0.0
 10
14.9749288005
 20
12.0008349915
 30
0.0
 10
14.968757633
 20
12.000019789
 30
0.0
 10
14.9630384712
 20
11.9986677301
 30
0.0
 10
14.9578663557
 20
11.9967891087
 30
0.0
 10
14.9533144891
 20
11.9944152027
 30
0.0
 10
14.9494541062
 20
11.9915655361
 30
0.0
 10
14.9463491124
 20
11.9882890865
 30
0.0
 10
14.9447915029
 20
11.9858092822
 30
0.0
 10
14.9441749318
 20
11.9845350898
 30
0.0
  0
SPLINE
  5
370
100
AcDbEntity
  8
0
100
AcDbSpline
 62
7
  6
CONTINUOUS
 70
0
 71
3
 72
13
 73
9
 74
0
 42
0.0000001
 43
0.0000001
 44
0.0000000001
 40
0.0
 40
0.0
 40
0.0
 40
0.0
 40
0.1203837678
 40
0.2448858705
 40
0.5000359659
 40
0.7551674118
 40
0.8796468281
 40
1.0
 40
1.0
 40
1.0
 40
1.0
 10
15.1143300168
 20
11.9845350898
 30
0.0
 10
15.1124538381
 20
11.9858154528
 30
0.0
 10
15.1085238363
 20
11.988256939
 30
0.0
 10
15.1001468493
 20
11.9926128718
 30
0.0
 10
15.0889368735
 20
11.99695292
 30
0.0
 10
15.0772317791
 20
11.9996879611
 30
0.0
 10
15.0678585048
 20
12.0008123527
 30
0.0
 10
15.0632371384
 20
12.0010110567
 30
0.0
 10
15.0609662896
 20
12.0010110567
 30
0.0
  0
SPLINE
  5
371
100
AcDbEntity
  8
0
100
AcDbSpline
 62
7
  6
CONTINUOUS
 70
0
 71
3
 72
9
 73
5
 74
0
 42
0.0000001
 43
0.0000001
 44
0.0000000001
 40
0.0
 40
0.0
 40
0.0
 40
0.0
 40
0.2423988484
 40
1.0
 40
1.0
 40
1.0
 40
1.0
 10
15.1263202783
 20
11.9750389585
 30
0.0
 10
15.1254128441
 20
11.9758788808
 30
0.0
 10
15.1215989698
 20
11.9792676119
 30
0.0
 10
15.1175221143
 20
11.9823567027
 30
0.0
 10
15.1143300168
 20
11.9845350898
 30
0.0
  0
SPLINE
  5
372
100
AcDbEntity
  8
0
100
AcDbSpline
 62
7
  6
CONTINUOUS
 70
0
 71
3
 72
15
 73
11
 74
0
 42
0.0000001
 43
0.0000001
 44
0.0000000001
 40
0.0
 40
0.0
 40
0.0
 40
0.0
 40
0.1222057151
 40
0.2488986716
 40
0.3780641057
 40
0.507917285
 40
0.6367249041
 40
0.7627980176
 40
0.884475195
 40
1.0
 40
1.0
 40
1.0
 40
1.0
 10
15.1894788699
 20
11.9450661596
 30
0.0
 10
15.1872727177
 20
11.9450661596
 30
0.0
 10
15.182777323
 20
11.9452910838
 30
0.0
 10
15.1760095728
 20
11.9462336435
 30
0.0
 10
15.169211758
 20
11.9477797841
 30
0.0
 10
15.1625277473
 20
11.9498899834
 30
0.0
 10
15.1560928617
 20
11.9525251276
 30
0.0
 10
15.1500349356
 20
11.95562908
 30
0.0
 10
15.1444863789
 20
11.9591417954
 30
0.0
 10
15.1411006362
 20
11.9617786075
 30
0.0
 10
15.1395311213
 20
11.9631519661
 30
0.0
  0
SPLINE
  5
373
100
AcDbEntity
  8
0
100
AcDbSpline
 62
7
  6
CONTINUOUS
 70
0
 71
3
 72
15
 73
11
 74
0
 42
0.0000001
 43
0.0000001
 44
0.0000000001
 40
0.0
 40
0.0
 40
0.0
 40
0.0
 40
0.0997126821
 40
0.2030020668
 40
0.3127270479
 40
0.4309652794
 40
0.5588927943
 40
0.6968347972
 40
0.8443613855
 40
1.0
 40
1.0
 40
1.0
 40
1.0
 10
15.3999790035
 20
11.9609668882
 30
0.0
 10
15.3996074436
 20
11.9597673546
 30
0.0
 10
15.3985568226
 20
11.957406551
 30
0.0
 10
15.3961608214
 20
11.9542429197
 30
0.0
 10
15.392992959
 20
11.9514886019
 30
0.0
 10
15.3891270479
 20
11.9491816067
 30
0.0
 10
15.3846310256
 20
11.9473542831
 30
0.0
 10
15.3795827335
 20
11.9460305655
 30
0.0
 10
15.3740745342
 20
11.9452365352
 30
0.0
 10
15.3702537331
 20
11.9450661596
 30
0.0
 10
15.3682936513
 20
11.9450661596
 30
0.0
  0
SPLINE
  5
374
100
AcDbEntity
  8
0
100
AcDbSpline
 62
7
  6
CONTINUOUS
 70
0
 71
3
 72
15
 73
11
 74
0
 42
0.0000001
 43
0.0000001
 44
0.0000000001
 40
0.0
 40
0.0
 40
0.0
 40
0.0
 40
0.1530780943
 40
0.2990728638
 40
0.4366363831
 40
0.5650828719
 40
0.6846338945
 40
0.796035822
 40
0.9005658846
 40
1.0
 40
1.0
 40
1.0
 40
1.0
 10
15.4418986955
 20
12.0010110567
 30
0.0
 10
15.4397194969
 20
12.0010110567
 30
0.0
 10
15.4354592975
 20
12.0008349915
 30
0.0
 10
15.42928813
 20
12.000019789
 30
0.0
 10
15.4235689682
 20
11.9986677301
 30
0.0
 10
15.4183968527
 20
11.9967891087
 30
0.0
 10
15.4138449861
 20
11.9944152027
 30
0.0
 10
15.4099846032
 20
11.9915655361
 30
0.0
 10
15.4068796094
 20
11.9882890865
 30
0.0
 10
15.4053219999
 20
11.9858092822
 30
0.0
 10
15.4047054288
 20
11.9845350898
 30
0.0
  0
SPLINE
  5
375
100
AcDbEntity
  8
0
100
AcDbSpline
 62
7
  6
CONTINUOUS
 70
0
 71
3
 72
13
 73
9
 74
0
 42
0.0000001
 43
0.0000001
 44
0.0000000001
 40
0.0
 40
0.0
 40
0.0
 40
0.0
 40
0.1203837678
 40
0.2448858705
 40
0.5000359659
 40
0.7551674118
 40
0.8796468281
 40
1.0
 40
1.0
 40
1.0
 40
1.0
 10
15.5748605138
 20
11.9845350898
 30
0.0
 10
15.5729843351
 20
11.9858154528
 30
0.0
 10
15.5690543333
 20
11.988256939
 30
0.0
 10
15.5606773463
 20
11.9926128718
 30
0.0
 10
15.5494673705
 20
11.99695292
 30
0.0
 10
15.5377622761
 20
11.9996879611
 30
0.0
 10
15.5283890018
 20
12.0008123527
 30
0.0
 10
15.5237676354
 20
12.0010110567
 30
0.0
 10
15.5214967866
 20
12.0010110567
 30
0.0
  0
SPLINE
  5
376
100
AcDbEntity
  8
0
100
AcDbSpline
 62
7
  6
CONTINUOUS
 70
0
 71
3
 72
9
 73
5
 74
0
 42
0.0000001
 43
0.0000001
 44
0.0000000001
 40
0.0
 40
0.0
 40
0.0
 40
0.0
 40
0.2423988484
 40
1.0
 40
1.0
 40
1.0
 40
1.0
 10
15.5868507753
 20
11.9750389585
 30
0.0
 10
15.5859433411
 20
11.9758788808
 30
0.0
 10
15.5821294668
 20
11.9792676119
 30
0.0
 10
15.5780526113
 20
11.9823567027
 30
0.0
 10
15.5748605138
 20
11.9845350898
 30
0.0
  0
SPLINE
  5
377
100
AcDbEntity
  8
0
100
AcDbSpline
 62
7
  6
CONTINUOUS
 70
0
 71
3
 72
15
 73
11
 74
0
 42
0.0000001
 43
0.0000001
 44
0.0000000001
 40
0.0
 40
0.0
 40
0.0
 40
0.0
 40
0.1222057151
 40
0.2488986716
 40
0.3780641057
 40
0.507917285
 40
0.6367249041
 40
0.7627980176
 40
0.884475195
 40
1.0
 40
1.0
 40
1.0
 40
1.0
 10
15.6500093669
 20
11.9450661596
 30
0.0
 10
15.6478032147
 20
11.9450661596
 30
0.0
 10
15.64330782
 20
11.9452910838
 30
0.0
 10
15.6365400698
 20
11.9462336435
 30
0.0
 10
15.629742255
 20
11.9477797841
 30
0.0
 10
15.6230582443
 20
11.9498899834
 30
0.0
 10
15.6166233587
 20
11.9525251276
 30
0.0
 10
15.6105654326
 20
11.95562908
 30
0.0
 10
15.6050168759
 20
11.9591417954
 30
0.0
 10
15.6016311332
 20
11.9617786075
 30
0.0
 10
15.6000616183
 20
11.9631519661
 30
0.0
  0
ENDSEC
  0
SECTION
  2
OBJECTS
  0
DICTIONARY
  5
C
100
AcDbDictionary
280
0
281
1
  3
ACAD_GROUP
350
D
  3
ACAD_MLINESTYLE
350
17
  3
ACAD_LAYOUT
350
1A
  3
ACAD_PLOTSETTINGS
350
19
  3
ACAD_PLOTSTYLENAME
350
E
  0
DICTIONARY
  5
D
102
{ACAD_REACTORS
330
C
102
}
100
AcDbDictionary
280
0
281
1
  0
ACDBDICTIONARYWDFLT
  5
E
102
{ACAD_REACTORS
330
C
102
}
100
AcDbDictionary
281
1
  3
Normal
350
F
100
AcDbDictionaryWithDefault
340
F
  0
DICTIONARY
  5
17
102
{ACAD_REACTORS
330
C
102
}
100
AcDbDictionary
280
0
281
1
  3
Standard
350
18
  0
DICTIONARY
  5
19
102
{ACAD_REACTORS
330
C
102
}
100
AcDbDictionary
281
1
  0
DICTIONARY
  5
1A
102
{ACAD_REACTORS
330
C
102
}
100
AcDbDictionary
281
1
  3
Model
350
378
  3
Layout1
350
379
  0
ACDBPLACEHOLDER
  5
F
102
{ACAD_REACTORS
330
E
102
}
  0
MLINESTYLE
  5
18
102
{ACAD_REACTORS
330
17
102
}
100
AcDbMlineStyle
  2
STANDARD
 70
0
  3

 62
256
 51
90.0
 52
90.0
 71
2
 49
0.5
 62
256
  6
BYLAYER
 49
-0.5
 62
256
  6
BYLAYER
  0
LAYOUT
  5
378
102
{ACAD_REACTORS
330
1A
102
}
100
AcDbPlotSettings
  1

  2
none_device
  4
ANSI_C_(22.00_x_17.00_Inches)
  6

 40
0.0
 41
0.0
 42
0.0
 43
0.0
 44
558.8
 45
431.8
 46
0.0
 47
0.0
 48
0.0
 49
0.0
140
0.0
141
0.0
142
1.0
143
1.0
 70
1024
 72
0
 73
0
 74
0
  7

 75
0
147
1.0
148
0.0
149
0.0
100
AcDbLayout
  1
Model
 70
0
 71
0
 10
0.0
 20
0.0
 11
22.0
 21
17.0
 12
0.0
 22
0.0
 32
0.0
 14
0.0
 24
0.0
 34
0.0
 15
0.0
 25
0.0
 35
0.0
146
0.0
 13
0.0
 23
0.0
 33
0.0
 16
1.0
 26
0.0
 36
0.0
 17
0.0
 27
1.0
 37
0.0
 76
0
330
216
345
0
346
0
  0
LAYOUT
  5
379
102
{ACAD_REACTORS
330
1A
102
}
100
AcDbPlotSettings
  1

  2
none_device
  4
ANSI_C_(22.00_x_17.00_Inches)
  6

 40
0.0
 41
0.0
 42
0.0
 43
0.0
 44
558.8
 45
431.8
 46
0.0
 47
0.0
 48
0.0
 49
0.0
140
0.0
141
0.0
142
1.0
143
1.0
 70
0
 72
0
 73
0
 74
0
  7

 75
0
147
1.0
148
0.0
149
0.0
100
AcDbLayout
  1
Layout1
 70
0
 71
1
 10
0.0
 20
0.0
 11
22.0
 21
17.0
 12
0.0
 22
0.0
 32
0.0
 14
0.0
 24
0.0
 34
0.0
 15
0.0
 25
0.0
 35
0.0
146
0.0
 13
0.0
 23
0.0
 33
0.0
 16
1.0
 26
0.0
 36
0.0
 17
0.0
 27
1.0
 37
0.0
 76
0
330
217
345
0
346
0
  0
ENDSEC
  0
EOF