999
DXF file: _cgs_temp_output.dxf
999
Pro/ENGINEER 2015110 by Parametric Technology Corporation
  0
SECTION
  2
HEADER
  9
$ACADVER
  1
AC1021
  9
$DWGCODEPAGE
  3
ANSI_1252
  9
$EXTMAX
 10
22.0
 20
17.0
 30
0.0
  9
$EXTMIN
 10
0.0
 20
0.0
 30
0.0
  9
$LIMMIN
 10
0.0
 20
0.0
  9
$LIMMAX
 10
22.0
 20
17.0
  9
$VIEWCTR
 10
11.0
 20
8.5
  9
$VIEWSIZE
 40
17.0
  9
$CLAYER
  8
0
  9
$LTSCALE
 40
1.21
  9
$CELTYPE
  6
BYLAYER
  9
$DIMSCALE
 40
1.0
  9
$DIMASZ
 40
0.1875
  9
$DIMEXO
 40
0.0625
  9
$DIMDLI
 40
0.836
  9
$DIMEXE
 40
0.125
  9
$DIMCEN
 40
0.198
  9
$DIMLFAC
 40
1.0
  9
$DIMBLK
  1
_CLOSED
  9
$DIMALT
 70
0
  9
$DIMALTF
 40
25.4
  9
$DIMTXT
 40
0.15625
  9
$DIMTOL
 70
0
  9
$DIMLIM
 70
0
  9
$DIMTFAC
 40
1.0
  9
$DIMGAP
 40
0.09
  9
$DIMDSEP
 70
46
  9
$AUNITS
 70
0
  9
$PDMODE
 70
3
  9
$PDSIZE
 40
0.3125
  9
$HANDSEED
  5
387
  9
$TILEMODE
 70
1
  9
$MEASUREMENT
 70
0
  9
$INSUNITS
 70
1
  0
ENDSEC
  0
SECTION
  2
CLASSES
  0
CLASS
  1
ACDBDICTIONARYWDFLT
  2
AcDbDictionaryWithDefault
  3
AutoCAD 2000
 90
0
 91
1
280
0
281
0
  0
CLASS
  1
ACDBPLACEHOLDER
  2
AcDbPlaceHolder
  3
AutoCAD 2000
 90
0
 91
1
280
0
281
0
  0
CLASS
  1
LAYOUT
  2
AcDbLayout
  3
AutoCAD 2000
 90
0
 91
0
280
0
281
0
  0
ENDSEC
  0
SECTION
  2
TABLES
  0
TABLE
  2
VPORT
  5
8
100
AcDbSymbolTable
 70
2
  0
VPORT
  5
1F4
100
AcDbSymbolTableRecord
100
AcDbViewportTableRecord
  2
*ACTIVE
 70
0
 10
0.0
 20
0.0
 11
1.0
 21
1.0
 12
11.0
 22
8.5
 13
0.0
 23
0.0
 14
1.0
 24
1.0
 15
0.0
 25
0.0
 16
0.0
 26
0.0
 36
1.0
 17
0.0
 27
0.0
 37
0.0
 40
17.0
 41
1.2941176471
 42
50.0
 43
0.0
 44
0.0
 50
0.0
 51
0.0
 71
0
 72
100
 73
1
 74
1
 75
0
 76
0
 77
0
 78
0
  0
ENDTAB
  0
TABLE
  2
LTYPE
  5
5
100
AcDbSymbolTable
 70
6
  0
LTYPE
  5
14
100
AcDbSymbolTableRecord
100
AcDbLinetypeTableRecord
  2
BYBLOCK
 70
0
  3

 72
65
 73
0
 40
0.0
  0
LTYPE
  5
15
100
AcDbSymbolTableRecord
100
AcDbLinetypeTableRecord
  2
BYLAYER
 70
0
  3

 72
65
 73
0
 40
0.0
  0
LTYPE
  5
16
100
AcDbSymbolTableRecord
100
AcDbLinetypeTableRecord
  2
CONTINUOUS
 70
64
  3
Solid line
 72
65
 73
0
 40
0.0
  0
LTYPE
  5
1F5
100
AcDbSymbolTableRecord
100
AcDbLinetypeTableRecord
  2
CENTER
 70
64
  3
____ _ ____ _ ____ _ ____ _ ____ _ ____ _ ____
 72
65
 73
4
 40
0.6
 49
0.375
 74
0
 49
-0.075
 74
0
 49
0.075
 74
0
 49
-0.075
 74
0
  0
LTYPE
  5
1F6
100
AcDbSymbolTableRecord
100
AcDbLinetypeTableRecord
  2
HIDDEN
 70
64
  3
- - - - - - - - - - - - - - - - - - - -
 72
65
 73
2
 40
0.2
 49
0.1
 74
0
 49
-0.1
 74
0
  0
LTYPE
  5
1F7
100
AcDbSymbolTableRecord
100
AcDbLinetypeTableRecord
  2
PHANTOM
 70
64
  3
_____ _ _ _____ _ _ _____ _ _ _____
 72
65
 73
6
 40
0.8
 49
0.45
 74
0
 49
-0.05
 74
0
 49
0.1
 74
0
 49
-0.05
 74
0
 49
0.1
 74
0
 49
-0.05
 74
0
  0
LTYPE
  5
1F8
100
AcDbSymbolTableRecord
100
AcDbLinetypeTableRecord
  2
DOT
 70
64
  3
. . . . . . . . . . . . . . . . . . . .
 72
65
 73
2
 40
0.2
 49
0.1
 74
0
 49
-0.1
 74
0
  0
LTYPE
  5
1F9
100
AcDbSymbolTableRecord
100
AcDbLinetypeTableRecord
  2
DASHED
 70
64
  3
- - - - - - - - - - - - - - - - - - - -
 72
65
 73
2
 40
0.2
 49
0.1
 74
0
 49
-0.1
 74
0
  0
ENDTAB
  0
TABLE
  2
LAYER
  5
2
100
AcDbSymbolTable
 70
36
  0
LAYER
  5
10
100
AcDbSymbolTableRecord
100
AcDbLayerTableRecord
  2
0
 70
0
 62
7
  6
CONTINUOUS
370
-3
390
F
  0
LAYER
  5
1FA
100
AcDbSymbolTableRecord
100
AcDbLayerTableRecord
  2
DEFAULT_1
 70
0
 62
7
  6
CENTER
370
-3
390
F
  0
LAYER
  5
1FB
100
AcDbSymbolTableRecord
100
AcDbLayerTableRecord
  2
DEFAULT_2
 70
0
 62
8
  6
HIDDEN
370
-3
390
F
  0
LAYER
  5
1FC
100
AcDbSymbolTableRecord
100
AcDbLayerTableRecord
  2
DEFAULT_3
 70
0
 62
7
  6
PHANTOM
370
-3
390
F
  0
LAYER
  5
1FD
100
AcDbSymbolTableRecord
100
AcDbLayerTableRecord
  2
01_ALL_DTM_PLN
 70
0
 62
7
  6
CONTINUOUS
370
-3
390
F
  0
LAYER
  5
1FE
100
AcDbSymbolTableRecord
100
AcDbLayerTableRecord
  2
01__ASM_ALL_DTM_PLN
 70
0
 62
7
  6
CONTINUOUS
370
-3
390
F
  0
LAYER
  5
1FF
100
AcDbSymbolTableRecord
100
AcDbLayerTableRecord
  2
01__ASM_DEF_DTM_PLN
 70
0
 62
7
  6
CONTINUOUS
370
-3
390
F
  0
LAYER
  5
200
100
AcDbSymbolTableRecord
100
AcDbLayerTableRecord
  2
01___PRT_ALL_DTM_PLN
 70
0
 62
7
  6
CONTINUOUS
370
-3
390
F
  0
LAYER
  5
201
100
AcDbSymbolTableRecord
100
AcDbLayerTableRecord
  2
01___PRT_DEF_DTM_PLN
 70
0
 62
7
  6
CONTINUOUS
370
-3
390
F
  0
LAYER
  5
202
100
AcDbSymbolTableRecord
100
AcDbLayerTableRecord
  2
02_ALL_AXES
 70
0
 62
7
  6
CONTINUOUS
370
-3
390
F
  0
LAYER
  5
203
100
AcDbSymbolTableRecord
100
AcDbLayerTableRecord
  2
02__ASM_ALL_AXES
 70
0
 62
7
  6
CONTINUOUS
370
-3
390
F
  0
LAYER
  5
204
100
AcDbSymbolTableRecord
100
AcDbLayerTableRecord
  2
02___PRT_ALL_AXES
 70
0
 62
7
  6
CONTINUOUS
370
-3
390
F
  0
LAYER
  5
205
100
AcDbSymbolTableRecord
100
AcDbLayerTableRecord
  2
03_ALL_CURVES
 70
0
 62
7
  6
CONTINUOUS
370
-3
390
F
  0
LAYER
  5
206
100
AcDbSymbolTableRecord
100
AcDbLayerTableRecord
  2
03__ASM_ALL_CURVES
 70
0
 62
7
  6
CONTINUOUS
370
-3
390
F
  0
LAYER
  5
207
100
AcDbSymbolTableRecord
100
AcDbLayerTableRecord
  2
03___PRT_ALL_CURVES
 70
0
 62
7
  6
CONTINUOUS
370
-3
390
F
  0
LAYER
  5
208
100
AcDbSymbolTableRecord
100
AcDbLayerTableRecord
  2
04_ALL_DTM_PNT
 70
0
 62
7
  6
CONTINUOUS
370
-3
390
F
  0
LAYER
  5
209
100
AcDbSymbolTableRecord
100
AcDbLayerTableRecord
  2
04__ASM_ALL_DTM_PNT
 70
0
 62
7
  6
CONTINUOUS
370
-3
390
F
  0
LAYER
  5
20A
100
AcDbSymbolTableRecord
100
AcDbLayerTableRecord
  2
04___PRT_ALL_DTM_PNT
 70
0
 62
7
  6
CONTINUOUS
370
-3
390
F
  0
LAYER
  5
20B
100
AcDbSymbolTableRecord
100
AcDbLayerTableRecord
  2
05_ALL_DTM_CSYS
 70
0
 62
7
  6
CONTINUOUS
370
-3
390
F
  0
LAYER
  5
20C
100
AcDbSymbolTableRecord
100
AcDbLayerTableRecord
  2
05__ASM_ALL_DTM_CSYS
 70
0
 62
7
  6
CONTINUOUS
370
-3
390
F
  0
LAYER
  5
20D
100
AcDbSymbolTableRecord
100
AcDbLayerTableRecord
  2
05__ASM_DEF_DTM_CSYS
 70
0
 62
7
  6
CONTINUOUS
370
-3
390
F
  0
LAYER
  5
20E
100
AcDbSymbolTableRecord
100
AcDbLayerTableRecord
  2
05___PRT_ALL_DTM_CSYS
 70
0
 62
7
  6
CONTINUOUS
370
-3
390
F
  0
LAYER
  5
20F
100
AcDbSymbolTableRecord
100
AcDbLayerTableRecord
  2
05___PRT_DEF_DTM_CSYS
 70
0
 62
7
  6
CONTINUOUS
370
-3
390
F
  0
LAYER
  5
210
100
AcDbSymbolTableRecord
100
AcDbLayerTableRecord
  2
06_ALL_SURFS
 70
0
 62
7
  6
CONTINUOUS
370
-3
390
F
  0
LAYER
  5
211
100
AcDbSymbolTableRecord
100
AcDbLayerTableRecord
  2
06__ASM_ALL_SURFS
 70
0
 62
7
  6
CONTINUOUS
370
-3
390
F
  0
LAYER
  5
212
100
AcDbSymbolTableRecord
100
AcDbLayerTableRecord
  2
06___PRT_ALL_SURFS
 70
0
 62
7
  6
CONTINUOUS
370
-3
390
F
  0
LAYER
  5
213
100
AcDbSymbolTableRecord
100
AcDbLayerTableRecord
  2
07__ASM_ALL_SKELETONS
 70
0
 62
7
  6
CONTINUOUS
370
-3
390
F
  0
ENDTAB
  0
TABLE
  2
STYLE
  5
3
100
AcDbSymbolTable
 70
1
  0
STYLE
  5
11
100
AcDbSymbolTableRecord
100
AcDbTextStyleTableRecord
  2
STANDARD
 70
0
 40
0.0
 41
0.8
 50
0.0
 71
0
 42
0.2
  3
txt
  4

  0
STYLE
  5
214
100
AcDbSymbolTableRecord
100
AcDbTextStyleTableRecord
  2
TEXTSTYLE_1
 70
0
 40
0.0
 41
0.8
 50
0.0
 71
0
 42
0.2
  3
gdt
  4

  0
ENDTAB
  0
TABLE
  2
VIEW
  5
6
100
AcDbSymbolTable
 70
0
  0
ENDTAB
  0
TABLE
  2
UCS
  5
7
100
AcDbSymbolTable
 70
0
  0
ENDTAB
  0
TABLE
  2
APPID
  5
9
100
AcDbSymbolTable
 70
1
  0
APPID
  5
215
100
AcDbSymbolTableRecord
100
AcDbRegAppTableRecord
  2
ACAD
 70
0
  0
ENDTAB
  0
TABLE
  2
BLOCK_RECORD
  5
1
100
AcDbSymbolTable
 70
0
  0
BLOCK_RECORD
  5
216
100
AcDbSymbolTableRecord
100
AcDbBlockTableRecord
  2
*Model_Space
  0
BLOCK_RECORD
  5
217
100
AcDbSymbolTableRecord
100
AcDbBlockTableRecord
  2
*Paper_Space
  0
ENDTAB
  0
TABLE
  2
DIMSTYLE
  5
A
100
AcDbSymbolTable
 70
1
100
AcDbDimStyleTable
 71
0
  0
DIMSTYLE
105
218
100
AcDbSymbolTableRecord
100
AcDbDimStyleTableRecord
  2
STANDARD
 70
0
  3

  4

 40
1.0
 41
0.1875
 42
0.0625
 43
0.38
 44
0.125
 45
0.0
 46
0.0
 47
0.0001
 48
0.0001
140
0.15625
141
0.09
142
0.0
143
25.4
144
1.0
145
0.0
146
1.0
147
0.09
 71
0.0
 72
0.0
 73
1
 74
1
 75
0
 76
0
 77
0
 78
4
170
0
171
2
172
0
173
0
174
0
175
0
176
0
177
0
178
0
270
2
271
4
272
4
273
2
274
2
275
0
280
0
281
0
282
0
283
1
284
4
285
0
286
0
287
3
288
0
340
11
278
46
  0
ENDTAB
  0
ENDSEC
  0
SECTION
  2
BLOCKS
  0
BLOCK
  5
20
100
AcDbEntity
  8
0
100
AcDbBlockBegin
  2
*Model_Space
 70
0
 10
0.0
 20
0.0
 30
0.0
  3
*Model_Space
  1

  0
ENDBLK
  5
21
100
AcDbEntity
  8
0
100
AcDbBlockEnd
  0
BLOCK
  5
1C
100
AcDbEntity
  8
0
100
AcDbBlockBegin
  2
*Paper_Space
 70
0
 10
0.0
 20
0.0
 30
0.0
  3
*Paper_Space
  1

  0
ENDBLK
  5
1D
100
AcDbEntity
  8
0
100
AcDbBlockEnd
  0
ENDSEC
  0
SECTION
  2
ENTITIES
  0
MTEXT
  5
219
100
AcDbEntity
  8
0
100
AcDbMText
 62
7
  6
CONTINUOUS
  7
STANDARD
 71
1
 72
1
 10
15.9560215477
 20
0.9479130325
 30
0.0
 11
1.0
 21
0.0
 31
0.0
 44
0.9
  1
SCALE: 1:1.000
 40
0.3
 41
3.36
  0
LINE
  5
21A
100
AcDbEntity
  8
0
100
AcDbLine
 62
7
  6
CONTINUOUS
 10
0.0
 20
0.0
 11
0.0
 21
17.0
  0
LINE
  5
21B
100
AcDbEntity
  8
0
100
AcDbLine
 62
7
  6
CONTINUOUS
 10
0.0
 20
0.0
 11
22.0
 21
0.0
  0
LINE
  5
21C
100
AcDbEntity
  8
0
100
AcDbLine
 62
7
  6
CONTINUOUS
 10
0.0
 20
17.0
 11
22.0
 21
17.0
  0
LINE
  5
21D
100
AcDbEntity
  8
0
100
AcDbLine
 62
7
  6
CONTINUOUS
 10
22.0
 20
0.0
 11
22.0
 21
17.0
  0
LINE
  5
21E
100
AcDbEntity
  8
0
100
AcDbLine
 62
7
  6
CONTINUOUS
 10
5.0053672762
 20
5.5526198968
 11
5.0053672762
 21
5.4876198968
  0
LINE
  5
21F
100
AcDbEntity
  8
0
100
AcDbLine
 62
7
  6
CONTINUOUS
 10
5.1571672762
 20
5.4126198968
 11
5.2285672762
 21
5.4126198968
  0
LINE
  5
220
100
AcDbEntity
  8
0
100
AcDbLine
 62
7
  6
CONTINUOUS
 10
5.5321672762
 20
5.4126198968
 11
5.6035672762
 21
5.4126198968
  0
LINE
  5
221
100
AcDbEntity
  8
0
100
AcDbLine
 62
7
  6
CONTINUOUS
 10
5.9071672762
 20
5.4126198968
 11
5.9785672762
 21
5.4126198968
  0
LINE
  5
222
100
AcDbEntity
  8
0
100
AcDbLine
 62
7
  6
CONTINUOUS
 10
6.2821672762
 20
5.4126198968
 11
6.3535672762
 21
5.4126198968
  0
LINE
  5
223
100
AcDbEntity
  8
0
100
AcDbLine
 62
7
  6
CONTINUOUS
 10
6.6571672762
 20
5.4126198968
 11
6.7285672762
 21
5.4126198968
  0
LINE
  5
224
100
AcDbEntity
  8
0
100
AcDbLine
 62
7
  6
CONTINUOUS
 10
7.0321672762
 20
5.4126198968
 11
7.1035672762
 21
5.4126198968
  0
LINE
  5
225
100
AcDbEntity
  8
0
100
AcDbLine
 62
7
  6
CONTINUOUS
 10
5.0053672762
 20
5.4876198968
 11
5.0887172762
 21
5.4876198968
  0
LINE
  5
226
100
AcDbEntity
  8
0
100
AcDbLine
 62
7
  6
CONTINUOUS
 10
5.2970172762
 20
5.4876198968
 11
5.4637172762
 21
5.4876198968
  0
LINE
  5
227
100
AcDbEntity
  8
0
100
AcDbLine
 62
7
  6
CONTINUOUS
 10
5.6720172762
 20
5.4876198968
 11
5.8387172762
 21
5.4876198968
  0
LINE
  5
228
100
AcDbEntity
  8
0
100
AcDbLine
 62
7
  6
CONTINUOUS
 10
6.0470172762
 20
5.4876198968
 11
6.2137172762
 21
5.4876198968
  0
LINE
  5
229
100
AcDbEntity
  8
0
100
AcDbLine
 62
7
  6
CONTINUOUS
 10
6.4220172762
 20
5.4876198968
 11
6.5887172762
 21
5.4876198968
  0
LINE
  5
22A
100
AcDbEntity
  8
0
100
AcDbLine
 62
7
  6
CONTINUOUS
 10
6.7970172762
 20
5.4876198968
 11
6.9637172762
 21
5.4876198968
  0
LINE
  5
22B
100
AcDbEntity
  8
0
100
AcDbLine
 62
7
  6
CONTINUOUS
 10
7.1720172762
 20
5.4876198968
 11
7.2553672762
 21
5.4876198968
  0
LINE
  5
22C
100
AcDbEntity
  8
0
100
AcDbLine
 62
7
  6
CONTINUOUS
 10
7.2553672762
 20
5.5526198968
 11
7.1720172762
 21
5.5526198968
  0
LINE
  5
22D
100
AcDbEntity
  8
0
100
AcDbLine
 62
7
  6
CONTINUOUS
 10
6.9637172762
 20
5.5526198968
 11
6.7970172762
 21
5.5526198968
  0
LINE
  5
22E
100
AcDbEntity
  8
0
100
AcDbLine
 62
7
  6
CONTINUOUS
 10
6.5887172762
 20
5.5526198968
 11
6.4220172762
 21
5.5526198968
  0
LINE
  5
22F
100
AcDbEntity
  8
0
100
AcDbLine
 62
7
  6
CONTINUOUS
 10
6.2137172762
 20
5.5526198968
 11
6.0470172762
 21
5.5526198968
  0
LINE
  5
230
100
AcDbEntity
  8
0
100
AcDbLine
 62
7
  6
CONTINUOUS
 10
5.8387172762
 20
5.5526198968
 11
5.6720172762
 21
5.5526198968
  0
LINE
  5
231
100
AcDbEntity
  8
0
100
AcDbLine
 62
7
  6
CONTINUOUS
 10
5.4637172762
 20
5.5526198968
 11
5.2970172762
 21
5.5526198968
  0
LINE
  5
232
100
AcDbEntity
  8
0
100
AcDbLine
 62
7
  6
CONTINUOUS
 10
5.0887172762
 20
5.5526198968
 11
5.0053672762
 21
5.5526198968
  0
LINE
  5
233
100
AcDbEntity
  8
0
100
AcDbLine
 62
7
  6
CONTINUOUS
 10
7.1035672762
 20
5.6276198968
 11
7.0321672762
 21
5.6276198968
  0
LINE
  5
234
100
AcDbEntity
  8
0
100
AcDbLine
 62
7
  6
CONTINUOUS
 10
6.7285672762
 20
5.6276198968
 11
6.6571672762
 21
5.6276198968
  0
LINE
  5
235
100
AcDbEntity
  8
0
100
AcDbLine
 62
7
  6
CONTINUOUS
 10
6.3535672762
 20
5.6276198968
 11
6.2821672762
 21
5.6276198968
  0
LINE
  5
236
100
AcDbEntity
  8
0
100
AcDbLine
 62
7
  6
CONTINUOUS
 10
5.9785672762
 20
5.6276198968
 11
5.9071672762
 21
5.6276198968
  0
LINE
  5
237
100
AcDbEntity
  8
0
100
AcDbLine
 62
7
  6
CONTINUOUS
 10
5.6035672762
 20
5.6276198968
 11
5.5321672762
 21
5.6276198968
  0
LINE
  5
238
100
AcDbEntity
  8
0
100
AcDbLine
 62
7
  6
CONTINUOUS
 10
5.2285672762
 20
5.6276198968
 11
5.1571672762
 21
5.6276198968
  0
LINE
  5
239
100
AcDbEntity
  8
0
100
AcDbLine
 62
7
  6
CONTINUOUS
 10
7.2553672762
 20
5.4876198968
 11
7.2553672762
 21
5.5526198968
  0
LINE
  5
23A
100
AcDbEntity
  8
0
100
AcDbLine
 62
7
  6
CONTINUOUS
 10
4.9458720839
 20
12.9750477814
 11
4.9458720839
 21
12.2250477814
  0
LINE
  5
23B
100
AcDbEntity
  8
0
100
AcDbLine
 62
7
  6
CONTINUOUS
 10
7.1958720839
 20
12.2250477814
 11
4.9458720839
 21
12.2250477814
  0
LINE
  5
23C
100
AcDbEntity
  8
0
100
AcDbLine
 62
7
  6
CONTINUOUS
 10
4.9458720839
 20
12.9750477814
 11
7.1958720839
 21
12.9750477814
  0
LINE
  5
23D
100
AcDbEntity
  8
0
100
AcDbLine
 62
7
  6
CONTINUOUS
 10
7.1958720839
 20
12.9750477814
 11
7.1958720839
 21
12.2250477814
  0
LINE
  5
23E
100
AcDbEntity
  8
0
100
AcDbLine
 62
7
  6
CONTINUOUS
 10
15.1853552569
 20
5.3531247044
 11
15.1853552569
 21
5.5681247044
  0
LINE
  5
23F
100
AcDbEntity
  8
0
100
AcDbLine
 62
7
  6
CONTINUOUS
 10
15.9353552569
 20
5.3531247044
 11
15.1853552569
 21
5.3531247044
  0
LINE
  5
240
100
AcDbEntity
  8
0
100
AcDbLine
 62
7
  6
CONTINUOUS
 10
15.9353552569
 20
5.4281247044
 11
15.1853552569
 21
5.4281247044
  0
LINE
  5
241
100
AcDbEntity
  8
0
100
AcDbLine
 62
7
  6
CONTINUOUS
 10
15.9353552569
 20
5.4931247044
 11
15.1853552569
 21
5.4931247044
  0
LINE
  5
242
100
AcDbEntity
  8
0
100
AcDbLine
 62
7
  6
CONTINUOUS
 10
15.9353552569
 20
5.5681247044
 11
15.1853552569
 21
5.5681247044
  0
LINE
  5
243
100
AcDbEntity
  8
0
100
AcDbLine
 62
7
  6
CONTINUOUS
 10
15.9353552569
 20
5.3531247044
 11
15.9353552569
 21
5.5681247044
  0
LINE
  5
244
100
AcDbEntity
  8
0
100
AcDbLine
 62
7
  6
CONTINUOUS
 10
14.3342301183
 20
12.2372597258
 11
14.3540578396
 21
12.1968550778
  0
LINE
  5
245
100
AcDbEntity
  8
0
100
AcDbLine
 62
7
  6
CONTINUOUS
 10
14.4242374635
 20
12.2448138143
 11
14.423995265
 21
12.2437909706
  0
LINE
  5
246
100
AcDbEntity
  8
0
100
AcDbLine
 62
7
  6
CONTINUOUS
 10
14.5157798608
 20
12.824754908
 11
14.3342301183
 21
12.2372597258
  0
LINE
  5
247
100
AcDbEntity
  8
0
100
AcDbLine
 62
7
  6
CONTINUOUS
 10
14.6082577324
 20
12.858246588
 11
14.4275067414
 21
12.2733361667
  0
LINE
  5
248
100
AcDbEntity
  8
0
100
AcDbLine
 62
7
  6
CONTINUOUS
 10
14.6092247395
 20
12.8607793541
 11
14.6082577341
 21
12.8582465875
  0
LINE
  5
249
100
AcDbEntity
  8
0
100
AcDbLine
 62
7
  6
CONTINUOUS
 10
14.4276749969
 20
12.2732841719
 11
14.4267079915
 21
12.2707514053
  0
LINE
  5
24A
100
AcDbEntity
  8
0
100
AcDbLine
 62
7
  6
CONTINUOUS
 10
14.6094483672
 20
12.1893009892
 11
14.6096905656
 21
12.1903238329
  0
LINE
  5
24B
100
AcDbEntity
  8
0
100
AcDbLine
 62
7
  6
CONTINUOUS
 10
14.6170811108
 20
12.1960575916
 11
14.6069778408
 21
12.1633633978
  0
LINE
  5
24C
100
AcDbEntity
  8
0
100
AcDbLine
 62
7
  6
CONTINUOUS
 10
14.6060108337
 20
12.1608306317
 11
14.6069778391
 21
12.1633633983
  0
LINE
  5
24D
100
AcDbEntity
  8
0
100
AcDbLine
 62
7
  6
CONTINUOUS
 10
14.7696353362
 20
12.2448138143
 11
14.7693931378
 21
12.2437909706
  0
LINE
  5
24E
100
AcDbEntity
  8
0
100
AcDbLine
 62
7
  6
CONTINUOUS
 10
14.9536556052
 20
12.858246588
 11
14.7729046142
 21
12.2733361667
  0
LINE
  5
24F
100
AcDbEntity
  8
0
100
AcDbLine
 62
7
  6
CONTINUOUS
 10
14.9546226122
 20
12.8607793541
 11
14.9536556068
 21
12.8582465875
  0
LINE
  5
250
100
AcDbEntity
  8
0
100
AcDbLine
 62
7
  6
CONTINUOUS
 10
14.7730728697
 20
12.2732841719
 11
14.7721058643
 21
12.2707514053
  0
LINE
  5
251
100
AcDbEntity
  8
0
100
AcDbLine
 62
7
  6
CONTINUOUS
 10
14.9548462399
 20
12.1893009892
 11
14.9550884383
 21
12.1903238329
  0
LINE
  5
252
100
AcDbEntity
  8
0
100
AcDbLine
 62
7
  6
CONTINUOUS
 10
14.9624789836
 20
12.1960575916
 11
14.9523757135
 21
12.1633633978
  0
LINE
  5
253
100
AcDbEntity
  8
0
100
AcDbLine
 62
7
  6
CONTINUOUS
 10
14.9514087065
 20
12.1608306317
 11
14.9523757119
 21
12.1633633983
  0
LINE
  5
254
100
AcDbEntity
  8
0
100
AcDbLine
 62
7
  6
CONTINUOUS
 10
14.5167530385
 20
12.1502343302
 11
14.5825167935
 21
12.1502343302
  0
LINE
  5
255
100
AcDbEntity
  8
0
100
AcDbLine
 62
7
  6
CONTINUOUS
 10
14.8621509112
 20
12.1502343302
 11
14.9279146662
 21
12.1502343302
  0
LINE
  5
256
100
AcDbEntity
  8
0
100
AcDbLine
 62
7
  6
CONTINUOUS
 10
15.207548784
 20
12.1502343302
 11
15.273312539
 21
12.1502343302
  0
LINE
  5
257
100
AcDbEntity
  8
0
100
AcDbLine
 62
7
  6
CONTINUOUS
 10
15.5529466567
 20
12.1502343302
 11
15.6187104117
 21
12.1502343302
  0
LINE
  5
258
100
AcDbEntity
  8
0
100
AcDbLine
 62
7
  6
CONTINUOUS
 10
15.8983445295
 20
12.1502343302
 11
15.9641082845
 21
12.1502343302
  0
LINE
  5
259
100
AcDbEntity
  8
0
100
AcDbLine
 62
7
  6
CONTINUOUS
 10
16.2437424023
 20
12.1502343302
 11
16.3095061572
 21
12.1502343302
  0
LINE
  5
25A
100
AcDbEntity
  8
0
100
AcDbLine
 62
7
  6
CONTINUOUS
 10
14.3540578396
 20
12.1968550778
 11
14.4308282735
 21
12.1968550778
  0
LINE
  5
25B
100
AcDbEntity
  8
0
100
AcDbLine
 62
7
  6
CONTINUOUS
 10
14.6226852785
 20
12.1968550778
 11
14.7762261462
 21
12.1968550778
  0
LINE
  5
25C
100
AcDbEntity
  8
0
100
AcDbLine
 62
7
  6
CONTINUOUS
 10
14.9680831513
 20
12.1968550778
 11
15.121624019
 21
12.1968550778
  0
LINE
  5
25D
100
AcDbEntity
  8
0
100
AcDbLine
 62
7
  6
CONTINUOUS
 10
15.313481024
 20
12.1968550778
 11
15.4670218917
 21
12.1968550778
  0
LINE
  5
25E
100
AcDbEntity
  8
0
100
AcDbLine
 62
7
  6
CONTINUOUS
 10
15.6588788968
 20
12.1968550778
 11
15.8124197645
 21
12.1968550778
  0
LINE
  5
25F
100
AcDbEntity
  8
0
100
AcDbLine
 62
7
  6
CONTINUOUS
 10
16.0042767695
 20
12.1968550778
 11
16.1578176372
 21
12.1968550778
  0
LINE
  5
260
100
AcDbEntity
  8
0
100
AcDbLine
 62
7
  6
CONTINUOUS
 10
16.3496746423
 20
12.1968550778
 11
16.4264450761
 21
12.1968550778
  0
LINE
  5
261
100
AcDbEntity
  8
0
100
AcDbLine
 62
7
  6
CONTINUOUS
 10
15.115033209
 20
12.2448138143
 11
15.1147910105
 21
12.2437909706
  0
LINE
  5
262
100
AcDbEntity
  8
0
100
AcDbLine
 62
7
  6
CONTINUOUS
 10
15.2990534779
 20
12.858246588
 11
15.1183024869
 21
12.2733361667
  0
LINE
  5
263
100
AcDbEntity
  8
0
100
AcDbLine
 62
7
  6
CONTINUOUS
 10
15.300020485
 20
12.8607793541
 11
15.2990534796
 21
12.8582465875
  0
LINE
  5
264
100
AcDbEntity
  8
0
100
AcDbLine
 62
7
  6
CONTINUOUS
 10
15.1184707424
 20
12.2732841719
 11
15.117503737
 21
12.2707514053
  0
LINE
  5
265
100
AcDbEntity
  8
0
100
AcDbLine
 62
7
  6
CONTINUOUS
 10
16.4066173548
 20
12.2372597258
 11
16.3298469209
 21
12.2372597258
  0
LINE
  5
266
100
AcDbEntity
  8
0
100
AcDbLine
 62
7
  6
CONTINUOUS
 10
16.1379899159
 20
12.2372597258
 11
15.9844490482
 21
12.2372597258
  0
LINE
  5
267
100
AcDbEntity
  8
0
100
AcDbLine
 62
7
  6
CONTINUOUS
 10
15.7925920431
 20
12.2372597258
 11
15.6390511754
 21
12.2372597258
  0
LINE
  5
268
100
AcDbEntity
  8
0
100
AcDbLine
 62
7
  6
CONTINUOUS
 10
15.4471941704
 20
12.2372597258
 11
15.2936533027
 21
12.2372597258
  0
LINE
  5
269
100
AcDbEntity
  8
0
100
AcDbLine
 62
7
  6
CONTINUOUS
 10
15.1017962976
 20
12.2372597258
 11
14.9482554299
 21
12.2372597258
  0
LINE
  5
26A
100
AcDbEntity
  8
0
100
AcDbLine
 62
7
  6
CONTINUOUS
 10
14.7563984249
 20
12.2372597258
 11
14.6028575572
 21
12.2372597258
  0
LINE
  5
26B
100
AcDbEntity
  8
0
100
AcDbLine
 62
7
  6
CONTINUOUS
 10
14.4110005521
 20
12.2372597258
 11
14.3342301183
 21
12.2372597258
  0
LINE
  5
26C
100
AcDbEntity
  8
0
100
AcDbLine
 62
7
  6
CONTINUOUS
 10
16.2439221559
 20
12.2838804734
 11
16.1781584009
 21
12.2838804734
  0
LINE
  5
26D
100
AcDbEntity
  8
0
100
AcDbLine
 62
7
  6
CONTINUOUS
 10
15.8985242831
 20
12.2838804734
 11
15.8327605282
 21
12.2838804734
  0
LINE
  5
26E
100
AcDbEntity
  8
0
100
AcDbLine
 62
7
  6
CONTINUOUS
 10
15.5531264104
 20
12.2838804734
 11
15.4873626554
 21
12.2838804734
  0
LINE
  5
26F
100
AcDbEntity
  8
0
100
AcDbLine
 62
7
  6
CONTINUOUS
 10
15.2077285376
 20
12.2838804734
 11
15.1419647827
 21
12.2838804734
  0
LINE
  5
270
100
AcDbEntity
  8
0
100
AcDbLine
 62
7
  6
CONTINUOUS
 10
14.8623306649
 20
12.2838804734
 11
14.7965669099
 21
12.2838804734
  0
LINE
  5
271
100
AcDbEntity
  8
0
100
AcDbLine
 62
7
  6
CONTINUOUS
 10
14.5169327921
 20
12.2838804734
 11
14.4511690372
 21
12.2838804734
  0
LINE
  5
272
100
AcDbEntity
  8
0
100
AcDbLine
 62
7
  6
CONTINUOUS
 10
15.3002441127
 20
12.1893009892
 11
15.3004863111
 21
12.1903238329
  0
LINE
  5
273
100
AcDbEntity
  8
0
100
AcDbLine
 62
7
  6
CONTINUOUS
 10
15.3078768563
 20
12.1960575916
 11
15.2977735863
 21
12.1633633978
  0
LINE
  5
274
100
AcDbEntity
  8
0
100
AcDbLine
 62
7
  6
CONTINUOUS
 10
15.2968065792
 20
12.1608306317
 11
15.2977735846
 21
12.1633633983
  0
LINE
  5
275
100
AcDbEntity
  8
0
100
AcDbLine
 62
7
  6
CONTINUOUS
 10
15.4604310817
 20
12.2448138143
 11
15.4601974844
 21
12.2437882953
  0
LINE
  5
276
100
AcDbEntity
  8
0
100
AcDbLine
 62
7
  6
CONTINUOUS
 10
15.6444513507
 20
12.858246588
 11
15.4637003597
 21
12.2733361667
  0
LINE
  5
277
100
AcDbEntity
  8
0
100
AcDbLine
 62
7
  6
CONTINUOUS
 10
15.6454183577
 20
12.8607793541
 11
15.6444513523
 21
12.8582465875
  0
LINE
  5
278
100
AcDbEntity
  8
0
100
AcDbLine
 62
7
  6
CONTINUOUS
 10
15.4638686152
 20
12.2732841719
 11
15.4629016098
 21
12.2707514053
  0
LINE
  5
279
100
AcDbEntity
  8
0
100
AcDbLine
 62
7
  6
CONTINUOUS
 10
15.6456419854
 20
12.1893009892
 11
15.6458755828
 21
12.1903265082
  0
LINE
  5
27A
100
AcDbEntity
  8
0
100
AcDbLine
 62
7
  6
CONTINUOUS
 10
15.6532963092
 20
12.1961274249
 11
15.643171459
 21
12.1633633978
  0
LINE
  5
27B
100
AcDbEntity
  8
0
100
AcDbLine
 62
7
  6
CONTINUOUS
 10
15.642204452
 20
12.1608306317
 11
15.6431714574
 21
12.1633633983
  0
LINE
  5
27C
100
AcDbEntity
  8
0
100
AcDbLine
 62
7
  6
CONTINUOUS
 10
16.5881670973
 20
12.824754908
 11
16.5113966635
 21
12.824754908
  0
LINE
  5
27D
100
AcDbEntity
  8
0
100
AcDbLine
 62
7
  6
CONTINUOUS
 10
14.5925502947
 20
12.824754908
 11
14.5157798608
 21
12.824754908
  0
LINE
  5
27E
100
AcDbEntity
  8
0
100
AcDbLine
 62
7
  6
CONTINUOUS
 10
14.7844072997
 20
12.824754908
 11
14.9379481674
 21
12.824754908
  0
LINE
  5
27F
100
AcDbEntity
  8
0
100
AcDbLine
 62
7
  6
CONTINUOUS
 10
15.1298051725
 20
12.824754908
 11
15.2833460402
 21
12.824754908
  0
LINE
  5
280
100
AcDbEntity
  8
0
100
AcDbLine
 62
7
  6
CONTINUOUS
 10
15.4752030452
 20
12.824754908
 11
15.6287439129
 21
12.824754908
  0
LINE
  5
281
100
AcDbEntity
  8
0
100
AcDbLine
 62
7
  6
CONTINUOUS
 10
15.820600918
 20
12.824754908
 11
15.9741417857
 21
12.824754908
  0
LINE
  5
282
100
AcDbEntity
  8
0
100
AcDbLine
 62
7
  6
CONTINUOUS
 10
16.1659987907
 20
12.824754908
 11
16.3195396584
 21
12.824754908
  0
LINE
  5
283
100
AcDbEntity
  8
0
100
AcDbLine
 62
7
  6
CONTINUOUS
 10
15.8058289545
 20
12.2448138143
 11
15.8055953571
 21
12.2437882953
  0
LINE
  5
284
100
AcDbEntity
  8
0
100
AcDbLine
 62
7
  6
CONTINUOUS
 10
15.9898492234
 20
12.858246588
 11
15.8090982324
 21
12.2733361667
  0
LINE
  5
285
100
AcDbEntity
  8
0
100
AcDbLine
 62
7
  6
CONTINUOUS
 10
15.9908162305
 20
12.8607793541
 11
15.9898492251
 21
12.8582465875
  0
LINE
  5
286
100
AcDbEntity
  8
0
100
AcDbLine
 62
7
  6
CONTINUOUS
 10
15.8092664879
 20
12.2732841719
 11
15.8082994825
 21
12.2707514053
  0
LINE
  5
287
100
AcDbEntity
  8
0
100
AcDbLine
 62
7
  6
CONTINUOUS
 10
16.4254718985
 20
12.8713756556
 11
16.3597081435
 21
12.8713756556
  0
LINE
  5
288
100
AcDbEntity
  8
0
100
AcDbLine
 62
7
  6
CONTINUOUS
 10
16.0800740257
 20
12.8713756556
 11
16.0143102707
 21
12.8713756556
  0
LINE
  5
289
100
AcDbEntity
  8
0
100
AcDbLine
 62
7
  6
CONTINUOUS
 10
15.7346761529
 20
12.8713756556
 11
15.668912398
 21
12.8713756556
  0
LINE
  5
28A
100
AcDbEntity
  8
0
100
AcDbLine
 62
7
  6
CONTINUOUS
 10
15.3892782802
 20
12.8713756556
 11
15.3235145252
 21
12.8713756556
  0
LINE
  5
28B
100
AcDbEntity
  8
0
100
AcDbLine
 62
7
  6
CONTINUOUS
 10
15.0438804074
 20
12.8713756556
 11
14.9781166525
 21
12.8713756556
  0
LINE
  5
28C
100
AcDbEntity
  8
0
100
AcDbLine
 62
7
  6
CONTINUOUS
 10
14.6984825347
 20
12.8713756556
 11
14.6327187797
 21
12.8713756556
  0
LINE
  5
28D
100
AcDbEntity
  8
0
100
AcDbLine
 62
7
  6
CONTINUOUS
 10
15.9910398582
 20
12.1893009892
 11
15.9912734555
 21
12.1903265082
  0
LINE
  5
28E
100
AcDbEntity
  8
0
100
AcDbLine
 62
7
  6
CONTINUOUS
 10
15.998694182
 20
12.1961274249
 11
15.9885693318
 21
12.1633633978
  0
LINE
  5
28F
100
AcDbEntity
  8
0
100
AcDbLine
 62
7
  6
CONTINUOUS
 10
15.9876023247
 20
12.1608306317
 11
15.9885693301
 21
12.1633633983
  0
LINE
  5
290
100
AcDbEntity
  8
0
100
AcDbLine
 62
7
  6
CONTINUOUS
 10
16.1512268272
 20
12.2448138143
 11
16.1509932299
 21
12.2437882953
  0
LINE
  5
291
100
AcDbEntity
  8
0
100
AcDbLine
 62
7
  6
CONTINUOUS
 10
16.3352470962
 20
12.858246588
 11
16.1544961052
 21
12.2733361667
  0
LINE
  5
292
100
AcDbEntity
  8
0
100
AcDbLine
 62
7
  6
CONTINUOUS
 10
16.3362141032
 20
12.8607793541
 11
16.3352470978
 21
12.8582465875
  0
LINE
  5
293
100
AcDbEntity
  8
0
100
AcDbLine
 62
7
  6
CONTINUOUS
 10
16.1546643607
 20
12.2732841719
 11
16.1536973553
 21
12.2707514053
  0
LINE
  5
294
100
AcDbEntity
  8
0
100
AcDbLine
 62
7
  6
CONTINUOUS
 10
16.4264450761
 20
12.1968550778
 11
16.4066173548
 21
12.2372597258
  0
LINE
  5
295
100
AcDbEntity
  8
0
100
AcDbLine
 62
7
  6
CONTINUOUS
 10
16.3364377309
 20
12.1893009892
 11
16.3366713283
 21
12.1903265082
  0
LINE
  5
296
100
AcDbEntity
  8
0
100
AcDbLine
 62
7
  6
CONTINUOUS
 10
16.3440920547
 20
12.1961274249
 11
16.3339672045
 21
12.1633633978
  0
LINE
  5
297
100
AcDbEntity
  8
0
100
AcDbLine
 62
7
  6
CONTINUOUS
 10
16.3330001975
 20
12.1608306317
 11
16.3339672029
 21
12.1633633983
  0
LINE
  5
298
100
AcDbEntity
  8
0
100
AcDbLine
 62
7
  6
CONTINUOUS
 10
16.5881670973
 20
12.824754908
 11
16.4066173548
 21
12.2372597258
  0
LINE
  5
299
100
AcDbEntity
  8
0
100
AcDbLine
 62
7
  6
CONTINUOUS
 10
16.6079948187
 20
12.78435026
 11
16.4264450761
 21
12.1968550778
  0
LINE
  5
29A
100
AcDbEntity
  8
0
100
AcDbLine
 62
7
  6
CONTINUOUS
 10
16.6079948187
 20
12.78435026
 11
16.5881670973
 21
12.824754908
  0
ARC
  5
29B
100
AcDbEntity
  8
0
100
AcDbCircle
 62
7
  6
CONTINUOUS
 10
5.0601070938
 20
5.2954448094
 40
0.4588
100
AcDbArc
 50
18.815582351
 51
23.1024928474
  0
ARC
  5
29C
100
AcDbEntity
  8
0
100
AcDbCircle
 62
7
  6
CONTINUOUS
 10
6.0756274585
 20
5.2954448094
 40
0.4588
100
AcDbArc
 50
156.8975071526
 51
161.184417649
  0
ARC
  5
29D
100
AcDbEntity
  8
0
100
AcDbCircle
 62
7
  6
CONTINUOUS
 10
5.4351070938
 20
5.2954448094
 40
0.4588
100
AcDbArc
 50
18.815582351
 51
23.1024928474
  0
ARC
  5
29E
100
AcDbEntity
  8
0
100
AcDbCircle
 62
7
  6
CONTINUOUS
 10
5.8101070938
 20
5.2954448094
 40
0.4588
100
AcDbArc
 50
18.815582351
 51
23.1024928474
  0
ARC
  5
29F
100
AcDbEntity
  8
0
100
AcDbCircle
 62
7
  6
CONTINUOUS
 10
5.7006274585
 20
5.2954448094
 40
0.4588
100
AcDbArc
 50
156.8975071526
 51
161.184417649
  0
ARC
  5
2A0
100
AcDbEntity
  8
0
100
AcDbCircle
 62
7
  6
CONTINUOUS
 10
4.6851070938
 20
5.2954448094
 40
0.4588
100
AcDbArc
 50
18.815582351
 51
23.1024928474
  0
ARC
  5
2A1
100
AcDbEntity
  8
0
100
AcDbCircle
 62
7
  6
CONTINUOUS
 10
5.5544772762
 20
5.4638921935
 40
0.06348
100
AcDbArc
 50
198.815582351
 51
212.6263420111
  0
ARC
  5
2A2
100
AcDbEntity
  8
0
100
AcDbCircle
 62
7
  6
CONTINUOUS
 10
5.5812572762
 20
5.4638921935
 40
0.06348
100
AcDbArc
 50
327.3736579889
 51
341.184417649
  0
ARC
  5
2A3
100
AcDbEntity
  8
0
100
AcDbCircle
 62
7
  6
CONTINUOUS
 10
5.9294772762
 20
5.4638921935
 40
0.06348
100
AcDbArc
 50
198.815582351
 51
212.6263420111
  0
ARC
  5
2A4
100
AcDbEntity
  8
0
100
AcDbCircle
 62
7
  6
CONTINUOUS
 10
5.9562572762
 20
5.4638921935
 40
0.06348
100
AcDbArc
 50
327.3736579889
 51
341.184417649
  0
ARC
  5
2A5
100
AcDbEntity
  8
0
100
AcDbCircle
 62
7
  6
CONTINUOUS
 10
5.2062572762
 20
5.4638921935
 40
0.06348
100
AcDbArc
 50
327.3736579889
 51
341.184417649
  0
ARC
  5
2A6
100
AcDbEntity
  8
0
100
AcDbCircle
 62
7
  6
CONTINUOUS
 10
5.1794772762
 20
5.4638921935
 40
0.06348
100
AcDbArc
 50
198.815582351
 51
212.6263420111
  0
ARC
  5
2A7
100
AcDbEntity
  8
0
100
AcDbCircle
 62
7
  6
CONTINUOUS
 10
5.5321672762
 20
5.4496098968
 40
0.03699
100
AcDbArc
 50
212.6263420111
 51
270.0
  0
ARC
  5
2A8
100
AcDbEntity
  8
0
100
AcDbCircle
 62
7
  6
CONTINUOUS
 10
5.6035672762
 20
5.4496098968
 40
0.03699
100
AcDbArc
 50
270.0
 51
327.3736579889
  0
ARC
  5
2A9
100
AcDbEntity
  8
0
100
AcDbCircle
 62
7
  6
CONTINUOUS
 10
5.9071672762
 20
5.4496098968
 40
0.03699
100
AcDbArc
 50
212.6263420111
 51
270.0
  0
ARC
  5
2AA
100
AcDbEntity
  8
0
100
AcDbCircle
 62
7
  6
CONTINUOUS
 10
5.9785672762
 20
5.4496098968
 40
0.03699
100
AcDbArc
 50
270.0
 51
327.3736579889
  0
ARC
  5
2AB
100
AcDbEntity
  8
0
100
AcDbCircle
 62
7
  6
CONTINUOUS
 10
5.2285672762
 20
5.4496098968
 40
0.03699
100
AcDbArc
 50
270.0
 51
327.3736579889
  0
ARC
  5
2AC
100
AcDbEntity
  8
0
100
AcDbCircle
 62
7
  6
CONTINUOUS
 10
5.1571672762
 20
5.4496098968
 40
0.03699
100
AcDbArc
 50
212.6263420111
 51
270.0
  0
ARC
  5
2AD
100
AcDbEntity
  8
0
100
AcDbCircle
 62
7
  6
CONTINUOUS
 10
5.4637172762
 20
5.4676198968
 40
0.02
100
AcDbArc
 50
23.1024928474
 51
90.0
  0
ARC
  5
2AE
100
AcDbEntity
  8
0
100
AcDbCircle
 62
7
  6
CONTINUOUS
 10
5.6720172762
 20
5.4676198968
 40
0.02
100
AcDbArc
 50
90.0
 51
156.8975071526
  0
ARC
  5
2AF
100
AcDbEntity
  8
0
100
AcDbCircle
 62
7
  6
CONTINUOUS
 10
5.8387172762
 20
5.4676198968
 40
0.02
100
AcDbArc
 50
23.1024928474
 51
90.0
  0
ARC
  5
2B0
100
AcDbEntity
  8
0
100
AcDbCircle
 62
7
  6
CONTINUOUS
 10
6.0470172762
 20
5.4676198968
 40
0.02
100
AcDbArc
 50
90.0
 51
156.8975071526
  0
ARC
  5
2B1
100
AcDbEntity
  8
0
100
AcDbCircle
 62
7
  6
CONTINUOUS
 10
5.2970172762
 20
5.4676198968
 40
0.02
100
AcDbArc
 50
90.0
 51
156.8975071526
  0
ARC
  5
2B2
100
AcDbEntity
  8
0
100
AcDbCircle
 62
7
  6
CONTINUOUS
 10
5.0887172762
 20
5.4676198968
 40
0.02
100
AcDbArc
 50
23.1024928474
 51
90.0
  0
ARC
  5
2B3
100
AcDbEntity
  8
0
100
AcDbCircle
 62
7
  6
CONTINUOUS
 10
5.8101070938
 20
5.7447949841
 40
0.4588
100
AcDbArc
 50
336.8975071526
 51
341.184417649
  0
ARC
  5
2B4
100
AcDbEntity
  8
0
100
AcDbCircle
 62
7
  6
CONTINUOUS
 10
5.4351070938
 20
5.7447949841
 40
0.4588
100
AcDbArc
 50
336.8975071526
 51
341.184417649
  0
ARC
  5
2B5
100
AcDbEntity
  8
0
100
AcDbCircle
 62
7
  6
CONTINUOUS
 10
6.0756274585
 20
5.7447949841
 40
0.4588
100
AcDbArc
 50
198.815582351
 51
203.1024928474
  0
ARC
  5
2B6
100
AcDbEntity
  8
0
100
AcDbCircle
 62
7
  6
CONTINUOUS
 10
5.0601070938
 20
5.7447949841
 40
0.4588
100
AcDbArc
 50
336.8975071526
 51
341.184417649
  0
ARC
  5
2B7
100
AcDbEntity
  8
0
100
AcDbCircle
 62
7
  6
CONTINUOUS
 10
5.7006274585
 20
5.7447949841
 40
0.4588
100
AcDbArc
 50
198.815582351
 51
203.1024928474
  0
ARC
  5
2B8
100
AcDbEntity
  8
0
100
AcDbCircle
 62
7
  6
CONTINUOUS
 10
4.6851070938
 20
5.7447949841
 40
0.4588
100
AcDbArc
 50
336.8975071526
 51
341.184417649
  0
ARC
  5
2B9
100
AcDbEntity
  8
0
100
AcDbCircle
 62
7
  6
CONTINUOUS
 10
5.9562572762
 20
5.5763476
 40
0.06348
100
AcDbArc
 50
18.815582351
 51
32.6263420111
  0
ARC
  5
2BA
100
AcDbEntity
  8
0
100
AcDbCircle
 62
7
  6
CONTINUOUS
 10
5.9294772762
 20
5.5763476
 40
0.06348
100
AcDbArc
 50
147.3736579889
 51
161.184417649
  0
ARC
  5
2BB
100
AcDbEntity
  8
0
100
AcDbCircle
 62
7
  6
CONTINUOUS
 10
5.5812572762
 20
5.5763476
 40
0.06348
100
AcDbArc
 50
18.815582351
 51
32.6263420111
  0
ARC
  5
2BC
100
AcDbEntity
  8
0
100
AcDbCircle
 62
7
  6
CONTINUOUS
 10
5.5544772762
 20
5.5763476
 40
0.06348
100
AcDbArc
 50
147.3736579889
 51
161.184417649
  0
ARC
  5
2BD
100
AcDbEntity
  8
0
100
AcDbCircle
 62
7
  6
CONTINUOUS
 10
5.2062572762
 20
5.5763476
 40
0.06348
100
AcDbArc
 50
18.815582351
 51
32.6263420111
  0
ARC
  5
2BE
100
AcDbEntity
  8
0
100
AcDbCircle
 62
7
  6
CONTINUOUS
 10
5.1794772762
 20
5.5763476
 40
0.06348
100
AcDbArc
 50
147.3736579889
 51
161.184417649
  0
ARC
  5
2BF
100
AcDbEntity
  8
0
100
AcDbCircle
 62
7
  6
CONTINUOUS
 10
5.9785672762
 20
5.5906298968
 40
0.03699
100
AcDbArc
 50
32.6263420111
 51
90.0
  0
ARC
  5
2C0
100
AcDbEntity
  8
0
100
AcDbCircle
 62
7
  6
CONTINUOUS
 10
5.9071672762
 20
5.5906298968
 40
0.03699
100
AcDbArc
 50
90.0
 51
147.3736579889
  0
ARC
  5
2C1
100
AcDbEntity
  8
0
100
AcDbCircle
 62
7
  6
CONTINUOUS
 10
5.6035672762
 20
5.5906298968
 40
0.03699
100
AcDbArc
 50
32.6263420111
 51
90.0
  0
ARC
  5
2C2
100
AcDbEntity
  8
0
100
AcDbCircle
 62
7
  6
CONTINUOUS
 10
5.5321672762
 20
5.5906298968
 40
0.03699
100
AcDbArc
 50
90.0
 51
147.3736579889
  0
ARC
  5
2C3
100
AcDbEntity
  8
0
100
AcDbCircle
 62
7
  6
CONTINUOUS
 10
5.2285672762
 20
5.5906298968
 40
0.03699
100
AcDbArc
 50
32.6263420111
 51
90.0
  0
ARC
  5
2C4
100
AcDbEntity
  8
0
100
AcDbCircle
 62
7
  6
CONTINUOUS
 10
5.1571672762
 20
5.5906298968
 40
0.03699
100
AcDbArc
 50
90.0
 51
147.3736579889
  0
ARC
  5
2C5
100
AcDbEntity
  8
0
100
AcDbCircle
 62
7
  6
CONTINUOUS
 10
6.0470172762
 20
5.5726198968
 40
0.02
100
AcDbArc
 50
203.1024928474
 51
270.0
  0
ARC
  5
2C6
100
AcDbEntity
  8
0
100
AcDbCircle
 62
7
  6
CONTINUOUS
 10
5.8387172762
 20
5.5726198968
 40
0.02
100
AcDbArc
 50
270.0
 51
336.8975071526
  0
ARC
  5
2C7
100
AcDbEntity
  8
0
100
AcDbCircle
 62
7
  6
CONTINUOUS
 10
5.6720172762
 20
5.5726198968
 40
0.02
100
AcDbArc
 50
203.1024928474
 51
270.0
  0
ARC
  5
2C8
100
AcDbEntity
  8
0
100
AcDbCircle
 62
7
  6
CONTINUOUS
 10
5.4637172762
 20
5.5726198968
 40
0.02
100
AcDbArc
 50
270.0
 51
336.8975071526
  0
ARC
  5
2C9
100
AcDbEntity
  8
0
100
AcDbCircle
 62
7
  6
CONTINUOUS
 10
5.2970172762
 20
5.5726198968
 40
0.02
100
AcDbArc
 50
203.1024928474
 51
270.0
  0
ARC
  5
2CA
100
AcDbEntity
  8
0
100
AcDbCircle
 62
7
  6
CONTINUOUS
 10
5.0887172762
 20
5.5726198968
 40
0.02
100
AcDbArc
 50
270.0
 51
336.8975071526
  0
ARC
  5
2CB
100
AcDbEntity
  8
0
100
AcDbCircle
 62
7
  6
CONTINUOUS
 10
6.4506274585
 20
5.2954448094
 40
0.4588
100
AcDbArc
 50
156.8975071526
 51
161.184417649
  0
ARC
  5
2CC
100
AcDbEntity
  8
0
100
AcDbCircle
 62
7
  6
CONTINUOUS
 10
6.8256274585
 20
5.2954448094
 40
0.4588
100
AcDbArc
 50
156.8975071526
 51
161.184417649
  0
ARC
  5
2CD
100
AcDbEntity
  8
0
100
AcDbCircle
 62
7
  6
CONTINUOUS
 10
6.1851070938
 20
5.2954448094
 40
0.4588
100
AcDbArc
 50
18.815582351
 51
23.1024928474
  0
ARC
  5
2CE
100
AcDbEntity
  8
0
100
AcDbCircle
 62
7
  6
CONTINUOUS
 10
7.2006274585
 20
5.2954448094
 40
0.4588
100
AcDbArc
 50
156.8975071526
 51
161.184417649
  0
ARC
  5
2CF
100
AcDbEntity
  8
0
100
AcDbCircle
 62
7
  6
CONTINUOUS
 10
6.5601070938
 20
5.2954448094
 40
0.4588
100
AcDbArc
 50
18.815582351
 51
23.1024928474
  0
ARC
  5
2D0
100
AcDbEntity
  8
0
100
AcDbCircle
 62
7
  6
CONTINUOUS
 10
7.5756274585
 20
5.2954448094
 40
0.4588
100
AcDbArc
 50
156.8975071526
 51
161.184417649
  0
ARC
  5
2D1
100
AcDbEntity
  8
0
100
AcDbCircle
 62
7
  6
CONTINUOUS
 10
6.3044772762
 20
5.4638921935
 40
0.06348
100
AcDbArc
 50
198.815582351
 51
212.6263420111
  0
ARC
  5
2D2
100
AcDbEntity
  8
0
100
AcDbCircle
 62
7
  6
CONTINUOUS
 10
6.3312572762
 20
5.4638921935
 40
0.06348
100
AcDbArc
 50
327.3736579889
 51
341.184417649
  0
ARC
  5
2D3
100
AcDbEntity
  8
0
100
AcDbCircle
 62
7
  6
CONTINUOUS
 10
6.6794772762
 20
5.4638921935
 40
0.06348
100
AcDbArc
 50
198.815582351
 51
212.6263420111
  0
ARC
  5
2D4
100
AcDbEntity
  8
0
100
AcDbCircle
 62
7
  6
CONTINUOUS
 10
6.7062572762
 20
5.4638921935
 40
0.06348
100
AcDbArc
 50
327.3736579889
 51
341.184417649
  0
ARC
  5
2D5
100
AcDbEntity
  8
0
100
AcDbCircle
 62
7
  6
CONTINUOUS
 10
7.0544772762
 20
5.4638921935
 40
0.06348
100
AcDbArc
 50
198.815582351
 51
212.6263420111
  0
ARC
  5
2D6
100
AcDbEntity
  8
0
100
AcDbCircle
 62
7
  6
CONTINUOUS
 10
7.0812572762
 20
5.4638921935
 40
0.06348
100
AcDbArc
 50
327.3736579889
 51
341.184417649
  0
ARC
  5
2D7
100
AcDbEntity
  8
0
100
AcDbCircle
 62
7
  6
CONTINUOUS
 10
6.2821672762
 20
5.4496098968
 40
0.03699
100
AcDbArc
 50
212.6263420111
 51
270.0
  0
ARC
  5
2D8
100
AcDbEntity
  8
0
100
AcDbCircle
 62
7
  6
CONTINUOUS
 10
6.3535672762
 20
5.4496098968
 40
0.03699
100
AcDbArc
 50
270.0
 51
327.3736579889
  0
ARC
  5
2D9
100
AcDbEntity
  8
0
100
AcDbCircle
 62
7
  6
CONTINUOUS
 10
6.6571672762
 20
5.4496098968
 40
0.03699
100
AcDbArc
 50
212.6263420111
 51
270.0
  0
ARC
  5
2DA
100
AcDbEntity
  8
0
100
AcDbCircle
 62
7
  6
CONTINUOUS
 10
6.7285672762
 20
5.4496098968
 40
0.03699
100
AcDbArc
 50
270.0
 51
327.3736579889
  0
ARC
  5
2DB
100
AcDbEntity
  8
0
100
AcDbCircle
 62
7
  6
CONTINUOUS
 10
7.0321672762
 20
5.4496098968
 40
0.03699
100
AcDbArc
 50
212.6263420111
 51
270.0
  0
ARC
  5
2DC
100
AcDbEntity
  8
0
100
AcDbCircle
 62
7
  6
CONTINUOUS
 10
7.1035672762
 20
5.4496098968
 40
0.03699
100
AcDbArc
 50
270.0
 51
327.3736579889
  0
ARC
  5
2DD
100
AcDbEntity
  8
0
100
AcDbCircle
 62
7
  6
CONTINUOUS
 10
6.2137172762
 20
5.4676198968
 40
0.02
100
AcDbArc
 50
23.1024928474
 51
90.0
  0
ARC
  5
2DE
100
AcDbEntity
  8
0
100
AcDbCircle
 62
7
  6
CONTINUOUS
 10
6.4220172762
 20
5.4676198968
 40
0.02
100
AcDbArc
 50
90.0
 51
156.8975071526
  0
ARC
  5
2DF
100
AcDbEntity
  8
0
100
AcDbCircle
 62
7
  6
CONTINUOUS
 10
6.5887172762
 20
5.4676198968
 40
0.02
100
AcDbArc
 50
23.1024928474
 51
90.0
  0
ARC
  5
2E0
100
AcDbEntity
  8
0
100
AcDbCircle
 62
7
  6
CONTINUOUS
 10
6.7970172762
 20
5.4676198968
 40
0.02
100
AcDbArc
 50
90.0
 51
156.8975071526
  0
ARC
  5
2E1
100
AcDbEntity
  8
0
100
AcDbCircle
 62
7
  6
CONTINUOUS
 10
6.9637172762
 20
5.4676198968
 40
0.02
100
AcDbArc
 50
23.1024928474
 51
90.0
  0
ARC
  5
2E2
100
AcDbEntity
  8
0
100
AcDbCircle
 62
7
  6
CONTINUOUS
 10
7.1720172762
 20
5.4676198968
 40
0.02
100
AcDbArc
 50
90.0
 51
156.8975071526
  0
ARC
  5
2E3
100
AcDbEntity
  8
0
100
AcDbCircle
 62
7
  6
CONTINUOUS
 10
7.5756274585
 20
5.7447949841
 40
0.4588
100
AcDbArc
 50
198.815582351
 51
203.1024928474
  0
ARC
  5
2E4
100
AcDbEntity
  8
0
100
AcDbCircle
 62
7
  6
CONTINUOUS
 10
6.5601070938
 20
5.7447949841
 40
0.4588
100
AcDbArc
 50
336.8975071526
 51
341.184417649
  0
ARC
  5
2E5
100
AcDbEntity
  8
0
100
AcDbCircle
 62
7
  6
CONTINUOUS
 10
7.2006274585
 20
5.7447949841
 40
0.4588
100
AcDbArc
 50
198.815582351
 51
203.1024928474
  0
ARC
  5
2E6
100
AcDbEntity
  8
0
100
AcDbCircle
 62
7
  6
CONTINUOUS
 10
6.1851070938
 20
5.7447949841
 40
0.4588
100
AcDbArc
 50
336.8975071526
 51
341.184417649
  0
ARC
  5
2E7
100
AcDbEntity
  8
0
100
AcDbCircle
 62
7
  6
CONTINUOUS
 10
6.8256274585
 20
5.7447949841
 40
0.4588
100
AcDbArc
 50
198.815582351
 51
203.1024928474
  0
ARC
  5
2E8
100
AcDbEntity
  8
0
100
AcDbCircle
 62
7
  6
CONTINUOUS
 10
6.4506274585
 20
5.7447949841
 40
0.4588
100
AcDbArc
 50
198.815582351
 51
203.1024928474
  0
ARC
  5
2E9
100
AcDbEntity
  8
0
100
AcDbCircle
 62
7
  6
CONTINUOUS
 10
7.0812572762
 20
5.5763476
 40
0.06348
100
AcDbArc
 50
18.815582351
 51
32.6263420111
  0
ARC
  5
2EA
100
AcDbEntity
  8
0
100
AcDbCircle
 62
7
  6
CONTINUOUS
 10
7.0544772762
 20
5.5763476
 40
0.06348
100
AcDbArc
 50
147.3736579889
 51
161.184417649
  0
ARC
  5
2EB
100
AcDbEntity
  8
0
100
AcDbCircle
 62
7
  6
CONTINUOUS
 10
6.7062572762
 20
5.5763476
 40
0.06348
100
AcDbArc
 50
18.815582351
 51
32.6263420111
  0
ARC
  5
2EC
100
AcDbEntity
  8
0
100
AcDbCircle
 62
7
  6
CONTINUOUS
 10
6.6794772762
 20
5.5763476
 40
0.06348
100
AcDbArc
 50
147.3736579889
 51
161.184417649
  0
ARC
  5
2ED
100
AcDbEntity
  8
0
100
AcDbCircle
 62
7
  6
CONTINUOUS
 10
6.3312572762
 20
5.5763476
 40
0.06348
100
AcDbArc
 50
18.815582351
 51
32.6263420111
  0
ARC
  5
2EE
100
AcDbEntity
  8
0
100
AcDbCircle
 62
7
  6
CONTINUOUS
 10
6.3044772762
 20
5.5763476
 40
0.06348
100
AcDbArc
 50
147.3736579889
 51
161.184417649
  0
ARC
  5
2EF
100
AcDbEntity
  8
0
100
AcDbCircle
 62
7
  6
CONTINUOUS
 10
7.1035672762
 20
5.5906298968
 40
0.03699
100
AcDbArc
 50
32.6263420111
 51
90.0
  0
ARC
  5
2F0
100
AcDbEntity
  8
0
100
AcDbCircle
 62
7
  6
CONTINUOUS
 10
7.0321672762
 20
5.5906298968
 40
0.03699
100
AcDbArc
 50
90.0
 51
147.3736579889
  0
ARC
  5
2F1
100
AcDbEntity
  8
0
100
AcDbCircle
 62
7
  6
CONTINUOUS
 10
6.7285672762
 20
5.5906298968
 40
0.03699
100
AcDbArc
 50
32.6263420111
 51
90.0
  0
ARC
  5
2F2
100
AcDbEntity
  8
0
100
AcDbCircle
 62
7
  6
CONTINUOUS
 10
6.6571672762
 20
5.5906298968
 40
0.03699
100
AcDbArc
 50
90.0
 51
147.3736579889
  0
ARC
  5
2F3
100
AcDbEntity
  8
0
100
AcDbCircle
 62
7
  6
CONTINUOUS
 10
6.3535672762
 20
5.5906298968
 40
0.03699
100
AcDbArc
 50
32.6263420111
 51
90.0
  0
ARC
  5
2F4
100
AcDbEntity
  8
0
100
AcDbCircle
 62
7
  6
CONTINUOUS
 10
6.2821672762
 20
5.5906298968
 40
0.03699
100
AcDbArc
 50
90.0
 51
147.3736579889
  0
ARC
  5
2F5
100
AcDbEntity
  8
0
100
AcDbCircle
 62
7
  6
CONTINUOUS
 10
7.1720172762
 20
5.5726198968
 40
0.02
100
AcDbArc
 50
203.1024928474
 51
270.0
  0
ARC
  5
2F6
100
AcDbEntity
  8
0
100
AcDbCircle
 62
7
  6
CONTINUOUS
 10
6.9637172762
 20
5.5726198968
 40
0.02
100
AcDbArc
 50
270.0
 51
336.8975071526
  0
ARC
  5
2F7
100
AcDbEntity
  8
0
100
AcDbCircle
 62
7
  6
CONTINUOUS
 10
6.7970172762
 20
5.5726198968
 40
0.02
100
AcDbArc
 50
203.1024928474
 51
270.0
  0
ARC
  5
2F8
100
AcDbEntity
  8
0
100
AcDbCircle
 62
7
  6
CONTINUOUS
 10
6.5887172762
 20
5.5726198968
 40
0.02
100
AcDbArc
 50
270.0
 51
336.8975071526
  0
ARC
  5
2F9
100
AcDbEntity
  8
0
100
AcDbCircle
 62
7
  6
CONTINUOUS
 10
6.4220172762
 20
5.5726198968
 40
0.02
100
AcDbArc
 50
203.1024928474
 51
270.0
  0
ARC
  5
2FA
100
AcDbEntity
  8
0
100
AcDbCircle
 62
7
  6
CONTINUOUS
 10
6.2137172762
 20
5.5726198968
 40
0.02
100
AcDbArc
 50
270.0
 51
336.8975071526
  0
ARC
  5
2FB
100
AcDbEntity
  8
0
100
AcDbCircle
 62
7
  6
CONTINUOUS
 10
15.0881775203
 20
13.1967605879
 40
0.4879283185
100
AcDbArc
 50
224.9190469413
 51
228.325721693
  0
ARC
  5
2FC
100
AcDbEntity
  8
0
100
AcDbCircle
 62
7
  6
CONTINUOUS
 10
16.8151668841
 20
13.1967605879
 40
0.4879283185
100
AcDbArc
 50
224.9190469413
 51
228.325721693
  0
ARC
  5
2FD
100
AcDbEntity
  8
0
100
AcDbCircle
 62
7
  6
CONTINUOUS
 10
16.4697690113
 20
13.1967605879
 40
0.4879283185
100
AcDbArc
 50
224.9190469413
 51
228.325721693
  0
ARC
  5
2FE
100
AcDbEntity
  8
0
100
AcDbCircle
 62
7
  6
CONTINUOUS
 10
16.1243711386
 20
13.1967605879
 40
0.4879283185
100
AcDbArc
 50
224.9190469413
 51
228.325721693
  0
ARC
  5
2FF
100
AcDbEntity
  8
0
100
AcDbCircle
 62
7
  6
CONTINUOUS
 10
15.7789732658
 20
13.1967605879
 40
0.4879283185
100
AcDbArc
 50
224.9190469413
 51
228.3257216929
  0
ARC
  5
300
100
AcDbEntity
  8
0
100
AcDbCircle
 62
7
  6
CONTINUOUS
 10
15.4335753931
 20
13.1967605879
 40
0.4879283185
100
AcDbArc
 50
224.9190469412
 51
228.325721693
  0
ARC
  5
301
100
AcDbEntity
  8
0
100
AcDbCircle
 62
7
  6
CONTINUOUS
 10
14.1270580529
 20
11.8248493979
 40
0.4879283185
100
AcDbArc
 50
44.9190469413
 51
48.325721693
  0
ARC
  5
302
100
AcDbEntity
  8
0
100
AcDbCircle
 62
7
  6
CONTINUOUS
 10
15.8540474166
 20
11.8248493979
 40
0.4879283185
100
AcDbArc
 50
44.9190469413
 51
48.3257216929
  0
ARC
  5
303
100
AcDbEntity
  8
0
100
AcDbCircle
 62
7
  6
CONTINUOUS
 10
15.5086495439
 20
11.8248493979
 40
0.4879283185
100
AcDbArc
 50
44.9190469413
 51
48.325721693
  0
ARC
  5
304
100
AcDbEntity
  8
0
100
AcDbCircle
 62
7
  6
CONTINUOUS
 10
15.1632516711
 20
11.8248493979
 40
0.4879283185
100
AcDbArc
 50
44.9190469413
 51
48.3257216929
  0
ARC
  5
305
100
AcDbEntity
  8
0
100
AcDbCircle
 62
7
  6
CONTINUOUS
 10
14.8178537984
 20
11.8248493979
 40
0.4879283185
100
AcDbArc
 50
44.9190469413
 51
48.3257216929
  0
ARC
  5
306
100
AcDbEntity
  8
0
100
AcDbCircle
 62
7
  6
CONTINUOUS
 10
14.4724559256
 20
11.8248493979
 40
0.4879283185
100
AcDbArc
 50
44.9190469413
 51
48.325721693
  0
ARC
  5
307
100
AcDbEntity
  8
0
100
AcDbCircle
 62
7
  6
CONTINUOUS
 10
16.2882192688
 20
12.6092654057
 40
0.4879283185
100
AcDbArc
 50
224.9190469413
 51
228.325721693
  0
ARC
  5
308
100
AcDbEntity
  8
0
100
AcDbCircle
 62
7
  6
CONTINUOUS
 10
16.6336171415
 20
12.6092654057
 40
0.4879283185
100
AcDbArc
 50
224.9190469413
 51
228.325721693
  0
ARC
  5
309
100
AcDbEntity
  8
0
100
AcDbCircle
 62
7
  6
CONTINUOUS
 10
14.9066277778
 20
12.6092654057
 40
0.4879283185
100
AcDbArc
 50
224.9190469413
 51
228.3257216929
  0
ARC
  5
30A
100
AcDbEntity
  8
0
100
AcDbCircle
 62
7
  6
CONTINUOUS
 10
15.2520256505
 20
12.6092654057
 40
0.4879283185
100
AcDbArc
 50
224.9190469413
 51
228.3257216929
  0
ARC
  5
30B
100
AcDbEntity
  8
0
100
AcDbCircle
 62
7
  6
CONTINUOUS
 10
15.5974235233
 20
12.6092654057
 40
0.4879283185
100
AcDbArc
 50
224.9190469413
 51
228.325721693
  0
ARC
  5
30C
100
AcDbEntity
  8
0
100
AcDbCircle
 62
7
  6
CONTINUOUS
 10
15.942821396
 20
12.6092654057
 40
0.4879283185
100
AcDbArc
 50
224.9190469413
 51
228.325721693
  0
ARC
  5
30D
100
AcDbEntity
  8
0
100
AcDbCircle
 62
7
  6
CONTINUOUS
 10
14.2667783548
 20
12.2669329065
 40
0.1590051104
100
AcDbArc
 50
352.0036905065
 51
359.2082716318
  0
ARC
  5
30E
100
AcDbEntity
  8
0
100
AcDbCircle
 62
7
  6
CONTINUOUS
 10
14.6121762276
 20
12.2669329065
 40
0.1590051104
100
AcDbArc
 50
352.0036905064
 51
359.2082716319
  0
ARC
  5
30F
100
AcDbEntity
  8
0
100
AcDbCircle
 62
7
  6
CONTINUOUS
 10
14.9575741003
 20
12.2669329065
 40
0.1590051104
100
AcDbArc
 50
352.0036905064
 51
359.2082716318
  0
ARC
  5
310
100
AcDbEntity
  8
0
100
AcDbCircle
 62
7
  6
CONTINUOUS
 10
15.3029719731
 20
12.2669329065
 40
0.1590051104
100
AcDbArc
 50
352.0036905064
 51
359.2082716318
  0
ARC
  5
311
100
AcDbEntity
  8
0
100
AcDbCircle
 62
7
  6
CONTINUOUS
 10
15.6483698458
 20
12.2669329065
 40
0.1590051104
100
AcDbArc
 50
352.0036905064
 51
359.2082716318
  0
ARC
  5
312
100
AcDbEntity
  8
0
100
AcDbCircle
 62
7
  6
CONTINUOUS
 10
15.9937677186
 20
12.2669329065
 40
0.1590051104
100
AcDbArc
 50
352.0036905064
 51
359.2082716318
  0
ARC
  5
313
100
AcDbEntity
  8
0
100
AcDbCircle
 62
7
  6
CONTINUOUS
 10
14.7669074758
 20
12.1671818971
 40
0.1590051104
100
AcDbArc
 50
172.0036905065
 51
179.2082716318
  0
ARC
  5
314
100
AcDbEntity
  8
0
100
AcDbCircle
 62
7
  6
CONTINUOUS
 10
16.4938968396
 20
12.1671818971
 40
0.1590051104
100
AcDbArc
 50
172.0036905064
 51
179.2082716318
  0
ARC
  5
315
100
AcDbEntity
  8
0
100
AcDbCircle
 62
7
  6
CONTINUOUS
 10
16.1484989668
 20
12.1671818971
 40
0.1590051104
100
AcDbArc
 50
172.0036905065
 51
179.2082716318
  0
ARC
  5
316
100
AcDbEntity
  8
0
100
AcDbCircle
 62
7
  6
CONTINUOUS
 10
15.8031010941
 20
12.1671818971
 40
0.1590051104
100
AcDbArc
 50
172.0036905065
 51
179.2082716318
  0
ARC
  5
317
100
AcDbEntity
  8
0
100
AcDbCircle
 62
7
  6
CONTINUOUS
 10
15.4577032213
 20
12.1671818971
 40
0.1590051104
100
AcDbArc
 50
172.0036905064
 51
179.2082716318
  0
ARC
  5
318
100
AcDbEntity
  8
0
100
AcDbCircle
 62
7
  6
CONTINUOUS
 10
15.1123053486
 20
12.1671818971
 40
0.1590051104
100
AcDbArc
 50
172.0036905065
 51
179.2082716318
  0
SPLINE
  5
319
100
AcDbEntity
  8
0
100
AcDbSpline
 62
7
  6
CONTINUOUS
 70
0
 71
3
 72
13
 73
9
 74
0
 42
0.0000001
 43
0.0000001
 44
0.0000000001
 40
0.0
 40
0.0
 40
0.0
 40
0.0
 40
0.1222201702
 40
0.2492004258
 40
0.5085505449
 40
0.7633987379
 40
0.884963945
 40
1.0
 40
1.0
 40
1.0
 40
1.0
 10
14.7844072997
 20
12.824754908
 30
0.0
 10
14.783494019
 20
12.824754908
 30
0.0
 10
14.7816309477
 20
12.8248501733
 30
0.0
 10
14.7778641515
 20
12.8253801146
 30
0.0
 10
14.7732205741
 20
12.826652157
 30
0.0
 10
14.7688837692
 20
12.8286539086
 30
0.0
 10
14.7657888096
 20
12.8306388268
 30
0.0
 10
14.7643982926
 20
12.8317372917
 30
0.0
 10
14.7637563719
 20
12.8323089966
 30
0.0
  0
SPLINE
  5
31A
100
AcDbEntity
  8
0
100
AcDbSpline
 62
7
  6
CONTINUOUS
 70
0
 71
3
 72
9
 73
5
 74
0
 42
0.0000001
 43
0.0000001
 44
0.0000000001
 40
0.0
 40
0.0
 40
0.0
 40
0.0
 40
0.487490961
 40
1.0
 40
1.0
 40
1.0
 40
1.0
 10
14.7426729679
 20
12.8522309836
 30
0.0
 10
14.7411371132
 20
12.8537736227
 30
0.0
 10
14.7378231119
 20
12.8567779027
 30
0.0
 10
14.734255837
 20
12.8594735484
 30
0.0
 10
14.732376394
 20
12.8607793541
 30
0.0
  0
SPLINE
  5
31B
100
AcDbEntity
  8
0
100
AcDbSpline
 62
7
  6
CONTINUOUS
 70
0
 71
3
 72
13
 73
9
 74
0
 42
0.0000001
 43
0.0000001
 44
0.0000000001
 40
0.0
 40
0.0
 40
0.0
 40
0.0
 40
0.1200511578
 40
0.2443774915
 40
0.4995227613
 40
0.7549157285
 40
0.8795431667
 40
1.0
 40
1.0
 40
1.0
 40
1.0
 10
14.732376394
 20
12.8607793541
 30
0.0
 10
14.7311931517
 20
12.8616014511
 30
0.0
 10
14.7287100484
 20
12.8631697905
 30
0.0
 10
14.723403983
 20
12.8659701147
 30
0.0
 10
14.716284064
 20
12.8687623802
 30
0.0
 10
14.708838052
 20
12.8705230553
 30
0.0
 10
14.7028707739
 20
12.871247489
 30
0.0
 10
14.6999282039
 20
12.8713756556
 30
0.0
 10
14.6984825347
 20
12.8713756556
 30
0.0
  0
SPLINE
  5
31C
100
AcDbEntity
  8
0
100
AcDbSpline
 62
7
  6
CONTINUOUS
 70
0
 71
3
 72
15
 73
11
 74
0
 42
0.0000001
 43
0.0000001
 44
0.0000000001
 40
0.0
 40
0.0
 40
0.0
 40
0.0
 40
0.1534362794
 40
0.2996752345
 40
0.4373380033
 40
0.5657344032
 40
0.6851172796
 40
0.796291796
 40
0.9006247347
 40
1.0
 40
1.0
 40
1.0
 40
1.0
 10
14.6327187797
 20
12.8713756556
 30
0.0
 10
14.6313321805
 20
12.8713756556
 30
0.0
 10
14.6286222991
 20
12.8712622576
 30
0.0
 10
14.6246992677
 20
12.8707371474
 30
0.0
 10
14.6210687177
 20
12.8698663676
 30
0.0
 10
14.6177925253
 20
12.8686566447
 30
0.0
 10
14.6149181626
 20
12.8671285311
 30
0.0
 10
14.6124920185
 20
12.8652947555
 30
0.0
 10
14.6105555447
 20
12.8631876063
 30
0.0
 10
14.609598584
 20
12.8615958935
 30
0.0
 10
14.6092247395
 20
12.8607793541
 30
0.0
  0
SPLINE
  5
31D
100
AcDbEntity
  8
0
100
AcDbSpline
 62
7
  6
CONTINUOUS
 70
0
 71
3
 72
9
 73
5
 74
0
 42
0.0000001
 43
0.0000001
 44
0.0000000001
 40
0.0
 40
0.0
 40
0.0
 40
0.0
 40
0.4829243459
 40
1.0
 40
1.0
 40
1.0
 40
1.0
 10
14.5982618522
 20
12.8254454323
 30
0.0
 10
14.5973646081
 20
12.8252084928
 30
0.0
 10
14.5954673819
 20
12.8248618203
 30
0.0
 10
14.5935439226
 20
12.824754908
 30
0.0
 10
14.5925502947
 20
12.824754908
 30
0.0
  0
SPLINE
  5
31E
100
AcDbEntity
  8
0
100
AcDbSpline
 62
7
  6
CONTINUOUS
 70
0
 71
3
 72
9
 73
5
 74
0
 42
0.0000001
 43
0.0000001
 44
0.0000000001
 40
0.0
 40
0.0
 40
0.0
 40
0.0
 40
0.4965273797
 40
1.0
 40
1.0
 40
1.0
 40
1.0
 10
14.4267079933
 20
12.2707514047
 30
0.0
 10
14.4264096862
 20
12.2697861466
 30
0.0
 10
14.4259506613
 20
12.2677955196
 30
0.0
 10
14.4257827736
 20
12.2657601328
 30
0.0
 10
14.4257682849
 20
12.2647358014
 30
0.0
  0
SPLINE
  5
31F
100
AcDbEntity
  8
0
100
AcDbSpline
 62
7
  6
CONTINUOUS
 70
0
 71
3
 72
9
 73
5
 74
0
 42
0.0000001
 43
0.0000001
 44
0.0000000001
 40
0.0
 40
0.0
 40
0.0
 40
0.0
 40
0.4892231759
 40
1.0
 40
1.0
 40
1.0
 40
1.0
 10
14.6096790567
 20
12.1903273976
 30
0.0
 10
14.609848413
 20
12.1908716496
 30
0.0
 10
14.6103433466
 20
12.1919423685
 30
0.0
 10
14.6110851783
 20
12.1928563076
 30
0.0
 10
14.6115079012
 20
12.1932751814
 30
0.0
  0
SPLINE
  5
320
100
AcDbEntity
  8
0
100
AcDbSpline
 62
7
  6
CONTINUOUS
 70
0
 71
3
 72
11
 73
7
 74
0
 42
0.0000001
 43
0.0000001
 44
0.0000000001
 40
0.0
 40
0.0
 40
0.0
 40
0.0
 40
0.4467560395
 40
0.5760968737
 40
0.7119440542
 40
1.0
 40
1.0
 40
1.0
 40
1.0
 10
14.6115079012
 20
12.1932751814
 30
0.0
 10
14.6127739092
 20
12.194529662
 30
0.0
 10
14.6149280724
 20
12.195625525
 30
0.0
 10
14.6176657543
 20
12.1963551366
 30
0.0
 10
14.6198417282
 20
12.1967469794
 30
0.0
 10
14.621536118
 20
12.1968550778
 30
0.0
 10
14.6226852785
 20
12.1968550778
 30
0.0
  0
SPLINE
  5
321
100
AcDbEntity
  8
0
100
AcDbSpline
 62
7
  6
CONTINUOUS
 70
0
 71
3
 72
9
 73
5
 74
0
 42
0.0000001
 43
0.0000001
 44
0.0000000001
 40
0.0
 40
0.0
 40
0.0
 40
0.0
 40
0.4829243459
 40
1.0
 40
1.0
 40
1.0
 40
1.0
 10
14.9436597249
 20
12.8254454323
 30
0.0
 10
14.9427624809
 20
12.8252084928
 30
0.0
 10
14.9408652546
 20
12.8248618203
 30
0.0
 10
14.9389417954
 20
12.824754908
 30
0.0
 10
14.9379481674
 20
12.824754908
 30
0.0
  0
SPLINE
  5
322
100
AcDbEntity
  8
0
100
AcDbSpline
 62
7
  6
CONTINUOUS
 70
0
 71
3
 72
9
 73
5
 74
0
 42
0.0000001
 43
0.0000001
 44
0.0000000001
 40
0.0
 40
0.0
 40
0.0
 40
0.0
 40
0.4965273797
 40
1.0
 40
1.0
 40
1.0
 40
1.0
 10
14.7721058661
 20
12.2707514047
 30
0.0
 10
14.771807559
 20
12.2697861466
 30
0.0
 10
14.771348534
 20
12.2677955196
 30
0.0
 10
14.7711806464
 20
12.2657601328
 30
0.0
 10
14.7711661576
 20
12.2647358014
 30
0.0
  0
SPLINE
  5
323
100
AcDbEntity
  8
0
100
AcDbSpline
 62
7
  6
CONTINUOUS
 70
0
 71
3
 72
9
 73
5
 74
0
 42
0.0000001
 43
0.0000001
 44
0.0000000001
 40
0.0
 40
0.0
 40
0.0
 40
0.0
 40
0.4892231759
 40
1.0
 40
1.0
 40
1.0
 40
1.0
 10
14.9550769294
 20
12.1903273976
 30
0.0
 10
14.9552462857
 20
12.1908716496
 30
0.0
 10
14.9557412194
 20
12.1919423685
 30
0.0
 10
14.9564830511
 20
12.1928563076
 30
0.0
 10
14.9569057739
 20
12.1932751814
 30
0.0
  0
SPLINE
  5
324
100
AcDbEntity
  8
0
100
AcDbSpline
 62
7
  6
CONTINUOUS
 70
0
 71
3
 72
11
 73
7
 74
0
 42
0.0000001
 43
0.0000001
 44
0.0000000001
 40
0.0
 40
0.0
 40
0.0
 40
0.0
 40
0.4467560395
 40
0.5760968737
 40
0.7119440542
 40
1.0
 40
1.0
 40
1.0
 40
1.0
 10
14.9569057739
 20
12.1932751814
 30
0.0
 10
14.9581717819
 20
12.194529662
 30
0.0
 10
14.9603259452
 20
12.195625525
 30
0.0
 10
14.963063627
 20
12.1963551366
 30
0.0
 10
14.965239601
 20
12.1967469794
 30
0.0
 10
14.9669339908
 20
12.1968550778
 30
0.0
 10
14.9680831513
 20
12.1968550778
 30
0.0
  0
SPLINE
  5
325
100
AcDbEntity
  8
0
100
AcDbSpline
 62
7
  6
CONTINUOUS
 70
0
 71
3
 72
9
 73
5
 74
0
 42
0.0000001
 43
0.0000001
 44
0.0000000001
 40
0.0
 40
0.0
 40
0.0
 40
0.0
 40
0.4829243459
 40
1.0
 40
1.0
 40
1.0
 40
1.0
 10
15.2890575977
 20
12.8254454323
 30
0.0
 10
15.2881603536
 20
12.8252084928
 30
0.0
 10
15.2862631274
 20
12.8248618203
 30
0.0
 10
15.2843396681
 20
12.824754908
 30
0.0
 10
15.2833460402
 20
12.824754908
 30
0.0
  0
SPLINE
  5
326
100
AcDbEntity
  8
0
100
AcDbSpline
 62
7
  6
CONTINUOUS
 70
0
 71
3
 72
9
 73
5
 74
0
 42
0.0000001
 43
0.0000001
 44
0.0000000001
 40
0.0
 40
0.0
 40
0.0
 40
0.0
 40
0.4965273797
 40
1.0
 40
1.0
 40
1.0
 40
1.0
 10
15.1175037388
 20
12.2707514047
 30
0.0
 10
15.1172054317
 20
12.2697861466
 30
0.0
 10
15.1167464068
 20
12.2677955196
 30
0.0
 10
15.1165785191
 20
12.2657601328
 30
0.0
 10
15.1165640304
 20
12.2647358014
 30
0.0
  0
SPLINE
  5
327
100
AcDbEntity
  8
0
100
AcDbSpline
 62
7
  6
CONTINUOUS
 70
0
 71
3
 72
9
 73
5
 74
0
 42
0.0000001
 43
0.0000001
 44
0.0000000001
 40
0.0
 40
0.0
 40
0.0
 40
0.0
 40
0.4892231759
 40
1.0
 40
1.0
 40
1.0
 40
1.0
 10
15.3004748022
 20
12.1903273976
 30
0.0
 10
15.3006441585
 20
12.1908716496
 30
0.0
 10
15.3011390921
 20
12.1919423685
 30
0.0
 10
15.3018809238
 20
12.1928563076
 30
0.0
 10
15.3023036467
 20
12.1932751814
 30
0.0
  0
SPLINE
  5
328
100
AcDbEntity
  8
0
100
AcDbSpline
 62
7
  6
CONTINUOUS
 70
0
 71
3
 72
11
 73
7
 74
0
 42
0.0000001
 43
0.0000001
 44
0.0000000001
 40
0.0
 40
0.0
 40
0.0
 40
0.0
 40
0.4467560395
 40
0.5760968737
 40
0.7119440542
 40
1.0
 40
1.0
 40
1.0
 40
1.0
 10
15.3023036467
 20
12.1932751814
 30
0.0
 10
15.3035696547
 20
12.194529662
 30
0.0
 10
15.3057238179
 20
12.195625525
 30
0.0
 10
15.3084614998
 20
12.1963551366
 30
0.0
 10
15.3106374737
 20
12.1967469794
 30
0.0
 10
15.3123318635
 20
12.1968550778
 30
0.0
 10
15.313481024
 20
12.1968550778
 30
0.0
  0
SPLINE
  5
329
100
AcDbEntity
  8
0
100
AcDbSpline
 62
7
  6
CONTINUOUS
 70
0
 71
3
 72
9
 73
5
 74
0
 42
0.0000001
 43
0.0000001
 44
0.0000000001
 40
0.0
 40
0.0
 40
0.0
 40
0.0
 40
0.4826041743
 40
1.0
 40
1.0
 40
1.0
 40
1.0
 10
15.6343834324
 20
12.8254255293
 30
0.0
 10
15.6334976164
 20
12.8251945627
 30
0.0
 10
15.631623973
 20
12.8248576099
 30
0.0
 10
15.6297253397
 20
12.824754908
 30
0.0
 10
15.6287439129
 20
12.824754908
 30
0.0
  0
SPLINE
  5
32A
100
AcDbEntity
  8
0
100
AcDbSpline
 62
7
  6
CONTINUOUS
 70
0
 71
3
 72
9
 73
5
 74
0
 42
0.0000001
 43
0.0000001
 44
0.0000000001
 40
0.0
 40
0.0
 40
0.0
 40
0.0
 40
0.4965273797
 40
1.0
 40
1.0
 40
1.0
 40
1.0
 10
15.4629016116
 20
12.2707514047
 30
0.0
 10
15.4626033045
 20
12.2697861466
 30
0.0
 10
15.4621442795
 20
12.2677955196
 30
0.0
 10
15.4619763919
 20
12.2657601328
 30
0.0
 10
15.4619619031
 20
12.2647358014
 30
0.0
  0
SPLINE
  5
32B
100
AcDbEntity
  8
0
100
AcDbSpline
 62
7
  6
CONTINUOUS
 70
0
 71
3
 72
11
 73
7
 74
0
 42
0.0000001
 43
0.0000001
 44
0.0000000001
 40
0.0
 40
0.0
 40
0.0
 40
0.0
 40
0.2339287085
 40
0.4749294311
 40
0.7287993442
 40
1.0
 40
1.0
 40
1.0
 40
1.0
 10
15.6458718687
 20
12.1903276568
 30
0.0
 10
15.6460112765
 20
12.1907777715
 30
0.0
 10
15.6463944925
 20
12.1916636781
 30
0.0
 10
15.6472517175
 20
12.192867373
 30
0.0
 10
15.6483779715
 20
12.1939343815
 30
0.0
 10
15.6492612516
 20
12.1945252788
 30
0.0
 10
15.6497357135
 20
12.1947960464
 30
0.0
  0
SPLINE
  5
32C
100
AcDbEntity
  8
0
100
AcDbSpline
 62
7
  6
CONTINUOUS
 70
0
 71
3
 72
11
 73
7
 74
0
 42
0.0000001
 43
0.0000001
 44
0.0000000001
 40
0.0
 40
0.0
 40
0.0
 40
0.0
 40
0.2221775416
 40
0.4636362359
 40
0.7238585032
 40
1.0
 40
1.0
 40
1.0
 40
1.0
 10
15.6497357135
 20
12.1947960464
 30
0.0
 10
15.6503446738
 20
12.1951435701
 30
0.0
 10
15.6516827634
 20
12.1957537847
 30
0.0
 10
15.6538831261
 20
12.1963908287
 30
0.0
 10
15.6563133487
 20
12.1967733896
 30
0.0
 10
15.658007452
 20
12.1968550778
 30
0.0
 10
15.6588788968
 20
12.1968550778
 30
0.0
  0
SPLINE
  5
32D
100
AcDbEntity
  8
0
100
AcDbSpline
 62
7
  6
CONTINUOUS
 70
0
 71
3
 72
9
 73
5
 74
0
 42
0.0000001
 43
0.0000001
 44
0.0000000001
 40
0.0
 40
0.0
 40
0.0
 40
0.0
 40
0.4826041743
 40
1.0
 40
1.0
 40
1.0
 40
1.0
 10
15.9797813051
 20
12.8254255293
 30
0.0
 10
15.9788954891
 20
12.8251945627
 30
0.0
 10
15.9770218458
 20
12.8248576099
 30
0.0
 10
15.9751232124
 20
12.824754908
 30
0.0
 10
15.9741417857
 20
12.824754908
 30
0.0
  0
SPLINE
  5
32E
100
AcDbEntity
  8
0
100
AcDbSpline
 62
7
  6
CONTINUOUS
 70
0
 71
3
 72
9
 73
5
 74
0
 42
0.0000001
 43
0.0000001
 44
0.0000000001
 40
0.0
 40
0.0
 40
0.0
 40
0.0
 40
0.4965273797
 40
1.0
 40
1.0
 40
1.0
 40
1.0
 10
15.8082994843
 20
12.2707514047
 30
0.0
 10
15.8080011772
 20
12.2697861466
 30
0.0
 10
15.8075421523
 20
12.2677955196
 30
0.0
 10
15.8073742646
 20
12.2657601328
 30
0.0
 10
15.8073597759
 20
12.2647358014
 30
0.0
  0
SPLINE
  5
32F
100
AcDbEntity
  8
0
100
AcDbSpline
 62
7
  6
CONTINUOUS
 70
0
 71
3
 72
11
 73
7
 74
0
 42
0.0000001
 43
0.0000001
 44
0.0000000001
 40
0.0
 40
0.0
 40
0.0
 40
0.0
 40
0.2339287085
 40
0.4749294311
 40
0.7287993442
 40
1.0
 40
1.0
 40
1.0
 40
1.0
 10
15.9912697414
 20
12.1903276568
 30
0.0
 10
15.9914091492
 20
12.1907777715
 30
0.0
 10
15.9917923653
 20
12.1916636781
 30
0.0
 10
15.9926495903
 20
12.192867373
 30
0.0
 10
15.9937758443
 20
12.1939343815
 30
0.0
 10
15.9946591243
 20
12.1945252788
 30
0.0
 10
15.9951335862
 20
12.1947960464
 30
0.0
  0
SPLINE
  5
330
100
AcDbEntity
  8
0
100
AcDbSpline
 62
7
  6
CONTINUOUS
 70
0
 71
3
 72
11
 73
7
 74
0
 42
0.0000001
 43
0.0000001
 44
0.0000000001
 40
0.0
 40
0.0
 40
0.0
 40
0.0
 40
0.2221775416
 40
0.4636362359
 40
0.7238585032
 40
1.0
 40
1.0
 40
1.0
 40
1.0
 10
15.9951335862
 20
12.1947960464
 30
0.0
 10
15.9957425466
 20
12.1951435701
 30
0.0
 10
15.9970806362
 20
12.1957537847
 30
0.0
 10
15.9992809989
 20
12.1963908287
 30
0.0
 10
16.0017112214
 20
12.1967733896
 30
0.0
 10
16.0034053248
 20
12.1968550778
 30
0.0
 10
16.0042767695
 20
12.1968550778
 30
0.0
  0
SPLINE
  5
331
100
AcDbEntity
  8
0
100
AcDbSpline
 62
7
  6
CONTINUOUS
 70
0
 71
3
 72
9
 73
5
 74
0
 42
0.0000001
 43
0.0000001
 44
0.0000000001
 40
0.0
 40
0.0
 40
0.0
 40
0.0
 40
0.4826041743
 40
1.0
 40
1.0
 40
1.0
 40
1.0
 10
16.3251791779
 20
12.8254255293
 30
0.0
 10
16.3242933619
 20
12.8251945627
 30
0.0
 10
16.3224197185
 20
12.8248576099
 30
0.0
 10
16.3205210852
 20
12.824754908
 30
0.0
 10
16.3195396584
 20
12.824754908
 30
0.0
  0
SPLINE
  5
332
100
AcDbEntity
  8
0
100
AcDbSpline
 62
7
  6
CONTINUOUS
 70
0
 71
3
 72
9
 73
5
 74
0
 42
0.0000001
 43
0.0000001
 44
0.0000000001
 40
0.0
 40
0.0
 40
0.0
 40
0.0
 40
0.4965273797
 40
1.0
 40
1.0
 40
1.0
 40
1.0
 10
16.1536973571
 20
12.2707514047
 30
0.0
 10
16.15339905
 20
12.2697861466
 30
0.0
 10
16.152940025
 20
12.2677955196
 30
0.0
 10
16.1527721374
 20
12.2657601328
 30
0.0
 10
16.1527576486
 20
12.2647358014
 30
0.0
  0
SPLINE
  5
333
100
AcDbEntity
  8
0
100
AcDbSpline
 62
7
  6
CONTINUOUS
 70
0
 71
3
 72
11
 73
7
 74
0
 42
0.0000001
 43
0.0000001
 44
0.0000000001
 40
0.0
 40
0.0
 40
0.0
 40
0.0
 40
0.2339287085
 40
0.4749294311
 40
0.7287993442
 40
1.0
 40
1.0
 40
1.0
 40
1.0
 10
16.3366676142
 20
12.1903276568
 30
0.0
 10
16.336807022
 20
12.1907777715
 30
0.0
 10
16.337190238
 20
12.1916636781
 30
0.0
 10
16.338047463
 20
12.192867373
 30
0.0
 10
16.339173717
 20
12.1939343815
 30
0.0
 10
16.3400569971
 20
12.1945252788
 30
0.0
 10
16.340531459
 20
12.1947960464
 30
0.0
  0
SPLINE
  5
334
100
AcDbEntity
  8
0
100
AcDbSpline
 62
7
  6
CONTINUOUS
 70
0
 71
3
 72
11
 73
7
 74
0
 42
0.0000001
 43
0.0000001
 44
0.0000000001
 40
0.0
 40
0.0
 40
0.0
 40
0.0
 40
0.2221775416
 40
0.4636362359
 40
0.7238585032
 40
1.0
 40
1.0
 40
1.0
 40
1.0
 10
16.340531459
 20
12.1947960464
 30
0.0
 10
16.3411404193
 20
12.1951435701
 30
0.0
 10
16.3424785089
 20
12.1957537847
 30
0.0
 10
16.3446788716
 20
12.1963908287
 30
0.0
 10
16.3471090942
 20
12.1967733896
 30
0.0
 10
16.3488031975
 20
12.1968550778
 30
0.0
 10
16.3496746423
 20
12.1968550778
 30
0.0
  0
SPLINE
  5
335
100
AcDbEntity
  8
0
100
AcDbSpline
 62
7
  6
CONTINUOUS
 70
0
 71
3
 72
15
 73
11
 74
0
 42
0.0000001
 43
0.0000001
 44
0.0000000001
 40
0.0
 40
0.0
 40
0.0
 40
0.0
 40
0.1223505956
 40
0.2492234674
 40
0.3785599849
 40
0.5085370156
 40
0.6373853032
 40
0.7633844775
 40
0.8848473319
 40
1.0
 40
1.0
 40
1.0
 40
1.0
 10
16.5113966635
 20
12.824754908
 30
0.0
 10
16.5104819619
 20
12.824754908
 30
0.0
 10
16.5086178733
 20
12.824849119
 30
0.0
 10
16.5058119626
 20
12.8252435806
 30
0.0
 10
16.5029946299
 20
12.8258904793
 30
0.0
 10
16.5002266513
 20
12.8267729567
 30
0.0
 10
16.497565166
 20
12.8278743393
 30
0.0
 10
16.4950640566
 20
12.8291707064
 30
0.0
 10
16.4927790813
 20
12.830636507
 30
0.0
 10
16.4913886207
 20
12.8317364328
 30
0.0
 10
16.4907457357
 20
12.8323089966
 30
0.0
  0
SPLINE
  5
336
100
AcDbEntity
  8
0
100
AcDbSpline
 62
7
  6
CONTINUOUS
 70
0
 71
3
 72
9
 73
5
 74
0
 42
0.0000001
 43
0.0000001
 44
0.0000000001
 40
0.0
 40
0.0
 40
0.0
 40
0.0
 40
0.487490961
 40
1.0
 40
1.0
 40
1.0
 40
1.0
 10
16.4696623317
 20
12.8522309836
 30
0.0
 10
16.468126477
 20
12.8537736227
 30
0.0
 10
16.4648124757
 20
12.8567779027
 30
0.0
 10
16.4612452008
 20
12.8594735484
 30
0.0
 10
16.4593657578
 20
12.8607793541
 30
0.0
  0
SPLINE
  5
337
100
AcDbEntity
  8
0
100
AcDbSpline
 62
7
  6
CONTINUOUS
 70
0
 71
3
 72
15
 73
11
 74
0
 42
0.0000001
 43
0.0000001
 44
0.0000000001
 40
0.0
 40
0.0
 40
0.0
 40
0.0
 40
0.1201466074
 40
0.2443974275
 40
0.3712902171
 40
0.4995232987
 40
0.6278184272
 40
0.754895401
 40
0.8794471242
 40
1.0
 40
1.0
 40
1.0
 40
1.0
 10
16.4593657578
 20
12.8607793541
 30
0.0
 10
16.4581811654
 20
12.8616023891
 30
0.0
 10
16.4556977136
 20
12.8631722726
 30
0.0
 10
16.4517520143
 20
12.8652550079
 30
0.0
 10
16.4475723008
 20
12.8670751982
 30
0.0
 10
16.4432269645
 20
12.8686061689
 30
0.0
 10
16.4387812358
 20
12.8698233994
 30
0.0
 10
16.4343027301
 20
12.8707098792
 30
0.0
 10
16.4298629638
 20
12.8712485543
 30
0.0
 10
16.4269192203
 20
12.8713756556
 30
0.0
 10
16.4254718985
 20
12.8713756556
 30
0.0
  0
SPLINE
  5
338
100
AcDbEntity
  8
0
100
AcDbSpline
 62
7
  6
CONTINUOUS
 70
0
 71
3
 72
15
 73
11
 74
0
 42
0.0000001
 43
0.0000001
 44
0.0000000001
 40
0.0
 40
0.0
 40
0.0
 40
0.0
 40
0.1536378568
 40
0.299833028
 40
0.4373323869
 40
0.565709665
 40
0.6850817364
 40
0.7962094321
 40
0.9005129396
 40
1.0
 40
1.0
 40
1.0
 40
1.0
 10
16.3597081435
 20
12.8713756556
 30
0.0
 10
16.3583196884
 20
12.8713756556
 30
0.0
 10
16.355608324
 20
12.8712632292
 30
0.0
 10
16.3516849677
 20
12.8707388225
 30
0.0
 10
16.3480573165
 20
12.8698646668
 30
0.0
 10
16.344782376
 20
12.8686563566
 30
0.0
 10
16.3419092628
 20
12.8671275433
 30
0.0
 10
16.3394808698
 20
12.8652980542
 30
0.0
 10
16.3375441213
 20
12.8631900993
 30
0.0
 10
16.3365883776
 20
12.8615968322
 30
0.0
 10
16.3362141032
 20
12.8607793541
 30
0.0
  0
SPLINE
  5
339
100
AcDbEntity
  8
0
100
AcDbSpline
 62
7
  6
CONTINUOUS
 70
0
 71
3
 72
15
 73
11
 74
0
 42
0.0000001
 43
0.0000001
 44
0.0000000001
 40
0.0
 40
0.0
 40
0.0
 40
0.0
 40
0.1223505956
 40
0.2492234674
 40
0.3785599849
 40
0.5085370156
 40
0.6373853032
 40
0.7633844775
 40
0.8848473319
 40
1.0
 40
1.0
 40
1.0
 40
1.0
 10
16.1659987907
 20
12.824754908
 30
0.0
 10
16.1650840891
 20
12.824754908
 30
0.0
 10
16.1632200006
 20
12.824849119
 30
0.0
 10
16.1604140899
 20
12.8252435806
 30
0.0
 10
16.1575967572
 20
12.8258904793
 30
0.0
 10
16.1548287785
 20
12.8267729567
 30
0.0
 10
16.1521672933
 20
12.8278743393
 30
0.0
 10
16.1496661839
 20
12.8291707064
 30
0.0
 10
16.1473812086
 20
12.830636507
 30
0.0
 10
16.145990748
 20
12.8317364328
 30
0.0
 10
16.1453478629
 20
12.8323089966
 30
0.0
  0
SPLINE
  5
33A
100
AcDbEntity
  8
0
100
AcDbSpline
 62
7
  6
CONTINUOUS
 70
0
 71
3
 72
9
 73
5
 74
0
 42
0.0000001
 43
0.0000001
 44
0.0000000001
 40
0.0
 40
0.0
 40
0.0
 40
0.0
 40
0.487490961
 40
1.0
 40
1.0
 40
1.0
 40
1.0
 10
16.1242644589
 20
12.8522309836
 30
0.0
 10
16.1227286042
 20
12.8537736227
 30
0.0
 10
16.1194146029
 20
12.8567779027
 30
0.0
 10
16.1158473281
 20
12.8594735484
 30
0.0
 10
16.113967885
 20
12.8607793541
 30
0.0
  0
SPLINE
  5
33B
100
AcDbEntity
  8
0
100
AcDbSpline
 62
7
  6
CONTINUOUS
 70
0
 71
3
 72
15
 73
11
 74
0
 42
0.0000001
 43
0.0000001
 44
0.0000000001
 40
0.0
 40
0.0
 40
0.0
 40
0.0
 40
0.1201466074
 40
0.2443974275
 40
0.3712902171
 40
0.4995232987
 40
0.6278184272
 40
0.754895401
 40
0.8794471242
 40
1.0
 40
1.0
 40
1.0
 40
1.0
 10
16.113967885
 20
12.8607793541
 30
0.0
 10
16.1127832927
 20
12.8616023891
 30
0.0
 10
16.1102998409
 20
12.8631722726
 30
0.0
 10
16.1063541415
 20
12.8652550079
 30
0.0
 10
16.1021744281
 20
12.8670751982
 30
0.0
 10
16.0978290917
 20
12.8686061689
 30
0.0
 10
16.093383363
 20
12.8698233994
 30
0.0
 10
16.0889048573
 20
12.8707098792
 30
0.0
 10
16.0844650911
 20
12.8712485543
 30
0.0
 10
16.0815213475
 20
12.8713756556
 30
0.0
 10
16.0800740257
 20
12.8713756556
 30
0.0
  0
SPLINE
  5
33C
100
AcDbEntity
  8
0
100
AcDbSpline
 62
7
  6
CONTINUOUS
 70
0
 71
3
 72
15
 73
11
 74
0
 42
0.0000001
 43
0.0000001
 44
0.0000000001
 40
0.0
 40
0.0
 40
0.0
 40
0.0
 40
0.1536378568
 40
0.299833028
 40
0.4373323869
 40
0.565709665
 40
0.6850817364
 40
0.7962094321
 40
0.9005129396
 40
1.0
 40
1.0
 40
1.0
 40
1.0
 10
16.0143102707
 20
12.8713756556
 30
0.0
 10
16.0129218156
 20
12.8713756556
 30
0.0
 10
16.0102104513
 20
12.8712632292
 30
0.0
 10
16.0062870949
 20
12.8707388225
 30
0.0
 10
16.0026594438
 20
12.8698646668
 30
0.0
 10
15.9993845032
 20
12.8686563566
 30
0.0
 10
15.99651139
 20
12.8671275433
 30
0.0
 10
15.994082997
 20
12.8652980542
 30
0.0
 10
15.9921462486
 20
12.8631900993
 30
0.0
 10
15.9911905048
 20
12.8615968322
 30
0.0
 10
15.9908162305
 20
12.8607793541
 30
0.0
  0
SPLINE
  5
33D
100
AcDbEntity
  8
0
100
AcDbSpline
 62
7
  6
CONTINUOUS
 70
0
 71
3
 72
15
 73
11
 74
0
 42
0.0000001
 43
0.0000001
 44
0.0000000001
 40
0.0
 40
0.0
 40
0.0
 40
0.0
 40
0.1223505956
 40
0.2492234674
 40
0.3785599849
 40
0.5085370156
 40
0.6373853032
 40
0.7633844775
 40
0.8848473319
 40
1.0
 40
1.0
 40
1.0
 40
1.0
 10
15.820600918
 20
12.824754908
 30
0.0
 10
15.8196862164
 20
12.824754908
 30
0.0
 10
15.8178221278
 20
12.824849119
 30
0.0
 10
15.8150162171
 20
12.8252435806
 30
0.0
 10
15.8121988844
 20
12.8258904793
 30
0.0
 10
15.8094309058
 20
12.8267729567
 30
0.0
 10
15.8067694205
 20
12.8278743393
 30
0.0
 10
15.8042683111
 20
12.8291707064
 30
0.0
 10
15.8019833358
 20
12.830636507
 30
0.0
 10
15.8005928752
 20
12.8317364328
 30
0.0
 10
15.7999499901
 20
12.8323089966
 30
0.0
  0
SPLINE
  5
33E
100
AcDbEntity
  8
0
100
AcDbSpline
 62
7
  6
CONTINUOUS
 70
0
 71
3
 72
9
 73
5
 74
0
 42
0.0000001
 43
0.0000001
 44
0.0000000001
 40
0.0
 40
0.0
 40
0.0
 40
0.0
 40
0.487490961
 40
1.0
 40
1.0
 40
1.0
 40
1.0
 10
15.7788665862
 20
12.8522309836
 30
0.0
 10
15.7773307315
 20
12.8537736227
 30
0.0
 10
15.7740167301
 20
12.8567779027
 30
0.0
 10
15.7704494553
 20
12.8594735484
 30
0.0
 10
15.7685700123
 20
12.8607793541
 30
0.0
  0
SPLINE
  5
33F
100
AcDbEntity
  8
0
100
AcDbSpline
 62
7
  6
CONTINUOUS
 70
0
 71
3
 72
15
 73
11
 74
0
 42
0.0000001
 43
0.0000001
 44
0.0000000001
 40
0.0
 40
0.0
 40
0.0
 40
0.0
 40
0.1201466074
 40
0.2443974275
 40
0.3712902171
 40
0.4995232987
 40
0.6278184272
 40
0.754895401
 40
0.8794471242
 40
1.0
 40
1.0
 40
1.0
 40
1.0
 10
15.7685700123
 20
12.8607793541
 30
0.0
 10
15.7673854199
 20
12.8616023891
 30
0.0
 10
15.7649019681
 20
12.8631722726
 30
0.0
 10
15.7609562688
 20
12.8652550079
 30
0.0
 10
15.7567765553
 20
12.8670751982
 30
0.0
 10
15.752431219
 20
12.8686061689
 30
0.0
 10
15.7479854903
 20
12.8698233994
 30
0.0
 10
15.7435069846
 20
12.8707098792
 30
0.0
 10
15.7390672183
 20
12.8712485543
 30
0.0
 10
15.7361234748
 20
12.8713756556
 30
0.0
 10
15.7346761529
 20
12.8713756556
 30
0.0
  0
SPLINE
  5
340
100
AcDbEntity
  8
0
100
AcDbSpline
 62
7
  6
CONTINUOUS
 70
0
 71
3
 72
15
 73
11
 74
0
 42
0.0000001
 43
0.0000001
 44
0.0000000001
 40
0.0
 40
0.0
 40
0.0
 40
0.0
 40
0.1536378568
 40
0.299833028
 40
0.4373323869
 40
0.565709665
 40
0.6850817364
 40
0.7962094321
 40
0.9005129396
 40
1.0
 40
1.0
 40
1.0
 40
1.0
 10
15.668912398
 20
12.8713756556
 30
0.0
 10
15.6675239429
 20
12.8713756556
 30
0.0
 10
15.6648125785
 20
12.8712632292
 30
0.0
 10
15.6608892222
 20
12.8707388225
 30
0.0
 10
15.657261571
 20
12.8698646668
 30
0.0
 10
15.6539866305
 20
12.8686563566
 30
0.0
 10
15.6511135173
 20
12.8671275433
 30
0.0
 10
15.6486851243
 20
12.8652980542
 30
0.0
 10
15.6467483758
 20
12.8631900993
 30
0.0
 10
15.6457926321
 20
12.8615968322
 30
0.0
 10
15.6454183577
 20
12.8607793541
 30
0.0
  0
SPLINE
  5
341
100
AcDbEntity
  8
0
100
AcDbSpline
 62
7
  6
CONTINUOUS
 70
0
 71
3
 72
13
 73
9
 74
0
 42
0.0000001
 43
0.0000001
 44
0.0000000001
 40
0.0
 40
0.0
 40
0.0
 40
0.0
 40
0.1222201702
 40
0.2492004258
 40
0.5085505449
 40
0.7633987379
 40
0.884963945
 40
1.0
 40
1.0
 40
1.0
 40
1.0
 10
15.4752030452
 20
12.824754908
 30
0.0
 10
15.4742897645
 20
12.824754908
 30
0.0
 10
15.4724266932
 20
12.8248501733
 30
0.0
 10
15.468659897
 20
12.8253801146
 30
0.0
 10
15.4640163196
 20
12.826652157
 30
0.0
 10
15.4596795147
 20
12.8286539086
 30
0.0
 10
15.4565845551
 20
12.8306388268
 30
0.0
 10
15.4551940381
 20
12.8317372917
 30
0.0
 10
15.4545521174
 20
12.8323089966
 30
0.0
  0
SPLINE
  5
342
100
AcDbEntity
  8
0
100
AcDbSpline
 62
7
  6
CONTINUOUS
 70
0
 71
3
 72
9
 73
5
 74
0
 42
0.0000001
 43
0.0000001
 44
0.0000000001
 40
0.0
 40
0.0
 40
0.0
 40
0.0
 40
0.487490961
 40
1.0
 40
1.0
 40
1.0
 40
1.0
 10
15.4334687134
 20
12.8522309836
 30
0.0
 10
15.4319328587
 20
12.8537736227
 30
0.0
 10
15.4286188574
 20
12.8567779027
 30
0.0
 10
15.4250515825
 20
12.8594735484
 30
0.0
 10
15.4231721395
 20
12.8607793541
 30
0.0
  0
SPLINE
  5
343
100
AcDbEntity
  8
0
100
AcDbSpline
 62
7
  6
CONTINUOUS
 70
0
 71
3
 72
13
 73
9
 74
0
 42
0.0000001
 43
0.0000001
 44
0.0000000001
 40
0.0
 40
0.0
 40
0.0
 40
0.0
 40
0.1200511578
 40
0.2443774915
 40
0.4995227613
 40
0.7549157285
 40
0.8795431667
 40
1.0
 40
1.0
 40
1.0
 40
1.0
 10
15.4231721395
 20
12.8607793541
 30
0.0
 10
15.4219888972
 20
12.8616014511
 30
0.0
 10
15.4195057939
 20
12.8631697905
 30
0.0
 10
15.4141997285
 20
12.8659701147
 30
0.0
 10
15.4070798095
 20
12.8687623802
 30
0.0
 10
15.3996337975
 20
12.8705230553
 30
0.0
 10
15.3936665194
 20
12.871247489
 30
0.0
 10
15.3907239494
 20
12.8713756556
 30
0.0
 10
15.3892782802
 20
12.8713756556
 30
0.0
  0
SPLINE
  5
344
100
AcDbEntity
  8
0
100
AcDbSpline
 62
7
  6
CONTINUOUS
 70
0
 71
3
 72
15
 73
11
 74
0
 42
0.0000001
 43
0.0000001
 44
0.0000000001
 40
0.0
 40
0.0
 40
0.0
 40
0.0
 40
0.1534362794
 40
0.2996752345
 40
0.4373380033
 40
0.5657344032
 40
0.6851172796
 40
0.796291796
 40
0.9006247347
 40
1.0
 40
1.0
 40
1.0
 40
1.0
 10
15.3235145252
 20
12.8713756556
 30
0.0
 10
15.322127926
 20
12.8713756556
 30
0.0
 10
15.3194180446
 20
12.8712622576
 30
0.0
 10
15.3154950132
 20
12.8707371474
 30
0.0
 10
15.3118644632
 20
12.8698663676
 30
0.0
 10
15.3085882708
 20
12.8686566447
 30
0.0
 10
15.3057139081
 20
12.8671285311
 30
0.0
 10
15.303287764
 20
12.8652947555
 30
0.0
 10
15.3013512902
 20
12.8631876063
 30
0.0
 10
15.3003943295
 20
12.8615958935
 30
0.0
 10
15.300020485
 20
12.8607793541
 30
0.0
  0
SPLINE
  5
345
100
AcDbEntity
  8
0
100
AcDbSpline
 62
7
  6
CONTINUOUS
 70
0
 71
3
 72
13
 73
9
 74
0
 42
0.0000001
 43
0.0000001
 44
0.0000000001
 40
0.0
 40
0.0
 40
0.0
 40
0.0
 40
0.1222201702
 40
0.2492004258
 40
0.5085505449
 40
0.7633987379
 40
0.884963945
 40
1.0
 40
1.0
 40
1.0
 40
1.0
 10
15.1298051725
 20
12.824754908
 30
0.0
 10
15.1288918918
 20
12.824754908
 30
0.0
 10
15.1270288204
 20
12.8248501733
 30
0.0
 10
15.1232620242
 20
12.8253801146
 30
0.0
 10
15.1186184469
 20
12.826652157
 30
0.0
 10
15.114281642
 20
12.8286539086
 30
0.0
 10
15.1111866823
 20
12.8306388268
 30
0.0
 10
15.1097961654
 20
12.8317372917
 30
0.0
 10
15.1091542446
 20
12.8323089966
 30
0.0
  0
SPLINE
  5
346
100
AcDbEntity
  8
0
100
AcDbSpline
 62
7
  6
CONTINUOUS
 70
0
 71
3
 72
9
 73
5
 74
0
 42
0.0000001
 43
0.0000001
 44
0.0000000001
 40
0.0
 40
0.0
 40
0.0
 40
0.0
 40
0.487490961
 40
1.0
 40
1.0
 40
1.0
 40
1.0
 10
15.0880708407
 20
12.8522309836
 30
0.0
 10
15.086534986
 20
12.8537736227
 30
0.0
 10
15.0832209846
 20
12.8567779027
 30
0.0
 10
15.0796537098
 20
12.8594735484
 30
0.0
 10
15.0777742668
 20
12.8607793541
 30
0.0
  0
SPLINE
  5
347
100
AcDbEntity
  8
0
100
AcDbSpline
 62
7
  6
CONTINUOUS
 70
0
 71
3
 72
13
 73
9
 74
0
 42
0.0000001
 43
0.0000001
 44
0.0000000001
 40
0.0
 40
0.0
 40
0.0
 40
0.0
 40
0.1200511578
 40
0.2443774915
 40
0.4995227613
 40
0.7549157285
 40
0.8795431667
 40
1.0
 40
1.0
 40
1.0
 40
1.0
 10
15.0777742668
 20
12.8607793541
 30
0.0
 10
15.0765910244
 20
12.8616014511
 30
0.0
 10
15.0741079211
 20
12.8631697905
 30
0.0
 10
15.0688018558
 20
12.8659701147
 30
0.0
 10
15.0616819367
 20
12.8687623802
 30
0.0
 10
15.0542359248
 20
12.8705230553
 30
0.0
 10
15.0482686467
 20
12.871247489
 30
0.0
 10
15.0453260766
 20
12.8713756556
 30
0.0
 10
15.0438804074
 20
12.8713756556
 30
0.0
  0
SPLINE
  5
348
100
AcDbEntity
  8
0
100
AcDbSpline
 62
7
  6
CONTINUOUS
 70
0
 71
3
 72
15
 73
11
 74
0
 42
0.0000001
 43
0.0000001
 44
0.0000000001
 40
0.0
 40
0.0
 40
0.0
 40
0.0
 40
0.1534362794
 40
0.2996752345
 40
0.4373380033
 40
0.5657344032
 40
0.6851172796
 40
0.796291796
 40
0.9006247347
 40
1.0
 40
1.0
 40
1.0
 40
1.0
 10
14.9781166525
 20
12.8713756556
 30
0.0
 10
14.9767300532
 20
12.8713756556
 30
0.0
 10
14.9740201718
 20
12.8712622576
 30
0.0
 10
14.9700971405
 20
12.8707371474
 30
0.0
 10
14.9664665904
 20
12.8698663676
 30
0.0
 10
14.963190398
 20
12.8686566447
 30
0.0
 10
14.9603160353
 20
12.8671285311
 30
0.0
 10
14.9578898912
 20
12.8652947555
 30
0.0
 10
14.9559534175
 20
12.8631876063
 30
0.0
 10
14.9549964568
 20
12.8615958935
 30
0.0
 10
14.9546226122
 20
12.8607793541
 30
0.0
  0
SPLINE
  5
349
100
AcDbEntity
  8
0
100
AcDbSpline
 62
7
  6
CONTINUOUS
 70
0
 71
3
 72
15
 73
11
 74
0
 42
0.0000001
 43
0.0000001
 44
0.0000000001
 40
0.0
 40
0.0
 40
0.0
 40
0.0
 40
0.1534362794
 40
0.2996752345
 40
0.4373380033
 40
0.5657344032
 40
0.6851172796
 40
0.796291796
 40
0.9006247347
 40
1.0
 40
1.0
 40
1.0
 40
1.0
 10
14.5825167935
 20
12.1502343302
 30
0.0
 10
14.5839033927
 20
12.1502343302
 30
0.0
 10
14.5866132741
 20
12.1503477282
 30
0.0
 10
14.5905363055
 20
12.1508728384
 30
0.0
 10
14.5941668555
 20
12.1517436182
 30
0.0
 10
14.5974430479
 20
12.1529533412
 30
0.0
 10
14.6003174106
 20
12.1544814547
 30
0.0
 10
14.6027435547
 20
12.1563152303
 30
0.0
 10
14.6046800285
 20
12.1584223795
 30
0.0
 10
14.6056369892
 20
12.1600140923
 30
0.0
 10
14.6060108337
 20
12.1608306317
 30
0.0
  0
SPLINE
  5
34A
100
AcDbEntity
  8
0
100
AcDbSpline
 62
7
  6
CONTINUOUS
 70
0
 71
3
 72
13
 73
9
 74
0
 42
0.0000001
 43
0.0000001
 44
0.0000000001
 40
0.0
 40
0.0
 40
0.0
 40
0.0
 40
0.1200511578
 40
0.2443774915
 40
0.4995227613
 40
0.7549157285
 40
0.8795431667
 40
1.0
 40
1.0
 40
1.0
 40
1.0
 10
14.4828591792
 20
12.1608306317
 30
0.0
 10
14.4840424215
 20
12.1600085347
 30
0.0
 10
14.4865255248
 20
12.1584401953
 30
0.0
 10
14.4918315901
 20
12.1556398711
 30
0.0
 10
14.4989515092
 20
12.1528476057
 30
0.0
 10
14.5063975212
 20
12.1510869305
 30
0.0
 10
14.5123647993
 20
12.1503624968
 30
0.0
 10
14.5153073693
 20
12.1502343302
 30
0.0
 10
14.5167530385
 20
12.1502343302
 30
0.0
  0
SPLINE
  5
34B
100
AcDbEntity
  8
0
100
AcDbSpline
 62
7
  6
CONTINUOUS
 70
0
 71
3
 72
9
 73
5
 74
0
 42
0.0000001
 43
0.0000001
 44
0.0000000001
 40
0.0
 40
0.0
 40
0.0
 40
0.0
 40
0.487490961
 40
1.0
 40
1.0
 40
1.0
 40
1.0
 10
14.4725626053
 20
12.1693790022
 30
0.0
 10
14.47409846
 20
12.1678363631
 30
0.0
 10
14.4774124613
 20
12.1648320831
 30
0.0
 10
14.4809797361
 20
12.1621364374
 30
0.0
 10
14.4828591792
 20
12.1608306317
 30
0.0
  0
SPLINE
  5
34C
100
AcDbEntity
  8
0
100
AcDbSpline
 62
7
  6
CONTINUOUS
 70
0
 71
3
 72
13
 73
9
 74
0
 42
0.0000001
 43
0.0000001
 44
0.0000000001
 40
0.0
 40
0.0
 40
0.0
 40
0.0
 40
0.1222201702
 40
0.2492004258
 40
0.5085505449
 40
0.7633987379
 40
0.884963945
 40
1.0
 40
1.0
 40
1.0
 40
1.0
 10
14.4308282735
 20
12.1968550778
 30
0.0
 10
14.4317415542
 20
12.1968550778
 30
0.0
 10
14.4336046255
 20
12.1967598125
 30
0.0
 10
14.4373714217
 20
12.1962298712
 30
0.0
 10
14.4420149991
 20
12.1949578288
 30
0.0
 10
14.446351804
 20
12.1929560772
 30
0.0
 10
14.4494467636
 20
12.1909711591
 30
0.0
 10
14.4508372806
 20
12.1898726941
 30
0.0
 10
14.4514792013
 20
12.1893009892
 30
0.0
  0
SPLINE
  5
34D
100
AcDbEntity
  8
0
100
AcDbSpline
 62
7
  6
CONTINUOUS
 70
0
 71
3
 72
15
 73
11
 74
0
 42
0.0000001
 43
0.0000001
 44
0.0000000001
 40
0.0
 40
0.0
 40
0.0
 40
0.0
 40
0.1536378568
 40
0.299833028
 40
0.4373323869
 40
0.565709665
 40
0.6850817364
 40
0.7962094321
 40
0.9005129396
 40
1.0
 40
1.0
 40
1.0
 40
1.0
 10
16.3095061572
 20
12.1502343302
 30
0.0
 10
16.3108946123
 20
12.1502343302
 30
0.0
 10
16.3136059767
 20
12.1503467566
 30
0.0
 10
16.317529333
 20
12.1508711633
 30
0.0
 10
16.3211569842
 20
12.151745319
 30
0.0
 10
16.3244319247
 20
12.1529536292
 30
0.0
 10
16.3273050379
 20
12.1544824425
 30
0.0
 10
16.3297334309
 20
12.1563119316
 30
0.0
 10
16.3316701794
 20
12.1584198866
 30
0.0
 10
16.3326259231
 20
12.1600131536
 30
0.0
 10
16.3330001975
 20
12.1608306317
 30
0.0
  0
SPLINE
  5
34E
100
AcDbEntity
  8
0
100
AcDbSpline
 62
7
  6
CONTINUOUS
 70
0
 71
3
 72
15
 73
11
 74
0
 42
0.0000001
 43
0.0000001
 44
0.0000000001
 40
0.0
 40
0.0
 40
0.0
 40
0.0
 40
0.1201466074
 40
0.2443974275
 40
0.3712902171
 40
0.4995232987
 40
0.6278184272
 40
0.754895401
 40
0.8794471242
 40
1.0
 40
1.0
 40
1.0
 40
1.0
 10
16.2098485429
 20
12.1608306317
 30
0.0
 10
16.2110331353
 20
12.1600075967
 30
0.0
 10
16.2135165871
 20
12.1584377132
 30
0.0
 10
16.2174622864
 20
12.1563549779
 30
0.0
 10
16.2216419999
 20
12.1545347877
 30
0.0
 10
16.2259873362
 20
12.1530038169
 30
0.0
 10
16.2304330649
 20
12.1517865864
 30
0.0
 10
16.2349115706
 20
12.1509001066
 30
0.0
 10
16.2393513369
 20
12.1503614315
 30
0.0
 10
16.2422950804
 20
12.1502343302
 30
0.0
 10
16.2437424023
 20
12.1502343302
 30
0.0
  0
SPLINE
  5
34F
100
AcDbEntity
  8
0
100
AcDbSpline
 62
7
  6
CONTINUOUS
 70
0
 71
3
 72
9
 73
5
 74
0
 42
0.0000001
 43
0.0000001
 44
0.0000000001
 40
0.0
 40
0.0
 40
0.0
 40
0.0
 40
0.487490961
 40
1.0
 40
1.0
 40
1.0
 40
1.0
 10
16.199551969
 20
12.1693790022
 30
0.0
 10
16.2010878237
 20
12.1678363631
 30
0.0
 10
16.2044018251
 20
12.1648320831
 30
0.0
 10
16.2079690999
 20
12.1621364374
 30
0.0
 10
16.2098485429
 20
12.1608306317
 30
0.0
  0
SPLINE
  5
350
100
AcDbEntity
  8
0
100
AcDbSpline
 62
7
  6
CONTINUOUS
 70
0
 71
3
 72
15
 73
11
 74
0
 42
0.0000001
 43
0.0000001
 44
0.0000000001
 40
0.0
 40
0.0
 40
0.0
 40
0.0
 40
0.1223505956
 40
0.2492234674
 40
0.3785599849
 40
0.5085370156
 40
0.6373853032
 40
0.7633844775
 40
0.8848473319
 40
1.0
 40
1.0
 40
1.0
 40
1.0
 10
16.1578176372
 20
12.1968550778
 30
0.0
 10
16.1587323388
 20
12.1968550778
 30
0.0
 10
16.1605964274
 20
12.1967608669
 30
0.0
 10
16.1634023381
 20
12.1963664052
 30
0.0
 10
16.1662196708
 20
12.1957195065
 30
0.0
 10
16.1689876494
 20
12.1948370291
 30
0.0
 10
16.1716491347
 20
12.1937356465
 30
0.0
 10
16.1741502441
 20
12.1924392794
 30
0.0
 10
16.1764352194
 20
12.1909734788
 30
0.0
 10
16.17782568
 20
12.189873553
 30
0.0
 10
16.1784685651
 20
12.1893009892
 30
0.0
  0
SPLINE
  5
351
100
AcDbEntity
  8
0
100
AcDbSpline
 62
7
  6
CONTINUOUS
 70
0
 71
3
 72
15
 73
11
 74
0
 42
0.0000001
 43
0.0000001
 44
0.0000000001
 40
0.0
 40
0.0
 40
0.0
 40
0.0
 40
0.1536378568
 40
0.299833028
 40
0.4373323869
 40
0.565709665
 40
0.6850817364
 40
0.7962094321
 40
0.9005129396
 40
1.0
 40
1.0
 40
1.0
 40
1.0
 10
15.9641082845
 20
12.1502343302
 30
0.0
 10
15.9654967396
 20
12.1502343302
 30
0.0
 10
15.9682081039
 20
12.1503467566
 30
0.0
 10
15.9721314603
 20
12.1508711633
 30
0.0
 10
15.9757591114
 20
12.151745319
 30
0.0
 10
15.979034052
 20
12.1529536292
 30
0.0
 10
15.9819071652
 20
12.1544824425
 30
0.0
 10
15.9843355582
 20
12.1563119316
 30
0.0
 10
15.9862723066
 20
12.1584198866
 30
0.0
 10
15.9872280504
 20
12.1600131536
 30
0.0
 10
15.9876023247
 20
12.1608306317
 30
0.0
  0
SPLINE
  5
352
100
AcDbEntity
  8
0
100
AcDbSpline
 62
7
  6
CONTINUOUS
 70
0
 71
3
 72
15
 73
11
 74
0
 42
0.0000001
 43
0.0000001
 44
0.0000000001
 40
0.0
 40
0.0
 40
0.0
 40
0.0
 40
0.1201466074
 40
0.2443974275
 40
0.3712902171
 40
0.4995232987
 40
0.6278184272
 40
0.754895401
 40
0.8794471242
 40
1.0
 40
1.0
 40
1.0
 40
1.0
 10
15.8644506702
 20
12.1608306317
 30
0.0
 10
15.8656352625
 20
12.1600075967
 30
0.0
 10
15.8681187143
 20
12.1584377132
 30
0.0
 10
15.8720644137
 20
12.1563549779
 30
0.0
 10
15.8762441271
 20
12.1545347877
 30
0.0
 10
15.8805894635
 20
12.1530038169
 30
0.0
 10
15.8850351922
 20
12.1517865864
 30
0.0
 10
15.8895136979
 20
12.1509001066
 30
0.0
 10
15.8939534641
 20
12.1503614315
 30
0.0
 10
15.8968972077
 20
12.1502343302
 30
0.0
 10
15.8983445295
 20
12.1502343302
 30
0.0
  0
SPLINE
  5
353
100
AcDbEntity
  8
0
100
AcDbSpline
 62
7
  6
CONTINUOUS
 70
0
 71
3
 72
9
 73
5
 74
0
 42
0.0000001
 43
0.0000001
 44
0.0000000001
 40
0.0
 40
0.0
 40
0.0
 40
0.0
 40
0.487490961
 40
1.0
 40
1.0
 40
1.0
 40
1.0
 10
15.8541540963
 20
12.1693790022
 30
0.0
 10
15.855689951
 20
12.1678363631
 30
0.0
 10
15.8590039523
 20
12.1648320831
 30
0.0
 10
15.8625712272
 20
12.1621364374
 30
0.0
 10
15.8644506702
 20
12.1608306317
 30
0.0
  0
SPLINE
  5
354
100
AcDbEntity
  8
0
100
AcDbSpline
 62
7
  6
CONTINUOUS
 70
0
 71
3
 72
15
 73
11
 74
0
 42
0.0000001
 43
0.0000001
 44
0.0000000001
 40
0.0
 40
0.0
 40
0.0
 40
0.0
 40
0.1223505956
 40
0.2492234674
 40
0.3785599849
 40
0.5085370156
 40
0.6373853032
 40
0.7633844775
 40
0.8848473319
 40
1.0
 40
1.0
 40
1.0
 40
1.0
 10
15.8124197645
 20
12.1968550778
 30
0.0
 10
15.8133344661
 20
12.1968550778
 30
0.0
 10
15.8151985546
 20
12.1967608669
 30
0.0
 10
15.8180044653
 20
12.1963664052
 30
0.0
 10
15.820821798
 20
12.1957195065
 30
0.0
 10
15.8235897767
 20
12.1948370291
 30
0.0
 10
15.8262512619
 20
12.1937356465
 30
0.0
 10
15.8287523713
 20
12.1924392794
 30
0.0
 10
15.8310373466
 20
12.1909734788
 30
0.0
 10
15.8324278072
 20
12.189873553
 30
0.0
 10
15.8330706923
 20
12.1893009892
 30
0.0
  0
SPLINE
  5
355
100
AcDbEntity
  8
0
100
AcDbSpline
 62
7
  6
CONTINUOUS
 70
0
 71
3
 72
15
 73
11
 74
0
 42
0.0000001
 43
0.0000001
 44
0.0000000001
 40
0.0
 40
0.0
 40
0.0
 40
0.0
 40
0.1536378568
 40
0.299833028
 40
0.4373323869
 40
0.565709665
 40
0.6850817364
 40
0.7962094321
 40
0.9005129396
 40
1.0
 40
1.0
 40
1.0
 40
1.0
 10
15.6187104117
 20
12.1502343302
 30
0.0
 10
15.6200988668
 20
12.1502343302
 30
0.0
 10
15.6228102312
 20
12.1503467566
 30
0.0
 10
15.6267335875
 20
12.1508711633
 30
0.0
 10
15.6303612387
 20
12.151745319
 30
0.0
 10
15.6336361792
 20
12.1529536292
 30
0.0
 10
15.6365092924
 20
12.1544824425
 30
0.0
 10
15.6389376854
 20
12.1563119316
 30
0.0
 10
15.6408744339
 20
12.1584198866
 30
0.0
 10
15.6418301776
 20
12.1600131536
 30
0.0
 10
15.642204452
 20
12.1608306317
 30
0.0
  0
SPLINE
  5
356
100
AcDbEntity
  8
0
100
AcDbSpline
 62
7
  6
CONTINUOUS
 70
0
 71
3
 72
15
 73
11
 74
0
 42
0.0000001
 43
0.0000001
 44
0.0000000001
 40
0.0
 40
0.0
 40
0.0
 40
0.0
 40
0.1201466074
 40
0.2443974275
 40
0.3712902171
 40
0.4995232987
 40
0.6278184272
 40
0.754895401
 40
0.8794471242
 40
1.0
 40
1.0
 40
1.0
 40
1.0
 10
15.5190527974
 20
12.1608306317
 30
0.0
 10
15.5202373898
 20
12.1600075967
 30
0.0
 10
15.5227208416
 20
12.1584377132
 30
0.0
 10
15.5266665409
 20
12.1563549779
 30
0.0
 10
15.5308462544
 20
12.1545347877
 30
0.0
 10
15.5351915907
 20
12.1530038169
 30
0.0
 10
15.5396373194
 20
12.1517865864
 30
0.0
 10
15.5441158251
 20
12.1509001066
 30
0.0
 10
15.5485555914
 20
12.1503614315
 30
0.0
 10
15.5514993349
 20
12.1502343302
 30
0.0
 10
15.5529466567
 20
12.1502343302
 30
0.0
  0
SPLINE
  5
357
100
AcDbEntity
  8
0
100
AcDbSpline
 62
7
  6
CONTINUOUS
 70
0
 71
3
 72
9
 73
5
 74
0
 42
0.0000001
 43
0.0000001
 44
0.0000000001
 40
0.0
 40
0.0
 40
0.0
 40
0.0
 40
0.487490961
 40
1.0
 40
1.0
 40
1.0
 40
1.0
 10
15.5087562235
 20
12.1693790022
 30
0.0
 10
15.5102920782
 20
12.1678363631
 30
0.0
 10
15.5136060796
 20
12.1648320831
 30
0.0
 10
15.5171733544
 20
12.1621364374
 30
0.0
 10
15.5190527974
 20
12.1608306317
 30
0.0
  0
SPLINE
  5
358
100
AcDbEntity
  8
0
100
AcDbSpline
 62
7
  6
CONTINUOUS
 70
0
 71
3
 72
15
 73
11
 74
0
 42
0.0000001
 43
0.0000001
 44
0.0000000001
 40
0.0
 40
0.0
 40
0.0
 40
0.0
 40
0.1223505956
 40
0.2492234674
 40
0.3785599849
 40
0.5085370156
 40
0.6373853032
 40
0.7633844775
 40
0.8848473319
 40
1.0
 40
1.0
 40
1.0
 40
1.0
 10
15.4670218917
 20
12.1968550778
 30
0.0
 10
15.4679365933
 20
12.1968550778
 30
0.0
 10
15.4698006819
 20
12.1967608669
 30
0.0
 10
15.4726065926
 20
12.1963664052
 30
0.0
 10
15.4754239253
 20
12.1957195065
 30
0.0
 10
15.4781919039
 20
12.1948370291
 30
0.0
 10
15.4808533892
 20
12.1937356465
 30
0.0
 10
15.4833544986
 20
12.1924392794
 30
0.0
 10
15.4856394739
 20
12.1909734788
 30
0.0
 10
15.4870299345
 20
12.189873553
 30
0.0
 10
15.4876728196
 20
12.1893009892
 30
0.0
  0
SPLINE
  5
359
100
AcDbEntity
  8
0
100
AcDbSpline
 62
7
  6
CONTINUOUS
 70
0
 71
3
 72
15
 73
11
 74
0
 42
0.0000001
 43
0.0000001
 44
0.0000000001
 40
0.0
 40
0.0
 40
0.0
 40
0.0
 40
0.1534362794
 40
0.2996752345
 40
0.4373380033
 40
0.5657344032
 40
0.6851172796
 40
0.796291796
 40
0.9006247347
 40
1.0
 40
1.0
 40
1.0
 40
1.0
 10
15.273312539
 20
12.1502343302
 30
0.0
 10
15.2746991382
 20
12.1502343302
 30
0.0
 10
15.2774090196
 20
12.1503477282
 30
0.0
 10
15.281332051
 20
12.1508728384
 30
0.0
 10
15.284962601
 20
12.1517436182
 30
0.0
 10
15.2882387934
 20
12.1529533412
 30
0.0
 10
15.2911131561
 20
12.1544814547
 30
0.0
 10
15.2935393002
 20
12.1563152303
 30
0.0
 10
15.295475774
 20
12.1584223795
 30
0.0
 10
15.2964327347
 20
12.1600140923
 30
0.0
 10
15.2968065792
 20
12.1608306317
 30
0.0
  0
SPLINE
  5
35A
100
AcDbEntity
  8
0
100
AcDbSpline
 62
7
  6
CONTINUOUS
 70
0
 71
3
 72
13
 73
9
 74
0
 42
0.0000001
 43
0.0000001
 44
0.0000000001
 40
0.0
 40
0.0
 40
0.0
 40
0.0
 40
0.1200511578
 40
0.2443774915
 40
0.4995227613
 40
0.7549157285
 40
0.8795431667
 40
1.0
 40
1.0
 40
1.0
 40
1.0
 10
15.1736549247
 20
12.1608306317
 30
0.0
 10
15.174838167
 20
12.1600085347
 30
0.0
 10
15.1773212703
 20
12.1584401953
 30
0.0
 10
15.1826273357
 20
12.1556398711
 30
0.0
 10
15.1897472547
 20
12.1528476057
 30
0.0
 10
15.1971932667
 20
12.1510869305
 30
0.0
 10
15.2031605448
 20
12.1503624968
 30
0.0
 10
15.2061031148
 20
12.1502343302
 30
0.0
 10
15.207548784
 20
12.1502343302
 30
0.0
  0
SPLINE
  5
35B
100
AcDbEntity
  8
0
100
AcDbSpline
 62
7
  6
CONTINUOUS
 70
0
 71
3
 72
9
 73
5
 74
0
 42
0.0000001
 43
0.0000001
 44
0.0000000001
 40
0.0
 40
0.0
 40
0.0
 40
0.0
 40
0.487490961
 40
1.0
 40
1.0
 40
1.0
 40
1.0
 10
15.1633583508
 20
12.1693790022
 30
0.0
 10
15.1648942055
 20
12.1678363631
 30
0.0
 10
15.1682082068
 20
12.1648320831
 30
0.0
 10
15.1717754816
 20
12.1621364374
 30
0.0
 10
15.1736549247
 20
12.1608306317
 30
0.0
  0
SPLINE
  5
35C
100
AcDbEntity
  8
0
100
AcDbSpline
 62
7
  6
CONTINUOUS
 70
0
 71
3
 72
13
 73
9
 74
0
 42
0.0000001
 43
0.0000001
 44
0.0000000001
 40
0.0
 40
0.0
 40
0.0
 40
0.0
 40
0.1222201702
 40
0.2492004258
 40
0.5085505449
 40
0.7633987379
 40
0.884963945
 40
1.0
 40
1.0
 40
1.0
 40
1.0
 10
15.121624019
 20
12.1968550778
 30
0.0
 10
15.1225372997
 20
12.1968550778
 30
0.0
 10
15.124400371
 20
12.1967598125
 30
0.0
 10
15.1281671672
 20
12.1962298712
 30
0.0
 10
15.1328107446
 20
12.1949578288
 30
0.0
 10
15.1371475495
 20
12.1929560772
 30
0.0
 10
15.1402425091
 20
12.1909711591
 30
0.0
 10
15.1416330261
 20
12.1898726941
 30
0.0
 10
15.1422749468
 20
12.1893009892
 30
0.0
  0
SPLINE
  5
35D
100
AcDbEntity
  8
0
100
AcDbSpline
 62
7
  6
CONTINUOUS
 70
0
 71
3
 72
15
 73
11
 74
0
 42
0.0000001
 43
0.0000001
 44
0.0000000001
 40
0.0
 40
0.0
 40
0.0
 40
0.0
 40
0.1534362794
 40
0.2996752345
 40
0.4373380033
 40
0.5657344032
 40
0.6851172796
 40
0.796291796
 40
0.9006247347
 40
1.0
 40
1.0
 40
1.0
 40
1.0
 10
14.9279146662
 20
12.1502343302
 30
0.0
 10
14.9293012655
 20
12.1502343302
 30
0.0
 10
14.9320111469
 20
12.1503477282
 30
0.0
 10
14.9359341782
 20
12.1508728384
 30
0.0
 10
14.9395647283
 20
12.1517436182
 30
0.0
 10
14.9428409207
 20
12.1529533412
 30
0.0
 10
14.9457152834
 20
12.1544814547
 30
0.0
 10
14.9481414275
 20
12.1563152303
 30
0.0
 10
14.9500779012
 20
12.1584223795
 30
0.0
 10
14.9510348619
 20
12.1600140923
 30
0.0
 10
14.9514087065
 20
12.1608306317
 30
0.0
  0
SPLINE
  5
35E
100
AcDbEntity
  8
0
100
AcDbSpline
 62
7
  6
CONTINUOUS
 70
0
 71
3
 72
13
 73
9
 74
0
 42
0.0000001
 43
0.0000001
 44
0.0000000001
 40
0.0
 40
0.0
 40
0.0
 40
0.0
 40
0.1200511578
 40
0.2443774915
 40
0.4995227613
 40
0.7549157285
 40
0.8795431667
 40
1.0
 40
1.0
 40
1.0
 40
1.0
 10
14.8282570519
 20
12.1608306317
 30
0.0
 10
14.8294402943
 20
12.1600085347
 30
0.0
 10
14.8319233976
 20
12.1584401953
 30
0.0
 10
14.8372294629
 20
12.1556398711
 30
0.0
 10
14.844349382
 20
12.1528476057
 30
0.0
 10
14.8517953939
 20
12.1510869305
 30
0.0
 10
14.857762672
 20
12.1503624968
 30
0.0
 10
14.8607052421
 20
12.1502343302
 30
0.0
 10
14.8621509112
 20
12.1502343302
 30
0.0
  0
SPLINE
  5
35F
100
AcDbEntity
  8
0
100
AcDbSpline
 62
7
  6
CONTINUOUS
 70
0
 71
3
 72
9
 73
5
 74
0
 42
0.0000001
 43
0.0000001
 44
0.0000000001
 40
0.0
 40
0.0
 40
0.0
 40
0.0
 40
0.487490961
 40
1.0
 40
1.0
 40
1.0
 40
1.0
 10
14.817960478
 20
12.1693790022
 30
0.0
 10
14.8194963327
 20
12.1678363631
 30
0.0
 10
14.822810334
 20
12.1648320831
 30
0.0
 10
14.8263776089
 20
12.1621364374
 30
0.0
 10
14.8282570519
 20
12.1608306317
 30
0.0
  0
SPLINE
  5
360
100
AcDbEntity
  8
0
100
AcDbSpline
 62
7
  6
CONTINUOUS
 70
0
 71
3
 72
13
 73
9
 74
0
 42
0.0000001
 43
0.0000001
 44
0.0000000001
 40
0.0
 40
0.0
 40
0.0
 40
0.0
 40
0.1222201702
 40
0.2492004258
 40
0.5085505449
 40
0.7633987379
 40
0.884963945
 40
1.0
 40
1.0
 40
1.0
 40
1.0
 10
14.7762261462
 20
12.1968550778
 30
0.0
 10
14.7771394269
 20
12.1968550778
 30
0.0
 10
14.7790024983
 20
12.1967598125
 30
0.0
 10
14.7827692945
 20
12.1962298712
 30
0.0
 10
14.7874128718
 20
12.1949578288
 30
0.0
 10
14.7917496767
 20
12.1929560772
 30
0.0
 10
14.7948446364
 20
12.1909711591
 30
0.0
 10
14.7962351533
 20
12.1898726941
 30
0.0
 10
14.796877074
 20
12.1893009892
 30
0.0
  0
SPLINE
  5
361
100
AcDbEntity
  8
0
100
AcDbSpline
 62
7
  6
CONTINUOUS
 70
0
 71
3
 72
9
 73
5
 74
0
 42
0.0000001
 43
0.0000001
 44
0.0000000001
 40
0.0
 40
0.0
 40
0.0
 40
0.0
 40
0.4965273797
 40
1.0
 40
1.0
 40
1.0
 40
1.0
 10
14.6069778373
 20
12.1633633989
 30
0.0
 10
14.6072761444
 20
12.164328657
 30
0.0
 10
14.6077351694
 20
12.166319284
 30
0.0
 10
14.607903057
 20
12.1683546708
 30
0.0
 10
14.6079175458
 20
12.1693790022
 30
0.0
  0
SPLINE
  5
362
100
AcDbEntity
  8
0
100
AcDbSpline
 62
7
  6
CONTINUOUS
 70
0
 71
3
 72
15
 73
11
 74
0
 42
0.0000001
 43
0.0000001
 44
0.0000000001
 40
0.0
 40
0.0
 40
0.0
 40
0.0
 40
0.1536378568
 40
0.299833028
 40
0.4373323869
 40
0.565709665
 40
0.6850817364
 40
0.7962094321
 40
0.9005129396
 40
1.0
 40
1.0
 40
1.0
 40
1.0
 10
15.8327605282
 20
12.2838804734
 30
0.0
 10
15.8313720731
 20
12.2838804734
 30
0.0
 10
15.8286607087
 20
12.283768047
 30
0.0
 10
15.8247373524
 20
12.2832436403
 30
0.0
 10
15.8211097012
 20
12.2823694845
 30
0.0
 10
15.8178347607
 20
12.2811611744
 30
0.0
 10
15.8149616475
 20
12.2796323611
 30
0.0
 10
15.8125332545
 20
12.277802872
 30
0.0
 10
15.810596506
 20
12.275694917
 30
0.0
 10
15.8096407623
 20
12.27410165
 30
0.0
 10
15.8092664879
 20
12.2732841719
 30
0.0
  0
SPLINE
  5
363
100
AcDbEntity
  8
0
100
AcDbSpline
 62
7
  6
CONTINUOUS
 70
0
 71
3
 72
15
 73
11
 74
0
 42
0.0000001
 43
0.0000001
 44
0.0000000001
 40
0.0
 40
0.0
 40
0.0
 40
0.0
 40
0.1201466074
 40
0.2443974275
 40
0.3712902171
 40
0.4995232987
 40
0.6278184272
 40
0.754895401
 40
0.8794471242
 40
1.0
 40
1.0
 40
1.0
 40
1.0
 10
15.9324181425
 20
12.2732841719
 30
0.0
 10
15.9312335501
 20
12.2741072068
 30
0.0
 10
15.9287500983
 20
12.2756770904
 30
0.0
 10
15.924804399
 20
12.2777598257
 30
0.0
 10
15.9206246855
 20
12.2795800159
 30
0.0
 10
15.9162793492
 20
12.2811109867
 30
0.0
 10
15.9118336205
 20
12.2823282172
 30
0.0
 10
15.9073551148
 20
12.283214697
 30
0.0
 10
15.9029153485
 20
12.283753372
 30
0.0
 10
15.899971605
 20
12.2838804734
 30
0.0
 10
15.8985242831
 20
12.2838804734
 30
0.0
  0
SPLINE
  5
364
100
AcDbEntity
  8
0
100
AcDbSpline
 62
7
  6
CONTINUOUS
 70
0
 71
3
 72
9
 73
5
 74
0
 42
0.0000001
 43
0.0000001
 44
0.0000000001
 40
0.0
 40
0.0
 40
0.0
 40
0.0
 40
0.487490961
 40
1.0
 40
1.0
 40
1.0
 40
1.0
 10
15.9427147164
 20
12.2647358014
 30
0.0
 10
15.9411788617
 20
12.2662784405
 30
0.0
 10
15.9378648603
 20
12.2692827205
 30
0.0
 10
15.9342975855
 20
12.2719783662
 30
0.0
 10
15.9324181425
 20
12.2732841719
 30
0.0
  0
SPLINE
  5
365
100
AcDbEntity
  8
0
100
AcDbSpline
 62
7
  6
CONTINUOUS
 70
0
 71
3
 72
15
 73
11
 74
0
 42
0.0000001
 43
0.0000001
 44
0.0000000001
 40
0.0
 40
0.0
 40
0.0
 40
0.0
 40
0.1223505956
 40
0.2492234674
 40
0.3785599849
 40
0.5085370156
 40
0.6373853032
 40
0.7633844775
 40
0.8848473319
 40
1.0
 40
1.0
 40
1.0
 40
1.0
 10
15.9844490482
 20
12.2372597258
 30
0.0
 10
15.9835343466
 20
12.2372597258
 30
0.0
 10
15.981670258
 20
12.2373539367
 30
0.0
 10
15.9788643473
 20
12.2377483983
 30
0.0
 10
15.9760470146
 20
12.2383952971
 30
0.0
 10
15.973279036
 20
12.2392777745
 30
0.0
 10
15.9706175507
 20
12.2403791571
 30
0.0
 10
15.9681164413
 20
12.2416755242
 30
0.0
 10
15.965831466
 20
12.2431413248
 30
0.0
 10
15.9644410054
 20
12.2442412506
 30
0.0
 10
15.9637981203
 20
12.2448138143
 30
0.0
  0
SPLINE
  5
366
100
AcDbEntity
  8
0
100
AcDbSpline
 62
7
  6
CONTINUOUS
 70
0
 71
3
 72
15
 73
11
 74
0
 42
0.0000001
 43
0.0000001
 44
0.0000000001
 40
0.0
 40
0.0
 40
0.0
 40
0.0
 40
0.1536378568
 40
0.299833028
 40
0.4373323869
 40
0.565709665
 40
0.6850817364
 40
0.7962094321
 40
0.9005129396
 40
1.0
 40
1.0
 40
1.0
 40
1.0
 10
16.1781584009
 20
12.2838804734
 30
0.0
 10
16.1767699458
 20
12.2838804734
 30
0.0
 10
16.1740585815
 20
12.283768047
 30
0.0
 10
16.1701352251
 20
12.2832436403
 30
0.0
 10
16.166507574
 20
12.2823694845
 30
0.0
 10
16.1632326334
 20
12.2811611744
 30
0.0
 10
16.1603595202
 20
12.2796323611
 30
0.0
 10
16.1579311272
 20
12.277802872
 30
0.0
 10
16.1559943788
 20
12.275694917
 30
0.0
 10
16.155038635
 20
12.27410165
 30
0.0
 10
16.1546643607
 20
12.2732841719
 30
0.0
  0
SPLINE
  5
367
100
AcDbEntity
  8
0
100
AcDbSpline
 62
7
  6
CONTINUOUS
 70
0
 71
3
 72
15
 73
11
 74
0
 42
0.0000001
 43
0.0000001
 44
0.0000000001
 40
0.0
 40
0.0
 40
0.0
 40
0.0
 40
0.1201466074
 40
0.2443974275
 40
0.3712902171
 40
0.4995232987
 40
0.6278184272
 40
0.754895401
 40
0.8794471242
 40
1.0
 40
1.0
 40
1.0
 40
1.0
 10
16.2778160152
 20
12.2732841719
 30
0.0
 10
16.2766314229
 20
12.2741072068
 30
0.0
 10
16.2741479711
 20
12.2756770904
 30
0.0
 10
16.2702022717
 20
12.2777598257
 30
0.0
 10
16.2660225583
 20
12.2795800159
 30
0.0
 10
16.2616772219
 20
12.2811109867
 30
0.0
 10
16.2572314932
 20
12.2823282172
 30
0.0
 10
16.2527529875
 20
12.283214697
 30
0.0
 10
16.2483132213
 20
12.283753372
 30
0.0
 10
16.2453694777
 20
12.2838804734
 30
0.0
 10
16.2439221559
 20
12.2838804734
 30
0.0
  0
SPLINE
  5
368
100
AcDbEntity
  8
0
100
AcDbSpline
 62
7
  6
CONTINUOUS
 70
0
 71
3
 72
9
 73
5
 74
0
 42
0.0000001
 43
0.0000001
 44
0.0000000001
 40
0.0
 40
0.0
 40
0.0
 40
0.0
 40
0.487490961
 40
1.0
 40
1.0
 40
1.0
 40
1.0
 10
16.2881125891
 20
12.2647358014
 30
0.0
 10
16.2865767344
 20
12.2662784405
 30
0.0
 10
16.2832627331
 20
12.2692827205
 30
0.0
 10
16.2796954582
 20
12.2719783662
 30
0.0
 10
16.2778160152
 20
12.2732841719
 30
0.0
  0
SPLINE
  5
369
100
AcDbEntity
  8
0
100
AcDbSpline
 62
7
  6
CONTINUOUS
 70
0
 71
3
 72
15
 73
11
 74
0
 42
0.0000001
 43
0.0000001
 44
0.0000000001
 40
0.0
 40
0.0
 40
0.0
 40
0.0
 40
0.1223505956
 40
0.2492234674
 40
0.3785599849
 40
0.5085370156
 40
0.6373853032
 40
0.7633844775
 40
0.8848473319
 40
1.0
 40
1.0
 40
1.0
 40
1.0
 10
16.3298469209
 20
12.2372597258
 30
0.0
 10
16.3289322193
 20
12.2372597258
 30
0.0
 10
16.3270681308
 20
12.2373539367
 30
0.0
 10
16.3242622201
 20
12.2377483983
 30
0.0
 10
16.3214448874
 20
12.2383952971
 30
0.0
 10
16.3186769087
 20
12.2392777745
 30
0.0
 10
16.3160154235
 20
12.2403791571
 30
0.0
 10
16.3135143141
 20
12.2416755242
 30
0.0
 10
16.3112293387
 20
12.2431413248
 30
0.0
 10
16.3098388782
 20
12.2442412506
 30
0.0
 10
16.3091959931
 20
12.2448138143
 30
0.0
  0
SPLINE
  5
36A
100
AcDbEntity
  8
0
100
AcDbSpline
 62
7
  6
CONTINUOUS
 70
0
 71
3
 72
14
 73
10
 74
0
 42
0.0000001
 43
0.0000001
 44
0.0000000001
 40
0.0
 40
0.0
 40
0.0
 40
0.0
 40
0.0997371093
 40
0.2031531903
 40
0.3129580674
 40
0.4312595172
 40
0.6969918413
 40
0.8446007722
 40
1.0
 40
1.0
 40
1.0
 40
1.0
 10
15.1148025195
 20
12.243787406
 30
0.0
 10
15.1146494118
 20
12.2432953715
 30
0.0
 10
15.1142165323
 20
12.2423270365
 30
0.0
 10
15.1132354157
 20
12.2410265285
 30
0.0
 10
15.1119353453
 20
12.2398943985
 30
0.0
 10
15.1097344527
 20
12.238582551
 30
0.0
 10
15.1070759686
 20
12.2377511709
 30
0.0
 10
15.1041665977
 20
12.2373305135
 30
0.0
 10
15.1025991894
 20
12.2372597258
 30
0.0
 10
15.1017962976
 20
12.2372597258
 30
0.0
  0
SPLINE
  5
36B
100
AcDbEntity
  8
0
100
AcDbSpline
 62
7
  6
CONTINUOUS
 70
0
 71
3
 72
14
 73
10
 74
0
 42
0.0000001
 43
0.0000001
 44
0.0000000001
 40
0.0
 40
0.0
 40
0.0
 40
0.0
 40
0.0997371093
 40
0.2031531903
 40
0.3129580674
 40
0.4312595172
 40
0.6969918413
 40
0.8446007722
 40
1.0
 40
1.0
 40
1.0
 40
1.0
 10
14.7694046467
 20
12.243787406
 30
0.0
 10
14.7692515391
 20
12.2432953715
 30
0.0
 10
14.7688186595
 20
12.2423270365
 30
0.0
 10
14.767837543
 20
12.2410265285
 30
0.0
 10
14.7665374725
 20
12.2398943985
 30
0.0
 10
14.76433658
 20
12.238582551
 30
0.0
 10
14.7616780959
 20
12.2377511709
 30
0.0
 10
14.758768725
 20
12.2373305135
 30
0.0
 10
14.7572013167
 20
12.2372597258
 30
0.0
 10
14.7563984249
 20
12.2372597258
 30
0.0
  0
SPLINE
  5
36C
100
AcDbEntity
  8
0
100
AcDbSpline
 62
7
  6
CONTINUOUS
 70
0
 71
3
 72
15
 73
11
 74
0
 42
0.0000001
 43
0.0000001
 44
0.0000000001
 40
0.0
 40
0.0
 40
0.0
 40
0.0
 40
0.0997258588
 40
0.2030115833
 40
0.3127317371
 40
0.4309680301
 40
0.558895596
 40
0.6968419374
 40
0.8443696593
 40
1.0
 40
1.0
 40
1.0
 40
1.0
 10
16.150996944
 20
12.2437871468
 30
0.0
 10
16.1508444121
 20
12.2432946574
 30
0.0
 10
16.1504132804
 20
12.2423253888
 30
0.0
 10
16.1494294833
 20
12.2410268078
 30
0.0
 10
16.1481291503
 20
12.2398961263
 30
0.0
 10
16.1465421489
 20
12.2389491552
 30
0.0
 10
16.1446965003
 20
12.2381989814
 30
0.0
 10
16.1426240867
 20
12.2376556277
 30
0.0
 10
16.1403629389
 20
12.2373296842
 30
0.0
 10
16.1387945039
 20
12.2372597258
 30
0.0
 10
16.1379899159
 20
12.2372597258
 30
0.0
  0
SPLINE
  5
36D
100
AcDbEntity
  8
0
100
AcDbSpline
 62
7
  6
CONTINUOUS
 70
0
 71
3
 72
15
 73
11
 74
0
 42
0.0000001
 43
0.0000001
 44
0.0000000001
 40
0.0
 40
0.0
 40
0.0
 40
0.0
 40
0.0997258588
 40
0.2030115833
 40
0.3127317371
 40
0.4309680301
 40
0.558895596
 40
0.6968419374
 40
0.8443696593
 40
1.0
 40
1.0
 40
1.0
 40
1.0
 10
15.8055990712
 20
12.2437871468
 30
0.0
 10
15.8054465393
 20
12.2432946574
 30
0.0
 10
15.8050154077
 20
12.2423253888
 30
0.0
 10
15.8040316105
 20
12.2410268078
 30
0.0
 10
15.8027312775
 20
12.2398961263
 30
0.0
 10
15.8011442761
 20
12.2389491552
 30
0.0
 10
15.7992986275
 20
12.2381989814
 30
0.0
 10
15.7972262139
 20
12.2376556277
 30
0.0
 10
15.7949650662
 20
12.2373296842
 30
0.0
 10
15.7933966311
 20
12.2372597258
 30
0.0
 10
15.7925920431
 20
12.2372597258
 30
0.0
  0
SPLINE
  5
36E
100
AcDbEntity
  8
0
100
AcDbSpline
 62
7
  6
CONTINUOUS
 70
0
 71
3
 72
9
 73
5
 74
0
 42
0.0000001
 43
0.0000001
 44
0.0000000001
 40
0.0
 40
0.0
 40
0.0
 40
0.0
 40
0.4965273797
 40
1.0
 40
1.0
 40
1.0
 40
1.0
 10
15.2977735828
 20
12.1633633989
 30
0.0
 10
15.2980718899
 20
12.164328657
 30
0.0
 10
15.2985309149
 20
12.166319284
 30
0.0
 10
15.2986988025
 20
12.1683546708
 30
0.0
 10
15.2987132913
 20
12.1693790022
 30
0.0
  0
SPLINE
  5
36F
100
AcDbEntity
  8
0
100
AcDbSpline
 62
7
  6
CONTINUOUS
 70
0
 71
3
 72
15
 73
11
 74
0
 42
0.0000001
 43
0.0000001
 44
0.0000000001
 40
0.0
 40
0.0
 40
0.0
 40
0.0
 40
0.1534362794
 40
0.2996752345
 40
0.4373380033
 40
0.5657344032
 40
0.6851172796
 40
0.796291796
 40
0.9006247347
 40
1.0
 40
1.0
 40
1.0
 40
1.0
 10
14.4511690372
 20
12.2838804734
 30
0.0
 10
14.4497824379
 20
12.2838804734
 30
0.0
 10
14.4470725565
 20
12.2837670754
 30
0.0
 10
14.4431495252
 20
12.2832419652
 30
0.0
 10
14.4395189751
 20
12.2823711854
 30
0.0
 10
14.4362427827
 20
12.2811614624
 30
0.0
 10
14.43336842
 20
12.2796333489
 30
0.0
 10
14.4309422759
 20
12.2777995732
 30
0.0
 10
14.4290058022
 20
12.2756924241
 30
0.0
 10
14.4280488415
 20
12.2741007113
 30
0.0
 10
14.4276749969
 20
12.2732841719
 30
0.0
  0
SPLINE
  5
370
100
AcDbEntity
  8
0
100
AcDbSpline
 62
7
  6
CONTINUOUS
 70
0
 71
3
 72
13
 73
9
 74
0
 42
0.0000001
 43
0.0000001
 44
0.0000000001
 40
0.0
 40
0.0
 40
0.0
 40
0.0
 40
0.1200511578
 40
0.2443774915
 40
0.4995227613
 40
0.7549157285
 40
0.8795431667
 40
1.0
 40
1.0
 40
1.0
 40
1.0
 10
14.5508266515
 20
12.2732841719
 30
0.0
 10
14.5496434091
 20
12.2741062689
 30
0.0
 10
14.5471603058
 20
12.2756746083
 30
0.0
 10
14.5418542405
 20
12.2784749325
 30
0.0
 10
14.5347343214
 20
12.2812671979
 30
0.0
 10
14.5272883095
 20
12.2830278731
 30
0.0
 10
14.5213210314
 20
12.2837523068
 30
0.0
 10
14.5183784613
 20
12.2838804734
 30
0.0
 10
14.5169327921
 20
12.2838804734
 30
0.0
  0
SPLINE
  5
371
100
AcDbEntity
  8
0
100
AcDbSpline
 62
7
  6
CONTINUOUS
 70
0
 71
3
 72
9
 73
5
 74
0
 42
0.0000001
 43
0.0000001
 44
0.0000000001
 40
0.0
 40
0.0
 40
0.0
 40
0.0
 40
0.487490961
 40
1.0
 40
1.0
 40
1.0
 40
1.0
 10
14.5611232254
 20
12.2647358014
 30
0.0
 10
14.5595873707
 20
12.2662784405
 30
0.0
 10
14.5562733693
 20
12.2692827205
 30
0.0
 10
14.5527060945
 20
12.2719783662
 30
0.0
 10
14.5508266515
 20
12.2732841719
 30
0.0
  0
SPLINE
  5
372
100
AcDbEntity
  8
0
100
AcDbSpline
 62
7
  6
CONTINUOUS
 70
0
 71
3
 72
13
 73
9
 74
0
 42
0.0000001
 43
0.0000001
 44
0.0000000001
 40
0.0
 40
0.0
 40
0.0
 40
0.0
 40
0.1222201702
 40
0.2492004258
 40
0.5085505449
 40
0.7633987379
 40
0.884963945
 40
1.0
 40
1.0
 40
1.0
 40
1.0
 10
14.6028575572
 20
12.2372597258
 30
0.0
 10
14.6019442764
 20
12.2372597258
 30
0.0
 10
14.6000812051
 20
12.2373549911
 30
0.0
 10
14.5963144089
 20
12.2378849324
 30
0.0
 10
14.5916708316
 20
12.2391569748
 30
0.0
 10
14.5873340267
 20
12.2411587264
 30
0.0
 10
14.584239067
 20
12.2431436445
 30
0.0
 10
14.5828485501
 20
12.2442421094
 30
0.0
 10
14.5822066293
 20
12.2448138143
 30
0.0
  0
SPLINE
  5
373
100
AcDbEntity
  8
0
100
AcDbSpline
 62
7
  6
CONTINUOUS
 70
0
 71
3
 72
9
 73
5
 74
0
 42
0.0000001
 43
0.0000001
 44
0.0000000001
 40
0.0
 40
0.0
 40
0.0
 40
0.0
 40
0.4965273797
 40
1.0
 40
1.0
 40
1.0
 40
1.0
 10
14.95237571
 20
12.1633633989
 30
0.0
 10
14.9526740172
 20
12.164328657
 30
0.0
 10
14.9531330421
 20
12.166319284
 30
0.0
 10
14.9533009297
 20
12.1683546708
 30
0.0
 10
14.9533154185
 20
12.1693790022
 30
0.0
  0
SPLINE
  5
374
100
AcDbEntity
  8
0
100
AcDbSpline
 62
7
  6
CONTINUOUS
 70
0
 71
3
 72
14
 73
10
 74
0
 42
0.0000001
 43
0.0000001
 44
0.0000000001
 40
0.0
 40
0.0
 40
0.0
 40
0.0
 40
0.0997371093
 40
0.2031531903
 40
0.3129580674
 40
0.4312595172
 40
0.6969918413
 40
0.8446007722
 40
1.0
 40
1.0
 40
1.0
 40
1.0
 10
14.424006774
 20
12.243787406
 30
0.0
 10
14.4238536663
 20
12.2432953715
 30
0.0
 10
14.4234207868
 20
12.2423270365
 30
0.0
 10
14.4224396702
 20
12.2410265285
 30
0.0
 10
14.4211395998
 20
12.2398943985
 30
0.0
 10
14.4189387072
 20
12.238582551
 30
0.0
 10
14.4162802231
 20
12.2377511709
 30
0.0
 10
14.4133708522
 20
12.2373305135
 30
0.0
 10
14.4118034439
 20
12.2372597258
 30
0.0
 10
14.4110005521
 20
12.2372597258
 30
0.0
  0
SPLINE
  5
375
100
AcDbEntity
  8
0
100
AcDbSpline
 62
7
  6
CONTINUOUS
 70
0
 71
3
 72
15
 73
11
 74
0
 42
0.0000001
 43
0.0000001
 44
0.0000000001
 40
0.0
 40
0.0
 40
0.0
 40
0.0
 40
0.1534362794
 40
0.2996752345
 40
0.4373380033
 40
0.5657344032
 40
0.6851172796
 40
0.796291796
 40
0.9006247347
 40
1.0
 40
1.0
 40
1.0
 40
1.0
 10
14.7965669099
 20
12.2838804734
 30
0.0
 10
14.7951803107
 20
12.2838804734
 30
0.0
 10
14.7924704293
 20
12.2837670754
 30
0.0
 10
14.7885473979
 20
12.2832419652
 30
0.0
 10
14.7849168479
 20
12.2823711854
 30
0.0
 10
14.7816406555
 20
12.2811614624
 30
0.0
 10
14.7787662928
 20
12.2796333489
 30
0.0
 10
14.7763401487
 20
12.2777995732
 30
0.0
 10
14.7744036749
 20
12.2756924241
 30
0.0
 10
14.7734467142
 20
12.2741007113
 30
0.0
 10
14.7730728697
 20
12.2732841719
 30
0.0
  0
SPLINE
  5
376
100
AcDbEntity
  8
0
100
AcDbSpline
 62
7
  6
CONTINUOUS
 70
0
 71
3
 72
13
 73
9
 74
0
 42
0.0000001
 43
0.0000001
 44
0.0000000001
 40
0.0
 40
0.0
 40
0.0
 40
0.0
 40
0.1200511578
 40
0.2443774915
 40
0.4995227613
 40
0.7549157285
 40
0.8795431667
 40
1.0
 40
1.0
 40
1.0
 40
1.0
 10
14.8962245242
 20
12.2732841719
 30
0.0
 10
14.8950412819
 20
12.2741062689
 30
0.0
 10
14.8925581785
 20
12.2756746083
 30
0.0
 10
14.8872521132
 20
12.2784749325
 30
0.0
 10
14.8801321942
 20
12.2812671979
 30
0.0
 10
14.8726861822
 20
12.2830278731
 30
0.0
 10
14.8667189041
 20
12.2837523068
 30
0.0
 10
14.8637763341
 20
12.2838804734
 30
0.0
 10
14.8623306649
 20
12.2838804734
 30
0.0
  0
SPLINE
  5
377
100
AcDbEntity
  8
0
100
AcDbSpline
 62
7
  6
CONTINUOUS
 70
0
 71
3
 72
9
 73
5
 74
0
 42
0.0000001
 43
0.0000001
 44
0.0000000001
 40
0.0
 40
0.0
 40
0.0
 40
0.0
 40
0.487490961
 40
1.0
 40
1.0
 40
1.0
 40
1.0
 10
14.9065210981
 20
12.2647358014
 30
0.0
 10
14.9049852434
 20
12.2662784405
 30
0.0
 10
14.9016712421
 20
12.2692827205
 30
0.0
 10
14.8981039672
 20
12.2719783662
 30
0.0
 10
14.8962245242
 20
12.2732841719
 30
0.0
  0
SPLINE
  5
378
100
AcDbEntity
  8
0
100
AcDbSpline
 62
7
  6
CONTINUOUS
 70
0
 71
3
 72
13
 73
9
 74
0
 42
0.0000001
 43
0.0000001
 44
0.0000000001
 40
0.0
 40
0.0
 40
0.0
 40
0.0
 40
0.1222201702
 40
0.2492004258
 40
0.5085505449
 40
0.7633987379
 40
0.884963945
 40
1.0
 40
1.0
 40
1.0
 40
1.0
 10
14.9482554299
 20
12.2372597258
 30
0.0
 10
14.9473421492
 20
12.2372597258
 30
0.0
 10
14.9454790779
 20
12.2373549911
 30
0.0
 10
14.9417122817
 20
12.2378849324
 30
0.0
 10
14.9370687043
 20
12.2391569748
 30
0.0
 10
14.9327318994
 20
12.2411587264
 30
0.0
 10
14.9296369398
 20
12.2431436445
 30
0.0
 10
14.9282464228
 20
12.2442421094
 30
0.0
 10
14.9276045021
 20
12.2448138143
 30
0.0
  0
SPLINE
  5
379
100
AcDbEntity
  8
0
100
AcDbSpline
 62
7
  6
CONTINUOUS
 70
0
 71
3
 72
9
 73
5
 74
0
 42
0.0000001
 43
0.0000001
 44
0.0000000001
 40
0.0
 40
0.0
 40
0.0
 40
0.0
 40
0.4965273797
 40
1.0
 40
1.0
 40
1.0
 40
1.0
 10
16.3339672011
 20
12.1633633989
 30
0.0
 10
16.3342655082
 20
12.164328657
 30
0.0
 10
16.3347245331
 20
12.166319284
 30
0.0
 10
16.3348924208
 20
12.1683546708
 30
0.0
 10
16.3349069095
 20
12.1693790022
 30
0.0
  0
SPLINE
  5
37A
100
AcDbEntity
  8
0
100
AcDbSpline
 62
7
  6
CONTINUOUS
 70
0
 71
3
 72
9
 73
5
 74
0
 42
0.0000001
 43
0.0000001
 44
0.0000000001
 40
0.0
 40
0.0
 40
0.0
 40
0.0
 40
0.4965273797
 40
1.0
 40
1.0
 40
1.0
 40
1.0
 10
15.6431714555
 20
12.1633633989
 30
0.0
 10
15.6434697627
 20
12.164328657
 30
0.0
 10
15.6439287876
 20
12.166319284
 30
0.0
 10
15.6440966753
 20
12.1683546708
 30
0.0
 10
15.644111164
 20
12.1693790022
 30
0.0
  0
SPLINE
  5
37B
100
AcDbEntity
  8
0
100
AcDbSpline
 62
7
  6
CONTINUOUS
 70
0
 71
3
 72
15
 73
11
 74
0
 42
0.0000001
 43
0.0000001
 44
0.0000000001
 40
0.0
 40
0.0
 40
0.0
 40
0.0
 40
0.1534362794
 40
0.2996752345
 40
0.4373380033
 40
0.5657344032
 40
0.6851172796
 40
0.796291796
 40
0.9006247347
 40
1.0
 40
1.0
 40
1.0
 40
1.0
 10
15.1419647827
 20
12.2838804734
 30
0.0
 10
15.1405781834
 20
12.2838804734
 30
0.0
 10
15.137868302
 20
12.2837670754
 30
0.0
 10
15.1339452707
 20
12.2832419652
 30
0.0
 10
15.1303147206
 20
12.2823711854
 30
0.0
 10
15.1270385282
 20
12.2811614624
 30
0.0
 10
15.1241641655
 20
12.2796333489
 30
0.0
 10
15.1217380214
 20
12.2777995732
 30
0.0
 10
15.1198015477
 20
12.2756924241
 30
0.0
 10
15.118844587
 20
12.2741007113
 30
0.0
 10
15.1184707424
 20
12.2732841719
 30
0.0
  0
SPLINE
  5
37C
100
AcDbEntity
  8
0
100
AcDbSpline
 62
7
  6
CONTINUOUS
 70
0
 71
3
 72
13
 73
9
 74
0
 42
0.0000001
 43
0.0000001
 44
0.0000000001
 40
0.0
 40
0.0
 40
0.0
 40
0.0
 40
0.1200511578
 40
0.2443774915
 40
0.4995227613
 40
0.7549157285
 40
0.8795431667
 40
1.0
 40
1.0
 40
1.0
 40
1.0
 10
15.241622397
 20
12.2732841719
 30
0.0
 10
15.2404391546
 20
12.2741062689
 30
0.0
 10
15.2379560513
 20
12.2756746083
 30
0.0
 10
15.232649986
 20
12.2784749325
 30
0.0
 10
15.2255300669
 20
12.2812671979
 30
0.0
 10
15.218084055
 20
12.2830278731
 30
0.0
 10
15.2121167769
 20
12.2837523068
 30
0.0
 10
15.2091742068
 20
12.2838804734
 30
0.0
 10
15.2077285376
 20
12.2838804734
 30
0.0
  0
SPLINE
  5
37D
100
AcDbEntity
  8
0
100
AcDbSpline
 62
7
  6
CONTINUOUS
 70
0
 71
3
 72
9
 73
5
 74
0
 42
0.0000001
 43
0.0000001
 44
0.0000000001
 40
0.0
 40
0.0
 40
0.0
 40
0.0
 40
0.487490961
 40
1.0
 40
1.0
 40
1.0
 40
1.0
 10
15.2519189709
 20
12.2647358014
 30
0.0
 10
15.2503831162
 20
12.2662784405
 30
0.0
 10
15.2470691148
 20
12.2692827205
 30
0.0
 10
15.24350184
 20
12.2719783662
 30
0.0
 10
15.241622397
 20
12.2732841719
 30
0.0
  0
SPLINE
  5
37E
100
AcDbEntity
  8
0
100
AcDbSpline
 62
7
  6
CONTINUOUS
 70
0
 71
3
 72
13
 73
9
 74
0
 42
0.0000001
 43
0.0000001
 44
0.0000000001
 40
0.0
 40
0.0
 40
0.0
 40
0.0
 40
0.1222201702
 40
0.2492004258
 40
0.5085505449
 40
0.7633987379
 40
0.884963945
 40
1.0
 40
1.0
 40
1.0
 40
1.0
 10
15.2936533027
 20
12.2372597258
 30
0.0
 10
15.2927400219
 20
12.2372597258
 30
0.0
 10
15.2908769506
 20
12.2373549911
 30
0.0
 10
15.2871101544
 20
12.2378849324
 30
0.0
 10
15.2824665771
 20
12.2391569748
 30
0.0
 10
15.2781297722
 20
12.2411587264
 30
0.0
 10
15.2750348125
 20
12.2431436445
 30
0.0
 10
15.2736442956
 20
12.2442421094
 30
0.0
 10
15.2730023748
 20
12.2448138143
 30
0.0
  0
SPLINE
  5
37F
100
AcDbEntity
  8
0
100
AcDbSpline
 62
7
  6
CONTINUOUS
 70
0
 71
3
 72
9
 73
5
 74
0
 42
0.0000001
 43
0.0000001
 44
0.0000000001
 40
0.0
 40
0.0
 40
0.0
 40
0.0
 40
0.4965273797
 40
1.0
 40
1.0
 40
1.0
 40
1.0
 10
15.9885693283
 20
12.1633633989
 30
0.0
 10
15.9888676354
 20
12.164328657
 30
0.0
 10
15.9893266604
 20
12.166319284
 30
0.0
 10
15.989494548
 20
12.1683546708
 30
0.0
 10
15.9895090368
 20
12.1693790022
 30
0.0
  0
SPLINE
  5
380
100
AcDbEntity
  8
0
100
AcDbSpline
 62
7
  6
CONTINUOUS
 70
0
 71
3
 72
15
 73
11
 74
0
 42
0.0000001
 43
0.0000001
 44
0.0000000001
 40
0.0
 40
0.0
 40
0.0
 40
0.0
 40
0.0997258588
 40
0.2030115833
 40
0.3127317371
 40
0.4309680301
 40
0.558895596
 40
0.6968419374
 40
0.8443696593
 40
1.0
 40
1.0
 40
1.0
 40
1.0
 10
15.4602011985
 20
12.2437871468
 30
0.0
 10
15.4600486666
 20
12.2432946574
 30
0.0
 10
15.4596175349
 20
12.2423253888
 30
0.0
 10
15.4586337378
 20
12.2410268078
 30
0.0
 10
15.4573334048
 20
12.2398961263
 30
0.0
 10
15.4557464034
 20
12.2389491552
 30
0.0
 10
15.4539007548
 20
12.2381989814
 30
0.0
 10
15.4518283412
 20
12.2376556277
 30
0.0
 10
15.4495671934
 20
12.2373296842
 30
0.0
 10
15.4479987584
 20
12.2372597258
 30
0.0
 10
15.4471941704
 20
12.2372597258
 30
0.0
  0
SPLINE
  5
381
100
AcDbEntity
  8
0
100
AcDbSpline
 62
7
  6
CONTINUOUS
 70
0
 71
3
 72
15
 73
11
 74
0
 42
0.0000001
 43
0.0000001
 44
0.0000000001
 40
0.0
 40
0.0
 40
0.0
 40
0.0
 40
0.1536378568
 40
0.299833028
 40
0.4373323869
 40
0.565709665
 40
0.6850817364
 40
0.7962094321
 40
0.9005129396
 40
1.0
 40
1.0
 40
1.0
 40
1.0
 10
15.4873626554
 20
12.2838804734
 30
0.0
 10
15.4859742003
 20
12.2838804734
 30
0.0
 10
15.483262836
 20
12.283768047
 30
0.0
 10
15.4793394796
 20
12.2832436403
 30
0.0
 10
15.4757118285
 20
12.2823694845
 30
0.0
 10
15.4724368879
 20
12.2811611744
 30
0.0
 10
15.4695637747
 20
12.2796323611
 30
0.0
 10
15.4671353817
 20
12.277802872
 30
0.0
 10
15.4651986333
 20
12.275694917
 30
0.0
 10
15.4642428895
 20
12.27410165
 30
0.0
 10
15.4638686152
 20
12.2732841719
 30
0.0
  0
SPLINE
  5
382
100
AcDbEntity
  8
0
100
AcDbSpline
 62
7
  6
CONTINUOUS
 70
0
 71
3
 72
15
 73
11
 74
0
 42
0.0000001
 43
0.0000001
 44
0.0000000001
 40
0.0
 40
0.0
 40
0.0
 40
0.0
 40
0.1201466074
 40
0.2443974275
 40
0.3712902171
 40
0.4995232987
 40
0.6278184272
 40
0.754895401
 40
0.8794471242
 40
1.0
 40
1.0
 40
1.0
 40
1.0
 10
15.5870202697
 20
12.2732841719
 30
0.0
 10
15.5858356774
 20
12.2741072068
 30
0.0
 10
15.5833522256
 20
12.2756770904
 30
0.0
 10
15.5794065262
 20
12.2777598257
 30
0.0
 10
15.5752268128
 20
12.2795800159
 30
0.0
 10
15.5708814764
 20
12.2811109867
 30
0.0
 10
15.5664357477
 20
12.2823282172
 30
0.0
 10
15.561957242
 20
12.283214697
 30
0.0
 10
15.5575174758
 20
12.283753372
 30
0.0
 10
15.5545737322
 20
12.2838804734
 30
0.0
 10
15.5531264104
 20
12.2838804734
 30
0.0
  0
SPLINE
  5
383
100
AcDbEntity
  8
0
100
AcDbSpline
 62
7
  6
CONTINUOUS
 70
0
 71
3
 72
9
 73
5
 74
0
 42
0.0000001
 43
0.0000001
 44
0.0000000001
 40
0.0
 40
0.0
 40
0.0
 40
0.0
 40
0.487490961
 40
1.0
 40
1.0
 40
1.0
 40
1.0
 10
15.5973168436
 20
12.2647358014
 30
0.0
 10
15.5957809889
 20
12.2662784405
 30
0.0
 10
15.5924669876
 20
12.2692827205
 30
0.0
 10
15.5888997127
 20
12.2719783662
 30
0.0
 10
15.5870202697
 20
12.2732841719
 30
0.0
  0
SPLINE
  5
384
100
AcDbEntity
  8
0
100
AcDbSpline
 62
7
  6
CONTINUOUS
 70
0
 71
3
 72
15
 73
11
 74
0
 42
0.0000001
 43
0.0000001
 44
0.0000000001
 40
0.0
 40
0.0
 40
0.0
 40
0.0
 40
0.1223505956
 40
0.2492234674
 40
0.3785599849
 40
0.5085370156
 40
0.6373853032
 40
0.7633844775
 40
0.8848473319
 40
1.0
 40
1.0
 40
1.0
 40
1.0
 10
15.6390511754
 20
12.2372597258
 30
0.0
 10
15.6381364738
 20
12.2372597258
 30
0.0
 10
15.6362723853
 20
12.2373539367
 30
0.0
 10
15.6334664746
 20
12.2377483983
 30
0.0
 10
15.6306491418
 20
12.2383952971
 30
0.0
 10
15.6278811632
 20
12.2392777745
 30
0.0
 10
15.625219678
 20
12.2403791571
 30
0.0
 10
15.6227185686
 20
12.2416755242
 30
0.0
 10
15.6204335932
 20
12.2431413248
 30
0.0
 10
15.6190431327
 20
12.2442412506
 30
0.0
 10
15.6184002476
 20
12.2448138143
 30
0.0
  0
ENDSEC
  0
SECTION
  2
OBJECTS
  0
DICTIONARY
  5
C
100
AcDbDictionary
280
0
281
1
  3
ACAD_GROUP
350
D
  3
ACAD_MLINESTYLE
350
17
  3
ACAD_LAYOUT
350
1A
  3
ACAD_PLOTSETTINGS
350
19
  3
ACAD_PLOTSTYLENAME
350
E
  0
DICTIONARY
  5
D
102
{ACAD_REACTORS
330
C
102
}
100
AcDbDictionary
280
0
281
1
  0
ACDBDICTIONARYWDFLT
  5
E
102
{ACAD_REACTORS
330
C
102
}
100
AcDbDictionary
281
1
  3
Normal
350
F
100
AcDbDictionaryWithDefault
340
F
  0
DICTIONARY
  5
17
102
{ACAD_REACTORS
330
C
102
}
100
AcDbDictionary
280
0
281
1
  3
Standard
350
18
  0
DICTIONARY
  5
19
102
{ACAD_REACTORS
330
C
102
}
100
AcDbDictionary
281
1
  0
DICTIONARY
  5
1A
102
{ACAD_REACTORS
330
C
102
}
100
AcDbDictionary
281
1
  3
Model
350
385
  3
Layout1
350
386
  0
ACDBPLACEHOLDER
  5
F
102
{ACAD_REACTORS
330
E
102
}
  0
MLINESTYLE
  5
18
102
{ACAD_REACTORS
330
17
102
}
100
AcDbMlineStyle
  2
STANDARD
 70
0
  3

 62
256
 51
90.0
 52
90.0
 71
2
 49
0.5
 62
256
  6
BYLAYER
 49
-0.5
 62
256
  6
BYLAYER
  0
LAYOUT
  5
385
102
{ACAD_REACTORS
330
1A
102
}
100
AcDbPlotSettings
  1

  2
none_device
  4
ANSI_C_(22.00_x_17.00_Inches)
  6

 40
0.0
 41
0.0
 42
0.0
 43
0.0
 44
558.8
 45
431.8
 46
0.0
 47
0.0
 48
0.0
 49
0.0
140
0.0
141
0.0
142
1.0
143
1.0
 70
1024
 72
0
 73
0
 74
0
  7

 75
0
147
1.0
148
0.0
149
0.0
100
AcDbLayout
  1
Model
 70
0
 71
0
 10
0.0
 20
0.0
 11
22.0
 21
17.0
 12
0.0
 22
0.0
 32
0.0
 14
0.0
 24
0.0
 34
0.0
 15
0.0
 25
0.0
 35
0.0
146
0.0
 13
0.0
 23
0.0
 33
0.0
 16
1.0
 26
0.0
 36
0.0
 17
0.0
 27
1.0
 37
0.0
 76
0
330
216
345
0
346
0
  0
LAYOUT
  5
386
102
{ACAD_REACTORS
330
1A
102
}
100
AcDbPlotSettings
  1

  2
none_device
  4
ANSI_C_(22.00_x_17.00_Inches)
  6

 40
0.0
 41
0.0
 42
0.0
 43
0.0
 44
558.8
 45
431.8
 46
0.0
 47
0.0
 48
0.0
 49
0.0
140
0.0
141
0.0
142
1.0
143
1.0
 70
0
 72
0
 73
0
 74
0
  7

 75
0
147
1.0
148
0.0
149
0.0
100
AcDbLayout
  1
Layout1
 70
0
 71
1
 10
0.0
 20
0.0
 11
22.0
 21
17.0
 12
0.0
 22
0.0
 32
0.0
 14
0.0
 24
0.0
 34
0.0
 15
0.0
 25
0.0
 35
0.0
146
0.0
 13
0.0
 23
0.0
 33
0.0
 16
1.0
 26
0.0
 36
0.0
 17
0.0
 27
1.0
 37
0.0
 76
0
330
217
345
0
346
0
  0
ENDSEC
  0
EOF