999
DXF file: _cgs_temp_output.dxf
999
Pro/ENGINEER 2015110 by Parametric Technology Corporation
  0
SECTION
  2
HEADER
  9
$ACADVER
  1
AC1021
  9
$DWGCODEPAGE
  3
ANSI_1252
  9
$EXTMAX
 10
22.0
 20
17.0
 30
0.0
  9
$EXTMIN
 10
0.0
 20
0.0
 30
0.0
  9
$LIMMIN
 10
0.0
 20
0.0
  9
$LIMMAX
 10
22.0
 20
17.0
  9
$VIEWCTR
 10
11.0
 20
8.5
  9
$VIEWSIZE
 40
17.0
  9
$CLAYER
  8
0
  9
$LTSCALE
 40
1.21
  9
$CELTYPE
  6
BYLAYER
  9
$DIMSCALE
 40
1.0
  9
$DIMASZ
 40
0.1875
  9
$DIMEXO
 40
0.0625
  9
$DIMDLI
 40
0.836
  9
$DIMEXE
 40
0.125
  9
$DIMCEN
 40
0.198
  9
$DIMLFAC
 40
1.0
  9
$DIMBLK
  1
_CLOSED
  9
$DIMALT
 70
0
  9
$DIMALTF
 40
25.4
  9
$DIMTXT
 40
0.15625
  9
$DIMTOL
 70
0
  9
$DIMLIM
 70
0
  9
$DIMTFAC
 40
1.0
  9
$DIMGAP
 40
0.09
  9
$DIMDSEP
 70
46
  9
$AUNITS
 70
0
  9
$PDMODE
 70
3
  9
$PDSIZE
 40
0.3125
  9
$HANDSEED
  5
387
  9
$TILEMODE
 70
1
  9
$MEASUREMENT
 70
0
  9
$INSUNITS
 70
1
  0
ENDSEC
  0
SECTION
  2
CLASSES
  0
CLASS
  1
ACDBDICTIONARYWDFLT
  2
AcDbDictionaryWithDefault
  3
AutoCAD 2000
 90
0
 91
1
280
0
281
0
  0
CLASS
  1
ACDBPLACEHOLDER
  2
AcDbPlaceHolder
  3
AutoCAD 2000
 90
0
 91
1
280
0
281
0
  0
CLASS
  1
LAYOUT
  2
AcDbLayout
  3
AutoCAD 2000
 90
0
 91
0
280
0
281
0
  0
ENDSEC
  0
SECTION
  2
TABLES
  0
TABLE
  2
VPORT
  5
8
100
AcDbSymbolTable
 70
2
  0
VPORT
  5
1F4
100
AcDbSymbolTableRecord
100
AcDbViewportTableRecord
  2
*ACTIVE
 70
0
 10
0.0
 20
0.0
 11
1.0
 21
1.0
 12
11.0
 22
8.5
 13
0.0
 23
0.0
 14
1.0
 24
1.0
 15
0.0
 25
0.0
 16
0.0
 26
0.0
 36
1.0
 17
0.0
 27
0.0
 37
0.0
 40
17.0
 41
1.2941176471
 42
50.0
 43
0.0
 44
0.0
 50
0.0
 51
0.0
 71
0
 72
100
 73
1
 74
1
 75
0
 76
0
 77
0
 78
0
  0
ENDTAB
  0
TABLE
  2
LTYPE
  5
5
100
AcDbSymbolTable
 70
6
  0
LTYPE
  5
14
100
AcDbSymbolTableRecord
100
AcDbLinetypeTableRecord
  2
BYBLOCK
 70
0
  3

 72
65
 73
0
 40
0.0
  0
LTYPE
  5
15
100
AcDbSymbolTableRecord
100
AcDbLinetypeTableRecord
  2
BYLAYER
 70
0
  3

 72
65
 73
0
 40
0.0
  0
LTYPE
  5
16
100
AcDbSymbolTableRecord
100
AcDbLinetypeTableRecord
  2
CONTINUOUS
 70
64
  3
Solid line
 72
65
 73
0
 40
0.0
  0
LTYPE
  5
1F5
100
AcDbSymbolTableRecord
100
AcDbLinetypeTableRecord
  2
CENTER
 70
64
  3
____ _ ____ _ ____ _ ____ _ ____ _ ____ _ ____
 72
65
 73
4
 40
0.6
 49
0.375
 74
0
 49
-0.075
 74
0
 49
0.075
 74
0
 49
-0.075
 74
0
  0
LTYPE
  5
1F6
100
AcDbSymbolTableRecord
100
AcDbLinetypeTableRecord
  2
HIDDEN
 70
64
  3
- - - - - - - - - - - - - - - - - - - -
 72
65
 73
2
 40
0.2
 49
0.1
 74
0
 49
-0.1
 74
0
  0
LTYPE
  5
1F7
100
AcDbSymbolTableRecord
100
AcDbLinetypeTableRecord
  2
PHANTOM
 70
64
  3
_____ _ _ _____ _ _ _____ _ _ _____
 72
65
 73
6
 40
0.8
 49
0.45
 74
0
 49
-0.05
 74
0
 49
0.1
 74
0
 49
-0.05
 74
0
 49
0.1
 74
0
 49
-0.05
 74
0
  0
LTYPE
  5
1F8
100
AcDbSymbolTableRecord
100
AcDbLinetypeTableRecord
  2
DOT
 70
64
  3
. . . . . . . . . . . . . . . . . . . .
 72
65
 73
2
 40
0.2
 49
0.1
 74
0
 49
-0.1
 74
0
  0
LTYPE
  5
1F9
100
AcDbSymbolTableRecord
100
AcDbLinetypeTableRecord
  2
DASHED
 70
64
  3
- - - - - - - - - - - - - - - - - - - -
 72
65
 73
2
 40
0.2
 49
0.1
 74
0
 49
-0.1
 74
0
  0
ENDTAB
  0
TABLE
  2
LAYER
  5
2
100
AcDbSymbolTable
 70
36
  0
LAYER
  5
10
100
AcDbSymbolTableRecord
100
AcDbLayerTableRecord
  2
0
 70
0
 62
7
  6
CONTINUOUS
370
-3
390
F
  0
LAYER
  5
1FA
100
AcDbSymbolTableRecord
100
AcDbLayerTableRecord
  2
DEFAULT_1
 70
0
 62
7
  6
CENTER
370
-3
390
F
  0
LAYER
  5
1FB
100
AcDbSymbolTableRecord
100
AcDbLayerTableRecord
  2
DEFAULT_2
 70
0
 62
8
  6
HIDDEN
370
-3
390
F
  0
LAYER
  5
1FC
100
AcDbSymbolTableRecord
100
AcDbLayerTableRecord
  2
DEFAULT_3
 70
0
 62
7
  6
PHANTOM
370
-3
390
F
  0
LAYER
  5
1FD
100
AcDbSymbolTableRecord
100
AcDbLayerTableRecord
  2
01_ALL_DTM_PLN
 70
0
 62
7
  6
CONTINUOUS
370
-3
390
F
  0
LAYER
  5
1FE
100
AcDbSymbolTableRecord
100
AcDbLayerTableRecord
  2
01__ASM_ALL_DTM_PLN
 70
0
 62
7
  6
CONTINUOUS
370
-3
390
F
  0
LAYER
  5
1FF
100
AcDbSymbolTableRecord
100
AcDbLayerTableRecord
  2
01__ASM_DEF_DTM_PLN
 70
0
 62
7
  6
CONTINUOUS
370
-3
390
F
  0
LAYER
  5
200
100
AcDbSymbolTableRecord
100
AcDbLayerTableRecord
  2
01___PRT_ALL_DTM_PLN
 70
0
 62
7
  6
CONTINUOUS
370
-3
390
F
  0
LAYER
  5
201
100
AcDbSymbolTableRecord
100
AcDbLayerTableRecord
  2
01___PRT_DEF_DTM_PLN
 70
0
 62
7
  6
CONTINUOUS
370
-3
390
F
  0
LAYER
  5
202
100
AcDbSymbolTableRecord
100
AcDbLayerTableRecord
  2
02_ALL_AXES
 70
0
 62
7
  6
CONTINUOUS
370
-3
390
F
  0
LAYER
  5
203
100
AcDbSymbolTableRecord
100
AcDbLayerTableRecord
  2
02__ASM_ALL_AXES
 70
0
 62
7
  6
CONTINUOUS
370
-3
390
F
  0
LAYER
  5
204
100
AcDbSymbolTableRecord
100
AcDbLayerTableRecord
  2
02___PRT_ALL_AXES
 70
0
 62
7
  6
CONTINUOUS
370
-3
390
F
  0
LAYER
  5
205
100
AcDbSymbolTableRecord
100
AcDbLayerTableRecord
  2
03_ALL_CURVES
 70
0
 62
7
  6
CONTINUOUS
370
-3
390
F
  0
LAYER
  5
206
100
AcDbSymbolTableRecord
100
AcDbLayerTableRecord
  2
03__ASM_ALL_CURVES
 70
0
 62
7
  6
CONTINUOUS
370
-3
390
F
  0
LAYER
  5
207
100
AcDbSymbolTableRecord
100
AcDbLayerTableRecord
  2
03___PRT_ALL_CURVES
 70
0
 62
7
  6
CONTINUOUS
370
-3
390
F
  0
LAYER
  5
208
100
AcDbSymbolTableRecord
100
AcDbLayerTableRecord
  2
04_ALL_DTM_PNT
 70
0
 62
7
  6
CONTINUOUS
370
-3
390
F
  0
LAYER
  5
209
100
AcDbSymbolTableRecord
100
AcDbLayerTableRecord
  2
04__ASM_ALL_DTM_PNT
 70
0
 62
7
  6
CONTINUOUS
370
-3
390
F
  0
LAYER
  5
20A
100
AcDbSymbolTableRecord
100
AcDbLayerTableRecord
  2
04___PRT_ALL_DTM_PNT
 70
0
 62
7
  6
CONTINUOUS
370
-3
390
F
  0
LAYER
  5
20B
100
AcDbSymbolTableRecord
100
AcDbLayerTableRecord
  2
05_ALL_DTM_CSYS
 70
0
 62
7
  6
CONTINUOUS
370
-3
390
F
  0
LAYER
  5
20C
100
AcDbSymbolTableRecord
100
AcDbLayerTableRecord
  2
05__ASM_ALL_DTM_CSYS
 70
0
 62
7
  6
CONTINUOUS
370
-3
390
F
  0
LAYER
  5
20D
100
AcDbSymbolTableRecord
100
AcDbLayerTableRecord
  2
05__ASM_DEF_DTM_CSYS
 70
0
 62
7
  6
CONTINUOUS
370
-3
390
F
  0
LAYER
  5
20E
100
AcDbSymbolTableRecord
100
AcDbLayerTableRecord
  2
05___PRT_ALL_DTM_CSYS
 70
0
 62
7
  6
CONTINUOUS
370
-3
390
F
  0
LAYER
  5
20F
100
AcDbSymbolTableRecord
100
AcDbLayerTableRecord
  2
05___PRT_DEF_DTM_CSYS
 70
0
 62
7
  6
CONTINUOUS
370
-3
390
F
  0
LAYER
  5
210
100
AcDbSymbolTableRecord
100
AcDbLayerTableRecord
  2
06_ALL_SURFS
 70
0
 62
7
  6
CONTINUOUS
370
-3
390
F
  0
LAYER
  5
211
100
AcDbSymbolTableRecord
100
AcDbLayerTableRecord
  2
06__ASM_ALL_SURFS
 70
0
 62
7
  6
CONTINUOUS
370
-3
390
F
  0
LAYER
  5
212
100
AcDbSymbolTableRecord
100
AcDbLayerTableRecord
  2
06___PRT_ALL_SURFS
 70
0
 62
7
  6
CONTINUOUS
370
-3
390
F
  0
LAYER
  5
213
100
AcDbSymbolTableRecord
100
AcDbLayerTableRecord
  2
07__ASM_ALL_SKELETONS
 70
0
 62
7
  6
CONTINUOUS
370
-3
390
F
  0
ENDTAB
  0
TABLE
  2
STYLE
  5
3
100
AcDbSymbolTable
 70
1
  0
STYLE
  5
11
100
AcDbSymbolTableRecord
100
AcDbTextStyleTableRecord
  2
STANDARD
 70
0
 40
0.0
 41
0.8
 50
0.0
 71
0
 42
0.2
  3
txt
  4

  0
STYLE
  5
214
100
AcDbSymbolTableRecord
100
AcDbTextStyleTableRecord
  2
TEXTSTYLE_1
 70
0
 40
0.0
 41
0.8
 50
0.0
 71
0
 42
0.2
  3
gdt
  4

  0
ENDTAB
  0
TABLE
  2
VIEW
  5
6
100
AcDbSymbolTable
 70
0
  0
ENDTAB
  0
TABLE
  2
UCS
  5
7
100
AcDbSymbolTable
 70
0
  0
ENDTAB
  0
TABLE
  2
APPID
  5
9
100
AcDbSymbolTable
 70
1
  0
APPID
  5
215
100
AcDbSymbolTableRecord
100
AcDbRegAppTableRecord
  2
ACAD
 70
0
  0
ENDTAB
  0
TABLE
  2
BLOCK_RECORD
  5
1
100
AcDbSymbolTable
 70
0
  0
BLOCK_RECORD
  5
216
100
AcDbSymbolTableRecord
100
AcDbBlockTableRecord
  2
*Model_Space
  0
BLOCK_RECORD
  5
217
100
AcDbSymbolTableRecord
100
AcDbBlockTableRecord
  2
*Paper_Space
  0
ENDTAB
  0
TABLE
  2
DIMSTYLE
  5
A
100
AcDbSymbolTable
 70
1
100
AcDbDimStyleTable
 71
0
  0
DIMSTYLE
105
218
100
AcDbSymbolTableRecord
100
AcDbDimStyleTableRecord
  2
STANDARD
 70
0
  3

  4

 40
1.0
 41
0.1875
 42
0.0625
 43
0.38
 44
0.125
 45
0.0
 46
0.0
 47
0.0001
 48
0.0001
140
0.15625
141
0.09
142
0.0
143
25.4
144
1.0
145
0.0
146
1.0
147
0.09
 71
0.0
 72
0.0
 73
1
 74
1
 75
0
 76
0
 77
0
 78
4
170
0
171
2
172
0
173
0
174
0
175
0
176
0
177
0
178
0
270
2
271
4
272
4
273
2
274
2
275
0
280
0
281
0
282
0
283
1
284
4
285
0
286
0
287
3
288
0
340
11
278
46
  0
ENDTAB
  0
ENDSEC
  0
SECTION
  2
BLOCKS
  0
BLOCK
  5
20
100
AcDbEntity
  8
0
100
AcDbBlockBegin
  2
*Model_Space
 70
0
 10
0.0
 20
0.0
 30
0.0
  3
*Model_Space
  1

  0
ENDBLK
  5
21
100
AcDbEntity
  8
0
100
AcDbBlockEnd
  0
BLOCK
  5
1C
100
AcDbEntity
  8
0
100
AcDbBlockBegin
  2
*Paper_Space
 70
0
 10
0.0
 20
0.0
 30
0.0
  3
*Paper_Space
  1

  0
ENDBLK
  5
1D
100
AcDbEntity
  8
0
100
AcDbBlockEnd
  0
ENDSEC
  0
SECTION
  2
ENTITIES
  0
MTEXT
  5
219
100
AcDbEntity
  8
0
100
AcDbMText
 62
7
  6
CONTINUOUS
  7
STANDARD
 71
1
 72
1
 10
15.9560215477
 20
0.9479130325
 30
0.0
 11
1.0
 21
0.0
 31
0.0
 44
0.9
  1
SCALE: 1:1.000
 40
0.3
 41
3.36
  0
LINE
  5
21A
100
AcDbEntity
  8
0
100
AcDbLine
 62
7
  6
CONTINUOUS
 10
0.0
 20
0.0
 11
0.0
 21
17.0
  0
LINE
  5
21B
100
AcDbEntity
  8
0
100
AcDbLine
 62
7
  6
CONTINUOUS
 10
0.0
 20
0.0
 11
22.0
 21
0.0
  0
LINE
  5
21C
100
AcDbEntity
  8
0
100
AcDbLine
 62
7
  6
CONTINUOUS
 10
0.0
 20
17.0
 11
22.0
 21
17.0
  0
LINE
  5
21D
100
AcDbEntity
  8
0
100
AcDbLine
 62
7
  6
CONTINUOUS
 10
22.0
 20
0.0
 11
22.0
 21
17.0
  0
LINE
  5
21E
100
AcDbEntity
  8
0
100
AcDbLine
 62
7
  6
CONTINUOUS
 10
5.0053672762
 20
5.5526198968
 11
5.0053672762
 21
5.4876198968
  0
LINE
  5
21F
100
AcDbEntity
  8
0
100
AcDbLine
 62
7
  6
CONTINUOUS
 10
5.1571672762
 20
5.4126198968
 11
5.2285672762
 21
5.4126198968
  0
LINE
  5
220
100
AcDbEntity
  8
0
100
AcDbLine
 62
7
  6
CONTINUOUS
 10
5.5321672762
 20
5.4126198968
 11
5.6035672762
 21
5.4126198968
  0
LINE
  5
221
100
AcDbEntity
  8
0
100
AcDbLine
 62
7
  6
CONTINUOUS
 10
5.9071672762
 20
5.4126198968
 11
5.9785672762
 21
5.4126198968
  0
LINE
  5
222
100
AcDbEntity
  8
0
100
AcDbLine
 62
7
  6
CONTINUOUS
 10
6.2821672762
 20
5.4126198968
 11
6.3535672762
 21
5.4126198968
  0
LINE
  5
223
100
AcDbEntity
  8
0
100
AcDbLine
 62
7
  6
CONTINUOUS
 10
6.6571672762
 20
5.4126198968
 11
6.7285672762
 21
5.4126198968
  0
LINE
  5
224
100
AcDbEntity
  8
0
100
AcDbLine
 62
7
  6
CONTINUOUS
 10
7.0321672762
 20
5.4126198968
 11
7.1035672762
 21
5.4126198968
  0
LINE
  5
225
100
AcDbEntity
  8
0
100
AcDbLine
 62
7
  6
CONTINUOUS
 10
5.0053672762
 20
5.4876198968
 11
5.0887172762
 21
5.4876198968
  0
LINE
  5
226
100
AcDbEntity
  8
0
100
AcDbLine
 62
7
  6
CONTINUOUS
 10
5.2970172762
 20
5.4876198968
 11
5.4637172762
 21
5.4876198968
  0
LINE
  5
227
100
AcDbEntity
  8
0
100
AcDbLine
 62
7
  6
CONTINUOUS
 10
5.6720172762
 20
5.4876198968
 11
5.8387172762
 21
5.4876198968
  0
LINE
  5
228
100
AcDbEntity
  8
0
100
AcDbLine
 62
7
  6
CONTINUOUS
 10
6.0470172762
 20
5.4876198968
 11
6.2137172762
 21
5.4876198968
  0
LINE
  5
229
100
AcDbEntity
  8
0
100
AcDbLine
 62
7
  6
CONTINUOUS
 10
6.4220172762
 20
5.4876198968
 11
6.5887172762
 21
5.4876198968
  0
LINE
  5
22A
100
AcDbEntity
  8
0
100
AcDbLine
 62
7
  6
CONTINUOUS
 10
6.7970172762
 20
5.4876198968
 11
6.9637172762
 21
5.4876198968
  0
LINE
  5
22B
100
AcDbEntity
  8
0
100
AcDbLine
 62
7
  6
CONTINUOUS
 10
7.1720172762
 20
5.4876198968
 11
7.2553672762
 21
5.4876198968
  0
LINE
  5
22C
100
AcDbEntity
  8
0
100
AcDbLine
 62
7
  6
CONTINUOUS
 10
7.2553672762
 20
5.5526198968
 11
7.1720172762
 21
5.5526198968
  0
LINE
  5
22D
100
AcDbEntity
  8
0
100
AcDbLine
 62
7
  6
CONTINUOUS
 10
6.9637172762
 20
5.5526198968
 11
6.7970172762
 21
5.5526198968
  0
LINE
  5
22E
100
AcDbEntity
  8
0
100
AcDbLine
 62
7
  6
CONTINUOUS
 10
6.5887172762
 20
5.5526198968
 11
6.4220172762
 21
5.5526198968
  0
LINE
  5
22F
100
AcDbEntity
  8
0
100
AcDbLine
 62
7
  6
CONTINUOUS
 10
6.2137172762
 20
5.5526198968
 11
6.0470172762
 21
5.5526198968
  0
LINE
  5
230
100
AcDbEntity
  8
0
100
AcDbLine
 62
7
  6
CONTINUOUS
 10
5.8387172762
 20
5.5526198968
 11
5.6720172762
 21
5.5526198968
  0
LINE
  5
231
100
AcDbEntity
  8
0
100
AcDbLine
 62
7
  6
CONTINUOUS
 10
5.4637172762
 20
5.5526198968
 11
5.2970172762
 21
5.5526198968
  0
LINE
  5
232
100
AcDbEntity
  8
0
100
AcDbLine
 62
7
  6
CONTINUOUS
 10
5.0887172762
 20
5.5526198968
 11
5.0053672762
 21
5.5526198968
  0
LINE
  5
233
100
AcDbEntity
  8
0
100
AcDbLine
 62
7
  6
CONTINUOUS
 10
7.1035672762
 20
5.6276198968
 11
7.0321672762
 21
5.6276198968
  0
LINE
  5
234
100
AcDbEntity
  8
0
100
AcDbLine
 62
7
  6
CONTINUOUS
 10
6.7285672762
 20
5.6276198968
 11
6.6571672762
 21
5.6276198968
  0
LINE
  5
235
100
AcDbEntity
  8
0
100
AcDbLine
 62
7
  6
CONTINUOUS
 10
6.3535672762
 20
5.6276198968
 11
6.2821672762
 21
5.6276198968
  0
LINE
  5
236
100
AcDbEntity
  8
0
100
AcDbLine
 62
7
  6
CONTINUOUS
 10
5.9785672762
 20
5.6276198968
 11
5.9071672762
 21
5.6276198968
  0
LINE
  5
237
100
AcDbEntity
  8
0
100
AcDbLine
 62
7
  6
CONTINUOUS
 10
5.6035672762
 20
5.6276198968
 11
5.5321672762
 21
5.6276198968
  0
LINE
  5
238
100
AcDbEntity
  8
0
100
AcDbLine
 62
7
  6
CONTINUOUS
 10
5.2285672762
 20
5.6276198968
 11
5.1571672762
 21
5.6276198968
  0
LINE
  5
239
100
AcDbEntity
  8
0
100
AcDbLine
 62
7
  6
CONTINUOUS
 10
7.2553672762
 20
5.4876198968
 11
7.2553672762
 21
5.5526198968
  0
LINE
  5
23A
100
AcDbEntity
  8
0
100
AcDbLine
 62
7
  6
CONTINUOUS
 10
4.9458720839
 20
13.1000477814
 11
4.9458720839
 21
12.1000477814
  0
LINE
  5
23B
100
AcDbEntity
  8
0
100
AcDbLine
 62
7
  6
CONTINUOUS
 10
7.1958720839
 20
12.1000477814
 11
4.9458720839
 21
12.1000477814
  0
LINE
  5
23C
100
AcDbEntity
  8
0
100
AcDbLine
 62
7
  6
CONTINUOUS
 10
4.9458720839
 20
13.1000477814
 11
7.1958720839
 21
13.1000477814
  0
LINE
  5
23D
100
AcDbEntity
  8
0
100
AcDbLine
 62
7
  6
CONTINUOUS
 10
7.1958720839
 20
13.1000477814
 11
7.1958720839
 21
12.1000477814
  0
LINE
  5
23E
100
AcDbEntity
  8
0
100
AcDbLine
 62
7
  6
CONTINUOUS
 10
15.0603552569
 20
5.3531247044
 11
15.0603552569
 21
5.5681247044
  0
LINE
  5
23F
100
AcDbEntity
  8
0
100
AcDbLine
 62
7
  6
CONTINUOUS
 10
16.0603552569
 20
5.3531247044
 11
15.0603552569
 21
5.3531247044
  0
LINE
  5
240
100
AcDbEntity
  8
0
100
AcDbLine
 62
7
  6
CONTINUOUS
 10
16.0603552569
 20
5.4281247044
 11
15.0603552569
 21
5.4281247044
  0
LINE
  5
241
100
AcDbEntity
  8
0
100
AcDbLine
 62
7
  6
CONTINUOUS
 10
16.0603552569
 20
5.4931247044
 11
15.0603552569
 21
5.4931247044
  0
LINE
  5
242
100
AcDbEntity
  8
0
100
AcDbLine
 62
7
  6
CONTINUOUS
 10
16.0603552569
 20
5.5681247044
 11
15.0603552569
 21
5.5681247044
  0
LINE
  5
243
100
AcDbEntity
  8
0
100
AcDbLine
 62
7
  6
CONTINUOUS
 10
16.0603552569
 20
5.3531247044
 11
16.0603552569
 21
5.5681247044
  0
LINE
  5
244
100
AcDbEntity
  8
0
100
AcDbLine
 62
7
  6
CONTINUOUS
 10
14.3039718279
 20
12.1393438621
 11
14.3237995492
 21
12.0989392141
  0
LINE
  5
245
100
AcDbEntity
  8
0
100
AcDbLine
 62
7
  6
CONTINUOUS
 10
14.5460381513
 20
12.9226707717
 11
14.3039718279
 21
12.1393438621
  0
LINE
  5
246
100
AcDbEntity
  8
0
100
AcDbLine
 62
7
  6
CONTINUOUS
 10
14.393979173
 20
12.1468979506
 11
14.3937369746
 21
12.1458751069
  0
LINE
  5
247
100
AcDbEntity
  8
0
100
AcDbLine
 62
7
  6
CONTINUOUS
 10
14.6385160228
 20
12.9561624517
 11
14.397248451
 21
12.175420303
  0
LINE
  5
248
100
AcDbEntity
  8
0
100
AcDbLine
 62
7
  6
CONTINUOUS
 10
14.6394830299
 20
12.9586952178
 11
14.6385160245
 21
12.9561624512
  0
LINE
  5
249
100
AcDbEntity
  8
0
100
AcDbLine
 62
7
  6
CONTINUOUS
 10
14.3974167065
 20
12.1753683082
 11
14.3964497011
 21
12.1728355416
  0
LINE
  5
24A
100
AcDbEntity
  8
0
100
AcDbLine
 62
7
  6
CONTINUOUS
 10
14.5791900767
 20
12.0913851255
 11
14.5794322752
 21
12.0924079692
  0
LINE
  5
24B
100
AcDbEntity
  8
0
100
AcDbLine
 62
7
  6
CONTINUOUS
 10
14.5868228204
 20
12.0981417279
 11
14.5767195504
 21
12.0654475341
  0
LINE
  5
24C
100
AcDbEntity
  8
0
100
AcDbLine
 62
7
  6
CONTINUOUS
 10
14.5757525433
 20
12.062914768
 11
14.5767195487
 21
12.0654475346
  0
LINE
  5
24D
100
AcDbEntity
  8
0
100
AcDbLine
 62
7
  6
CONTINUOUS
 10
14.7393770458
 20
12.1468979506
 11
14.7391348474
 21
12.1458751069
  0
LINE
  5
24E
100
AcDbEntity
  8
0
100
AcDbLine
 62
7
  6
CONTINUOUS
 10
14.9839138956
 20
12.9561624517
 11
14.7426463237
 21
12.175420303
  0
LINE
  5
24F
100
AcDbEntity
  8
0
100
AcDbLine
 62
7
  6
CONTINUOUS
 10
14.9848809026
 20
12.9586952178
 11
14.9839138973
 21
12.9561624512
  0
LINE
  5
250
100
AcDbEntity
  8
0
100
AcDbLine
 62
7
  6
CONTINUOUS
 10
14.7428145792
 20
12.1753683082
 11
14.7418475738
 21
12.1728355416
  0
LINE
  5
251
100
AcDbEntity
  8
0
100
AcDbLine
 62
7
  6
CONTINUOUS
 10
14.9245879495
 20
12.0913851255
 11
14.9248301479
 21
12.0924079692
  0
LINE
  5
252
100
AcDbEntity
  8
0
100
AcDbLine
 62
7
  6
CONTINUOUS
 10
14.4864947481
 20
12.0523184665
 11
14.552258503
 21
12.0523184665
  0
LINE
  5
253
100
AcDbEntity
  8
0
100
AcDbLine
 62
7
  6
CONTINUOUS
 10
14.8318926208
 20
12.0523184665
 11
14.8976563758
 21
12.0523184665
  0
LINE
  5
254
100
AcDbEntity
  8
0
100
AcDbLine
 62
7
  6
CONTINUOUS
 10
15.1772904936
 20
12.0523184665
 11
15.2430542485
 21
12.0523184665
  0
LINE
  5
255
100
AcDbEntity
  8
0
100
AcDbLine
 62
7
  6
CONTINUOUS
 10
15.5226883663
 20
12.0523184665
 11
15.5884521213
 21
12.0523184665
  0
LINE
  5
256
100
AcDbEntity
  8
0
100
AcDbLine
 62
7
  6
CONTINUOUS
 10
15.8680862391
 20
12.0523184665
 11
15.933849994
 21
12.0523184665
  0
LINE
  5
257
100
AcDbEntity
  8
0
100
AcDbLine
 62
7
  6
CONTINUOUS
 10
16.2134841118
 20
12.0523184665
 11
16.2792478668
 21
12.0523184665
  0
LINE
  5
258
100
AcDbEntity
  8
0
100
AcDbLine
 62
7
  6
CONTINUOUS
 10
14.3237995492
 20
12.0989392141
 11
14.400569983
 21
12.0989392141
  0
LINE
  5
259
100
AcDbEntity
  8
0
100
AcDbLine
 62
7
  6
CONTINUOUS
 10
14.5924269881
 20
12.0989392141
 11
14.7459678558
 21
12.0989392141
  0
LINE
  5
25A
100
AcDbEntity
  8
0
100
AcDbLine
 62
7
  6
CONTINUOUS
 10
14.9378248608
 20
12.0989392141
 11
15.0913657285
 21
12.0989392141
  0
LINE
  5
25B
100
AcDbEntity
  8
0
100
AcDbLine
 62
7
  6
CONTINUOUS
 10
15.2832227336
 20
12.0989392141
 11
15.4367636013
 21
12.0989392141
  0
LINE
  5
25C
100
AcDbEntity
  8
0
100
AcDbLine
 62
7
  6
CONTINUOUS
 10
15.6286206063
 20
12.0989392141
 11
15.782161474
 21
12.0989392141
  0
LINE
  5
25D
100
AcDbEntity
  8
0
100
AcDbLine
 62
7
  6
CONTINUOUS
 10
15.9740184791
 20
12.0989392141
 11
16.1275593468
 21
12.0989392141
  0
LINE
  5
25E
100
AcDbEntity
  8
0
100
AcDbLine
 62
7
  6
CONTINUOUS
 10
16.3194163518
 20
12.0989392141
 11
16.3961867857
 21
12.0989392141
  0
LINE
  5
25F
100
AcDbEntity
  8
0
100
AcDbLine
 62
7
  6
CONTINUOUS
 10
14.9322206931
 20
12.0981417279
 11
14.9221174231
 21
12.0654475341
  0
LINE
  5
260
100
AcDbEntity
  8
0
100
AcDbLine
 62
7
  6
CONTINUOUS
 10
14.9211504161
 20
12.062914768
 11
14.9221174214
 21
12.0654475346
  0
LINE
  5
261
100
AcDbEntity
  8
0
100
AcDbLine
 62
7
  6
CONTINUOUS
 10
16.3763590644
 20
12.1393438621
 11
16.2995886305
 21
12.1393438621
  0
LINE
  5
262
100
AcDbEntity
  8
0
100
AcDbLine
 62
7
  6
CONTINUOUS
 10
16.1077316255
 20
12.1393438621
 11
15.9541907578
 21
12.1393438621
  0
LINE
  5
263
100
AcDbEntity
  8
0
100
AcDbLine
 62
7
  6
CONTINUOUS
 10
15.7623337527
 20
12.1393438621
 11
15.608792885
 21
12.1393438621
  0
LINE
  5
264
100
AcDbEntity
  8
0
100
AcDbLine
 62
7
  6
CONTINUOUS
 10
15.41693588
 20
12.1393438621
 11
15.2633950123
 21
12.1393438621
  0
LINE
  5
265
100
AcDbEntity
  8
0
100
AcDbLine
 62
7
  6
CONTINUOUS
 10
15.0715380072
 20
12.1393438621
 11
14.9179971395
 21
12.1393438621
  0
LINE
  5
266
100
AcDbEntity
  8
0
100
AcDbLine
 62
7
  6
CONTINUOUS
 10
14.7261401345
 20
12.1393438621
 11
14.5725992668
 21
12.1393438621
  0
LINE
  5
267
100
AcDbEntity
  8
0
100
AcDbLine
 62
7
  6
CONTINUOUS
 10
14.3807422617
 20
12.1393438621
 11
14.3039718279
 21
12.1393438621
  0
LINE
  5
268
100
AcDbEntity
  8
0
100
AcDbLine
 62
7
  6
CONTINUOUS
 10
16.2136638655
 20
12.1859646097
 11
16.1479001105
 21
12.1859646097
  0
LINE
  5
269
100
AcDbEntity
  8
0
100
AcDbLine
 62
7
  6
CONTINUOUS
 10
15.8682659927
 20
12.1859646097
 11
15.8025022377
 21
12.1859646097
  0
LINE
  5
26A
100
AcDbEntity
  8
0
100
AcDbLine
 62
7
  6
CONTINUOUS
 10
15.52286812
 20
12.1859646097
 11
15.457104365
 21
12.1859646097
  0
LINE
  5
26B
100
AcDbEntity
  8
0
100
AcDbLine
 62
7
  6
CONTINUOUS
 10
15.1774702472
 20
12.1859646097
 11
15.1117064922
 21
12.1859646097
  0
LINE
  5
26C
100
AcDbEntity
  8
0
100
AcDbLine
 62
7
  6
CONTINUOUS
 10
14.8320723745
 20
12.1859646097
 11
14.7663086195
 21
12.1859646097
  0
LINE
  5
26D
100
AcDbEntity
  8
0
100
AcDbLine
 62
7
  6
CONTINUOUS
 10
14.4866745017
 20
12.1859646097
 11
14.4209107467
 21
12.1859646097
  0
LINE
  5
26E
100
AcDbEntity
  8
0
100
AcDbLine
 62
7
  6
CONTINUOUS
 10
15.0847749185
 20
12.1468979506
 11
15.0845327201
 21
12.1458751069
  0
LINE
  5
26F
100
AcDbEntity
  8
0
100
AcDbLine
 62
7
  6
CONTINUOUS
 10
15.3293117683
 20
12.9561624517
 11
15.0880441965
 21
12.175420303
  0
LINE
  5
270
100
AcDbEntity
  8
0
100
AcDbLine
 62
7
  6
CONTINUOUS
 10
15.3302787754
 20
12.9586952178
 11
15.32931177
 21
12.9561624512
  0
LINE
  5
271
100
AcDbEntity
  8
0
100
AcDbLine
 62
7
  6
CONTINUOUS
 10
15.088212452
 20
12.1753683082
 11
15.0872454466
 21
12.1728355416
  0
LINE
  5
272
100
AcDbEntity
  8
0
100
AcDbLine
 62
7
  6
CONTINUOUS
 10
15.2699858223
 20
12.0913851255
 11
15.2702280207
 21
12.0924079692
  0
LINE
  5
273
100
AcDbEntity
  8
0
100
AcDbLine
 62
7
  6
CONTINUOUS
 10
15.2776185659
 20
12.0981417279
 11
15.2675152959
 21
12.0654475341
  0
LINE
  5
274
100
AcDbEntity
  8
0
100
AcDbLine
 62
7
  6
CONTINUOUS
 10
15.2665482888
 20
12.062914768
 11
15.2675152942
 21
12.0654475346
  0
LINE
  5
275
100
AcDbEntity
  8
0
100
AcDbLine
 62
7
  6
CONTINUOUS
 10
15.4301727913
 20
12.1468979506
 11
15.4299305929
 21
12.1458751069
  0
LINE
  5
276
100
AcDbEntity
  8
0
100
AcDbLine
 62
7
  6
CONTINUOUS
 10
15.6747096411
 20
12.9561624517
 11
15.4334420692
 21
12.175420303
  0
LINE
  5
277
100
AcDbEntity
  8
0
100
AcDbLine
 62
7
  6
CONTINUOUS
 10
15.6756766481
 20
12.9586952178
 11
15.6747096428
 21
12.9561624512
  0
LINE
  5
278
100
AcDbEntity
  8
0
100
AcDbLine
 62
7
  6
CONTINUOUS
 10
15.4336103247
 20
12.1753683082
 11
15.4326433193
 21
12.1728355416
  0
LINE
  5
279
100
AcDbEntity
  8
0
100
AcDbLine
 62
7
  6
CONTINUOUS
 10
15.615383695
 20
12.0913851255
 11
15.6156258934
 21
12.0924079692
  0
LINE
  5
27A
100
AcDbEntity
  8
0
100
AcDbLine
 62
7
  6
CONTINUOUS
 10
15.6230164386
 20
12.0981417279
 11
15.6129131686
 21
12.0654475341
  0
LINE
  5
27B
100
AcDbEntity
  8
0
100
AcDbLine
 62
7
  6
CONTINUOUS
 10
15.6119461616
 20
12.062914768
 11
15.6129131669
 21
12.0654475346
  0
LINE
  5
27C
100
AcDbEntity
  8
0
100
AcDbLine
 62
7
  6
CONTINUOUS
 10
15.775570664
 20
12.1468979506
 11
15.7753370667
 21
12.1458724316
  0
LINE
  5
27D
100
AcDbEntity
  8
0
100
AcDbLine
 62
7
  6
CONTINUOUS
 10
16.0201075138
 20
12.9561624517
 11
15.778839942
 21
12.175420303
  0
LINE
  5
27E
100
AcDbEntity
  8
0
100
AcDbLine
 62
7
  6
CONTINUOUS
 10
16.0210745209
 20
12.9586952178
 11
16.0201075155
 21
12.9561624512
  0
LINE
  5
27F
100
AcDbEntity
  8
0
100
AcDbLine
 62
7
  6
CONTINUOUS
 10
15.7790081975
 20
12.1753683082
 11
15.7780411921
 21
12.1728355416
  0
LINE
  5
280
100
AcDbEntity
  8
0
100
AcDbLine
 62
7
  6
CONTINUOUS
 10
16.6184253878
 20
12.9226707717
 11
16.5416549539
 21
12.9226707717
  0
LINE
  5
281
100
AcDbEntity
  8
0
100
AcDbLine
 62
7
  6
CONTINUOUS
 10
14.6228085851
 20
12.9226707717
 11
14.5460381513
 21
12.9226707717
  0
LINE
  5
282
100
AcDbEntity
  8
0
100
AcDbLine
 62
7
  6
CONTINUOUS
 10
14.8146655902
 20
12.9226707717
 11
14.9682064579
 21
12.9226707717
  0
LINE
  5
283
100
AcDbEntity
  8
0
100
AcDbLine
 62
7
  6
CONTINUOUS
 10
15.1600634629
 20
12.9226707717
 11
15.3136043306
 21
12.9226707717
  0
LINE
  5
284
100
AcDbEntity
  8
0
100
AcDbLine
 62
7
  6
CONTINUOUS
 10
15.5054613357
 20
12.9226707717
 11
15.6590022034
 21
12.9226707717
  0
LINE
  5
285
100
AcDbEntity
  8
0
100
AcDbLine
 62
7
  6
CONTINUOUS
 10
15.8508592084
 20
12.9226707717
 11
16.0044000761
 21
12.9226707717
  0
LINE
  5
286
100
AcDbEntity
  8
0
100
AcDbLine
 62
7
  6
CONTINUOUS
 10
16.1962570812
 20
12.9226707717
 11
16.3497979489
 21
12.9226707717
  0
LINE
  5
287
100
AcDbEntity
  8
0
100
AcDbLine
 62
7
  6
CONTINUOUS
 10
16.4557301889
 20
12.9692915193
 11
16.3899664339
 21
12.9692915193
  0
LINE
  5
288
100
AcDbEntity
  8
0
100
AcDbLine
 62
7
  6
CONTINUOUS
 10
16.1103323161
 20
12.9692915193
 11
16.0445685612
 21
12.9692915193
  0
LINE
  5
289
100
AcDbEntity
  8
0
100
AcDbLine
 62
7
  6
CONTINUOUS
 10
15.7649344434
 20
12.9692915193
 11
15.6991706884
 21
12.9692915193
  0
LINE
  5
28A
100
AcDbEntity
  8
0
100
AcDbLine
 62
7
  6
CONTINUOUS
 10
15.4195365706
 20
12.9692915193
 11
15.3537728157
 21
12.9692915193
  0
LINE
  5
28B
100
AcDbEntity
  8
0
100
AcDbLine
 62
7
  6
CONTINUOUS
 10
15.0741386979
 20
12.9692915193
 11
15.0083749429
 21
12.9692915193
  0
LINE
  5
28C
100
AcDbEntity
  8
0
100
AcDbLine
 62
7
  6
CONTINUOUS
 10
14.7287408251
 20
12.9692915193
 11
14.6629770702
 21
12.9692915193
  0
LINE
  5
28D
100
AcDbEntity
  8
0
100
AcDbLine
 62
7
  6
CONTINUOUS
 10
15.9607815678
 20
12.0913851255
 11
15.9610151651
 21
12.0924106445
  0
LINE
  5
28E
100
AcDbEntity
  8
0
100
AcDbLine
 62
7
  6
CONTINUOUS
 10
15.9684358915
 20
12.0982115612
 11
15.9583110414
 21
12.0654475341
  0
LINE
  5
28F
100
AcDbEntity
  8
0
100
AcDbLine
 62
7
  6
CONTINUOUS
 10
15.9573440343
 20
12.062914768
 11
15.9583110397
 21
12.0654475346
  0
LINE
  5
290
100
AcDbEntity
  8
0
100
AcDbLine
 62
7
  6
CONTINUOUS
 10
16.3664723936
 20
12.9586952178
 11
16.3655053883
 21
12.9561624512
  0
LINE
  5
291
100
AcDbEntity
  8
0
100
AcDbLine
 62
7
  6
CONTINUOUS
 10
16.3961867857
 20
12.0989392141
 11
16.3763590644
 21
12.1393438621
  0
LINE
  5
292
100
AcDbEntity
  8
0
100
AcDbLine
 62
7
  6
CONTINUOUS
 10
16.1209685368
 20
12.1468979506
 11
16.1207349395
 21
12.1458724316
  0
LINE
  5
293
100
AcDbEntity
  8
0
100
AcDbLine
 62
7
  6
CONTINUOUS
 10
16.3655053866
 20
12.9561624517
 11
16.1242378147
 21
12.175420303
  0
LINE
  5
294
100
AcDbEntity
  8
0
100
AcDbLine
 62
7
  6
CONTINUOUS
 10
16.1244060702
 20
12.1753683082
 11
16.1234390648
 21
12.1728355416
  0
LINE
  5
295
100
AcDbEntity
  8
0
100
AcDbLine
 62
7
  6
CONTINUOUS
 10
16.3061794405
 20
12.0913851255
 11
16.3064130378
 21
12.0924106445
  0
LINE
  5
296
100
AcDbEntity
  8
0
100
AcDbLine
 62
7
  6
CONTINUOUS
 10
16.3138337643
 20
12.0982115612
 11
16.3037089141
 21
12.0654475341
  0
LINE
  5
297
100
AcDbEntity
  8
0
100
AcDbLine
 62
7
  6
CONTINUOUS
 10
16.6184253878
 20
12.9226707717
 11
16.3763590644
 21
12.1393438621
  0
LINE
  5
298
100
AcDbEntity
  8
0
100
AcDbLine
 62
7
  6
CONTINUOUS
 10
16.6382531091
 20
12.8822661238
 11
16.3961867857
 21
12.0989392141
  0
LINE
  5
299
100
AcDbEntity
  8
0
100
AcDbLine
 62
7
  6
CONTINUOUS
 10
16.3027419071
 20
12.062914768
 11
16.3037089124
 21
12.0654475346
  0
LINE
  5
29A
100
AcDbEntity
  8
0
100
AcDbLine
 62
7
  6
CONTINUOUS
 10
16.6382531091
 20
12.8822661238
 11
16.6184253878
 21
12.9226707717
  0
ARC
  5
29B
100
AcDbEntity
  8
0
100
AcDbCircle
 62
7
  6
CONTINUOUS
 10
5.0601070938
 20
5.2954448094
 40
0.4588
100
AcDbArc
 50
18.815582351
 51
23.1024928474
  0
ARC
  5
29C
100
AcDbEntity
  8
0
100
AcDbCircle
 62
7
  6
CONTINUOUS
 10
6.0756274585
 20
5.2954448094
 40
0.4588
100
AcDbArc
 50
156.8975071526
 51
161.184417649
  0
ARC
  5
29D
100
AcDbEntity
  8
0
100
AcDbCircle
 62
7
  6
CONTINUOUS
 10
5.4351070938
 20
5.2954448094
 40
0.4588
100
AcDbArc
 50
18.815582351
 51
23.1024928474
  0
ARC
  5
29E
100
AcDbEntity
  8
0
100
AcDbCircle
 62
7
  6
CONTINUOUS
 10
5.8101070938
 20
5.2954448094
 40
0.4588
100
AcDbArc
 50
18.815582351
 51
23.1024928474
  0
ARC
  5
29F
100
AcDbEntity
  8
0
100
AcDbCircle
 62
7
  6
CONTINUOUS
 10
5.7006274585
 20
5.2954448094
 40
0.4588
100
AcDbArc
 50
156.8975071526
 51
161.184417649
  0
ARC
  5
2A0
100
AcDbEntity
  8
0
100
AcDbCircle
 62
7
  6
CONTINUOUS
 10
4.6851070938
 20
5.2954448094
 40
0.4588
100
AcDbArc
 50
18.815582351
 51
23.1024928474
  0
ARC
  5
2A1
100
AcDbEntity
  8
0
100
AcDbCircle
 62
7
  6
CONTINUOUS
 10
5.5544772762
 20
5.4638921935
 40
0.06348
100
AcDbArc
 50
198.815582351
 51
212.6263420111
  0
ARC
  5
2A2
100
AcDbEntity
  8
0
100
AcDbCircle
 62
7
  6
CONTINUOUS
 10
5.5812572762
 20
5.4638921935
 40
0.06348
100
AcDbArc
 50
327.3736579889
 51
341.184417649
  0
ARC
  5
2A3
100
AcDbEntity
  8
0
100
AcDbCircle
 62
7
  6
CONTINUOUS
 10
5.9294772762
 20
5.4638921935
 40
0.06348
100
AcDbArc
 50
198.815582351
 51
212.6263420111
  0
ARC
  5
2A4
100
AcDbEntity
  8
0
100
AcDbCircle
 62
7
  6
CONTINUOUS
 10
5.9562572762
 20
5.4638921935
 40
0.06348
100
AcDbArc
 50
327.3736579889
 51
341.184417649
  0
ARC
  5
2A5
100
AcDbEntity
  8
0
100
AcDbCircle
 62
7
  6
CONTINUOUS
 10
5.2062572762
 20
5.4638921935
 40
0.06348
100
AcDbArc
 50
327.3736579889
 51
341.184417649
  0
ARC
  5
2A6
100
AcDbEntity
  8
0
100
AcDbCircle
 62
7
  6
CONTINUOUS
 10
5.1794772762
 20
5.4638921935
 40
0.06348
100
AcDbArc
 50
198.815582351
 51
212.6263420111
  0
ARC
  5
2A7
100
AcDbEntity
  8
0
100
AcDbCircle
 62
7
  6
CONTINUOUS
 10
5.5321672762
 20
5.4496098968
 40
0.03699
100
AcDbArc
 50
212.6263420111
 51
270.0
  0
ARC
  5
2A8
100
AcDbEntity
  8
0
100
AcDbCircle
 62
7
  6
CONTINUOUS
 10
5.6035672762
 20
5.4496098968
 40
0.03699
100
AcDbArc
 50
270.0
 51
327.3736579889
  0
ARC
  5
2A9
100
AcDbEntity
  8
0
100
AcDbCircle
 62
7
  6
CONTINUOUS
 10
5.9071672762
 20
5.4496098968
 40
0.03699
100
AcDbArc
 50
212.6263420111
 51
270.0
  0
ARC
  5
2AA
100
AcDbEntity
  8
0
100
AcDbCircle
 62
7
  6
CONTINUOUS
 10
5.9785672762
 20
5.4496098968
 40
0.03699
100
AcDbArc
 50
270.0
 51
327.3736579889
  0
ARC
  5
2AB
100
AcDbEntity
  8
0
100
AcDbCircle
 62
7
  6
CONTINUOUS
 10
5.2285672762
 20
5.4496098968
 40
0.03699
100
AcDbArc
 50
270.0
 51
327.3736579889
  0
ARC
  5
2AC
100
AcDbEntity
  8
0
100
AcDbCircle
 62
7
  6
CONTINUOUS
 10
5.1571672762
 20
5.4496098968
 40
0.03699
100
AcDbArc
 50
212.6263420111
 51
270.0
  0
ARC
  5
2AD
100
AcDbEntity
  8
0
100
AcDbCircle
 62
7
  6
CONTINUOUS
 10
5.4637172762
 20
5.4676198968
 40
0.02
100
AcDbArc
 50
23.1024928474
 51
90.0
  0
ARC
  5
2AE
100
AcDbEntity
  8
0
100
AcDbCircle
 62
7
  6
CONTINUOUS
 10
5.6720172762
 20
5.4676198968
 40
0.02
100
AcDbArc
 50
90.0
 51
156.8975071526
  0
ARC
  5
2AF
100
AcDbEntity
  8
0
100
AcDbCircle
 62
7
  6
CONTINUOUS
 10
5.8387172762
 20
5.4676198968
 40
0.02
100
AcDbArc
 50
23.1024928474
 51
90.0
  0
ARC
  5
2B0
100
AcDbEntity
  8
0
100
AcDbCircle
 62
7
  6
CONTINUOUS
 10
6.0470172762
 20
5.4676198968
 40
0.02
100
AcDbArc
 50
90.0
 51
156.8975071526
  0
ARC
  5
2B1
100
AcDbEntity
  8
0
100
AcDbCircle
 62
7
  6
CONTINUOUS
 10
5.2970172762
 20
5.4676198968
 40
0.02
100
AcDbArc
 50
90.0
 51
156.8975071526
  0
ARC
  5
2B2
100
AcDbEntity
  8
0
100
AcDbCircle
 62
7
  6
CONTINUOUS
 10
5.0887172762
 20
5.4676198968
 40
0.02
100
AcDbArc
 50
23.1024928474
 51
90.0
  0
ARC
  5
2B3
100
AcDbEntity
  8
0
100
AcDbCircle
 62
7
  6
CONTINUOUS
 10
5.8101070938
 20
5.7447949841
 40
0.4588
100
AcDbArc
 50
336.8975071526
 51
341.184417649
  0
ARC
  5
2B4
100
AcDbEntity
  8
0
100
AcDbCircle
 62
7
  6
CONTINUOUS
 10
5.4351070938
 20
5.7447949841
 40
0.4588
100
AcDbArc
 50
336.8975071526
 51
341.184417649
  0
ARC
  5
2B5
100
AcDbEntity
  8
0
100
AcDbCircle
 62
7
  6
CONTINUOUS
 10
6.0756274585
 20
5.7447949841
 40
0.4588
100
AcDbArc
 50
198.815582351
 51
203.1024928474
  0
ARC
  5
2B6
100
AcDbEntity
  8
0
100
AcDbCircle
 62
7
  6
CONTINUOUS
 10
5.0601070938
 20
5.7447949841
 40
0.4588
100
AcDbArc
 50
336.8975071526
 51
341.184417649
  0
ARC
  5
2B7
100
AcDbEntity
  8
0
100
AcDbCircle
 62
7
  6
CONTINUOUS
 10
5.7006274585
 20
5.7447949841
 40
0.4588
100
AcDbArc
 50
198.815582351
 51
203.1024928474
  0
ARC
  5
2B8
100
AcDbEntity
  8
0
100
AcDbCircle
 62
7
  6
CONTINUOUS
 10
4.6851070938
 20
5.7447949841
 40
0.4588
100
AcDbArc
 50
336.8975071526
 51
341.184417649
  0
ARC
  5
2B9
100
AcDbEntity
  8
0
100
AcDbCircle
 62
7
  6
CONTINUOUS
 10
5.9562572762
 20
5.5763476
 40
0.06348
100
AcDbArc
 50
18.815582351
 51
32.6263420111
  0
ARC
  5
2BA
100
AcDbEntity
  8
0
100
AcDbCircle
 62
7
  6
CONTINUOUS
 10
5.9294772762
 20
5.5763476
 40
0.06348
100
AcDbArc
 50
147.3736579889
 51
161.184417649
  0
ARC
  5
2BB
100
AcDbEntity
  8
0
100
AcDbCircle
 62
7
  6
CONTINUOUS
 10
5.5812572762
 20
5.5763476
 40
0.06348
100
AcDbArc
 50
18.815582351
 51
32.6263420111
  0
ARC
  5
2BC
100
AcDbEntity
  8
0
100
AcDbCircle
 62
7
  6
CONTINUOUS
 10
5.5544772762
 20
5.5763476
 40
0.06348
100
AcDbArc
 50
147.3736579889
 51
161.184417649
  0
ARC
  5
2BD
100
AcDbEntity
  8
0
100
AcDbCircle
 62
7
  6
CONTINUOUS
 10
5.2062572762
 20
5.5763476
 40
0.06348
100
AcDbArc
 50
18.815582351
 51
32.6263420111
  0
ARC
  5
2BE
100
AcDbEntity
  8
0
100
AcDbCircle
 62
7
  6
CONTINUOUS
 10
5.1794772762
 20
5.5763476
 40
0.06348
100
AcDbArc
 50
147.3736579889
 51
161.184417649
  0
ARC
  5
2BF
100
AcDbEntity
  8
0
100
AcDbCircle
 62
7
  6
CONTINUOUS
 10
5.9785672762
 20
5.5906298968
 40
0.03699
100
AcDbArc
 50
32.6263420111
 51
90.0
  0
ARC
  5
2C0
100
AcDbEntity
  8
0
100
AcDbCircle
 62
7
  6
CONTINUOUS
 10
5.9071672762
 20
5.5906298968
 40
0.03699
100
AcDbArc
 50
90.0
 51
147.3736579889
  0
ARC
  5
2C1
100
AcDbEntity
  8
0
100
AcDbCircle
 62
7
  6
CONTINUOUS
 10
5.6035672762
 20
5.5906298968
 40
0.03699
100
AcDbArc
 50
32.6263420111
 51
90.0
  0
ARC
  5
2C2
100
AcDbEntity
  8
0
100
AcDbCircle
 62
7
  6
CONTINUOUS
 10
5.5321672762
 20
5.5906298968
 40
0.03699
100
AcDbArc
 50
90.0
 51
147.3736579889
  0
ARC
  5
2C3
100
AcDbEntity
  8
0
100
AcDbCircle
 62
7
  6
CONTINUOUS
 10
5.2285672762
 20
5.5906298968
 40
0.03699
100
AcDbArc
 50
32.6263420111
 51
90.0
  0
ARC
  5
2C4
100
AcDbEntity
  8
0
100
AcDbCircle
 62
7
  6
CONTINUOUS
 10
5.1571672762
 20
5.5906298968
 40
0.03699
100
AcDbArc
 50
90.0
 51
147.3736579889
  0
ARC
  5
2C5
100
AcDbEntity
  8
0
100
AcDbCircle
 62
7
  6
CONTINUOUS
 10
6.0470172762
 20
5.5726198968
 40
0.02
100
AcDbArc
 50
203.1024928474
 51
270.0
  0
ARC
  5
2C6
100
AcDbEntity
  8
0
100
AcDbCircle
 62
7
  6
CONTINUOUS
 10
5.8387172762
 20
5.5726198968
 40
0.02
100
AcDbArc
 50
270.0
 51
336.8975071526
  0
ARC
  5
2C7
100
AcDbEntity
  8
0
100
AcDbCircle
 62
7
  6
CONTINUOUS
 10
5.6720172762
 20
5.5726198968
 40
0.02
100
AcDbArc
 50
203.1024928474
 51
270.0
  0
ARC
  5
2C8
100
AcDbEntity
  8
0
100
AcDbCircle
 62
7
  6
CONTINUOUS
 10
5.4637172762
 20
5.5726198968
 40
0.02
100
AcDbArc
 50
270.0
 51
336.8975071526
  0
ARC
  5
2C9
100
AcDbEntity
  8
0
100
AcDbCircle
 62
7
  6
CONTINUOUS
 10
5.2970172762
 20
5.5726198968
 40
0.02
100
AcDbArc
 50
203.1024928474
 51
270.0
  0
ARC
  5
2CA
100
AcDbEntity
  8
0
100
AcDbCircle
 62
7
  6
CONTINUOUS
 10
5.0887172762
 20
5.5726198968
 40
0.02
100
AcDbArc
 50
270.0
 51
336.8975071526
  0
ARC
  5
2CB
100
AcDbEntity
  8
0
100
AcDbCircle
 62
7
  6
CONTINUOUS
 10
6.4506274585
 20
5.2954448094
 40
0.4588
100
AcDbArc
 50
156.8975071526
 51
161.184417649
  0
ARC
  5
2CC
100
AcDbEntity
  8
0
100
AcDbCircle
 62
7
  6
CONTINUOUS
 10
6.8256274585
 20
5.2954448094
 40
0.4588
100
AcDbArc
 50
156.8975071526
 51
161.184417649
  0
ARC
  5
2CD
100
AcDbEntity
  8
0
100
AcDbCircle
 62
7
  6
CONTINUOUS
 10
6.1851070938
 20
5.2954448094
 40
0.4588
100
AcDbArc
 50
18.815582351
 51
23.1024928474
  0
ARC
  5
2CE
100
AcDbEntity
  8
0
100
AcDbCircle
 62
7
  6
CONTINUOUS
 10
7.2006274585
 20
5.2954448094
 40
0.4588
100
AcDbArc
 50
156.8975071526
 51
161.184417649
  0
ARC
  5
2CF
100
AcDbEntity
  8
0
100
AcDbCircle
 62
7
  6
CONTINUOUS
 10
6.5601070938
 20
5.2954448094
 40
0.4588
100
AcDbArc
 50
18.815582351
 51
23.1024928474
  0
ARC
  5
2D0
100
AcDbEntity
  8
0
100
AcDbCircle
 62
7
  6
CONTINUOUS
 10
7.5756274585
 20
5.2954448094
 40
0.4588
100
AcDbArc
 50
156.8975071526
 51
161.184417649
  0
ARC
  5
2D1
100
AcDbEntity
  8
0
100
AcDbCircle
 62
7
  6
CONTINUOUS
 10
6.3044772762
 20
5.4638921935
 40
0.06348
100
AcDbArc
 50
198.815582351
 51
212.6263420111
  0
ARC
  5
2D2
100
AcDbEntity
  8
0
100
AcDbCircle
 62
7
  6
CONTINUOUS
 10
6.3312572762
 20
5.4638921935
 40
0.06348
100
AcDbArc
 50
327.3736579889
 51
341.184417649
  0
ARC
  5
2D3
100
AcDbEntity
  8
0
100
AcDbCircle
 62
7
  6
CONTINUOUS
 10
6.6794772762
 20
5.4638921935
 40
0.06348
100
AcDbArc
 50
198.815582351
 51
212.6263420111
  0
ARC
  5
2D4
100
AcDbEntity
  8
0
100
AcDbCircle
 62
7
  6
CONTINUOUS
 10
6.7062572762
 20
5.4638921935
 40
0.06348
100
AcDbArc
 50
327.3736579889
 51
341.184417649
  0
ARC
  5
2D5
100
AcDbEntity
  8
0
100
AcDbCircle
 62
7
  6
CONTINUOUS
 10
7.0544772762
 20
5.4638921935
 40
0.06348
100
AcDbArc
 50
198.815582351
 51
212.6263420111
  0
ARC
  5
2D6
100
AcDbEntity
  8
0
100
AcDbCircle
 62
7
  6
CONTINUOUS
 10
7.0812572762
 20
5.4638921935
 40
0.06348
100
AcDbArc
 50
327.3736579889
 51
341.184417649
  0
ARC
  5
2D7
100
AcDbEntity
  8
0
100
AcDbCircle
 62
7
  6
CONTINUOUS
 10
6.2821672762
 20
5.4496098968
 40
0.03699
100
AcDbArc
 50
212.6263420111
 51
270.0
  0
ARC
  5
2D8
100
AcDbEntity
  8
0
100
AcDbCircle
 62
7
  6
CONTINUOUS
 10
6.3535672762
 20
5.4496098968
 40
0.03699
100
AcDbArc
 50
270.0
 51
327.3736579889
  0
ARC
  5
2D9
100
AcDbEntity
  8
0
100
AcDbCircle
 62
7
  6
CONTINUOUS
 10
6.6571672762
 20
5.4496098968
 40
0.03699
100
AcDbArc
 50
212.6263420111
 51
270.0
  0
ARC
  5
2DA
100
AcDbEntity
  8
0
100
AcDbCircle
 62
7
  6
CONTINUOUS
 10
6.7285672762
 20
5.4496098968
 40
0.03699
100
AcDbArc
 50
270.0
 51
327.3736579889
  0
ARC
  5
2DB
100
AcDbEntity
  8
0
100
AcDbCircle
 62
7
  6
CONTINUOUS
 10
7.0321672762
 20
5.4496098968
 40
0.03699
100
AcDbArc
 50
212.6263420111
 51
270.0
  0
ARC
  5
2DC
100
AcDbEntity
  8
0
100
AcDbCircle
 62
7
  6
CONTINUOUS
 10
7.1035672762
 20
5.4496098968
 40
0.03699
100
AcDbArc
 50
270.0
 51
327.3736579889
  0
ARC
  5
2DD
100
AcDbEntity
  8
0
100
AcDbCircle
 62
7
  6
CONTINUOUS
 10
6.2137172762
 20
5.4676198968
 40
0.02
100
AcDbArc
 50
23.1024928474
 51
90.0
  0
ARC
  5
2DE
100
AcDbEntity
  8
0
100
AcDbCircle
 62
7
  6
CONTINUOUS
 10
6.4220172762
 20
5.4676198968
 40
0.02
100
AcDbArc
 50
90.0
 51
156.8975071526
  0
ARC
  5
2DF
100
AcDbEntity
  8
0
100
AcDbCircle
 62
7
  6
CONTINUOUS
 10
6.5887172762
 20
5.4676198968
 40
0.02
100
AcDbArc
 50
23.1024928474
 51
90.0
  0
ARC
  5
2E0
100
AcDbEntity
  8
0
100
AcDbCircle
 62
7
  6
CONTINUOUS
 10
6.7970172762
 20
5.4676198968
 40
0.02
100
AcDbArc
 50
90.0
 51
156.8975071526
  0
ARC
  5
2E1
100
AcDbEntity
  8
0
100
AcDbCircle
 62
7
  6
CONTINUOUS
 10
6.9637172762
 20
5.4676198968
 40
0.02
100
AcDbArc
 50
23.1024928474
 51
90.0
  0
ARC
  5
2E2
100
AcDbEntity
  8
0
100
AcDbCircle
 62
7
  6
CONTINUOUS
 10
7.1720172762
 20
5.4676198968
 40
0.02
100
AcDbArc
 50
90.0
 51
156.8975071526
  0
ARC
  5
2E3
100
AcDbEntity
  8
0
100
AcDbCircle
 62
7
  6
CONTINUOUS
 10
7.5756274585
 20
5.7447949841
 40
0.4588
100
AcDbArc
 50
198.815582351
 51
203.1024928474
  0
ARC
  5
2E4
100
AcDbEntity
  8
0
100
AcDbCircle
 62
7
  6
CONTINUOUS
 10
6.5601070938
 20
5.7447949841
 40
0.4588
100
AcDbArc
 50
336.8975071526
 51
341.184417649
  0
ARC
  5
2E5
100
AcDbEntity
  8
0
100
AcDbCircle
 62
7
  6
CONTINUOUS
 10
7.2006274585
 20
5.7447949841
 40
0.4588
100
AcDbArc
 50
198.815582351
 51
203.1024928474
  0
ARC
  5
2E6
100
AcDbEntity
  8
0
100
AcDbCircle
 62
7
  6
CONTINUOUS
 10
6.1851070938
 20
5.7447949841
 40
0.4588
100
AcDbArc
 50
336.8975071526
 51
341.184417649
  0
ARC
  5
2E7
100
AcDbEntity
  8
0
100
AcDbCircle
 62
7
  6
CONTINUOUS
 10
6.8256274585
 20
5.7447949841
 40
0.4588
100
AcDbArc
 50
198.815582351
 51
203.1024928474
  0
ARC
  5
2E8
100
AcDbEntity
  8
0
100
AcDbCircle
 62
7
  6
CONTINUOUS
 10
6.4506274585
 20
5.7447949841
 40
0.4588
100
AcDbArc
 50
198.815582351
 51
203.1024928474
  0
ARC
  5
2E9
100
AcDbEntity
  8
0
100
AcDbCircle
 62
7
  6
CONTINUOUS
 10
7.0812572762
 20
5.5763476
 40
0.06348
100
AcDbArc
 50
18.815582351
 51
32.6263420111
  0
ARC
  5
2EA
100
AcDbEntity
  8
0
100
AcDbCircle
 62
7
  6
CONTINUOUS
 10
7.0544772762
 20
5.5763476
 40
0.06348
100
AcDbArc
 50
147.3736579889
 51
161.184417649
  0
ARC
  5
2EB
100
AcDbEntity
  8
0
100
AcDbCircle
 62
7
  6
CONTINUOUS
 10
6.7062572762
 20
5.5763476
 40
0.06348
100
AcDbArc
 50
18.815582351
 51
32.6263420111
  0
ARC
  5
2EC
100
AcDbEntity
  8
0
100
AcDbCircle
 62
7
  6
CONTINUOUS
 10
6.6794772762
 20
5.5763476
 40
0.06348
100
AcDbArc
 50
147.3736579889
 51
161.184417649
  0
ARC
  5
2ED
100
AcDbEntity
  8
0
100
AcDbCircle
 62
7
  6
CONTINUOUS
 10
6.3312572762
 20
5.5763476
 40
0.06348
100
AcDbArc
 50
18.815582351
 51
32.6263420111
  0
ARC
  5
2EE
100
AcDbEntity
  8
0
100
AcDbCircle
 62
7
  6
CONTINUOUS
 10
6.3044772762
 20
5.5763476
 40
0.06348
100
AcDbArc
 50
147.3736579889
 51
161.184417649
  0
ARC
  5
2EF
100
AcDbEntity
  8
0
100
AcDbCircle
 62
7
  6
CONTINUOUS
 10
7.1035672762
 20
5.5906298968
 40
0.03699
100
AcDbArc
 50
32.6263420111
 51
90.0
  0
ARC
  5
2F0
100
AcDbEntity
  8
0
100
AcDbCircle
 62
7
  6
CONTINUOUS
 10
7.0321672762
 20
5.5906298968
 40
0.03699
100
AcDbArc
 50
90.0
 51
147.3736579889
  0
ARC
  5
2F1
100
AcDbEntity
  8
0
100
AcDbCircle
 62
7
  6
CONTINUOUS
 10
6.7285672762
 20
5.5906298968
 40
0.03699
100
AcDbArc
 50
32.6263420111
 51
90.0
  0
ARC
  5
2F2
100
AcDbEntity
  8
0
100
AcDbCircle
 62
7
  6
CONTINUOUS
 10
6.6571672762
 20
5.5906298968
 40
0.03699
100
AcDbArc
 50
90.0
 51
147.3736579889
  0
ARC
  5
2F3
100
AcDbEntity
  8
0
100
AcDbCircle
 62
7
  6
CONTINUOUS
 10
6.3535672762
 20
5.5906298968
 40
0.03699
100
AcDbArc
 50
32.6263420111
 51
90.0
  0
ARC
  5
2F4
100
AcDbEntity
  8
0
100
AcDbCircle
 62
7
  6
CONTINUOUS
 10
6.2821672762
 20
5.5906298968
 40
0.03699
100
AcDbArc
 50
90.0
 51
147.3736579889
  0
ARC
  5
2F5
100
AcDbEntity
  8
0
100
AcDbCircle
 62
7
  6
CONTINUOUS
 10
7.1720172762
 20
5.5726198968
 40
0.02
100
AcDbArc
 50
203.1024928474
 51
270.0
  0
ARC
  5
2F6
100
AcDbEntity
  8
0
100
AcDbCircle
 62
7
  6
CONTINUOUS
 10
6.9637172762
 20
5.5726198968
 40
0.02
100
AcDbArc
 50
270.0
 51
336.8975071526
  0
ARC
  5
2F7
100
AcDbEntity
  8
0
100
AcDbCircle
 62
7
  6
CONTINUOUS
 10
6.7970172762
 20
5.5726198968
 40
0.02
100
AcDbArc
 50
203.1024928474
 51
270.0
  0
ARC
  5
2F8
100
AcDbEntity
  8
0
100
AcDbCircle
 62
7
  6
CONTINUOUS
 10
6.5887172762
 20
5.5726198968
 40
0.02
100
AcDbArc
 50
270.0
 51
336.8975071526
  0
ARC
  5
2F9
100
AcDbEntity
  8
0
100
AcDbCircle
 62
7
  6
CONTINUOUS
 10
6.4220172762
 20
5.5726198968
 40
0.02
100
AcDbArc
 50
203.1024928474
 51
270.0
  0
ARC
  5
2FA
100
AcDbEntity
  8
0
100
AcDbCircle
 62
7
  6
CONTINUOUS
 10
6.2137172762
 20
5.5726198968
 40
0.02
100
AcDbArc
 50
270.0
 51
336.8975071526
  0
ARC
  5
2FB
100
AcDbEntity
  8
0
100
AcDbCircle
 62
7
  6
CONTINUOUS
 10
15.1184358107
 20
13.2946764516
 40
0.4879283185
100
AcDbArc
 50
224.9190469413
 51
228.325721693
  0
ARC
  5
2FC
100
AcDbEntity
  8
0
100
AcDbCircle
 62
7
  6
CONTINUOUS
 10
16.8454251745
 20
13.2946764516
 40
0.4879283185
100
AcDbArc
 50
224.9190469413
 51
228.3257216929
  0
ARC
  5
2FD
100
AcDbEntity
  8
0
100
AcDbCircle
 62
7
  6
CONTINUOUS
 10
16.5000273017
 20
13.2946764516
 40
0.4879283185
100
AcDbArc
 50
224.9190469413
 51
228.325721693
  0
ARC
  5
2FE
100
AcDbEntity
  8
0
100
AcDbCircle
 62
7
  6
CONTINUOUS
 10
16.154629429
 20
13.2946764516
 40
0.4879283185
100
AcDbArc
 50
224.9190469413
 51
228.325721693
  0
ARC
  5
2FF
100
AcDbEntity
  8
0
100
AcDbCircle
 62
7
  6
CONTINUOUS
 10
15.8092315562
 20
13.2946764516
 40
0.4879283185
100
AcDbArc
 50
224.9190469413
 51
228.325721693
  0
ARC
  5
300
100
AcDbEntity
  8
0
100
AcDbCircle
 62
7
  6
CONTINUOUS
 10
15.4638336835
 20
13.2946764516
 40
0.4879283185
100
AcDbArc
 50
224.9190469413
 51
228.325721693
  0
ARC
  5
301
100
AcDbEntity
  8
0
100
AcDbCircle
 62
7
  6
CONTINUOUS
 10
14.0967997625
 20
11.7269335342
 40
0.4879283185
100
AcDbArc
 50
44.9190469412
 51
48.325721693
  0
ARC
  5
302
100
AcDbEntity
  8
0
100
AcDbCircle
 62
7
  6
CONTINUOUS
 10
15.8237891262
 20
11.7269335342
 40
0.4879283185
100
AcDbArc
 50
44.9190469413
 51
48.325721693
  0
ARC
  5
303
100
AcDbEntity
  8
0
100
AcDbCircle
 62
7
  6
CONTINUOUS
 10
15.4783912535
 20
11.7269335342
 40
0.4879283185
100
AcDbArc
 50
44.9190469413
 51
48.325721693
  0
ARC
  5
304
100
AcDbEntity
  8
0
100
AcDbCircle
 62
7
  6
CONTINUOUS
 10
15.1329933807
 20
11.7269335342
 40
0.4879283185
100
AcDbArc
 50
44.9190469413
 51
48.325721693
  0
ARC
  5
305
100
AcDbEntity
  8
0
100
AcDbCircle
 62
7
  6
CONTINUOUS
 10
14.7875955079
 20
11.7269335342
 40
0.4879283185
100
AcDbArc
 50
44.9190469413
 51
48.3257216929
  0
ARC
  5
306
100
AcDbEntity
  8
0
100
AcDbCircle
 62
7
  6
CONTINUOUS
 10
14.4421976352
 20
11.7269335342
 40
0.4879283185
100
AcDbArc
 50
44.9190469413
 51
48.325721693
  0
ARC
  5
307
100
AcDbEntity
  8
0
100
AcDbCircle
 62
7
  6
CONTINUOUS
 10
16.2579609783
 20
12.511349542
 40
0.4879283185
100
AcDbArc
 50
224.9190469413
 51
228.325721693
  0
ARC
  5
308
100
AcDbEntity
  8
0
100
AcDbCircle
 62
7
  6
CONTINUOUS
 10
16.6033588511
 20
12.511349542
 40
0.4879283185
100
AcDbArc
 50
224.9190469413
 51
228.3257216929
  0
ARC
  5
309
100
AcDbEntity
  8
0
100
AcDbCircle
 62
7
  6
CONTINUOUS
 10
14.8763694873
 20
12.511349542
 40
0.4879283185
100
AcDbArc
 50
224.9190469413
 51
228.325721693
  0
ARC
  5
30A
100
AcDbEntity
  8
0
100
AcDbCircle
 62
7
  6
CONTINUOUS
 10
15.2217673601
 20
12.511349542
 40
0.4879283185
100
AcDbArc
 50
224.9190469413
 51
228.3257216929
  0
ARC
  5
30B
100
AcDbEntity
  8
0
100
AcDbCircle
 62
7
  6
CONTINUOUS
 10
15.5671652328
 20
12.511349542
 40
0.4879283185
100
AcDbArc
 50
224.9190469413
 51
228.325721693
  0
ARC
  5
30C
100
AcDbEntity
  8
0
100
AcDbCircle
 62
7
  6
CONTINUOUS
 10
15.9125631056
 20
12.511349542
 40
0.4879283185
100
AcDbArc
 50
224.9190469413
 51
228.325721693
  0
ARC
  5
30D
100
AcDbEntity
  8
0
100
AcDbCircle
 62
7
  6
CONTINUOUS
 10
14.2365200644
 20
12.1690170428
 40
0.1590051104
100
AcDbArc
 50
352.0036905065
 51
359.2082716318
  0
ARC
  5
30E
100
AcDbEntity
  8
0
100
AcDbCircle
 62
7
  6
CONTINUOUS
 10
14.5819179372
 20
12.1690170428
 40
0.1590051104
100
AcDbArc
 50
352.0036905064
 51
359.2082716318
  0
ARC
  5
30F
100
AcDbEntity
  8
0
100
AcDbCircle
 62
7
  6
CONTINUOUS
 10
14.9273158099
 20
12.1690170428
 40
0.1590051104
100
AcDbArc
 50
352.0036905065
 51
359.2082716318
  0
ARC
  5
310
100
AcDbEntity
  8
0
100
AcDbCircle
 62
7
  6
CONTINUOUS
 10
15.2727136827
 20
12.1690170428
 40
0.1590051104
100
AcDbArc
 50
352.0036905064
 51
359.2082716318
  0
ARC
  5
311
100
AcDbEntity
  8
0
100
AcDbCircle
 62
7
  6
CONTINUOUS
 10
15.6181115554
 20
12.1690170428
 40
0.1590051104
100
AcDbArc
 50
352.0036905064
 51
359.2082716318
  0
ARC
  5
312
100
AcDbEntity
  8
0
100
AcDbCircle
 62
7
  6
CONTINUOUS
 10
15.9635094282
 20
12.1690170428
 40
0.1590051104
100
AcDbArc
 50
352.0036905065
 51
359.2082716318
  0
ARC
  5
313
100
AcDbEntity
  8
0
100
AcDbCircle
 62
7
  6
CONTINUOUS
 10
14.7366491854
 20
12.0692660334
 40
0.1590051104
100
AcDbArc
 50
172.0036905064
 51
179.2082716318
  0
ARC
  5
314
100
AcDbEntity
  8
0
100
AcDbCircle
 62
7
  6
CONTINUOUS
 10
16.4636385491
 20
12.0692660334
 40
0.1590051104
100
AcDbArc
 50
172.0036905064
 51
179.2082716319
  0
ARC
  5
315
100
AcDbEntity
  8
0
100
AcDbCircle
 62
7
  6
CONTINUOUS
 10
16.1182406764
 20
12.0692660334
 40
0.1590051104
100
AcDbArc
 50
172.0036905064
 51
179.2082716318
  0
ARC
  5
316
100
AcDbEntity
  8
0
100
AcDbCircle
 62
7
  6
CONTINUOUS
 10
15.7728428036
 20
12.0692660334
 40
0.1590051104
100
AcDbArc
 50
172.0036905065
 51
179.2082716318
  0
ARC
  5
317
100
AcDbEntity
  8
0
100
AcDbCircle
 62
7
  6
CONTINUOUS
 10
15.4274449309
 20
12.0692660334
 40
0.1590051104
100
AcDbArc
 50
172.0036905065
 51
179.2082716318
  0
ARC
  5
318
100
AcDbEntity
  8
0
100
AcDbCircle
 62
7
  6
CONTINUOUS
 10
15.0820470581
 20
12.0692660334
 40
0.1590051104
100
AcDbArc
 50
172.0036905064
 51
179.2082716318
  0
SPLINE
  5
319
100
AcDbEntity
  8
0
100
AcDbSpline
 62
7
  6
CONTINUOUS
 70
0
 71
3
 72
13
 73
9
 74
0
 42
0.0000001
 43
0.0000001
 44
0.0000000001
 40
0.0
 40
0.0
 40
0.0
 40
0.0
 40
0.1222201702
 40
0.2492004258
 40
0.5085505449
 40
0.7633987379
 40
0.884963945
 40
1.0
 40
1.0
 40
1.0
 40
1.0
 10
14.8146655902
 20
12.9226707717
 30
0.0
 10
14.8137523094
 20
12.9226707717
 30
0.0
 10
14.8118892381
 20
12.922766037
 30
0.0
 10
14.8081224419
 20
12.9232959783
 30
0.0
 10
14.8034788646
 20
12.9245680207
 30
0.0
 10
14.7991420596
 20
12.9265697724
 30
0.0
 10
14.7960471
 20
12.9285546905
 30
0.0
 10
14.794656583
 20
12.9296531554
 30
0.0
 10
14.7940146623
 20
12.9302248603
 30
0.0
  0
SPLINE
  5
31A
100
AcDbEntity
  8
0
100
AcDbSpline
 62
7
  6
CONTINUOUS
 70
0
 71
3
 72
9
 73
5
 74
0
 42
0.0000001
 43
0.0000001
 44
0.0000000001
 40
0.0
 40
0.0
 40
0.0
 40
0.0
 40
0.487490961
 40
1.0
 40
1.0
 40
1.0
 40
1.0
 10
14.7729312583
 20
12.9501468473
 30
0.0
 10
14.7713954037
 20
12.9516894864
 30
0.0
 10
14.7680814023
 20
12.9546937664
 30
0.0
 10
14.7645141275
 20
12.9573894121
 30
0.0
 10
14.7626346844
 20
12.9586952178
 30
0.0
  0
SPLINE
  5
31B
100
AcDbEntity
  8
0
100
AcDbSpline
 62
7
  6
CONTINUOUS
 70
0
 71
3
 72
13
 73
9
 74
0
 42
0.0000001
 43
0.0000001
 44
0.0000000001
 40
0.0
 40
0.0
 40
0.0
 40
0.0
 40
0.1200511578
 40
0.2443774915
 40
0.4995227613
 40
0.7549157285
 40
0.8795431667
 40
1.0
 40
1.0
 40
1.0
 40
1.0
 10
14.7626346844
 20
12.9586952178
 30
0.0
 10
14.7614514421
 20
12.9595173148
 30
0.0
 10
14.7589683388
 20
12.9610856542
 30
0.0
 10
14.7536622735
 20
12.9638859784
 30
0.0
 10
14.7465423544
 20
12.9666782439
 30
0.0
 10
14.7390963424
 20
12.968438919
 30
0.0
 10
14.7331290644
 20
12.9691633527
 30
0.0
 10
14.7301864943
 20
12.9692915193
 30
0.0
 10
14.7287408251
 20
12.9692915193
 30
0.0
  0
SPLINE
  5
31C
100
AcDbEntity
  8
0
100
AcDbSpline
 62
7
  6
CONTINUOUS
 70
0
 71
3
 72
15
 73
11
 74
0
 42
0.0000001
 43
0.0000001
 44
0.0000000001
 40
0.0
 40
0.0
 40
0.0
 40
0.0
 40
0.1534362794
 40
0.2996752345
 40
0.4373380033
 40
0.5657344032
 40
0.6851172796
 40
0.796291796
 40
0.9006247347
 40
1.0
 40
1.0
 40
1.0
 40
1.0
 10
14.6629770702
 20
12.9692915193
 30
0.0
 10
14.6615904709
 20
12.9692915193
 30
0.0
 10
14.6588805895
 20
12.9691781213
 30
0.0
 10
14.6549575581
 20
12.9686530111
 30
0.0
 10
14.6513270081
 20
12.9677822313
 30
0.0
 10
14.6480508157
 20
12.9665725084
 30
0.0
 10
14.645176453
 20
12.9650443948
 30
0.0
 10
14.6427503089
 20
12.9632106192
 30
0.0
 10
14.6408138352
 20
12.96110347
 30
0.0
 10
14.6398568745
 20
12.9595117572
 30
0.0
 10
14.6394830299
 20
12.9586952178
 30
0.0
  0
SPLINE
  5
31D
100
AcDbEntity
  8
0
100
AcDbSpline
 62
7
  6
CONTINUOUS
 70
0
 71
3
 72
9
 73
5
 74
0
 42
0.0000001
 43
0.0000001
 44
0.0000000001
 40
0.0
 40
0.0
 40
0.0
 40
0.0
 40
0.4829243459
 40
1.0
 40
1.0
 40
1.0
 40
1.0
 10
14.6285201426
 20
12.923361296
 30
0.0
 10
14.6276228985
 20
12.9231243565
 30
0.0
 10
14.6257256723
 20
12.922777684
 30
0.0
 10
14.623802213
 20
12.9226707717
 30
0.0
 10
14.6228085851
 20
12.9226707717
 30
0.0
  0
SPLINE
  5
31E
100
AcDbEntity
  8
0
100
AcDbSpline
 62
7
  6
CONTINUOUS
 70
0
 71
3
 72
9
 73
5
 74
0
 42
0.0000001
 43
0.0000001
 44
0.0000000001
 40
0.0
 40
0.0
 40
0.0
 40
0.0
 40
0.4965273797
 40
1.0
 40
1.0
 40
1.0
 40
1.0
 10
14.3964497029
 20
12.172835541
 30
0.0
 10
14.3961513958
 20
12.1718702829
 30
0.0
 10
14.3956923708
 20
12.1698796559
 30
0.0
 10
14.3955244832
 20
12.1678442691
 30
0.0
 10
14.3955099945
 20
12.1668199377
 30
0.0
  0
SPLINE
  5
31F
100
AcDbEntity
  8
0
100
AcDbSpline
 62
7
  6
CONTINUOUS
 70
0
 71
3
 72
9
 73
5
 74
0
 42
0.0000001
 43
0.0000001
 44
0.0000000001
 40
0.0
 40
0.0
 40
0.0
 40
0.0
 40
0.4892231759
 40
1.0
 40
1.0
 40
1.0
 40
1.0
 10
14.5794207662
 20
12.0924115339
 30
0.0
 10
14.5795901226
 20
12.0929557859
 30
0.0
 10
14.5800850562
 20
12.0940265048
 30
0.0
 10
14.5808268879
 20
12.0949404439
 30
0.0
 10
14.5812496108
 20
12.0953593177
 30
0.0
  0
SPLINE
  5
320
100
AcDbEntity
  8
0
100
AcDbSpline
 62
7
  6
CONTINUOUS
 70
0
 71
3
 72
11
 73
7
 74
0
 42
0.0000001
 43
0.0000001
 44
0.0000000001
 40
0.0
 40
0.0
 40
0.0
 40
0.0
 40
0.4467560395
 40
0.5760968737
 40
0.7119440542
 40
1.0
 40
1.0
 40
1.0
 40
1.0
 10
14.5812496108
 20
12.0953593177
 30
0.0
 10
14.5825156188
 20
12.0966137983
 30
0.0
 10
14.584669782
 20
12.0977096613
 30
0.0
 10
14.5874074638
 20
12.0984392729
 30
0.0
 10
14.5895834378
 20
12.0988311157
 30
0.0
 10
14.5912778276
 20
12.0989392141
 30
0.0
 10
14.5924269881
 20
12.0989392141
 30
0.0
  0
SPLINE
  5
321
100
AcDbEntity
  8
0
100
AcDbSpline
 62
7
  6
CONTINUOUS
 70
0
 71
3
 72
9
 73
5
 74
0
 42
0.0000001
 43
0.0000001
 44
0.0000000001
 40
0.0
 40
0.0
 40
0.0
 40
0.0
 40
0.4829243459
 40
1.0
 40
1.0
 40
1.0
 40
1.0
 10
14.9739180154
 20
12.923361296
 30
0.0
 10
14.9730207713
 20
12.9231243565
 30
0.0
 10
14.971123545
 20
12.922777684
 30
0.0
 10
14.9692000858
 20
12.9226707717
 30
0.0
 10
14.9682064579
 20
12.9226707717
 30
0.0
  0
SPLINE
  5
322
100
AcDbEntity
  8
0
100
AcDbSpline
 62
7
  6
CONTINUOUS
 70
0
 71
3
 72
9
 73
5
 74
0
 42
0.0000001
 43
0.0000001
 44
0.0000000001
 40
0.0
 40
0.0
 40
0.0
 40
0.0
 40
0.4965273797
 40
1.0
 40
1.0
 40
1.0
 40
1.0
 10
14.7418475757
 20
12.172835541
 30
0.0
 10
14.7415492685
 20
12.1718702829
 30
0.0
 10
14.7410902436
 20
12.1698796559
 30
0.0
 10
14.740922356
 20
12.1678442691
 30
0.0
 10
14.7409078672
 20
12.1668199377
 30
0.0
  0
SPLINE
  5
323
100
AcDbEntity
  8
0
100
AcDbSpline
 62
7
  6
CONTINUOUS
 70
0
 71
3
 72
9
 73
5
 74
0
 42
0.0000001
 43
0.0000001
 44
0.0000000001
 40
0.0
 40
0.0
 40
0.0
 40
0.0
 40
0.4892231759
 40
1.0
 40
1.0
 40
1.0
 40
1.0
 10
14.924818639
 20
12.0924115339
 30
0.0
 10
14.9249879953
 20
12.0929557859
 30
0.0
 10
14.9254829289
 20
12.0940265048
 30
0.0
 10
14.9262247606
 20
12.0949404439
 30
0.0
 10
14.9266474835
 20
12.0953593177
 30
0.0
  0
SPLINE
  5
324
100
AcDbEntity
  8
0
100
AcDbSpline
 62
7
  6
CONTINUOUS
 70
0
 71
3
 72
11
 73
7
 74
0
 42
0.0000001
 43
0.0000001
 44
0.0000000001
 40
0.0
 40
0.0
 40
0.0
 40
0.0
 40
0.4467560395
 40
0.5760968737
 40
0.7119440542
 40
1.0
 40
1.0
 40
1.0
 40
1.0
 10
14.9266474835
 20
12.0953593177
 30
0.0
 10
14.9279134915
 20
12.0966137983
 30
0.0
 10
14.9300676547
 20
12.0977096613
 30
0.0
 10
14.9328053366
 20
12.0984392729
 30
0.0
 10
14.9349813106
 20
12.0988311157
 30
0.0
 10
14.9366757003
 20
12.0989392141
 30
0.0
 10
14.9378248608
 20
12.0989392141
 30
0.0
  0
SPLINE
  5
325
100
AcDbEntity
  8
0
100
AcDbSpline
 62
7
  6
CONTINUOUS
 70
0
 71
3
 72
9
 73
5
 74
0
 42
0.0000001
 43
0.0000001
 44
0.0000000001
 40
0.0
 40
0.0
 40
0.0
 40
0.0
 40
0.4829243459
 40
1.0
 40
1.0
 40
1.0
 40
1.0
 10
15.3193158881
 20
12.923361296
 30
0.0
 10
15.318418644
 20
12.9231243565
 30
0.0
 10
15.3165214178
 20
12.922777684
 30
0.0
 10
15.3145979585
 20
12.9226707717
 30
0.0
 10
15.3136043306
 20
12.9226707717
 30
0.0
  0
SPLINE
  5
326
100
AcDbEntity
  8
0
100
AcDbSpline
 62
7
  6
CONTINUOUS
 70
0
 71
3
 72
9
 73
5
 74
0
 42
0.0000001
 43
0.0000001
 44
0.0000000001
 40
0.0
 40
0.0
 40
0.0
 40
0.0
 40
0.4965273797
 40
1.0
 40
1.0
 40
1.0
 40
1.0
 10
15.0872454484
 20
12.172835541
 30
0.0
 10
15.0869471413
 20
12.1718702829
 30
0.0
 10
15.0864881163
 20
12.1698796559
 30
0.0
 10
15.0863202287
 20
12.1678442691
 30
0.0
 10
15.08630574
 20
12.1668199377
 30
0.0
  0
SPLINE
  5
327
100
AcDbEntity
  8
0
100
AcDbSpline
 62
7
  6
CONTINUOUS
 70
0
 71
3
 72
9
 73
5
 74
0
 42
0.0000001
 43
0.0000001
 44
0.0000000001
 40
0.0
 40
0.0
 40
0.0
 40
0.0
 40
0.4892231759
 40
1.0
 40
1.0
 40
1.0
 40
1.0
 10
15.2702165117
 20
12.0924115339
 30
0.0
 10
15.2703858681
 20
12.0929557859
 30
0.0
 10
15.2708808017
 20
12.0940265048
 30
0.0
 10
15.2716226334
 20
12.0949404439
 30
0.0
 10
15.2720453563
 20
12.0953593177
 30
0.0
  0
SPLINE
  5
328
100
AcDbEntity
  8
0
100
AcDbSpline
 62
7
  6
CONTINUOUS
 70
0
 71
3
 72
11
 73
7
 74
0
 42
0.0000001
 43
0.0000001
 44
0.0000000001
 40
0.0
 40
0.0
 40
0.0
 40
0.0
 40
0.4467560395
 40
0.5760968737
 40
0.7119440542
 40
1.0
 40
1.0
 40
1.0
 40
1.0
 10
15.2720453563
 20
12.0953593177
 30
0.0
 10
15.2733113643
 20
12.0966137983
 30
0.0
 10
15.2754655275
 20
12.0977096613
 30
0.0
 10
15.2782032093
 20
12.0984392729
 30
0.0
 10
15.2803791833
 20
12.0988311157
 30
0.0
 10
15.2820735731
 20
12.0989392141
 30
0.0
 10
15.2832227336
 20
12.0989392141
 30
0.0
  0
SPLINE
  5
329
100
AcDbEntity
  8
0
100
AcDbSpline
 62
7
  6
CONTINUOUS
 70
0
 71
3
 72
9
 73
5
 74
0
 42
0.0000001
 43
0.0000001
 44
0.0000000001
 40
0.0
 40
0.0
 40
0.0
 40
0.0
 40
0.4829243459
 40
1.0
 40
1.0
 40
1.0
 40
1.0
 10
15.6647137609
 20
12.923361296
 30
0.0
 10
15.6638165168
 20
12.9231243565
 30
0.0
 10
15.6619192905
 20
12.922777684
 30
0.0
 10
15.6599958313
 20
12.9226707717
 30
0.0
 10
15.6590022034
 20
12.9226707717
 30
0.0
  0
SPLINE
  5
32A
100
AcDbEntity
  8
0
100
AcDbSpline
 62
7
  6
CONTINUOUS
 70
0
 71
3
 72
9
 73
5
 74
0
 42
0.0000001
 43
0.0000001
 44
0.0000000001
 40
0.0
 40
0.0
 40
0.0
 40
0.0
 40
0.4965273797
 40
1.0
 40
1.0
 40
1.0
 40
1.0
 10
15.4326433212
 20
12.172835541
 30
0.0
 10
15.432345014
 20
12.1718702829
 30
0.0
 10
15.4318859891
 20
12.1698796559
 30
0.0
 10
15.4317181015
 20
12.1678442691
 30
0.0
 10
15.4317036127
 20
12.1668199377
 30
0.0
  0
SPLINE
  5
32B
100
AcDbEntity
  8
0
100
AcDbSpline
 62
7
  6
CONTINUOUS
 70
0
 71
3
 72
9
 73
5
 74
0
 42
0.0000001
 43
0.0000001
 44
0.0000000001
 40
0.0
 40
0.0
 40
0.0
 40
0.0
 40
0.4892231759
 40
1.0
 40
1.0
 40
1.0
 40
1.0
 10
15.6156143845
 20
12.0924115339
 30
0.0
 10
15.6157837408
 20
12.0929557859
 30
0.0
 10
15.6162786744
 20
12.0940265048
 30
0.0
 10
15.6170205061
 20
12.0949404439
 30
0.0
 10
15.617443229
 20
12.0953593177
 30
0.0
  0
SPLINE
  5
32C
100
AcDbEntity
  8
0
100
AcDbSpline
 62
7
  6
CONTINUOUS
 70
0
 71
3
 72
11
 73
7
 74
0
 42
0.0000001
 43
0.0000001
 44
0.0000000001
 40
0.0
 40
0.0
 40
0.0
 40
0.0
 40
0.4467560395
 40
0.5760968737
 40
0.7119440542
 40
1.0
 40
1.0
 40
1.0
 40
1.0
 10
15.617443229
 20
12.0953593177
 30
0.0
 10
15.618709237
 20
12.0966137983
 30
0.0
 10
15.6208634002
 20
12.0977096613
 30
0.0
 10
15.6236010821
 20
12.0984392729
 30
0.0
 10
15.6257770561
 20
12.0988311157
 30
0.0
 10
15.6274714458
 20
12.0989392141
 30
0.0
 10
15.6286206063
 20
12.0989392141
 30
0.0
  0
SPLINE
  5
32D
100
AcDbEntity
  8
0
100
AcDbSpline
 62
7
  6
CONTINUOUS
 70
0
 71
3
 72
9
 73
5
 74
0
 42
0.0000001
 43
0.0000001
 44
0.0000000001
 40
0.0
 40
0.0
 40
0.0
 40
0.0
 40
0.4826041743
 40
1.0
 40
1.0
 40
1.0
 40
1.0
 10
16.0100395955
 20
12.923341393
 30
0.0
 10
16.0091537795
 20
12.9231104264
 30
0.0
 10
16.0072801362
 20
12.9227734736
 30
0.0
 10
16.0053815029
 20
12.9226707717
 30
0.0
 10
16.0044000761
 20
12.9226707717
 30
0.0
  0
SPLINE
  5
32E
100
AcDbEntity
  8
0
100
AcDbSpline
 62
7
  6
CONTINUOUS
 70
0
 71
3
 72
9
 73
5
 74
0
 42
0.0000001
 43
0.0000001
 44
0.0000000001
 40
0.0
 40
0.0
 40
0.0
 40
0.0
 40
0.4965273797
 40
1.0
 40
1.0
 40
1.0
 40
1.0
 10
15.7780411939
 20
12.172835541
 30
0.0
 10
15.7777428868
 20
12.1718702829
 30
0.0
 10
15.7772838618
 20
12.1698796559
 30
0.0
 10
15.7771159742
 20
12.1678442691
 30
0.0
 10
15.7771014855
 20
12.1668199377
 30
0.0
  0
SPLINE
  5
32F
100
AcDbEntity
  8
0
100
AcDbSpline
 62
7
  6
CONTINUOUS
 70
0
 71
3
 72
11
 73
7
 74
0
 42
0.0000001
 43
0.0000001
 44
0.0000000001
 40
0.0
 40
0.0
 40
0.0
 40
0.0
 40
0.2339287085
 40
0.4749294311
 40
0.7287993442
 40
1.0
 40
1.0
 40
1.0
 40
1.0
 10
15.961011451
 20
12.0924117931
 30
0.0
 10
15.9611508588
 20
12.0928619078
 30
0.0
 10
15.9615340748
 20
12.0937478144
 30
0.0
 10
15.9623912999
 20
12.0949515093
 30
0.0
 10
15.9635175539
 20
12.0960185178
 30
0.0
 10
15.9644008339
 20
12.0966094151
 30
0.0
 10
15.9648752958
 20
12.0968801827
 30
0.0
  0
SPLINE
  5
330
100
AcDbEntity
  8
0
100
AcDbSpline
 62
7
  6
CONTINUOUS
 70
0
 71
3
 72
11
 73
7
 74
0
 42
0.0000001
 43
0.0000001
 44
0.0000000001
 40
0.0
 40
0.0
 40
0.0
 40
0.0
 40
0.2221775416
 40
0.4636362359
 40
0.7238585032
 40
1.0
 40
1.0
 40
1.0
 40
1.0
 10
15.9648752958
 20
12.0968801827
 30
0.0
 10
15.9654842561
 20
12.0972277064
 30
0.0
 10
15.9668223457
 20
12.097837921
 30
0.0
 10
15.9690227084
 20
12.098474965
 30
0.0
 10
15.971452931
 20
12.0988575259
 30
0.0
 10
15.9731470343
 20
12.0989392141
 30
0.0
 10
15.9740184791
 20
12.0989392141
 30
0.0
  0
SPLINE
  5
331
100
AcDbEntity
  8
0
100
AcDbSpline
 62
7
  6
CONTINUOUS
 70
0
 71
3
 72
9
 73
5
 74
0
 42
0.0000001
 43
0.0000001
 44
0.0000000001
 40
0.0
 40
0.0
 40
0.0
 40
0.0
 40
0.4826041743
 40
1.0
 40
1.0
 40
1.0
 40
1.0
 10
16.3554374683
 20
12.923341393
 30
0.0
 10
16.3545516523
 20
12.9231104264
 30
0.0
 10
16.352678009
 20
12.9227734736
 30
0.0
 10
16.3507793756
 20
12.9226707717
 30
0.0
 10
16.3497979489
 20
12.9226707717
 30
0.0
  0
SPLINE
  5
332
100
AcDbEntity
  8
0
100
AcDbSpline
 62
7
  6
CONTINUOUS
 70
0
 71
3
 72
9
 73
5
 74
0
 42
0.0000001
 43
0.0000001
 44
0.0000000001
 40
0.0
 40
0.0
 40
0.0
 40
0.0
 40
0.4965273797
 40
1.0
 40
1.0
 40
1.0
 40
1.0
 10
16.1234390667
 20
12.172835541
 30
0.0
 10
16.1231407595
 20
12.1718702829
 30
0.0
 10
16.1226817346
 20
12.1698796559
 30
0.0
 10
16.122513847
 20
12.1678442691
 30
0.0
 10
16.1224993582
 20
12.1668199377
 30
0.0
  0
SPLINE
  5
333
100
AcDbEntity
  8
0
100
AcDbSpline
 62
7
  6
CONTINUOUS
 70
0
 71
3
 72
11
 73
7
 74
0
 42
0.0000001
 43
0.0000001
 44
0.0000000001
 40
0.0
 40
0.0
 40
0.0
 40
0.0
 40
0.2339287085
 40
0.4749294311
 40
0.7287993442
 40
1.0
 40
1.0
 40
1.0
 40
1.0
 10
16.3064093238
 20
12.0924117931
 30
0.0
 10
16.3065487316
 20
12.0928619078
 30
0.0
 10
16.3069319476
 20
12.0937478144
 30
0.0
 10
16.3077891726
 20
12.0949515093
 30
0.0
 10
16.3089154266
 20
12.0960185178
 30
0.0
 10
16.3097987067
 20
12.0966094151
 30
0.0
 10
16.3102731685
 20
12.0968801827
 30
0.0
  0
SPLINE
  5
334
100
AcDbEntity
  8
0
100
AcDbSpline
 62
7
  6
CONTINUOUS
 70
0
 71
3
 72
11
 73
7
 74
0
 42
0.0000001
 43
0.0000001
 44
0.0000000001
 40
0.0
 40
0.0
 40
0.0
 40
0.0
 40
0.2221775416
 40
0.4636362359
 40
0.7238585032
 40
1.0
 40
1.0
 40
1.0
 40
1.0
 10
16.3102731685
 20
12.0968801827
 30
0.0
 10
16.3108821289
 20
12.0972277064
 30
0.0
 10
16.3122202185
 20
12.097837921
 30
0.0
 10
16.3144205812
 20
12.098474965
 30
0.0
 10
16.3168508038
 20
12.0988575259
 30
0.0
 10
16.3185449071
 20
12.0989392141
 30
0.0
 10
16.3194163518
 20
12.0989392141
 30
0.0
  0
SPLINE
  5
335
100
AcDbEntity
  8
0
100
AcDbSpline
 62
7
  6
CONTINUOUS
 70
0
 71
3
 72
15
 73
11
 74
0
 42
0.0000001
 43
0.0000001
 44
0.0000000001
 40
0.0
 40
0.0
 40
0.0
 40
0.0
 40
0.1223505956
 40
0.2492234674
 40
0.3785599849
 40
0.5085370156
 40
0.6373853032
 40
0.7633844775
 40
0.8848473319
 40
1.0
 40
1.0
 40
1.0
 40
1.0
 10
16.5416549539
 20
12.9226707717
 30
0.0
 10
16.5407402523
 20
12.9226707717
 30
0.0
 10
16.5388761637
 20
12.9227649827
 30
0.0
 10
16.5360702531
 20
12.9231594443
 30
0.0
 10
16.5332529203
 20
12.923806343
 30
0.0
 10
16.5304849417
 20
12.9246888204
 30
0.0
 10
16.5278234565
 20
12.925790203
 30
0.0
 10
16.525322347
 20
12.9270865701
 30
0.0
 10
16.5230373717
 20
12.9285523707
 30
0.0
 10
16.5216469112
 20
12.9296522965
 30
0.0
 10
16.5210040261
 20
12.9302248603
 30
0.0
  0
SPLINE
  5
336
100
AcDbEntity
  8
0
100
AcDbSpline
 62
7
  6
CONTINUOUS
 70
0
 71
3
 72
9
 73
5
 74
0
 42
0.0000001
 43
0.0000001
 44
0.0000000001
 40
0.0
 40
0.0
 40
0.0
 40
0.0
 40
0.487490961
 40
1.0
 40
1.0
 40
1.0
 40
1.0
 10
16.4999206221
 20
12.9501468473
 30
0.0
 10
16.4983847674
 20
12.9516894864
 30
0.0
 10
16.4950707661
 20
12.9546937664
 30
0.0
 10
16.4915034912
 20
12.9573894121
 30
0.0
 10
16.4896240482
 20
12.9586952178
 30
0.0
  0
SPLINE
  5
337
100
AcDbEntity
  8
0
100
AcDbSpline
 62
7
  6
CONTINUOUS
 70
0
 71
3
 72
15
 73
11
 74
0
 42
0.0000001
 43
0.0000001
 44
0.0000000001
 40
0.0
 40
0.0
 40
0.0
 40
0.0
 40
0.1201466074
 40
0.2443974275
 40
0.3712902171
 40
0.4995232987
 40
0.6278184272
 40
0.754895401
 40
0.8794471242
 40
1.0
 40
1.0
 40
1.0
 40
1.0
 10
16.4896240482
 20
12.9586952178
 30
0.0
 10
16.4884394559
 20
12.9595182528
 30
0.0
 10
16.4859560041
 20
12.9610881363
 30
0.0
 10
16.4820103047
 20
12.9631708716
 30
0.0
 10
16.4778305912
 20
12.9649910619
 30
0.0
 10
16.4734852549
 20
12.9665220326
 30
0.0
 10
16.4690395262
 20
12.9677392631
 30
0.0
 10
16.4645610205
 20
12.9686257429
 30
0.0
 10
16.4601212542
 20
12.969164418
 30
0.0
 10
16.4571775107
 20
12.9692915193
 30
0.0
 10
16.4557301889
 20
12.9692915193
 30
0.0
  0
SPLINE
  5
338
100
AcDbEntity
  8
0
100
AcDbSpline
 62
7
  6
CONTINUOUS
 70
0
 71
3
 72
15
 73
11
 74
0
 42
0.0000001
 43
0.0000001
 44
0.0000000001
 40
0.0
 40
0.0
 40
0.0
 40
0.0
 40
0.1536378568
 40
0.299833028
 40
0.4373323869
 40
0.565709665
 40
0.6850817364
 40
0.7962094321
 40
0.9005129396
 40
1.0
 40
1.0
 40
1.0
 40
1.0
 10
16.3899664339
 20
12.9692915193
 30
0.0
 10
16.3885779788
 20
12.9692915193
 30
0.0
 10
16.3858666144
 20
12.9691790929
 30
0.0
 10
16.3819432581
 20
12.9686546862
 30
0.0
 10
16.3783156069
 20
12.9677805305
 30
0.0
 10
16.3750406664
 20
12.9665722203
 30
0.0
 10
16.3721675532
 20
12.965043407
 30
0.0
 10
16.3697391602
 20
12.9632139179
 30
0.0
 10
16.3678024118
 20
12.961105963
 30
0.0
 10
16.366846668
 20
12.9595126959
 30
0.0
 10
16.3664723936
 20
12.9586952178
 30
0.0
  0
SPLINE
  5
339
100
AcDbEntity
  8
0
100
AcDbSpline
 62
7
  6
CONTINUOUS
 70
0
 71
3
 72
15
 73
11
 74
0
 42
0.0000001
 43
0.0000001
 44
0.0000000001
 40
0.0
 40
0.0
 40
0.0
 40
0.0
 40
0.1223505956
 40
0.2492234674
 40
0.3785599849
 40
0.5085370156
 40
0.6373853032
 40
0.7633844775
 40
0.8848473319
 40
1.0
 40
1.0
 40
1.0
 40
1.0
 10
16.1962570812
 20
12.9226707717
 30
0.0
 10
16.1953423796
 20
12.9226707717
 30
0.0
 10
16.193478291
 20
12.9227649827
 30
0.0
 10
16.1906723803
 20
12.9231594443
 30
0.0
 10
16.1878550476
 20
12.923806343
 30
0.0
 10
16.1850870689
 20
12.9246888204
 30
0.0
 10
16.1824255837
 20
12.925790203
 30
0.0
 10
16.1799244743
 20
12.9270865701
 30
0.0
 10
16.177639499
 20
12.9285523707
 30
0.0
 10
16.1762490384
 20
12.9296522965
 30
0.0
 10
16.1756061533
 20
12.9302248603
 30
0.0
  0
SPLINE
  5
33A
100
AcDbEntity
  8
0
100
AcDbSpline
 62
7
  6
CONTINUOUS
 70
0
 71
3
 72
9
 73
5
 74
0
 42
0.0000001
 43
0.0000001
 44
0.0000000001
 40
0.0
 40
0.0
 40
0.0
 40
0.0
 40
0.487490961
 40
1.0
 40
1.0
 40
1.0
 40
1.0
 10
16.1545227493
 20
12.9501468473
 30
0.0
 10
16.1529868947
 20
12.9516894864
 30
0.0
 10
16.1496728933
 20
12.9546937664
 30
0.0
 10
16.1461056185
 20
12.9573894121
 30
0.0
 10
16.1442261754
 20
12.9586952178
 30
0.0
  0
SPLINE
  5
33B
100
AcDbEntity
  8
0
100
AcDbSpline
 62
7
  6
CONTINUOUS
 70
0
 71
3
 72
15
 73
11
 74
0
 42
0.0000001
 43
0.0000001
 44
0.0000000001
 40
0.0
 40
0.0
 40
0.0
 40
0.0
 40
0.1201466074
 40
0.2443974275
 40
0.3712902171
 40
0.4995232987
 40
0.6278184272
 40
0.754895401
 40
0.8794471242
 40
1.0
 40
1.0
 40
1.0
 40
1.0
 10
16.1442261754
 20
12.9586952178
 30
0.0
 10
16.1430415831
 20
12.9595182528
 30
0.0
 10
16.1405581313
 20
12.9610881363
 30
0.0
 10
16.1366124319
 20
12.9631708716
 30
0.0
 10
16.1324327185
 20
12.9649910619
 30
0.0
 10
16.1280873822
 20
12.9665220326
 30
0.0
 10
16.1236416535
 20
12.9677392631
 30
0.0
 10
16.1191631477
 20
12.9686257429
 30
0.0
 10
16.1147233815
 20
12.969164418
 30
0.0
 10
16.111779638
 20
12.9692915193
 30
0.0
 10
16.1103323161
 20
12.9692915193
 30
0.0
  0
SPLINE
  5
33C
100
AcDbEntity
  8
0
100
AcDbSpline
 62
7
  6
CONTINUOUS
 70
0
 71
3
 72
15
 73
11
 74
0
 42
0.0000001
 43
0.0000001
 44
0.0000000001
 40
0.0
 40
0.0
 40
0.0
 40
0.0
 40
0.1536378568
 40
0.299833028
 40
0.4373323869
 40
0.565709665
 40
0.6850817364
 40
0.7962094321
 40
0.9005129396
 40
1.0
 40
1.0
 40
1.0
 40
1.0
 10
16.0445685612
 20
12.9692915193
 30
0.0
 10
16.043180106
 20
12.9692915193
 30
0.0
 10
16.0404687417
 20
12.9691790929
 30
0.0
 10
16.0365453854
 20
12.9686546862
 30
0.0
 10
16.0329177342
 20
12.9677805305
 30
0.0
 10
16.0296427936
 20
12.9665722203
 30
0.0
 10
16.0267696805
 20
12.965043407
 30
0.0
 10
16.0243412875
 20
12.9632139179
 30
0.0
 10
16.022404539
 20
12.961105963
 30
0.0
 10
16.0214487953
 20
12.9595126959
 30
0.0
 10
16.0210745209
 20
12.9586952178
 30
0.0
  0
SPLINE
  5
33D
100
AcDbEntity
  8
0
100
AcDbSpline
 62
7
  6
CONTINUOUS
 70
0
 71
3
 72
13
 73
9
 74
0
 42
0.0000001
 43
0.0000001
 44
0.0000000001
 40
0.0
 40
0.0
 40
0.0
 40
0.0
 40
0.1222201702
 40
0.2492004258
 40
0.5085505449
 40
0.7633987379
 40
0.884963945
 40
1.0
 40
1.0
 40
1.0
 40
1.0
 10
15.8508592084
 20
12.9226707717
 30
0.0
 10
15.8499459277
 20
12.9226707717
 30
0.0
 10
15.8480828564
 20
12.922766037
 30
0.0
 10
15.8443160602
 20
12.9232959783
 30
0.0
 10
15.8396724828
 20
12.9245680207
 30
0.0
 10
15.8353356779
 20
12.9265697724
 30
0.0
 10
15.8322407182
 20
12.9285546905
 30
0.0
 10
15.8308502013
 20
12.9296531554
 30
0.0
 10
15.8302082806
 20
12.9302248603
 30
0.0
  0
SPLINE
  5
33E
100
AcDbEntity
  8
0
100
AcDbSpline
 62
7
  6
CONTINUOUS
 70
0
 71
3
 72
9
 73
5
 74
0
 42
0.0000001
 43
0.0000001
 44
0.0000000001
 40
0.0
 40
0.0
 40
0.0
 40
0.0
 40
0.487490961
 40
1.0
 40
1.0
 40
1.0
 40
1.0
 10
15.8091248766
 20
12.9501468473
 30
0.0
 10
15.8075890219
 20
12.9516894864
 30
0.0
 10
15.8042750206
 20
12.9546937664
 30
0.0
 10
15.8007077457
 20
12.9573894121
 30
0.0
 10
15.7988283027
 20
12.9586952178
 30
0.0
  0
SPLINE
  5
33F
100
AcDbEntity
  8
0
100
AcDbSpline
 62
7
  6
CONTINUOUS
 70
0
 71
3
 72
13
 73
9
 74
0
 42
0.0000001
 43
0.0000001
 44
0.0000000001
 40
0.0
 40
0.0
 40
0.0
 40
0.0
 40
0.1200511578
 40
0.2443774915
 40
0.4995227613
 40
0.7549157285
 40
0.8795431667
 40
1.0
 40
1.0
 40
1.0
 40
1.0
 10
15.7988283027
 20
12.9586952178
 30
0.0
 10
15.7976450604
 20
12.9595173148
 30
0.0
 10
15.795161957
 20
12.9610856542
 30
0.0
 10
15.7898558917
 20
12.9638859784
 30
0.0
 10
15.7827359727
 20
12.9666782439
 30
0.0
 10
15.7752899607
 20
12.968438919
 30
0.0
 10
15.7693226826
 20
12.9691633527
 30
0.0
 10
15.7663801126
 20
12.9692915193
 30
0.0
 10
15.7649344434
 20
12.9692915193
 30
0.0
  0
SPLINE
  5
340
100
AcDbEntity
  8
0
100
AcDbSpline
 62
7
  6
CONTINUOUS
 70
0
 71
3
 72
15
 73
11
 74
0
 42
0.0000001
 43
0.0000001
 44
0.0000000001
 40
0.0
 40
0.0
 40
0.0
 40
0.0
 40
0.1534362794
 40
0.2996752345
 40
0.4373380033
 40
0.5657344032
 40
0.6851172796
 40
0.796291796
 40
0.9006247347
 40
1.0
 40
1.0
 40
1.0
 40
1.0
 10
15.6991706884
 20
12.9692915193
 30
0.0
 10
15.6977840891
 20
12.9692915193
 30
0.0
 10
15.6950742078
 20
12.9691781213
 30
0.0
 10
15.6911511764
 20
12.9686530111
 30
0.0
 10
15.6875206263
 20
12.9677822313
 30
0.0
 10
15.6842444339
 20
12.9665725084
 30
0.0
 10
15.6813700712
 20
12.9650443948
 30
0.0
 10
15.6789439271
 20
12.9632106192
 30
0.0
 10
15.6770074534
 20
12.96110347
 30
0.0
 10
15.6760504927
 20
12.9595117572
 30
0.0
 10
15.6756766481
 20
12.9586952178
 30
0.0
  0
SPLINE
  5
341
100
AcDbEntity
  8
0
100
AcDbSpline
 62
7
  6
CONTINUOUS
 70
0
 71
3
 72
13
 73
9
 74
0
 42
0.0000001
 43
0.0000001
 44
0.0000000001
 40
0.0
 40
0.0
 40
0.0
 40
0.0
 40
0.1222201702
 40
0.2492004258
 40
0.5085505449
 40
0.7633987379
 40
0.884963945
 40
1.0
 40
1.0
 40
1.0
 40
1.0
 10
15.5054613357
 20
12.9226707717
 30
0.0
 10
15.5045480549
 20
12.9226707717
 30
0.0
 10
15.5026849836
 20
12.922766037
 30
0.0
 10
15.4989181874
 20
12.9232959783
 30
0.0
 10
15.4942746101
 20
12.9245680207
 30
0.0
 10
15.4899378051
 20
12.9265697724
 30
0.0
 10
15.4868428455
 20
12.9285546905
 30
0.0
 10
15.4854523285
 20
12.9296531554
 30
0.0
 10
15.4848104078
 20
12.9302248603
 30
0.0
  0
SPLINE
  5
342
100
AcDbEntity
  8
0
100
AcDbSpline
 62
7
  6
CONTINUOUS
 70
0
 71
3
 72
9
 73
5
 74
0
 42
0.0000001
 43
0.0000001
 44
0.0000000001
 40
0.0
 40
0.0
 40
0.0
 40
0.0
 40
0.487490961
 40
1.0
 40
1.0
 40
1.0
 40
1.0
 10
15.4637270038
 20
12.9501468473
 30
0.0
 10
15.4621911492
 20
12.9516894864
 30
0.0
 10
15.4588771478
 20
12.9546937664
 30
0.0
 10
15.455309873
 20
12.9573894121
 30
0.0
 10
15.4534304299
 20
12.9586952178
 30
0.0
  0
SPLINE
  5
343
100
AcDbEntity
  8
0
100
AcDbSpline
 62
7
  6
CONTINUOUS
 70
0
 71
3
 72
13
 73
9
 74
0
 42
0.0000001
 43
0.0000001
 44
0.0000000001
 40
0.0
 40
0.0
 40
0.0
 40
0.0
 40
0.1200511578
 40
0.2443774915
 40
0.4995227613
 40
0.7549157285
 40
0.8795431667
 40
1.0
 40
1.0
 40
1.0
 40
1.0
 10
15.4534304299
 20
12.9586952178
 30
0.0
 10
15.4522471876
 20
12.9595173148
 30
0.0
 10
15.4497640843
 20
12.9610856542
 30
0.0
 10
15.444458019
 20
12.9638859784
 30
0.0
 10
15.4373380999
 20
12.9666782439
 30
0.0
 10
15.4298920879
 20
12.968438919
 30
0.0
 10
15.4239248099
 20
12.9691633527
 30
0.0
 10
15.4209822398
 20
12.9692915193
 30
0.0
 10
15.4195365706
 20
12.9692915193
 30
0.0
  0
SPLINE
  5
344
100
AcDbEntity
  8
0
100
AcDbSpline
 62
7
  6
CONTINUOUS
 70
0
 71
3
 72
15
 73
11
 74
0
 42
0.0000001
 43
0.0000001
 44
0.0000000001
 40
0.0
 40
0.0
 40
0.0
 40
0.0
 40
0.1534362794
 40
0.2996752345
 40
0.4373380033
 40
0.5657344032
 40
0.6851172796
 40
0.796291796
 40
0.9006247347
 40
1.0
 40
1.0
 40
1.0
 40
1.0
 10
15.3537728157
 20
12.9692915193
 30
0.0
 10
15.3523862164
 20
12.9692915193
 30
0.0
 10
15.349676335
 20
12.9691781213
 30
0.0
 10
15.3457533036
 20
12.9686530111
 30
0.0
 10
15.3421227536
 20
12.9677822313
 30
0.0
 10
15.3388465612
 20
12.9665725084
 30
0.0
 10
15.3359721985
 20
12.9650443948
 30
0.0
 10
15.3335460544
 20
12.9632106192
 30
0.0
 10
15.3316095807
 20
12.96110347
 30
0.0
 10
15.33065262
 20
12.9595117572
 30
0.0
 10
15.3302787754
 20
12.9586952178
 30
0.0
  0
SPLINE
  5
345
100
AcDbEntity
  8
0
100
AcDbSpline
 62
7
  6
CONTINUOUS
 70
0
 71
3
 72
13
 73
9
 74
0
 42
0.0000001
 43
0.0000001
 44
0.0000000001
 40
0.0
 40
0.0
 40
0.0
 40
0.0
 40
0.1222201702
 40
0.2492004258
 40
0.5085505449
 40
0.7633987379
 40
0.884963945
 40
1.0
 40
1.0
 40
1.0
 40
1.0
 10
15.1600634629
 20
12.9226707717
 30
0.0
 10
15.1591501822
 20
12.9226707717
 30
0.0
 10
15.1572871109
 20
12.922766037
 30
0.0
 10
15.1535203147
 20
12.9232959783
 30
0.0
 10
15.1488767373
 20
12.9245680207
 30
0.0
 10
15.1445399324
 20
12.9265697724
 30
0.0
 10
15.1414449727
 20
12.9285546905
 30
0.0
 10
15.1400544558
 20
12.9296531554
 30
0.0
 10
15.1394125351
 20
12.9302248603
 30
0.0
  0
SPLINE
  5
346
100
AcDbEntity
  8
0
100
AcDbSpline
 62
7
  6
CONTINUOUS
 70
0
 71
3
 72
9
 73
5
 74
0
 42
0.0000001
 43
0.0000001
 44
0.0000000001
 40
0.0
 40
0.0
 40
0.0
 40
0.0
 40
0.487490961
 40
1.0
 40
1.0
 40
1.0
 40
1.0
 10
15.1183291311
 20
12.9501468473
 30
0.0
 10
15.1167932764
 20
12.9516894864
 30
0.0
 10
15.1134792751
 20
12.9546937664
 30
0.0
 10
15.1099120002
 20
12.9573894121
 30
0.0
 10
15.1080325572
 20
12.9586952178
 30
0.0
  0
SPLINE
  5
347
100
AcDbEntity
  8
0
100
AcDbSpline
 62
7
  6
CONTINUOUS
 70
0
 71
3
 72
13
 73
9
 74
0
 42
0.0000001
 43
0.0000001
 44
0.0000000001
 40
0.0
 40
0.0
 40
0.0
 40
0.0
 40
0.1200511578
 40
0.2443774915
 40
0.4995227613
 40
0.7549157285
 40
0.8795431667
 40
1.0
 40
1.0
 40
1.0
 40
1.0
 10
15.1080325572
 20
12.9586952178
 30
0.0
 10
15.1068493149
 20
12.9595173148
 30
0.0
 10
15.1043662115
 20
12.9610856542
 30
0.0
 10
15.0990601462
 20
12.9638859784
 30
0.0
 10
15.0919402272
 20
12.9666782439
 30
0.0
 10
15.0844942152
 20
12.968438919
 30
0.0
 10
15.0785269371
 20
12.9691633527
 30
0.0
 10
15.0755843671
 20
12.9692915193
 30
0.0
 10
15.0741386979
 20
12.9692915193
 30
0.0
  0
SPLINE
  5
348
100
AcDbEntity
  8
0
100
AcDbSpline
 62
7
  6
CONTINUOUS
 70
0
 71
3
 72
15
 73
11
 74
0
 42
0.0000001
 43
0.0000001
 44
0.0000000001
 40
0.0
 40
0.0
 40
0.0
 40
0.0
 40
0.1534362794
 40
0.2996752345
 40
0.4373380033
 40
0.5657344032
 40
0.6851172796
 40
0.796291796
 40
0.9006247347
 40
1.0
 40
1.0
 40
1.0
 40
1.0
 10
15.0083749429
 20
12.9692915193
 30
0.0
 10
15.0069883436
 20
12.9692915193
 30
0.0
 10
15.0042784623
 20
12.9691781213
 30
0.0
 10
15.0003554309
 20
12.9686530111
 30
0.0
 10
14.9967248808
 20
12.9677822313
 30
0.0
 10
14.9934486884
 20
12.9665725084
 30
0.0
 10
14.9905743257
 20
12.9650443948
 30
0.0
 10
14.9881481816
 20
12.9632106192
 30
0.0
 10
14.9862117079
 20
12.96110347
 30
0.0
 10
14.9852547472
 20
12.9595117572
 30
0.0
 10
14.9848809026
 20
12.9586952178
 30
0.0
  0
SPLINE
  5
349
100
AcDbEntity
  8
0
100
AcDbSpline
 62
7
  6
CONTINUOUS
 70
0
 71
3
 72
15
 73
11
 74
0
 42
0.0000001
 43
0.0000001
 44
0.0000000001
 40
0.0
 40
0.0
 40
0.0
 40
0.0
 40
0.1534362794
 40
0.2996752345
 40
0.4373380033
 40
0.5657344032
 40
0.6851172796
 40
0.796291796
 40
0.9006247347
 40
1.0
 40
1.0
 40
1.0
 40
1.0
 10
14.552258503
 20
12.0523184665
 30
0.0
 10
14.5536451023
 20
12.0523184665
 30
0.0
 10
14.5563549837
 20
12.0524318645
 30
0.0
 10
14.5602780151
 20
12.0529569747
 30
0.0
 10
14.5639085651
 20
12.0538277545
 30
0.0
 10
14.5671847575
 20
12.0550374775
 30
0.0
 10
14.5700591202
 20
12.056565591
 30
0.0
 10
14.5724852643
 20
12.0583993666
 30
0.0
 10
14.574421738
 20
12.0605065158
 30
0.0
 10
14.5753786987
 20
12.0620982286
 30
0.0
 10
14.5757525433
 20
12.062914768
 30
0.0
  0
SPLINE
  5
34A
100
AcDbEntity
  8
0
100
AcDbSpline
 62
7
  6
CONTINUOUS
 70
0
 71
3
 72
13
 73
9
 74
0
 42
0.0000001
 43
0.0000001
 44
0.0000000001
 40
0.0
 40
0.0
 40
0.0
 40
0.0
 40
0.1200511578
 40
0.2443774915
 40
0.4995227613
 40
0.7549157285
 40
0.8795431667
 40
1.0
 40
1.0
 40
1.0
 40
1.0
 10
14.4526008888
 20
12.062914768
 30
0.0
 10
14.4537841311
 20
12.062092671
 30
0.0
 10
14.4562672344
 20
12.0605243316
 30
0.0
 10
14.4615732997
 20
12.0577240074
 30
0.0
 10
14.4686932188
 20
12.054931742
 30
0.0
 10
14.4761392307
 20
12.0531710668
 30
0.0
 10
14.4821065088
 20
12.0524466331
 30
0.0
 10
14.4850490789
 20
12.0523184665
 30
0.0
 10
14.4864947481
 20
12.0523184665
 30
0.0
  0
SPLINE
  5
34B
100
AcDbEntity
  8
0
100
AcDbSpline
 62
7
  6
CONTINUOUS
 70
0
 71
3
 72
9
 73
5
 74
0
 42
0.0000001
 43
0.0000001
 44
0.0000000001
 40
0.0
 40
0.0
 40
0.0
 40
0.0
 40
0.487490961
 40
1.0
 40
1.0
 40
1.0
 40
1.0
 10
14.4423043149
 20
12.0714631385
 30
0.0
 10
14.4438401695
 20
12.0699204994
 30
0.0
 10
14.4471541709
 20
12.0669162194
 30
0.0
 10
14.4507214457
 20
12.0642205737
 30
0.0
 10
14.4526008888
 20
12.062914768
 30
0.0
  0
SPLINE
  5
34C
100
AcDbEntity
  8
0
100
AcDbSpline
 62
7
  6
CONTINUOUS
 70
0
 71
3
 72
13
 73
9
 74
0
 42
0.0000001
 43
0.0000001
 44
0.0000000001
 40
0.0
 40
0.0
 40
0.0
 40
0.0
 40
0.1222201702
 40
0.2492004258
 40
0.5085505449
 40
0.7633987379
 40
0.884963945
 40
1.0
 40
1.0
 40
1.0
 40
1.0
 10
14.400569983
 20
12.0989392141
 30
0.0
 10
14.4014832638
 20
12.0989392141
 30
0.0
 10
14.4033463351
 20
12.0988439488
 30
0.0
 10
14.4071131313
 20
12.0983140075
 30
0.0
 10
14.4117567086
 20
12.0970419651
 30
0.0
 10
14.4160935136
 20
12.0950402135
 30
0.0
 10
14.4191884732
 20
12.0930552954
 30
0.0
 10
14.4205789902
 20
12.0919568304
 30
0.0
 10
14.4212209109
 20
12.0913851255
 30
0.0
  0
SPLINE
  5
34D
100
AcDbEntity
  8
0
100
AcDbSpline
 62
7
  6
CONTINUOUS
 70
0
 71
3
 72
15
 73
11
 74
0
 42
0.0000001
 43
0.0000001
 44
0.0000000001
 40
0.0
 40
0.0
 40
0.0
 40
0.0
 40
0.1536378568
 40
0.299833028
 40
0.4373323869
 40
0.565709665
 40
0.6850817364
 40
0.7962094321
 40
0.9005129396
 40
1.0
 40
1.0
 40
1.0
 40
1.0
 10
16.2792478668
 20
12.0523184665
 30
0.0
 10
16.2806363219
 20
12.0523184665
 30
0.0
 10
16.2833476863
 20
12.0524308929
 30
0.0
 10
16.2872710426
 20
12.0529552996
 30
0.0
 10
16.2908986938
 20
12.0538294553
 30
0.0
 10
16.2941736343
 20
12.0550377655
 30
0.0
 10
16.2970467475
 20
12.0565665788
 30
0.0
 10
16.2994751405
 20
12.0583960679
 30
0.0
 10
16.3014118889
 20
12.0605040228
 30
0.0
 10
16.3023676327
 20
12.0620972899
 30
0.0
 10
16.3027419071
 20
12.062914768
 30
0.0
  0
SPLINE
  5
34E
100
AcDbEntity
  8
0
100
AcDbSpline
 62
7
  6
CONTINUOUS
 70
0
 71
3
 72
15
 73
11
 74
0
 42
0.0000001
 43
0.0000001
 44
0.0000000001
 40
0.0
 40
0.0
 40
0.0
 40
0.0
 40
0.1201466074
 40
0.2443974275
 40
0.3712902171
 40
0.4995232987
 40
0.6278184272
 40
0.754895401
 40
0.8794471242
 40
1.0
 40
1.0
 40
1.0
 40
1.0
 10
16.1795902525
 20
12.062914768
 30
0.0
 10
16.1807748448
 20
12.062091733
 30
0.0
 10
16.1832582966
 20
12.0605218495
 30
0.0
 10
16.187203996
 20
12.0584391142
 30
0.0
 10
16.1913837095
 20
12.056618924
 30
0.0
 10
16.1957290458
 20
12.0550879532
 30
0.0
 10
16.2001747745
 20
12.0538707227
 30
0.0
 10
16.2046532802
 20
12.0529842429
 30
0.0
 10
16.2090930465
 20
12.0524455678
 30
0.0
 10
16.21203679
 20
12.0523184665
 30
0.0
 10
16.2134841118
 20
12.0523184665
 30
0.0
  0
SPLINE
  5
34F
100
AcDbEntity
  8
0
100
AcDbSpline
 62
7
  6
CONTINUOUS
 70
0
 71
3
 72
9
 73
5
 74
0
 42
0.0000001
 43
0.0000001
 44
0.0000000001
 40
0.0
 40
0.0
 40
0.0
 40
0.0
 40
0.487490961
 40
1.0
 40
1.0
 40
1.0
 40
1.0
 10
16.1692936786
 20
12.0714631385
 30
0.0
 10
16.1708295333
 20
12.0699204994
 30
0.0
 10
16.1741435346
 20
12.0669162194
 30
0.0
 10
16.1777108095
 20
12.0642205737
 30
0.0
 10
16.1795902525
 20
12.062914768
 30
0.0
  0
SPLINE
  5
350
100
AcDbEntity
  8
0
100
AcDbSpline
 62
7
  6
CONTINUOUS
 70
0
 71
3
 72
15
 73
11
 74
0
 42
0.0000001
 43
0.0000001
 44
0.0000000001
 40
0.0
 40
0.0
 40
0.0
 40
0.0
 40
0.1223505956
 40
0.2492234674
 40
0.3785599849
 40
0.5085370156
 40
0.6373853032
 40
0.7633844775
 40
0.8848473319
 40
1.0
 40
1.0
 40
1.0
 40
1.0
 10
16.1275593468
 20
12.0989392141
 30
0.0
 10
16.1284740484
 20
12.0989392141
 30
0.0
 10
16.130338137
 20
12.0988450032
 30
0.0
 10
16.1331440476
 20
12.0984505415
 30
0.0
 10
16.1359613804
 20
12.0978036428
 30
0.0
 10
16.138729359
 20
12.0969211654
 30
0.0
 10
16.1413908443
 20
12.0958197828
 30
0.0
 10
16.1438919537
 20
12.0945234157
 30
0.0
 10
16.146176929
 20
12.0930576151
 30
0.0
 10
16.1475673895
 20
12.0919576893
 30
0.0
 10
16.1482102746
 20
12.0913851255
 30
0.0
  0
SPLINE
  5
351
100
AcDbEntity
  8
0
100
AcDbSpline
 62
7
  6
CONTINUOUS
 70
0
 71
3
 72
15
 73
11
 74
0
 42
0.0000001
 43
0.0000001
 44
0.0000000001
 40
0.0
 40
0.0
 40
0.0
 40
0.0
 40
0.1536378568
 40
0.299833028
 40
0.4373323869
 40
0.565709665
 40
0.6850817364
 40
0.7962094321
 40
0.9005129396
 40
1.0
 40
1.0
 40
1.0
 40
1.0
 10
15.933849994
 20
12.0523184665
 30
0.0
 10
15.9352384492
 20
12.0523184665
 30
0.0
 10
15.9379498135
 20
12.0524308929
 30
0.0
 10
15.9418731698
 20
12.0529552996
 30
0.0
 10
15.945500821
 20
12.0538294553
 30
0.0
 10
15.9487757616
 20
12.0550377655
 30
0.0
 10
15.9516488747
 20
12.0565665788
 30
0.0
 10
15.9540772677
 20
12.0583960679
 30
0.0
 10
15.9560140162
 20
12.0605040228
 30
0.0
 10
15.9569697599
 20
12.0620972899
 30
0.0
 10
15.9573440343
 20
12.062914768
 30
0.0
  0
SPLINE
  5
352
100
AcDbEntity
  8
0
100
AcDbSpline
 62
7
  6
CONTINUOUS
 70
0
 71
3
 72
15
 73
11
 74
0
 42
0.0000001
 43
0.0000001
 44
0.0000000001
 40
0.0
 40
0.0
 40
0.0
 40
0.0
 40
0.1201466074
 40
0.2443974275
 40
0.3712902171
 40
0.4995232987
 40
0.6278184272
 40
0.754895401
 40
0.8794471242
 40
1.0
 40
1.0
 40
1.0
 40
1.0
 10
15.8341923798
 20
12.062914768
 30
0.0
 10
15.8353769721
 20
12.062091733
 30
0.0
 10
15.8378604239
 20
12.0605218495
 30
0.0
 10
15.8418061233
 20
12.0584391142
 30
0.0
 10
15.8459858367
 20
12.056618924
 30
0.0
 10
15.850331173
 20
12.0550879532
 30
0.0
 10
15.8547769017
 20
12.0538707227
 30
0.0
 10
15.8592554075
 20
12.0529842429
 30
0.0
 10
15.8636951737
 20
12.0524455678
 30
0.0
 10
15.8666389172
 20
12.0523184665
 30
0.0
 10
15.8680862391
 20
12.0523184665
 30
0.0
  0
SPLINE
  5
353
100
AcDbEntity
  8
0
100
AcDbSpline
 62
7
  6
CONTINUOUS
 70
0
 71
3
 72
9
 73
5
 74
0
 42
0.0000001
 43
0.0000001
 44
0.0000000001
 40
0.0
 40
0.0
 40
0.0
 40
0.0
 40
0.487490961
 40
1.0
 40
1.0
 40
1.0
 40
1.0
 10
15.8238958059
 20
12.0714631385
 30
0.0
 10
15.8254316605
 20
12.0699204994
 30
0.0
 10
15.8287456619
 20
12.0669162194
 30
0.0
 10
15.8323129367
 20
12.0642205737
 30
0.0
 10
15.8341923798
 20
12.062914768
 30
0.0
  0
SPLINE
  5
354
100
AcDbEntity
  8
0
100
AcDbSpline
 62
7
  6
CONTINUOUS
 70
0
 71
3
 72
15
 73
11
 74
0
 42
0.0000001
 43
0.0000001
 44
0.0000000001
 40
0.0
 40
0.0
 40
0.0
 40
0.0
 40
0.1223505956
 40
0.2492234674
 40
0.3785599849
 40
0.5085370156
 40
0.6373853032
 40
0.7633844775
 40
0.8848473319
 40
1.0
 40
1.0
 40
1.0
 40
1.0
 10
15.782161474
 20
12.0989392141
 30
0.0
 10
15.7830761756
 20
12.0989392141
 30
0.0
 10
15.7849402642
 20
12.0988450032
 30
0.0
 10
15.7877461749
 20
12.0984505415
 30
0.0
 10
15.7905635076
 20
12.0978036428
 30
0.0
 10
15.7933314863
 20
12.0969211654
 30
0.0
 10
15.7959929715
 20
12.0958197828
 30
0.0
 10
15.7984940809
 20
12.0945234157
 30
0.0
 10
15.8007790562
 20
12.0930576151
 30
0.0
 10
15.8021695168
 20
12.0919576893
 30
0.0
 10
15.8028124019
 20
12.0913851255
 30
0.0
  0
SPLINE
  5
355
100
AcDbEntity
  8
0
100
AcDbSpline
 62
7
  6
CONTINUOUS
 70
0
 71
3
 72
15
 73
11
 74
0
 42
0.0000001
 43
0.0000001
 44
0.0000000001
 40
0.0
 40
0.0
 40
0.0
 40
0.0
 40
0.1534362794
 40
0.2996752345
 40
0.4373380033
 40
0.5657344032
 40
0.6851172796
 40
0.796291796
 40
0.9006247347
 40
1.0
 40
1.0
 40
1.0
 40
1.0
 10
15.5884521213
 20
12.0523184665
 30
0.0
 10
15.5898387206
 20
12.0523184665
 30
0.0
 10
15.5925486019
 20
12.0524318645
 30
0.0
 10
15.5964716333
 20
12.0529569747
 30
0.0
 10
15.6001021834
 20
12.0538277545
 30
0.0
 10
15.6033783758
 20
12.0550374775
 30
0.0
 10
15.6062527385
 20
12.056565591
 30
0.0
 10
15.6086788826
 20
12.0583993666
 30
0.0
 10
15.6106153563
 20
12.0605065158
 30
0.0
 10
15.611572317
 20
12.0620982286
 30
0.0
 10
15.6119461616
 20
12.062914768
 30
0.0
  0
SPLINE
  5
356
100
AcDbEntity
  8
0
100
AcDbSpline
 62
7
  6
CONTINUOUS
 70
0
 71
3
 72
13
 73
9
 74
0
 42
0.0000001
 43
0.0000001
 44
0.0000000001
 40
0.0
 40
0.0
 40
0.0
 40
0.0
 40
0.1200511578
 40
0.2443774915
 40
0.4995227613
 40
0.7549157285
 40
0.8795431667
 40
1.0
 40
1.0
 40
1.0
 40
1.0
 10
15.488794507
 20
12.062914768
 30
0.0
 10
15.4899777493
 20
12.062092671
 30
0.0
 10
15.4924608527
 20
12.0605243316
 30
0.0
 10
15.497766918
 20
12.0577240074
 30
0.0
 10
15.504886837
 20
12.054931742
 30
0.0
 10
15.512332849
 20
12.0531710668
 30
0.0
 10
15.5183001271
 20
12.0524466331
 30
0.0
 10
15.5212426971
 20
12.0523184665
 30
0.0
 10
15.5226883663
 20
12.0523184665
 30
0.0
  0
SPLINE
  5
357
100
AcDbEntity
  8
0
100
AcDbSpline
 62
7
  6
CONTINUOUS
 70
0
 71
3
 72
9
 73
5
 74
0
 42
0.0000001
 43
0.0000001
 44
0.0000000001
 40
0.0
 40
0.0
 40
0.0
 40
0.0
 40
0.487490961
 40
1.0
 40
1.0
 40
1.0
 40
1.0
 10
15.4784979331
 20
12.0714631385
 30
0.0
 10
15.4800337878
 20
12.0699204994
 30
0.0
 10
15.4833477891
 20
12.0669162194
 30
0.0
 10
15.486915064
 20
12.0642205737
 30
0.0
 10
15.488794507
 20
12.062914768
 30
0.0
  0
SPLINE
  5
358
100
AcDbEntity
  8
0
100
AcDbSpline
 62
7
  6
CONTINUOUS
 70
0
 71
3
 72
13
 73
9
 74
0
 42
0.0000001
 43
0.0000001
 44
0.0000000001
 40
0.0
 40
0.0
 40
0.0
 40
0.0
 40
0.1222201702
 40
0.2492004258
 40
0.5085505449
 40
0.7633987379
 40
0.884963945
 40
1.0
 40
1.0
 40
1.0
 40
1.0
 10
15.4367636013
 20
12.0989392141
 30
0.0
 10
15.437676882
 20
12.0989392141
 30
0.0
 10
15.4395399533
 20
12.0988439488
 30
0.0
 10
15.4433067495
 20
12.0983140075
 30
0.0
 10
15.4479503269
 20
12.0970419651
 30
0.0
 10
15.4522871318
 20
12.0950402135
 30
0.0
 10
15.4553820915
 20
12.0930552954
 30
0.0
 10
15.4567726084
 20
12.0919568304
 30
0.0
 10
15.4574145291
 20
12.0913851255
 30
0.0
  0
SPLINE
  5
359
100
AcDbEntity
  8
0
100
AcDbSpline
 62
7
  6
CONTINUOUS
 70
0
 71
3
 72
15
 73
11
 74
0
 42
0.0000001
 43
0.0000001
 44
0.0000000001
 40
0.0
 40
0.0
 40
0.0
 40
0.0
 40
0.1534362794
 40
0.2996752345
 40
0.4373380033
 40
0.5657344032
 40
0.6851172796
 40
0.796291796
 40
0.9006247347
 40
1.0
 40
1.0
 40
1.0
 40
1.0
 10
15.2430542485
 20
12.0523184665
 30
0.0
 10
15.2444408478
 20
12.0523184665
 30
0.0
 10
15.2471507292
 20
12.0524318645
 30
0.0
 10
15.2510737606
 20
12.0529569747
 30
0.0
 10
15.2547043106
 20
12.0538277545
 30
0.0
 10
15.257980503
 20
12.0550374775
 30
0.0
 10
15.2608548657
 20
12.056565591
 30
0.0
 10
15.2632810098
 20
12.0583993666
 30
0.0
 10
15.2652174835
 20
12.0605065158
 30
0.0
 10
15.2661744442
 20
12.0620982286
 30
0.0
 10
15.2665482888
 20
12.062914768
 30
0.0
  0
SPLINE
  5
35A
100
AcDbEntity
  8
0
100
AcDbSpline
 62
7
  6
CONTINUOUS
 70
0
 71
3
 72
13
 73
9
 74
0
 42
0.0000001
 43
0.0000001
 44
0.0000000001
 40
0.0
 40
0.0
 40
0.0
 40
0.0
 40
0.1200511578
 40
0.2443774915
 40
0.4995227613
 40
0.7549157285
 40
0.8795431667
 40
1.0
 40
1.0
 40
1.0
 40
1.0
 10
15.1433966343
 20
12.062914768
 30
0.0
 10
15.1445798766
 20
12.062092671
 30
0.0
 10
15.1470629799
 20
12.0605243316
 30
0.0
 10
15.1523690452
 20
12.0577240074
 30
0.0
 10
15.1594889643
 20
12.054931742
 30
0.0
 10
15.1669349762
 20
12.0531710668
 30
0.0
 10
15.1729022543
 20
12.0524466331
 30
0.0
 10
15.1758448244
 20
12.0523184665
 30
0.0
 10
15.1772904936
 20
12.0523184665
 30
0.0
  0
SPLINE
  5
35B
100
AcDbEntity
  8
0
100
AcDbSpline
 62
7
  6
CONTINUOUS
 70
0
 71
3
 72
9
 73
5
 74
0
 42
0.0000001
 43
0.0000001
 44
0.0000000001
 40
0.0
 40
0.0
 40
0.0
 40
0.0
 40
0.487490961
 40
1.0
 40
1.0
 40
1.0
 40
1.0
 10
15.1331000604
 20
12.0714631385
 30
0.0
 10
15.134635915
 20
12.0699204994
 30
0.0
 10
15.1379499164
 20
12.0669162194
 30
0.0
 10
15.1415171912
 20
12.0642205737
 30
0.0
 10
15.1433966343
 20
12.062914768
 30
0.0
  0
SPLINE
  5
35C
100
AcDbEntity
  8
0
100
AcDbSpline
 62
7
  6
CONTINUOUS
 70
0
 71
3
 72
13
 73
9
 74
0
 42
0.0000001
 43
0.0000001
 44
0.0000000001
 40
0.0
 40
0.0
 40
0.0
 40
0.0
 40
0.1222201702
 40
0.2492004258
 40
0.5085505449
 40
0.7633987379
 40
0.884963945
 40
1.0
 40
1.0
 40
1.0
 40
1.0
 10
15.0913657285
 20
12.0989392141
 30
0.0
 10
15.0922790093
 20
12.0989392141
 30
0.0
 10
15.0941420806
 20
12.0988439488
 30
0.0
 10
15.0979088768
 20
12.0983140075
 30
0.0
 10
15.1025524541
 20
12.0970419651
 30
0.0
 10
15.1068892591
 20
12.0950402135
 30
0.0
 10
15.1099842187
 20
12.0930552954
 30
0.0
 10
15.1113747357
 20
12.0919568304
 30
0.0
 10
15.1120166564
 20
12.0913851255
 30
0.0
  0
SPLINE
  5
35D
100
AcDbEntity
  8
0
100
AcDbSpline
 62
7
  6
CONTINUOUS
 70
0
 71
3
 72
15
 73
11
 74
0
 42
0.0000001
 43
0.0000001
 44
0.0000000001
 40
0.0
 40
0.0
 40
0.0
 40
0.0
 40
0.1534362794
 40
0.2996752345
 40
0.4373380033
 40
0.5657344032
 40
0.6851172796
 40
0.796291796
 40
0.9006247347
 40
1.0
 40
1.0
 40
1.0
 40
1.0
 10
14.8976563758
 20
12.0523184665
 30
0.0
 10
14.8990429751
 20
12.0523184665
 30
0.0
 10
14.9017528564
 20
12.0524318645
 30
0.0
 10
14.9056758878
 20
12.0529569747
 30
0.0
 10
14.9093064379
 20
12.0538277545
 30
0.0
 10
14.9125826303
 20
12.0550374775
 30
0.0
 10
14.915456993
 20
12.056565591
 30
0.0
 10
14.9178831371
 20
12.0583993666
 30
0.0
 10
14.9198196108
 20
12.0605065158
 30
0.0
 10
14.9207765715
 20
12.0620982286
 30
0.0
 10
14.9211504161
 20
12.062914768
 30
0.0
  0
SPLINE
  5
35E
100
AcDbEntity
  8
0
100
AcDbSpline
 62
7
  6
CONTINUOUS
 70
0
 71
3
 72
13
 73
9
 74
0
 42
0.0000001
 43
0.0000001
 44
0.0000000001
 40
0.0
 40
0.0
 40
0.0
 40
0.0
 40
0.1200511578
 40
0.2443774915
 40
0.4995227613
 40
0.7549157285
 40
0.8795431667
 40
1.0
 40
1.0
 40
1.0
 40
1.0
 10
14.7979987615
 20
12.062914768
 30
0.0
 10
14.7991820038
 20
12.062092671
 30
0.0
 10
14.8016651072
 20
12.0605243316
 30
0.0
 10
14.8069711725
 20
12.0577240074
 30
0.0
 10
14.8140910915
 20
12.054931742
 30
0.0
 10
14.8215371035
 20
12.0531710668
 30
0.0
 10
14.8275043816
 20
12.0524466331
 30
0.0
 10
14.8304469516
 20
12.0523184665
 30
0.0
 10
14.8318926208
 20
12.0523184665
 30
0.0
  0
SPLINE
  5
35F
100
AcDbEntity
  8
0
100
AcDbSpline
 62
7
  6
CONTINUOUS
 70
0
 71
3
 72
9
 73
5
 74
0
 42
0.0000001
 43
0.0000001
 44
0.0000000001
 40
0.0
 40
0.0
 40
0.0
 40
0.0
 40
0.487490961
 40
1.0
 40
1.0
 40
1.0
 40
1.0
 10
14.7877021876
 20
12.0714631385
 30
0.0
 10
14.7892380423
 20
12.0699204994
 30
0.0
 10
14.7925520436
 20
12.0669162194
 30
0.0
 10
14.7961193185
 20
12.0642205737
 30
0.0
 10
14.7979987615
 20
12.062914768
 30
0.0
  0
SPLINE
  5
360
100
AcDbEntity
  8
0
100
AcDbSpline
 62
7
  6
CONTINUOUS
 70
0
 71
3
 72
13
 73
9
 74
0
 42
0.0000001
 43
0.0000001
 44
0.0000000001
 40
0.0
 40
0.0
 40
0.0
 40
0.0
 40
0.1222201702
 40
0.2492004258
 40
0.5085505449
 40
0.7633987379
 40
0.884963945
 40
1.0
 40
1.0
 40
1.0
 40
1.0
 10
14.7459678558
 20
12.0989392141
 30
0.0
 10
14.7468811365
 20
12.0989392141
 30
0.0
 10
14.7487442078
 20
12.0988439488
 30
0.0
 10
14.752511004
 20
12.0983140075
 30
0.0
 10
14.7571545814
 20
12.0970419651
 30
0.0
 10
14.7614913863
 20
12.0950402135
 30
0.0
 10
14.764586346
 20
12.0930552954
 30
0.0
 10
14.7659768629
 20
12.0919568304
 30
0.0
 10
14.7666187836
 20
12.0913851255
 30
0.0
  0
SPLINE
  5
361
100
AcDbEntity
  8
0
100
AcDbSpline
 62
7
  6
CONTINUOUS
 70
0
 71
3
 72
9
 73
5
 74
0
 42
0.0000001
 43
0.0000001
 44
0.0000000001
 40
0.0
 40
0.0
 40
0.0
 40
0.0
 40
0.4965273797
 40
1.0
 40
1.0
 40
1.0
 40
1.0
 10
14.5767195469
 20
12.0654475352
 30
0.0
 10
14.577017854
 20
12.0664127933
 30
0.0
 10
14.577476879
 20
12.0684034203
 30
0.0
 10
14.5776447666
 20
12.0704388071
 30
0.0
 10
14.5776592553
 20
12.0714631385
 30
0.0
  0
SPLINE
  5
362
100
AcDbEntity
  8
0
100
AcDbSpline
 62
7
  6
CONTINUOUS
 70
0
 71
3
 72
15
 73
11
 74
0
 42
0.0000001
 43
0.0000001
 44
0.0000000001
 40
0.0
 40
0.0
 40
0.0
 40
0.0
 40
0.1536378568
 40
0.299833028
 40
0.4373323869
 40
0.565709665
 40
0.6850817364
 40
0.7962094321
 40
0.9005129396
 40
1.0
 40
1.0
 40
1.0
 40
1.0
 10
15.8025022377
 20
12.1859646097
 30
0.0
 10
15.8011137826
 20
12.1859646097
 30
0.0
 10
15.7984024183
 20
12.1858521833
 30
0.0
 10
15.794479062
 20
12.1853277766
 30
0.0
 10
15.7908514108
 20
12.1844536208
 30
0.0
 10
15.7875764702
 20
12.1832453107
 30
0.0
 10
15.784703357
 20
12.1817164974
 30
0.0
 10
15.7822749641
 20
12.1798870083
 30
0.0
 10
15.7803382156
 20
12.1777790533
 30
0.0
 10
15.7793824718
 20
12.1761857863
 30
0.0
 10
15.7790081975
 20
12.1753683082
 30
0.0
  0
SPLINE
  5
363
100
AcDbEntity
  8
0
100
AcDbSpline
 62
7
  6
CONTINUOUS
 70
0
 71
3
 72
15
 73
11
 74
0
 42
0.0000001
 43
0.0000001
 44
0.0000000001
 40
0.0
 40
0.0
 40
0.0
 40
0.0
 40
0.1201466074
 40
0.2443974275
 40
0.3712902171
 40
0.4995232987
 40
0.6278184272
 40
0.754895401
 40
0.8794471242
 40
1.0
 40
1.0
 40
1.0
 40
1.0
 10
15.902159852
 20
12.1753683082
 30
0.0
 10
15.9009752597
 20
12.1761913431
 30
0.0
 10
15.8984918079
 20
12.1777612267
 30
0.0
 10
15.8945461085
 20
12.179843962
 30
0.0
 10
15.8903663951
 20
12.1816641522
 30
0.0
 10
15.8860210587
 20
12.183195123
 30
0.0
 10
15.88157533
 20
12.1844123535
 30
0.0
 10
15.8770968243
 20
12.1852988333
 30
0.0
 10
15.8726570581
 20
12.1858375083
 30
0.0
 10
15.8697133146
 20
12.1859646097
 30
0.0
 10
15.8682659927
 20
12.1859646097
 30
0.0
  0
SPLINE
  5
364
100
AcDbEntity
  8
0
100
AcDbSpline
 62
7
  6
CONTINUOUS
 70
0
 71
3
 72
9
 73
5
 74
0
 42
0.0000001
 43
0.0000001
 44
0.0000000001
 40
0.0
 40
0.0
 40
0.0
 40
0.0
 40
0.487490961
 40
1.0
 40
1.0
 40
1.0
 40
1.0
 10
15.9124564259
 20
12.1668199377
 30
0.0
 10
15.9109205713
 20
12.1683625768
 30
0.0
 10
15.9076065699
 20
12.1713668568
 30
0.0
 10
15.9040392951
 20
12.1740625025
 30
0.0
 10
15.902159852
 20
12.1753683082
 30
0.0
  0
SPLINE
  5
365
100
AcDbEntity
  8
0
100
AcDbSpline
 62
7
  6
CONTINUOUS
 70
0
 71
3
 72
15
 73
11
 74
0
 42
0.0000001
 43
0.0000001
 44
0.0000000001
 40
0.0
 40
0.0
 40
0.0
 40
0.0
 40
0.1223505956
 40
0.2492234674
 40
0.3785599849
 40
0.5085370156
 40
0.6373853032
 40
0.7633844775
 40
0.8848473319
 40
1.0
 40
1.0
 40
1.0
 40
1.0
 10
15.9541907578
 20
12.1393438621
 30
0.0
 10
15.9532760562
 20
12.1393438621
 30
0.0
 10
15.9514119676
 20
12.139438073
 30
0.0
 10
15.9486060569
 20
12.1398325346
 30
0.0
 10
15.9457887242
 20
12.1404794334
 30
0.0
 10
15.9430207455
 20
12.1413619108
 30
0.0
 10
15.9403592603
 20
12.1424632934
 30
0.0
 10
15.9378581509
 20
12.1437596605
 30
0.0
 10
15.9355731756
 20
12.1452254611
 30
0.0
 10
15.934182715
 20
12.1463253869
 30
0.0
 10
15.9335398299
 20
12.1468979506
 30
0.0
  0
SPLINE
  5
366
100
AcDbEntity
  8
0
100
AcDbSpline
 62
7
  6
CONTINUOUS
 70
0
 71
3
 72
15
 73
11
 74
0
 42
0.0000001
 43
0.0000001
 44
0.0000000001
 40
0.0
 40
0.0
 40
0.0
 40
0.0
 40
0.1536378568
 40
0.299833028
 40
0.4373323869
 40
0.565709665
 40
0.6850817364
 40
0.7962094321
 40
0.9005129396
 40
1.0
 40
1.0
 40
1.0
 40
1.0
 10
16.1479001105
 20
12.1859646097
 30
0.0
 10
16.1465116554
 20
12.1859646097
 30
0.0
 10
16.143800291
 20
12.1858521833
 30
0.0
 10
16.1398769347
 20
12.1853277766
 30
0.0
 10
16.1362492835
 20
12.1844536208
 30
0.0
 10
16.132974343
 20
12.1832453107
 30
0.0
 10
16.1301012298
 20
12.1817164974
 30
0.0
 10
16.1276728368
 20
12.1798870083
 30
0.0
 10
16.1257360884
 20
12.1777790533
 30
0.0
 10
16.1247803446
 20
12.1761857863
 30
0.0
 10
16.1244060702
 20
12.1753683082
 30
0.0
  0
SPLINE
  5
367
100
AcDbEntity
  8
0
100
AcDbSpline
 62
7
  6
CONTINUOUS
 70
0
 71
3
 72
15
 73
11
 74
0
 42
0.0000001
 43
0.0000001
 44
0.0000000001
 40
0.0
 40
0.0
 40
0.0
 40
0.0
 40
0.1201466074
 40
0.2443974275
 40
0.3712902171
 40
0.4995232987
 40
0.6278184272
 40
0.754895401
 40
0.8794471242
 40
1.0
 40
1.0
 40
1.0
 40
1.0
 10
16.2475577248
 20
12.1753683082
 30
0.0
 10
16.2463731325
 20
12.1761913431
 30
0.0
 10
16.2438896807
 20
12.1777612267
 30
0.0
 10
16.2399439813
 20
12.179843962
 30
0.0
 10
16.2357642678
 20
12.1816641522
 30
0.0
 10
16.2314189315
 20
12.183195123
 30
0.0
 10
16.2269732028
 20
12.1844123535
 30
0.0
 10
16.2224946971
 20
12.1852988333
 30
0.0
 10
16.2180549308
 20
12.1858375083
 30
0.0
 10
16.2151111873
 20
12.1859646097
 30
0.0
 10
16.2136638655
 20
12.1859646097
 30
0.0
  0
SPLINE
  5
368
100
AcDbEntity
  8
0
100
AcDbSpline
 62
7
  6
CONTINUOUS
 70
0
 71
3
 72
9
 73
5
 74
0
 42
0.0000001
 43
0.0000001
 44
0.0000000001
 40
0.0
 40
0.0
 40
0.0
 40
0.0
 40
0.487490961
 40
1.0
 40
1.0
 40
1.0
 40
1.0
 10
16.2578542987
 20
12.1668199377
 30
0.0
 10
16.256318444
 20
12.1683625768
 30
0.0
 10
16.2530044427
 20
12.1713668568
 30
0.0
 10
16.2494371678
 20
12.1740625025
 30
0.0
 10
16.2475577248
 20
12.1753683082
 30
0.0
  0
SPLINE
  5
369
100
AcDbEntity
  8
0
100
AcDbSpline
 62
7
  6
CONTINUOUS
 70
0
 71
3
 72
15
 73
11
 74
0
 42
0.0000001
 43
0.0000001
 44
0.0000000001
 40
0.0
 40
0.0
 40
0.0
 40
0.0
 40
0.1223505956
 40
0.2492234674
 40
0.3785599849
 40
0.5085370156
 40
0.6373853032
 40
0.7633844775
 40
0.8848473319
 40
1.0
 40
1.0
 40
1.0
 40
1.0
 10
16.2995886305
 20
12.1393438621
 30
0.0
 10
16.2986739289
 20
12.1393438621
 30
0.0
 10
16.2968098403
 20
12.139438073
 30
0.0
 10
16.2940039297
 20
12.1398325346
 30
0.0
 10
16.2911865969
 20
12.1404794334
 30
0.0
 10
16.2884186183
 20
12.1413619108
 30
0.0
 10
16.285757133
 20
12.1424632934
 30
0.0
 10
16.2832560236
 20
12.1437596605
 30
0.0
 10
16.2809710483
 20
12.1452254611
 30
0.0
 10
16.2795805878
 20
12.1463253869
 30
0.0
 10
16.2789377027
 20
12.1468979506
 30
0.0
  0
SPLINE
  5
36A
100
AcDbEntity
  8
0
100
AcDbSpline
 62
7
  6
CONTINUOUS
 70
0
 71
3
 72
14
 73
10
 74
0
 42
0.0000001
 43
0.0000001
 44
0.0000000001
 40
0.0
 40
0.0
 40
0.0
 40
0.0
 40
0.0997371093
 40
0.2031531903
 40
0.3129580674
 40
0.4312595172
 40
0.6969918413
 40
0.8446007722
 40
1.0
 40
1.0
 40
1.0
 40
1.0
 10
15.0845442291
 20
12.1458715423
 30
0.0
 10
15.0843911214
 20
12.1453795078
 30
0.0
 10
15.0839582418
 20
12.1444111728
 30
0.0
 10
15.0829771253
 20
12.1431106648
 30
0.0
 10
15.0816770548
 20
12.1419785348
 30
0.0
 10
15.0794761623
 20
12.1406666873
 30
0.0
 10
15.0768176782
 20
12.1398353072
 30
0.0
 10
15.0739083073
 20
12.1394146498
 30
0.0
 10
15.072340899
 20
12.1393438621
 30
0.0
 10
15.0715380072
 20
12.1393438621
 30
0.0
  0
SPLINE
  5
36B
100
AcDbEntity
  8
0
100
AcDbSpline
 62
7
  6
CONTINUOUS
 70
0
 71
3
 72
14
 73
10
 74
0
 42
0.0000001
 43
0.0000001
 44
0.0000000001
 40
0.0
 40
0.0
 40
0.0
 40
0.0
 40
0.0997371093
 40
0.2031531903
 40
0.3129580674
 40
0.4312595172
 40
0.6969918413
 40
0.8446007722
 40
1.0
 40
1.0
 40
1.0
 40
1.0
 10
14.7391463563
 20
12.1458715423
 30
0.0
 10
14.7389932486
 20
12.1453795078
 30
0.0
 10
14.7385603691
 20
12.1444111728
 30
0.0
 10
14.7375792526
 20
12.1431106648
 30
0.0
 10
14.7362791821
 20
12.1419785348
 30
0.0
 10
14.7340782896
 20
12.1406666873
 30
0.0
 10
14.7314198054
 20
12.1398353072
 30
0.0
 10
14.7285104346
 20
12.1394146498
 30
0.0
 10
14.7269430262
 20
12.1393438621
 30
0.0
 10
14.7261401345
 20
12.1393438621
 30
0.0
  0
SPLINE
  5
36C
100
AcDbEntity
  8
0
100
AcDbSpline
 62
7
  6
CONTINUOUS
 70
0
 71
3
 72
15
 73
11
 74
0
 42
0.0000001
 43
0.0000001
 44
0.0000000001
 40
0.0
 40
0.0
 40
0.0
 40
0.0
 40
0.0997258588
 40
0.2030115833
 40
0.3127317371
 40
0.4309680301
 40
0.558895596
 40
0.6968419374
 40
0.8443696593
 40
1.0
 40
1.0
 40
1.0
 40
1.0
 10
16.1207386535
 20
12.1458712831
 30
0.0
 10
16.1205861216
 20
12.1453787937
 30
0.0
 10
16.12015499
 20
12.1444095251
 30
0.0
 10
16.1191711929
 20
12.1431109441
 30
0.0
 10
16.1178708599
 20
12.1419802626
 30
0.0
 10
16.1162838584
 20
12.1410332915
 30
0.0
 10
16.1144382099
 20
12.1402831177
 30
0.0
 10
16.1123657963
 20
12.139739764
 30
0.0
 10
16.1101046485
 20
12.1394138205
 30
0.0
 10
16.1085362135
 20
12.1393438621
 30
0.0
 10
16.1077316255
 20
12.1393438621
 30
0.0
  0
SPLINE
  5
36D
100
AcDbEntity
  8
0
100
AcDbSpline
 62
7
  6
CONTINUOUS
 70
0
 71
3
 72
15
 73
11
 74
0
 42
0.0000001
 43
0.0000001
 44
0.0000000001
 40
0.0
 40
0.0
 40
0.0
 40
0.0
 40
0.0997258588
 40
0.2030115833
 40
0.3127317371
 40
0.4309680301
 40
0.558895596
 40
0.6968419374
 40
0.8443696593
 40
1.0
 40
1.0
 40
1.0
 40
1.0
 10
15.7753407808
 20
12.1458712831
 30
0.0
 10
15.7751882489
 20
12.1453787937
 30
0.0
 10
15.7747571173
 20
12.1444095251
 30
0.0
 10
15.7737733201
 20
12.1431109441
 30
0.0
 10
15.7724729871
 20
12.1419802626
 30
0.0
 10
15.7708859857
 20
12.1410332915
 30
0.0
 10
15.7690403371
 20
12.1402831177
 30
0.0
 10
15.7669679235
 20
12.139739764
 30
0.0
 10
15.7647067758
 20
12.1394138205
 30
0.0
 10
15.7631383407
 20
12.1393438621
 30
0.0
 10
15.7623337527
 20
12.1393438621
 30
0.0
  0
SPLINE
  5
36E
100
AcDbEntity
  8
0
100
AcDbSpline
 62
7
  6
CONTINUOUS
 70
0
 71
3
 72
9
 73
5
 74
0
 42
0.0000001
 43
0.0000001
 44
0.0000000001
 40
0.0
 40
0.0
 40
0.0
 40
0.0
 40
0.4965273797
 40
1.0
 40
1.0
 40
1.0
 40
1.0
 10
15.2675152924
 20
12.0654475352
 30
0.0
 10
15.2678135995
 20
12.0664127933
 30
0.0
 10
15.2682726245
 20
12.0684034203
 30
0.0
 10
15.2684405121
 20
12.0704388071
 30
0.0
 10
15.2684550008
 20
12.0714631385
 30
0.0
  0
SPLINE
  5
36F
100
AcDbEntity
  8
0
100
AcDbSpline
 62
7
  6
CONTINUOUS
 70
0
 71
3
 72
15
 73
11
 74
0
 42
0.0000001
 43
0.0000001
 44
0.0000000001
 40
0.0
 40
0.0
 40
0.0
 40
0.0
 40
0.1534362794
 40
0.2996752345
 40
0.4373380033
 40
0.5657344032
 40
0.6851172796
 40
0.796291796
 40
0.9006247347
 40
1.0
 40
1.0
 40
1.0
 40
1.0
 10
14.4209107467
 20
12.1859646097
 30
0.0
 10
14.4195241475
 20
12.1859646097
 30
0.0
 10
14.4168142661
 20
12.1858512117
 30
0.0
 10
14.4128912347
 20
12.1853261015
 30
0.0
 10
14.4092606847
 20
12.1844553217
 30
0.0
 10
14.4059844923
 20
12.1832455987
 30
0.0
 10
14.4031101296
 20
12.1817174852
 30
0.0
 10
14.4006839855
 20
12.1798837095
 30
0.0
 10
14.3987475118
 20
12.1777765604
 30
0.0
 10
14.3977905511
 20
12.1761848476
 30
0.0
 10
14.3974167065
 20
12.1753683082
 30
0.0
  0
SPLINE
  5
370
100
AcDbEntity
  8
0
100
AcDbSpline
 62
7
  6
CONTINUOUS
 70
0
 71
3
 72
13
 73
9
 74
0
 42
0.0000001
 43
0.0000001
 44
0.0000000001
 40
0.0
 40
0.0
 40
0.0
 40
0.0
 40
0.1200511578
 40
0.2443774915
 40
0.4995227613
 40
0.7549157285
 40
0.8795431667
 40
1.0
 40
1.0
 40
1.0
 40
1.0
 10
14.520568361
 20
12.1753683082
 30
0.0
 10
14.5193851187
 20
12.1761904052
 30
0.0
 10
14.5169020154
 20
12.1777587446
 30
0.0
 10
14.5115959501
 20
12.1805590688
 30
0.0
 10
14.504476031
 20
12.1833513342
 30
0.0
 10
14.497030019
 20
12.1851120094
 30
0.0
 10
14.4910627409
 20
12.1858364431
 30
0.0
 10
14.4881201709
 20
12.1859646097
 30
0.0
 10
14.4866745017
 20
12.1859646097
 30
0.0
  0
SPLINE
  5
371
100
AcDbEntity
  8
0
100
AcDbSpline
 62
7
  6
CONTINUOUS
 70
0
 71
3
 72
9
 73
5
 74
0
 42
0.0000001
 43
0.0000001
 44
0.0000000001
 40
0.0
 40
0.0
 40
0.0
 40
0.0
 40
0.487490961
 40
1.0
 40
1.0
 40
1.0
 40
1.0
 10
14.5308649349
 20
12.1668199377
 30
0.0
 10
14.5293290803
 20
12.1683625768
 30
0.0
 10
14.5260150789
 20
12.1713668568
 30
0.0
 10
14.5224478041
 20
12.1740625025
 30
0.0
 10
14.520568361
 20
12.1753683082
 30
0.0
  0
SPLINE
  5
372
100
AcDbEntity
  8
0
100
AcDbSpline
 62
7
  6
CONTINUOUS
 70
0
 71
3
 72
13
 73
9
 74
0
 42
0.0000001
 43
0.0000001
 44
0.0000000001
 40
0.0
 40
0.0
 40
0.0
 40
0.0
 40
0.1222201702
 40
0.2492004258
 40
0.5085505449
 40
0.7633987379
 40
0.884963945
 40
1.0
 40
1.0
 40
1.0
 40
1.0
 10
14.5725992668
 20
12.1393438621
 30
0.0
 10
14.571685986
 20
12.1393438621
 30
0.0
 10
14.5698229147
 20
12.1394391274
 30
0.0
 10
14.5660561185
 20
12.1399690687
 30
0.0
 10
14.5614125412
 20
12.1412411111
 30
0.0
 10
14.5570757362
 20
12.1432428627
 30
0.0
 10
14.5539807766
 20
12.1452277808
 30
0.0
 10
14.5525902596
 20
12.1463262457
 30
0.0
 10
14.5519483389
 20
12.1468979506
 30
0.0
  0
SPLINE
  5
373
100
AcDbEntity
  8
0
100
AcDbSpline
 62
7
  6
CONTINUOUS
 70
0
 71
3
 72
9
 73
5
 74
0
 42
0.0000001
 43
0.0000001
 44
0.0000000001
 40
0.0
 40
0.0
 40
0.0
 40
0.0
 40
0.4965273797
 40
1.0
 40
1.0
 40
1.0
 40
1.0
 10
14.9221174196
 20
12.0654475352
 30
0.0
 10
14.9224157268
 20
12.0664127933
 30
0.0
 10
14.9228747517
 20
12.0684034203
 30
0.0
 10
14.9230426393
 20
12.0704388071
 30
0.0
 10
14.9230571281
 20
12.0714631385
 30
0.0
  0
SPLINE
  5
374
100
AcDbEntity
  8
0
100
AcDbSpline
 62
7
  6
CONTINUOUS
 70
0
 71
3
 72
14
 73
10
 74
0
 42
0.0000001
 43
0.0000001
 44
0.0000000001
 40
0.0
 40
0.0
 40
0.0
 40
0.0
 40
0.0997371093
 40
0.2031531903
 40
0.3129580674
 40
0.4312595172
 40
0.6969918413
 40
0.8446007722
 40
1.0
 40
1.0
 40
1.0
 40
1.0
 10
14.3937484836
 20
12.1458715423
 30
0.0
 10
14.3935953759
 20
12.1453795078
 30
0.0
 10
14.3931624963
 20
12.1444111728
 30
0.0
 10
14.3921813798
 20
12.1431106648
 30
0.0
 10
14.3908813093
 20
12.1419785348
 30
0.0
 10
14.3886804168
 20
12.1406666873
 30
0.0
 10
14.3860219327
 20
12.1398353072
 30
0.0
 10
14.3831125618
 20
12.1394146498
 30
0.0
 10
14.3815451535
 20
12.1393438621
 30
0.0
 10
14.3807422617
 20
12.1393438621
 30
0.0
  0
SPLINE
  5
375
100
AcDbEntity
  8
0
100
AcDbSpline
 62
7
  6
CONTINUOUS
 70
0
 71
3
 72
15
 73
11
 74
0
 42
0.0000001
 43
0.0000001
 44
0.0000000001
 40
0.0
 40
0.0
 40
0.0
 40
0.0
 40
0.1534362794
 40
0.2996752345
 40
0.4373380033
 40
0.5657344032
 40
0.6851172796
 40
0.796291796
 40
0.9006247347
 40
1.0
 40
1.0
 40
1.0
 40
1.0
 10
14.7663086195
 20
12.1859646097
 30
0.0
 10
14.7649220202
 20
12.1859646097
 30
0.0
 10
14.7622121388
 20
12.1858512117
 30
0.0
 10
14.7582891075
 20
12.1853261015
 30
0.0
 10
14.7546585574
 20
12.1844553217
 30
0.0
 10
14.751382365
 20
12.1832455987
 30
0.0
 10
14.7485080023
 20
12.1817174852
 30
0.0
 10
14.7460818582
 20
12.1798837095
 30
0.0
 10
14.7441453845
 20
12.1777765604
 30
0.0
 10
14.7431884238
 20
12.1761848476
 30
0.0
 10
14.7428145792
 20
12.1753683082
 30
0.0
  0
SPLINE
  5
376
100
AcDbEntity
  8
0
100
AcDbSpline
 62
7
  6
CONTINUOUS
 70
0
 71
3
 72
13
 73
9
 74
0
 42
0.0000001
 43
0.0000001
 44
0.0000000001
 40
0.0
 40
0.0
 40
0.0
 40
0.0
 40
0.1200511578
 40
0.2443774915
 40
0.4995227613
 40
0.7549157285
 40
0.8795431667
 40
1.0
 40
1.0
 40
1.0
 40
1.0
 10
14.8659662338
 20
12.1753683082
 30
0.0
 10
14.8647829914
 20
12.1761904052
 30
0.0
 10
14.8622998881
 20
12.1777587446
 30
0.0
 10
14.8569938228
 20
12.1805590688
 30
0.0
 10
14.8498739038
 20
12.1833513342
 30
0.0
 10
14.8424278918
 20
12.1851120094
 30
0.0
 10
14.8364606137
 20
12.1858364431
 30
0.0
 10
14.8335180437
 20
12.1859646097
 30
0.0
 10
14.8320723745
 20
12.1859646097
 30
0.0
  0
SPLINE
  5
377
100
AcDbEntity
  8
0
100
AcDbSpline
 62
7
  6
CONTINUOUS
 70
0
 71
3
 72
9
 73
5
 74
0
 42
0.0000001
 43
0.0000001
 44
0.0000000001
 40
0.0
 40
0.0
 40
0.0
 40
0.0
 40
0.487490961
 40
1.0
 40
1.0
 40
1.0
 40
1.0
 10
14.8762628077
 20
12.1668199377
 30
0.0
 10
14.874726953
 20
12.1683625768
 30
0.0
 10
14.8714129517
 20
12.1713668568
 30
0.0
 10
14.8678456768
 20
12.1740625025
 30
0.0
 10
14.8659662338
 20
12.1753683082
 30
0.0
  0
SPLINE
  5
378
100
AcDbEntity
  8
0
100
AcDbSpline
 62
7
  6
CONTINUOUS
 70
0
 71
3
 72
13
 73
9
 74
0
 42
0.0000001
 43
0.0000001
 44
0.0000000001
 40
0.0
 40
0.0
 40
0.0
 40
0.0
 40
0.1222201702
 40
0.2492004258
 40
0.5085505449
 40
0.7633987379
 40
0.884963945
 40
1.0
 40
1.0
 40
1.0
 40
1.0
 10
14.9179971395
 20
12.1393438621
 30
0.0
 10
14.9170838588
 20
12.1393438621
 30
0.0
 10
14.9152207874
 20
12.1394391274
 30
0.0
 10
14.9114539912
 20
12.1399690687
 30
0.0
 10
14.9068104139
 20
12.1412411111
 30
0.0
 10
14.902473609
 20
12.1432428627
 30
0.0
 10
14.8993786493
 20
12.1452277808
 30
0.0
 10
14.8979881324
 20
12.1463262457
 30
0.0
 10
14.8973462117
 20
12.1468979506
 30
0.0
  0
SPLINE
  5
379
100
AcDbEntity
  8
0
100
AcDbSpline
 62
7
  6
CONTINUOUS
 70
0
 71
3
 72
9
 73
5
 74
0
 42
0.0000001
 43
0.0000001
 44
0.0000000001
 40
0.0
 40
0.0
 40
0.0
 40
0.0
 40
0.4965273797
 40
1.0
 40
1.0
 40
1.0
 40
1.0
 10
16.3037089106
 20
12.0654475352
 30
0.0
 10
16.3040072178
 20
12.0664127933
 30
0.0
 10
16.3044662427
 20
12.0684034203
 30
0.0
 10
16.3046341303
 20
12.0704388071
 30
0.0
 10
16.3046486191
 20
12.0714631385
 30
0.0
  0
SPLINE
  5
37A
100
AcDbEntity
  8
0
100
AcDbSpline
 62
7
  6
CONTINUOUS
 70
0
 71
3
 72
9
 73
5
 74
0
 42
0.0000001
 43
0.0000001
 44
0.0000000001
 40
0.0
 40
0.0
 40
0.0
 40
0.0
 40
0.4965273797
 40
1.0
 40
1.0
 40
1.0
 40
1.0
 10
15.6129131651
 20
12.0654475352
 30
0.0
 10
15.6132114723
 20
12.0664127933
 30
0.0
 10
15.6136704972
 20
12.0684034203
 30
0.0
 10
15.6138383848
 20
12.0704388071
 30
0.0
 10
15.6138528736
 20
12.0714631385
 30
0.0
  0
SPLINE
  5
37B
100
AcDbEntity
  8
0
100
AcDbSpline
 62
7
  6
CONTINUOUS
 70
0
 71
3
 72
15
 73
11
 74
0
 42
0.0000001
 43
0.0000001
 44
0.0000000001
 40
0.0
 40
0.0
 40
0.0
 40
0.0
 40
0.1534362794
 40
0.2996752345
 40
0.4373380033
 40
0.5657344032
 40
0.6851172796
 40
0.796291796
 40
0.9006247347
 40
1.0
 40
1.0
 40
1.0
 40
1.0
 10
15.1117064922
 20
12.1859646097
 30
0.0
 10
15.110319893
 20
12.1859646097
 30
0.0
 10
15.1076100116
 20
12.1858512117
 30
0.0
 10
15.1036869802
 20
12.1853261015
 30
0.0
 10
15.1000564302
 20
12.1844553217
 30
0.0
 10
15.0967802378
 20
12.1832455987
 30
0.0
 10
15.0939058751
 20
12.1817174852
 30
0.0
 10
15.091479731
 20
12.1798837095
 30
0.0
 10
15.0895432573
 20
12.1777765604
 30
0.0
 10
15.0885862966
 20
12.1761848476
 30
0.0
 10
15.088212452
 20
12.1753683082
 30
0.0
  0
SPLINE
  5
37C
100
AcDbEntity
  8
0
100
AcDbSpline
 62
7
  6
CONTINUOUS
 70
0
 71
3
 72
13
 73
9
 74
0
 42
0.0000001
 43
0.0000001
 44
0.0000000001
 40
0.0
 40
0.0
 40
0.0
 40
0.0
 40
0.1200511578
 40
0.2443774915
 40
0.4995227613
 40
0.7549157285
 40
0.8795431667
 40
1.0
 40
1.0
 40
1.0
 40
1.0
 10
15.2113641065
 20
12.1753683082
 30
0.0
 10
15.2101808642
 20
12.1761904052
 30
0.0
 10
15.2076977609
 20
12.1777587446
 30
0.0
 10
15.2023916956
 20
12.1805590688
 30
0.0
 10
15.1952717765
 20
12.1833513342
 30
0.0
 10
15.1878257645
 20
12.1851120094
 30
0.0
 10
15.1818584864
 20
12.1858364431
 30
0.0
 10
15.1789159164
 20
12.1859646097
 30
0.0
 10
15.1774702472
 20
12.1859646097
 30
0.0
  0
SPLINE
  5
37D
100
AcDbEntity
  8
0
100
AcDbSpline
 62
7
  6
CONTINUOUS
 70
0
 71
3
 72
9
 73
5
 74
0
 42
0.0000001
 43
0.0000001
 44
0.0000000001
 40
0.0
 40
0.0
 40
0.0
 40
0.0
 40
0.487490961
 40
1.0
 40
1.0
 40
1.0
 40
1.0
 10
15.2216606804
 20
12.1668199377
 30
0.0
 10
15.2201248258
 20
12.1683625768
 30
0.0
 10
15.2168108244
 20
12.1713668568
 30
0.0
 10
15.2132435496
 20
12.1740625025
 30
0.0
 10
15.2113641065
 20
12.1753683082
 30
0.0
  0
SPLINE
  5
37E
100
AcDbEntity
  8
0
100
AcDbSpline
 62
7
  6
CONTINUOUS
 70
0
 71
3
 72
13
 73
9
 74
0
 42
0.0000001
 43
0.0000001
 44
0.0000000001
 40
0.0
 40
0.0
 40
0.0
 40
0.0
 40
0.1222201702
 40
0.2492004258
 40
0.5085505449
 40
0.7633987379
 40
0.884963945
 40
1.0
 40
1.0
 40
1.0
 40
1.0
 10
15.2633950123
 20
12.1393438621
 30
0.0
 10
15.2624817315
 20
12.1393438621
 30
0.0
 10
15.2606186602
 20
12.1394391274
 30
0.0
 10
15.256851864
 20
12.1399690687
 30
0.0
 10
15.2522082867
 20
12.1412411111
 30
0.0
 10
15.2478714817
 20
12.1432428627
 30
0.0
 10
15.2447765221
 20
12.1452277808
 30
0.0
 10
15.2433860051
 20
12.1463262457
 30
0.0
 10
15.2427440844
 20
12.1468979506
 30
0.0
  0
SPLINE
  5
37F
100
AcDbEntity
  8
0
100
AcDbSpline
 62
7
  6
CONTINUOUS
 70
0
 71
3
 72
9
 73
5
 74
0
 42
0.0000001
 43
0.0000001
 44
0.0000000001
 40
0.0
 40
0.0
 40
0.0
 40
0.0
 40
0.4965273797
 40
1.0
 40
1.0
 40
1.0
 40
1.0
 10
15.9583110379
 20
12.0654475352
 30
0.0
 10
15.958609345
 20
12.0664127933
 30
0.0
 10
15.95906837
 20
12.0684034203
 30
0.0
 10
15.9592362576
 20
12.0704388071
 30
0.0
 10
15.9592507463
 20
12.0714631385
 30
0.0
  0
SPLINE
  5
380
100
AcDbEntity
  8
0
100
AcDbSpline
 62
7
  6
CONTINUOUS
 70
0
 71
3
 72
14
 73
10
 74
0
 42
0.0000001
 43
0.0000001
 44
0.0000000001
 40
0.0
 40
0.0
 40
0.0
 40
0.0
 40
0.0997371093
 40
0.2031531903
 40
0.3129580674
 40
0.4312595172
 40
0.6969918413
 40
0.8446007722
 40
1.0
 40
1.0
 40
1.0
 40
1.0
 10
15.4299421018
 20
12.1458715423
 30
0.0
 10
15.4297889941
 20
12.1453795078
 30
0.0
 10
15.4293561146
 20
12.1444111728
 30
0.0
 10
15.4283749981
 20
12.1431106648
 30
0.0
 10
15.4270749276
 20
12.1419785348
 30
0.0
 10
15.4248740351
 20
12.1406666873
 30
0.0
 10
15.4222155509
 20
12.1398353072
 30
0.0
 10
15.4193061801
 20
12.1394146498
 30
0.0
 10
15.4177387717
 20
12.1393438621
 30
0.0
 10
15.41693588
 20
12.1393438621
 30
0.0
  0
SPLINE
  5
381
100
AcDbEntity
  8
0
100
AcDbSpline
 62
7
  6
CONTINUOUS
 70
0
 71
3
 72
15
 73
11
 74
0
 42
0.0000001
 43
0.0000001
 44
0.0000000001
 40
0.0
 40
0.0
 40
0.0
 40
0.0
 40
0.1534362794
 40
0.2996752345
 40
0.4373380033
 40
0.5657344032
 40
0.6851172796
 40
0.796291796
 40
0.9006247347
 40
1.0
 40
1.0
 40
1.0
 40
1.0
 10
15.457104365
 20
12.1859646097
 30
0.0
 10
15.4557177657
 20
12.1859646097
 30
0.0
 10
15.4530078844
 20
12.1858512117
 30
0.0
 10
15.449084853
 20
12.1853261015
 30
0.0
 10
15.4454543029
 20
12.1844553217
 30
0.0
 10
15.4421781105
 20
12.1832455987
 30
0.0
 10
15.4393037478
 20
12.1817174852
 30
0.0
 10
15.4368776037
 20
12.1798837095
 30
0.0
 10
15.43494113
 20
12.1777765604
 30
0.0
 10
15.4339841693
 20
12.1761848476
 30
0.0
 10
15.4336103247
 20
12.1753683082
 30
0.0
  0
SPLINE
  5
382
100
AcDbEntity
  8
0
100
AcDbSpline
 62
7
  6
CONTINUOUS
 70
0
 71
3
 72
13
 73
9
 74
0
 42
0.0000001
 43
0.0000001
 44
0.0000000001
 40
0.0
 40
0.0
 40
0.0
 40
0.0
 40
0.1200511578
 40
0.2443774915
 40
0.4995227613
 40
0.7549157285
 40
0.8795431667
 40
1.0
 40
1.0
 40
1.0
 40
1.0
 10
15.5567619793
 20
12.1753683082
 30
0.0
 10
15.555578737
 20
12.1761904052
 30
0.0
 10
15.5530956336
 20
12.1777587446
 30
0.0
 10
15.5477895683
 20
12.1805590688
 30
0.0
 10
15.5406696493
 20
12.1833513342
 30
0.0
 10
15.5332236373
 20
12.1851120094
 30
0.0
 10
15.5272563592
 20
12.1858364431
 30
0.0
 10
15.5243137892
 20
12.1859646097
 30
0.0
 10
15.52286812
 20
12.1859646097
 30
0.0
  0
SPLINE
  5
383
100
AcDbEntity
  8
0
100
AcDbSpline
 62
7
  6
CONTINUOUS
 70
0
 71
3
 72
9
 73
5
 74
0
 42
0.0000001
 43
0.0000001
 44
0.0000000001
 40
0.0
 40
0.0
 40
0.0
 40
0.0
 40
0.487490961
 40
1.0
 40
1.0
 40
1.0
 40
1.0
 10
15.5670585532
 20
12.1668199377
 30
0.0
 10
15.5655226985
 20
12.1683625768
 30
0.0
 10
15.5622086972
 20
12.1713668568
 30
0.0
 10
15.5586414223
 20
12.1740625025
 30
0.0
 10
15.5567619793
 20
12.1753683082
 30
0.0
  0
SPLINE
  5
384
100
AcDbEntity
  8
0
100
AcDbSpline
 62
7
  6
CONTINUOUS
 70
0
 71
3
 72
13
 73
9
 74
0
 42
0.0000001
 43
0.0000001
 44
0.0000000001
 40
0.0
 40
0.0
 40
0.0
 40
0.0
 40
0.1222201702
 40
0.2492004258
 40
0.5085505449
 40
0.7633987379
 40
0.884963945
 40
1.0
 40
1.0
 40
1.0
 40
1.0
 10
15.608792885
 20
12.1393438621
 30
0.0
 10
15.6078796043
 20
12.1393438621
 30
0.0
 10
15.606016533
 20
12.1394391274
 30
0.0
 10
15.6022497368
 20
12.1399690687
 30
0.0
 10
15.5976061594
 20
12.1412411111
 30
0.0
 10
15.5932693545
 20
12.1432428627
 30
0.0
 10
15.5901743948
 20
12.1452277808
 30
0.0
 10
15.5887838779
 20
12.1463262457
 30
0.0
 10
15.5881419572
 20
12.1468979506
 30
0.0
  0
ENDSEC
  0
SECTION
  2
OBJECTS
  0
DICTIONARY
  5
C
100
AcDbDictionary
280
0
281
1
  3
ACAD_GROUP
350
D
  3
ACAD_MLINESTYLE
350
17
  3
ACAD_LAYOUT
350
1A
  3
ACAD_PLOTSETTINGS
350
19
  3
ACAD_PLOTSTYLENAME
350
E
  0
DICTIONARY
  5
D
102
{ACAD_REACTORS
330
C
102
}
100
AcDbDictionary
280
0
281
1
  0
ACDBDICTIONARYWDFLT
  5
E
102
{ACAD_REACTORS
330
C
102
}
100
AcDbDictionary
281
1
  3
Normal
350
F
100
AcDbDictionaryWithDefault
340
F
  0
DICTIONARY
  5
17
102
{ACAD_REACTORS
330
C
102
}
100
AcDbDictionary
280
0
281
1
  3
Standard
350
18
  0
DICTIONARY
  5
19
102
{ACAD_REACTORS
330
C
102
}
100
AcDbDictionary
281
1
  0
DICTIONARY
  5
1A
102
{ACAD_REACTORS
330
C
102
}
100
AcDbDictionary
281
1
  3
Model
350
385
  3
Layout1
350
386
  0
ACDBPLACEHOLDER
  5
F
102
{ACAD_REACTORS
330
E
102
}
  0
MLINESTYLE
  5
18
102
{ACAD_REACTORS
330
17
102
}
100
AcDbMlineStyle
  2
STANDARD
 70
0
  3

 62
256
 51
90.0
 52
90.0
 71
2
 49
0.5
 62
256
  6
BYLAYER
 49
-0.5
 62
256
  6
BYLAYER
  0
LAYOUT
  5
385
102
{ACAD_REACTORS
330
1A
102
}
100
AcDbPlotSettings
  1

  2
none_device
  4
ANSI_C_(22.00_x_17.00_Inches)
  6

 40
0.0
 41
0.0
 42
0.0
 43
0.0
 44
558.8
 45
431.8
 46
0.0
 47
0.0
 48
0.0
 49
0.0
140
0.0
141
0.0
142
1.0
143
1.0
 70
1024
 72
0
 73
0
 74
0
  7

 75
0
147
1.0
148
0.0
149
0.0
100
AcDbLayout
  1
Model
 70
0
 71
0
 10
0.0
 20
0.0
 11
22.0
 21
17.0
 12
0.0
 22
0.0
 32
0.0
 14
0.0
 24
0.0
 34
0.0
 15
0.0
 25
0.0
 35
0.0
146
0.0
 13
0.0
 23
0.0
 33
0.0
 16
1.0
 26
0.0
 36
0.0
 17
0.0
 27
1.0
 37
0.0
 76
0
330
216
345
0
346
0
  0
LAYOUT
  5
386
102
{ACAD_REACTORS
330
1A
102
}
100
AcDbPlotSettings
  1

  2
none_device
  4
ANSI_C_(22.00_x_17.00_Inches)
  6

 40
0.0
 41
0.0
 42
0.0
 43
0.0
 44
558.8
 45
431.8
 46
0.0
 47
0.0
 48
0.0
 49
0.0
140
0.0
141
0.0
142
1.0
143
1.0
 70
0
 72
0
 73
0
 74
0
  7

 75
0
147
1.0
148
0.0
149
0.0
100
AcDbLayout
  1
Layout1
 70
0
 71
1
 10
0.0
 20
0.0
 11
22.0
 21
17.0
 12
0.0
 22
0.0
 32
0.0
 14
0.0
 24
0.0
 34
0.0
 15
0.0
 25
0.0
 35
0.0
146
0.0
 13
0.0
 23
0.0
 33
0.0
 16
1.0
 26
0.0
 36
0.0
 17
0.0
 27
1.0
 37
0.0
 76
0
330
217
345
0
346
0
  0
ENDSEC
  0
EOF