999
DXF file: _cgs_temp_output.dxf
999
Pro/ENGINEER 2015110 by Parametric Technology Corporation
  0
SECTION
  2
HEADER
  9
$ACADVER
  1
AC1021
  9
$DWGCODEPAGE
  3
ANSI_1252
  9
$EXTMAX
 10
22.0
 20
17.0
 30
0.0
  9
$EXTMIN
 10
0.0
 20
0.0
 30
0.0
  9
$LIMMIN
 10
0.0
 20
0.0
  9
$LIMMAX
 10
22.0
 20
17.0
  9
$VIEWCTR
 10
11.0
 20
8.5
  9
$VIEWSIZE
 40
17.0
  9
$CLAYER
  8
0
  9
$LTSCALE
 40
1.21
  9
$CELTYPE
  6
BYLAYER
  9
$DIMSCALE
 40
1.0
  9
$DIMASZ
 40
0.1875
  9
$DIMEXO
 40
0.0625
  9
$DIMDLI
 40
0.836
  9
$DIMEXE
 40
0.125
  9
$DIMCEN
 40
0.198
  9
$DIMLFAC
 40
1.0
  9
$DIMBLK
  1
_CLOSED
  9
$DIMALT
 70
0
  9
$DIMALTF
 40
25.4
  9
$DIMTXT
 40
0.15625
  9
$DIMTOL
 70
0
  9
$DIMLIM
 70
0
  9
$DIMTFAC
 40
1.0
  9
$DIMGAP
 40
0.09
  9
$DIMDSEP
 70
46
  9
$AUNITS
 70
0
  9
$PDMODE
 70
3
  9
$PDSIZE
 40
0.3125
  9
$HANDSEED
  5
345
  9
$TILEMODE
 70
1
  9
$MEASUREMENT
 70
0
  9
$INSUNITS
 70
1
  0
ENDSEC
  0
SECTION
  2
CLASSES
  0
CLASS
  1
ACDBDICTIONARYWDFLT
  2
AcDbDictionaryWithDefault
  3
AutoCAD 2000
 90
0
 91
1
280
0
281
0
  0
CLASS
  1
ACDBPLACEHOLDER
  2
AcDbPlaceHolder
  3
AutoCAD 2000
 90
0
 91
1
280
0
281
0
  0
CLASS
  1
LAYOUT
  2
AcDbLayout
  3
AutoCAD 2000
 90
0
 91
0
280
0
281
0
  0
ENDSEC
  0
SECTION
  2
TABLES
  0
TABLE
  2
VPORT
  5
8
100
AcDbSymbolTable
 70
2
  0
VPORT
  5
1F4
100
AcDbSymbolTableRecord
100
AcDbViewportTableRecord
  2
*ACTIVE
 70
0
 10
0.0
 20
0.0
 11
1.0
 21
1.0
 12
11.0
 22
8.5
 13
0.0
 23
0.0
 14
1.0
 24
1.0
 15
0.0
 25
0.0
 16
0.0
 26
0.0
 36
1.0
 17
0.0
 27
0.0
 37
0.0
 40
17.0
 41
1.2941176471
 42
50.0
 43
0.0
 44
0.0
 50
0.0
 51
0.0
 71
0
 72
100
 73
1
 74
1
 75
0
 76
0
 77
0
 78
0
  0
ENDTAB
  0
TABLE
  2
LTYPE
  5
5
100
AcDbSymbolTable
 70
6
  0
LTYPE
  5
14
100
AcDbSymbolTableRecord
100
AcDbLinetypeTableRecord
  2
BYBLOCK
 70
0
  3

 72
65
 73
0
 40
0.0
  0
LTYPE
  5
15
100
AcDbSymbolTableRecord
100
AcDbLinetypeTableRecord
  2
BYLAYER
 70
0
  3

 72
65
 73
0
 40
0.0
  0
LTYPE
  5
16
100
AcDbSymbolTableRecord
100
AcDbLinetypeTableRecord
  2
CONTINUOUS
 70
64
  3
Solid line
 72
65
 73
0
 40
0.0
  0
LTYPE
  5
1F5
100
AcDbSymbolTableRecord
100
AcDbLinetypeTableRecord
  2
CENTER
 70
64
  3
____ _ ____ _ ____ _ ____ _ ____ _ ____ _ ____
 72
65
 73
4
 40
0.6
 49
0.375
 74
0
 49
-0.075
 74
0
 49
0.075
 74
0
 49
-0.075
 74
0
  0
LTYPE
  5
1F6
100
AcDbSymbolTableRecord
100
AcDbLinetypeTableRecord
  2
HIDDEN
 70
64
  3
- - - - - - - - - - - - - - - - - - - -
 72
65
 73
2
 40
0.2
 49
0.1
 74
0
 49
-0.1
 74
0
  0
LTYPE
  5
1F7
100
AcDbSymbolTableRecord
100
AcDbLinetypeTableRecord
  2
PHANTOM
 70
64
  3
_____ _ _ _____ _ _ _____ _ _ _____
 72
65
 73
6
 40
0.8
 49
0.45
 74
0
 49
-0.05
 74
0
 49
0.1
 74
0
 49
-0.05
 74
0
 49
0.1
 74
0
 49
-0.05
 74
0
  0
LTYPE
  5
1F8
100
AcDbSymbolTableRecord
100
AcDbLinetypeTableRecord
  2
DOT
 70
64
  3
. . . . . . . . . . . . . . . . . . . .
 72
65
 73
2
 40
0.2
 49
0.1
 74
0
 49
-0.1
 74
0
  0
LTYPE
  5
1F9
100
AcDbSymbolTableRecord
100
AcDbLinetypeTableRecord
  2
DASHED
 70
64
  3
- - - - - - - - - - - - - - - - - - - -
 72
65
 73
2
 40
0.2
 49
0.1
 74
0
 49
-0.1
 74
0
  0
ENDTAB
  0
TABLE
  2
LAYER
  5
2
100
AcDbSymbolTable
 70
36
  0
LAYER
  5
10
100
AcDbSymbolTableRecord
100
AcDbLayerTableRecord
  2
0
 70
0
 62
7
  6
CONTINUOUS
370
-3
390
F
  0
LAYER
  5
1FA
100
AcDbSymbolTableRecord
100
AcDbLayerTableRecord
  2
DEFAULT_1
 70
0
 62
7
  6
CENTER
370
-3
390
F
  0
LAYER
  5
1FB
100
AcDbSymbolTableRecord
100
AcDbLayerTableRecord
  2
DEFAULT_2
 70
0
 62
8
  6
HIDDEN
370
-3
390
F
  0
LAYER
  5
1FC
100
AcDbSymbolTableRecord
100
AcDbLayerTableRecord
  2
DEFAULT_3
 70
0
 62
7
  6
PHANTOM
370
-3
390
F
  0
LAYER
  5
1FD
100
AcDbSymbolTableRecord
100
AcDbLayerTableRecord
  2
01_ALL_DTM_PLN
 70
0
 62
7
  6
CONTINUOUS
370
-3
390
F
  0
LAYER
  5
1FE
100
AcDbSymbolTableRecord
100
AcDbLayerTableRecord
  2
01__ASM_ALL_DTM_PLN
 70
0
 62
7
  6
CONTINUOUS
370
-3
390
F
  0
LAYER
  5
1FF
100
AcDbSymbolTableRecord
100
AcDbLayerTableRecord
  2
01__ASM_DEF_DTM_PLN
 70
0
 62
7
  6
CONTINUOUS
370
-3
390
F
  0
LAYER
  5
200
100
AcDbSymbolTableRecord
100
AcDbLayerTableRecord
  2
01___PRT_ALL_DTM_PLN
 70
0
 62
7
  6
CONTINUOUS
370
-3
390
F
  0
LAYER
  5
201
100
AcDbSymbolTableRecord
100
AcDbLayerTableRecord
  2
01___PRT_DEF_DTM_PLN
 70
0
 62
7
  6
CONTINUOUS
370
-3
390
F
  0
LAYER
  5
202
100
AcDbSymbolTableRecord
100
AcDbLayerTableRecord
  2
02_ALL_AXES
 70
0
 62
7
  6
CONTINUOUS
370
-3
390
F
  0
LAYER
  5
203
100
AcDbSymbolTableRecord
100
AcDbLayerTableRecord
  2
02__ASM_ALL_AXES
 70
0
 62
7
  6
CONTINUOUS
370
-3
390
F
  0
LAYER
  5
204
100
AcDbSymbolTableRecord
100
AcDbLayerTableRecord
  2
02___PRT_ALL_AXES
 70
0
 62
7
  6
CONTINUOUS
370
-3
390
F
  0
LAYER
  5
205
100
AcDbSymbolTableRecord
100
AcDbLayerTableRecord
  2
03_ALL_CURVES
 70
0
 62
7
  6
CONTINUOUS
370
-3
390
F
  0
LAYER
  5
206
100
AcDbSymbolTableRecord
100
AcDbLayerTableRecord
  2
03__ASM_ALL_CURVES
 70
0
 62
7
  6
CONTINUOUS
370
-3
390
F
  0
LAYER
  5
207
100
AcDbSymbolTableRecord
100
AcDbLayerTableRecord
  2
03___PRT_ALL_CURVES
 70
0
 62
7
  6
CONTINUOUS
370
-3
390
F
  0
LAYER
  5
208
100
AcDbSymbolTableRecord
100
AcDbLayerTableRecord
  2
04_ALL_DTM_PNT
 70
0
 62
7
  6
CONTINUOUS
370
-3
390
F
  0
LAYER
  5
209
100
AcDbSymbolTableRecord
100
AcDbLayerTableRecord
  2
04__ASM_ALL_DTM_PNT
 70
0
 62
7
  6
CONTINUOUS
370
-3
390
F
  0
LAYER
  5
20A
100
AcDbSymbolTableRecord
100
AcDbLayerTableRecord
  2
04___PRT_ALL_DTM_PNT
 70
0
 62
7
  6
CONTINUOUS
370
-3
390
F
  0
LAYER
  5
20B
100
AcDbSymbolTableRecord
100
AcDbLayerTableRecord
  2
05_ALL_DTM_CSYS
 70
0
 62
7
  6
CONTINUOUS
370
-3
390
F
  0
LAYER
  5
20C
100
AcDbSymbolTableRecord
100
AcDbLayerTableRecord
  2
05__ASM_ALL_DTM_CSYS
 70
0
 62
7
  6
CONTINUOUS
370
-3
390
F
  0
LAYER
  5
20D
100
AcDbSymbolTableRecord
100
AcDbLayerTableRecord
  2
05__ASM_DEF_DTM_CSYS
 70
0
 62
7
  6
CONTINUOUS
370
-3
390
F
  0
LAYER
  5
20E
100
AcDbSymbolTableRecord
100
AcDbLayerTableRecord
  2
05___PRT_ALL_DTM_CSYS
 70
0
 62
7
  6
CONTINUOUS
370
-3
390
F
  0
LAYER
  5
20F
100
AcDbSymbolTableRecord
100
AcDbLayerTableRecord
  2
05___PRT_DEF_DTM_CSYS
 70
0
 62
7
  6
CONTINUOUS
370
-3
390
F
  0
LAYER
  5
210
100
AcDbSymbolTableRecord
100
AcDbLayerTableRecord
  2
06_ALL_SURFS
 70
0
 62
7
  6
CONTINUOUS
370
-3
390
F
  0
LAYER
  5
211
100
AcDbSymbolTableRecord
100
AcDbLayerTableRecord
  2
06__ASM_ALL_SURFS
 70
0
 62
7
  6
CONTINUOUS
370
-3
390
F
  0
LAYER
  5
212
100
AcDbSymbolTableRecord
100
AcDbLayerTableRecord
  2
06___PRT_ALL_SURFS
 70
0
 62
7
  6
CONTINUOUS
370
-3
390
F
  0
LAYER
  5
213
100
AcDbSymbolTableRecord
100
AcDbLayerTableRecord
  2
07__ASM_ALL_SKELETONS
 70
0
 62
7
  6
CONTINUOUS
370
-3
390
F
  0
ENDTAB
  0
TABLE
  2
STYLE
  5
3
100
AcDbSymbolTable
 70
1
  0
STYLE
  5
11
100
AcDbSymbolTableRecord
100
AcDbTextStyleTableRecord
  2
STANDARD
 70
0
 40
0.0
 41
0.8
 50
0.0
 71
0
 42
0.2
  3
txt
  4

  0
STYLE
  5
214
100
AcDbSymbolTableRecord
100
AcDbTextStyleTableRecord
  2
TEXTSTYLE_1
 70
0
 40
0.0
 41
0.8
 50
0.0
 71
0
 42
0.2
  3
gdt
  4

  0
ENDTAB
  0
TABLE
  2
VIEW
  5
6
100
AcDbSymbolTable
 70
0
  0
ENDTAB
  0
TABLE
  2
UCS
  5
7
100
AcDbSymbolTable
 70
0
  0
ENDTAB
  0
TABLE
  2
APPID
  5
9
100
AcDbSymbolTable
 70
1
  0
APPID
  5
215
100
AcDbSymbolTableRecord
100
AcDbRegAppTableRecord
  2
ACAD
 70
0
  0
ENDTAB
  0
TABLE
  2
BLOCK_RECORD
  5
1
100
AcDbSymbolTable
 70
0
  0
BLOCK_RECORD
  5
216
100
AcDbSymbolTableRecord
100
AcDbBlockTableRecord
  2
*Model_Space
  0
BLOCK_RECORD
  5
217
100
AcDbSymbolTableRecord
100
AcDbBlockTableRecord
  2
*Paper_Space
  0
ENDTAB
  0
TABLE
  2
DIMSTYLE
  5
A
100
AcDbSymbolTable
 70
1
100
AcDbDimStyleTable
 71
0
  0
DIMSTYLE
105
218
100
AcDbSymbolTableRecord
100
AcDbDimStyleTableRecord
  2
STANDARD
 70
0
  3

  4

 40
1.0
 41
0.1875
 42
0.0625
 43
0.38
 44
0.125
 45
0.0
 46
0.0
 47
0.0001
 48
0.0001
140
0.15625
141
0.09
142
0.0
143
25.4
144
1.0
145
0.0
146
1.0
147
0.09
 71
0.0
 72
0.0
 73
1
 74
1
 75
0
 76
0
 77
0
 78
4
170
0
171
2
172
0
173
0
174
0
175
0
176
0
177
0
178
0
270
2
271
4
272
4
273
2
274
2
275
0
280
0
281
0
282
0
283
1
284
4
285
0
286
0
287
3
288
0
340
11
278
46
  0
ENDTAB
  0
ENDSEC
  0
SECTION
  2
BLOCKS
  0
BLOCK
  5
20
100
AcDbEntity
  8
0
100
AcDbBlockBegin
  2
*Model_Space
 70
0
 10
0.0
 20
0.0
 30
0.0
  3
*Model_Space
  1

  0
ENDBLK
  5
21
100
AcDbEntity
  8
0
100
AcDbBlockEnd
  0
BLOCK
  5
1C
100
AcDbEntity
  8
0
100
AcDbBlockBegin
  2
*Paper_Space
 70
0
 10
0.0
 20
0.0
 30
0.0
  3
*Paper_Space
  1

  0
ENDBLK
  5
1D
100
AcDbEntity
  8
0
100
AcDbBlockEnd
  0
ENDSEC
  0
SECTION
  2
ENTITIES
  0
MTEXT
  5
219
100
AcDbEntity
  8
0
100
AcDbMText
 62
7
  6
CONTINUOUS
  7
STANDARD
 71
1
 72
1
 10
15.9560215477
 20
0.9479130325
 30
0.0
 11
1.0
 21
0.0
 31
0.0
 44
0.9
  1
SCALE: 1:1.000
 40
0.3
 41
3.36
  0
LINE
  5
21A
100
AcDbEntity
  8
0
100
AcDbLine
 62
7
  6
CONTINUOUS
 10
0.0
 20
0.0
 11
0.0
 21
17.0
  0
LINE
  5
21B
100
AcDbEntity
  8
0
100
AcDbLine
 62
7
  6
CONTINUOUS
 10
0.0
 20
0.0
 11
22.0
 21
0.0
  0
LINE
  5
21C
100
AcDbEntity
  8
0
100
AcDbLine
 62
7
  6
CONTINUOUS
 10
0.0
 20
17.0
 11
22.0
 21
17.0
  0
LINE
  5
21D
100
AcDbEntity
  8
0
100
AcDbLine
 62
7
  6
CONTINUOUS
 10
22.0
 20
0.0
 11
22.0
 21
17.0
  0
LINE
  5
21E
100
AcDbEntity
  8
0
100
AcDbLine
 62
7
  6
CONTINUOUS
 10
4.4768239691
 20
5.5716946999
 11
4.4768239691
 21
5.4685450936
  0
LINE
  5
21F
100
AcDbEntity
  8
0
100
AcDbLine
 62
7
  6
CONTINUOUS
 10
4.7262521146
 20
5.2248443062
 11
4.7785769259
 21
5.2248443062
  0
LINE
  5
220
100
AcDbEntity
  8
0
100
AcDbLine
 62
7
  6
CONTINUOUS
 10
5.277433217
 20
5.2248443062
 11
5.3297580283
 21
5.2248443062
  0
LINE
  5
221
100
AcDbEntity
  8
0
100
AcDbLine
 62
7
  6
CONTINUOUS
 10
5.8286143193
 20
5.2248443062
 11
5.8809391306
 21
5.2248443062
  0
LINE
  5
222
100
AcDbEntity
  8
0
100
AcDbLine
 62
7
  6
CONTINUOUS
 10
6.3797954217
 20
5.2248443062
 11
6.432120233
 21
5.2248443062
  0
LINE
  5
223
100
AcDbEntity
  8
0
100
AcDbLine
 62
7
  6
CONTINUOUS
 10
6.9309765241
 20
5.2248443062
 11
6.9833013354
 21
5.2248443062
  0
LINE
  5
224
100
AcDbEntity
  8
0
100
AcDbLine
 62
7
  6
CONTINUOUS
 10
7.4821576264
 20
5.2248443062
 11
7.5344824377
 21
5.2248443062
  0
LINE
  5
225
100
AcDbEntity
  8
0
100
AcDbLine
 62
7
  6
CONTINUOUS
 10
4.4768239691
 20
5.4685450936
 11
4.5098572953
 21
5.4685450936
  0
LINE
  5
226
100
AcDbEntity
  8
0
100
AcDbLine
 62
7
  6
CONTINUOUS
 10
4.9949717453
 20
5.4685450936
 11
5.0610383976
 21
5.4685450936
  0
LINE
  5
227
100
AcDbEntity
  8
0
100
AcDbLine
 62
7
  6
CONTINUOUS
 10
5.5461528476
 20
5.4685450936
 11
5.6122195
 21
5.4685450936
  0
LINE
  5
228
100
AcDbEntity
  8
0
100
AcDbLine
 62
7
  6
CONTINUOUS
 10
6.09733395
 20
5.4685450936
 11
6.1634006024
 21
5.4685450936
  0
LINE
  5
229
100
AcDbEntity
  8
0
100
AcDbLine
 62
7
  6
CONTINUOUS
 10
6.6485150523
 20
5.4685450936
 11
6.7145817047
 21
5.4685450936
  0
LINE
  5
22A
100
AcDbEntity
  8
0
100
AcDbLine
 62
7
  6
CONTINUOUS
 10
7.1996961547
 20
5.4685450936
 11
7.2657628071
 21
5.4685450936
  0
LINE
  5
22B
100
AcDbEntity
  8
0
100
AcDbLine
 62
7
  6
CONTINUOUS
 10
7.7508772571
 20
5.4685450936
 11
7.7839105833
 21
5.4685450936
  0
LINE
  5
22C
100
AcDbEntity
  8
0
100
AcDbLine
 62
7
  6
CONTINUOUS
 10
7.7839105833
 20
5.5716946999
 11
7.7508772571
 21
5.5716946999
  0
LINE
  5
22D
100
AcDbEntity
  8
0
100
AcDbLine
 62
7
  6
CONTINUOUS
 10
7.2657628071
 20
5.5716946999
 11
7.1996961547
 21
5.5716946999
  0
LINE
  5
22E
100
AcDbEntity
  8
0
100
AcDbLine
 62
7
  6
CONTINUOUS
 10
6.7145817047
 20
5.5716946999
 11
6.6485150523
 21
5.5716946999
  0
LINE
  5
22F
100
AcDbEntity
  8
0
100
AcDbLine
 62
7
  6
CONTINUOUS
 10
6.1634006024
 20
5.5716946999
 11
6.09733395
 21
5.5716946999
  0
LINE
  5
230
100
AcDbEntity
  8
0
100
AcDbLine
 62
7
  6
CONTINUOUS
 10
5.6122195
 20
5.5716946999
 11
5.5461528476
 21
5.5716946999
  0
LINE
  5
231
100
AcDbEntity
  8
0
100
AcDbLine
 62
7
  6
CONTINUOUS
 10
5.0610383976
 20
5.5716946999
 11
4.9949717453
 21
5.5716946999
  0
LINE
  5
232
100
AcDbEntity
  8
0
100
AcDbLine
 62
7
  6
CONTINUOUS
 10
4.5098572953
 20
5.5716946999
 11
4.4768239691
 21
5.5716946999
  0
LINE
  5
233
100
AcDbEntity
  8
0
100
AcDbLine
 62
7
  6
CONTINUOUS
 10
7.5344824377
 20
5.8153954873
 11
7.4821576264
 21
5.8153954873
  0
LINE
  5
234
100
AcDbEntity
  8
0
100
AcDbLine
 62
7
  6
CONTINUOUS
 10
6.9833013354
 20
5.8153954873
 11
6.9309765241
 21
5.8153954873
  0
LINE
  5
235
100
AcDbEntity
  8
0
100
AcDbLine
 62
7
  6
CONTINUOUS
 10
6.432120233
 20
5.8153954873
 11
6.3797954217
 21
5.8153954873
  0
LINE
  5
236
100
AcDbEntity
  8
0
100
AcDbLine
 62
7
  6
CONTINUOUS
 10
5.8809391306
 20
5.8153954873
 11
5.8286143193
 21
5.8153954873
  0
LINE
  5
237
100
AcDbEntity
  8
0
100
AcDbLine
 62
7
  6
CONTINUOUS
 10
5.3297580283
 20
5.8153954873
 11
5.277433217
 21
5.8153954873
  0
LINE
  5
238
100
AcDbEntity
  8
0
100
AcDbLine
 62
7
  6
CONTINUOUS
 10
4.7785769259
 20
5.8153954873
 11
4.7262521146
 21
5.8153954873
  0
LINE
  5
239
100
AcDbEntity
  8
0
100
AcDbLine
 62
7
  6
CONTINUOUS
 10
7.7839105833
 20
5.4685450936
 11
7.7839105833
 21
5.5716946999
  0
LINE
  5
23A
100
AcDbEntity
  8
0
100
AcDbLine
 62
7
  6
CONTINUOUS
 10
4.4173287768
 20
13.3874493562
 11
4.4173287768
 21
11.8126462066
  0
LINE
  5
23B
100
AcDbEntity
  8
0
100
AcDbLine
 62
7
  6
CONTINUOUS
 10
7.7244153909
 20
11.8126462066
 11
4.4173287768
 21
11.8126462066
  0
LINE
  5
23C
100
AcDbEntity
  8
0
100
AcDbLine
 62
7
  6
CONTINUOUS
 10
4.4173287768
 20
13.3874493562
 11
7.7244153909
 21
13.3874493562
  0
LINE
  5
23D
100
AcDbEntity
  8
0
100
AcDbLine
 62
7
  6
CONTINUOUS
 10
7.7244153909
 20
13.3874493562
 11
7.7244153909
 21
11.8126462066
  0
LINE
  5
23E
100
AcDbEntity
  8
0
100
AcDbLine
 62
7
  6
CONTINUOUS
 10
14.7729536821
 20
5.1653491139
 11
14.7729536821
 21
5.755900295
  0
LINE
  5
23F
100
AcDbEntity
  8
0
100
AcDbLine
 62
7
  6
CONTINUOUS
 10
14.7729536821
 20
5.1653491139
 11
16.3477568317
 21
5.1653491139
  0
LINE
  5
240
100
AcDbEntity
  8
0
100
AcDbLine
 62
7
  6
CONTINUOUS
 10
16.3477568317
 20
5.4090499013
 11
14.7729536821
 21
5.4090499013
  0
LINE
  5
241
100
AcDbEntity
  8
0
100
AcDbLine
 62
7
  6
CONTINUOUS
 10
16.3477568317
 20
5.5121995076
 11
14.7729536821
 21
5.5121995076
  0
LINE
  5
242
100
AcDbEntity
  8
0
100
AcDbLine
 62
7
  6
CONTINUOUS
 10
14.7729536821
 20
5.755900295
 11
16.3477568317
 21
5.755900295
  0
LINE
  5
243
100
AcDbEntity
  8
0
100
AcDbLine
 62
7
  6
CONTINUOUS
 10
16.3477568317
 20
5.1653491139
 11
16.3477568317
 21
5.755900295
  0
LINE
  5
244
100
AcDbEntity
  8
0
100
AcDbLine
 62
7
  6
CONTINUOUS
 10
13.7417623479
 20
11.9260715624
 11
13.7732272964
 21
11.8619527389
  0
LINE
  5
245
100
AcDbEntity
  8
0
100
AcDbLine
 62
7
  6
CONTINUOUS
 10
13.8224787892
 20
12.0400825436
 11
13.8221285494
 21
12.038876341
  0
LINE
  5
246
100
AcDbEntity
  8
0
100
AcDbLine
 62
7
  6
CONTINUOUS
 10
14.1229691565
 20
13.1596572469
 11
13.7417623479
 21
11.9260715624
  0
LINE
  5
247
100
AcDbEntity
  8
0
100
AcDbLine
 62
7
  6
CONTINUOUS
 10
13.8224793151
 20
12.0400823812
 11
14.2036861236
 21
13.2736680656
  0
LINE
  5
248
100
AcDbEntity
  8
0
100
AcDbLine
 62
7
  6
CONTINUOUS
 10
14.2001822691
 20
11.7479417578
 11
14.2005325089
 21
11.7491479603
  0
LINE
  5
249
100
AcDbEntity
  8
0
100
AcDbLine
 62
7
  6
CONTINUOUS
 10
14.3301502033
 20
12.0400825436
 11
14.3297999634
 21
12.038876341
  0
LINE
  5
24A
100
AcDbEntity
  8
0
100
AcDbLine
 62
7
  6
CONTINUOUS
 10
14.2001817432
 20
11.7479419202
 11
14.2350225671
 21
11.8606868674
  0
LINE
  5
24B
100
AcDbEntity
  8
0
100
AcDbLine
 62
7
  6
CONTINUOUS
 10
14.3301507291
 20
12.0400823812
 11
14.7113575377
 21
13.2736680656
  0
LINE
  5
24C
100
AcDbEntity
  8
0
100
AcDbLine
 62
7
  6
CONTINUOUS
 10
14.0773047751
 20
11.7104659002
 11
14.1254991178
 21
11.7104659002
  0
LINE
  5
24D
100
AcDbEntity
  8
0
100
AcDbLine
 62
7
  6
CONTINUOUS
 10
14.5849761891
 20
11.7104659002
 11
14.6331705319
 21
11.7104659002
  0
LINE
  5
24E
100
AcDbEntity
  8
0
100
AcDbLine
 62
7
  6
CONTINUOUS
 10
15.0926476032
 20
11.7104659002
 11
15.1408419459
 21
11.7104659002
  0
LINE
  5
24F
100
AcDbEntity
  8
0
100
AcDbLine
 62
7
  6
CONTINUOUS
 10
15.6003190172
 20
11.7104659002
 11
15.6485133599
 21
11.7104659002
  0
LINE
  5
250
100
AcDbEntity
  8
0
100
AcDbLine
 62
7
  6
CONTINUOUS
 10
16.1079904312
 20
11.7104659002
 11
16.1561847739
 21
11.7104659002
  0
LINE
  5
251
100
AcDbEntity
  8
0
100
AcDbLine
 62
7
  6
CONTINUOUS
 10
16.6156618452
 20
11.7104659002
 11
16.6638561879
 21
11.7104659002
  0
LINE
  5
252
100
AcDbEntity
  8
0
100
AcDbLine
 62
7
  6
CONTINUOUS
 10
13.7732272964
 20
11.8619527389
 11
13.8036530046
 21
11.8619527389
  0
LINE
  5
253
100
AcDbEntity
  8
0
100
AcDbLine
 62
7
  6
CONTINUOUS
 10
14.2504730022
 20
11.8619527389
 11
14.3113244187
 21
11.8619527389
  0
LINE
  5
254
100
AcDbEntity
  8
0
100
AcDbLine
 62
7
  6
CONTINUOUS
 10
14.7581444162
 20
11.8619527389
 11
14.8189958327
 21
11.8619527389
  0
LINE
  5
255
100
AcDbEntity
  8
0
100
AcDbLine
 62
7
  6
CONTINUOUS
 10
15.2658158302
 20
11.8619527389
 11
15.3266672467
 21
11.8619527389
  0
LINE
  5
256
100
AcDbEntity
  8
0
100
AcDbLine
 62
7
  6
CONTINUOUS
 10
15.7734872442
 20
11.8619527389
 11
15.8343386607
 21
11.8619527389
  0
LINE
  5
257
100
AcDbEntity
  8
0
100
AcDbLine
 62
7
  6
CONTINUOUS
 10
16.2811586582
 20
11.8619527389
 11
16.3420100747
 21
11.8619527389
  0
LINE
  5
258
100
AcDbEntity
  8
0
100
AcDbLine
 62
7
  6
CONTINUOUS
 10
16.7888300722
 20
11.8619527389
 11
16.8192557805
 21
11.8619527389
  0
LINE
  5
259
100
AcDbEntity
  8
0
100
AcDbLine
 62
7
  6
CONTINUOUS
 10
14.7078536831
 20
11.7479417578
 11
14.7082039229
 21
11.7491479603
  0
LINE
  5
25A
100
AcDbEntity
  8
0
100
AcDbLine
 62
7
  6
CONTINUOUS
 10
14.7078531572
 20
11.7479419202
 11
14.7426939811
 21
11.8606868674
  0
LINE
  5
25B
100
AcDbEntity
  8
0
100
AcDbLine
 62
7
  6
CONTINUOUS
 10
16.787790832
 20
11.9260715624
 11
16.7573651238
 21
11.9260715624
  0
LINE
  5
25C
100
AcDbEntity
  8
0
100
AcDbLine
 62
7
  6
CONTINUOUS
 10
16.3105451263
 20
11.9260715624
 11
16.2496937098
 21
11.9260715624
  0
LINE
  5
25D
100
AcDbEntity
  8
0
100
AcDbLine
 62
7
  6
CONTINUOUS
 10
15.8028737123
 20
11.9260715624
 11
15.7420222958
 21
11.9260715624
  0
LINE
  5
25E
100
AcDbEntity
  8
0
100
AcDbLine
 62
7
  6
CONTINUOUS
 10
15.2952022982
 20
11.9260715624
 11
15.2343508817
 21
11.9260715624
  0
LINE
  5
25F
100
AcDbEntity
  8
0
100
AcDbLine
 62
7
  6
CONTINUOUS
 10
14.7875308842
 20
11.9260715624
 11
14.7266794677
 21
11.9260715624
  0
LINE
  5
260
100
AcDbEntity
  8
0
100
AcDbLine
 62
7
  6
CONTINUOUS
 10
14.2798594702
 20
11.9260715624
 11
14.2190080537
 21
11.9260715624
  0
LINE
  5
261
100
AcDbEntity
  8
0
100
AcDbLine
 62
7
  6
CONTINUOUS
 10
13.7721880562
 20
11.9260715624
 11
13.7417623479
 21
11.9260715624
  0
LINE
  5
262
100
AcDbEntity
  8
0
100
AcDbLine
 62
7
  6
CONTINUOUS
 10
14.8378216173
 20
12.0400825436
 11
14.8374713775
 21
12.038876341
  0
LINE
  5
263
100
AcDbEntity
  8
0
100
AcDbLine
 62
7
  6
CONTINUOUS
 10
14.8378221432
 20
12.0400823812
 11
15.2190289517
 21
13.2736680656
  0
LINE
  5
264
100
AcDbEntity
  8
0
100
AcDbLine
 62
7
  6
CONTINUOUS
 10
16.4837133533
 20
12.0775584012
 11
16.4355190106
 21
12.0775584012
  0
LINE
  5
265
100
AcDbEntity
  8
0
100
AcDbLine
 62
7
  6
CONTINUOUS
 10
15.9760419393
 20
12.0775584012
 11
15.9278475966
 21
12.0775584012
  0
LINE
  5
266
100
AcDbEntity
  8
0
100
AcDbLine
 62
7
  6
CONTINUOUS
 10
15.4683705253
 20
12.0775584012
 11
15.4201761826
 21
12.0775584012
  0
LINE
  5
267
100
AcDbEntity
  8
0
100
AcDbLine
 62
7
  6
CONTINUOUS
 10
14.9606991113
 20
12.0775584012
 11
14.9125047685
 21
12.0775584012
  0
LINE
  5
268
100
AcDbEntity
  8
0
100
AcDbLine
 62
7
  6
CONTINUOUS
 10
14.4530276972
 20
12.0775584012
 11
14.4048333545
 21
12.0775584012
  0
LINE
  5
269
100
AcDbEntity
  8
0
100
AcDbLine
 62
7
  6
CONTINUOUS
 10
13.9453562832
 20
12.0775584012
 11
13.8971619405
 21
12.0775584012
  0
LINE
  5
26A
100
AcDbEntity
  8
0
100
AcDbLine
 62
7
  6
CONTINUOUS
 10
15.2155250971
 20
11.7479417578
 11
15.215875337
 21
11.7491479603
  0
LINE
  5
26B
100
AcDbEntity
  8
0
100
AcDbLine
 62
7
  6
CONTINUOUS
 10
15.3454930313
 20
12.0400825436
 11
15.3451427915
 21
12.038876341
  0
LINE
  5
26C
100
AcDbEntity
  8
0
100
AcDbLine
 62
7
  6
CONTINUOUS
 10
15.2155245713
 20
11.7479419202
 11
15.2503653951
 21
11.8606868674
  0
LINE
  5
26D
100
AcDbEntity
  8
0
100
AcDbLine
 62
7
  6
CONTINUOUS
 10
15.3454935572
 20
12.0400823812
 11
15.7267003657
 21
13.2736680656
  0
LINE
  5
26E
100
AcDbEntity
  8
0
100
AcDbLine
 62
7
  6
CONTINUOUS
 10
15.7231965112
 20
11.7479417578
 11
15.723546751
 21
11.7491479603
  0
LINE
  5
26F
100
AcDbEntity
  8
0
100
AcDbLine
 62
7
  6
CONTINUOUS
 10
15.8531644453
 20
12.0400825436
 11
15.8528142055
 21
12.038876341
  0
LINE
  5
270
100
AcDbEntity
  8
0
100
AcDbLine
 62
7
  6
CONTINUOUS
 10
15.7231959853
 20
11.7479419202
 11
15.7580368091
 21
11.8606868674
  0
LINE
  5
271
100
AcDbEntity
  8
0
100
AcDbLine
 62
7
  6
CONTINUOUS
 10
15.8531649712
 20
12.0400823812
 11
16.2343717797
 21
13.2736680656
  0
LINE
  5
272
100
AcDbEntity
  8
0
100
AcDbLine
 62
7
  6
CONTINUOUS
 10
17.1689976406
 20
13.1596572469
 11
17.1385719323
 21
13.1596572469
  0
LINE
  5
273
100
AcDbEntity
  8
0
100
AcDbLine
 62
7
  6
CONTINUOUS
 10
14.1533948647
 20
13.1596572469
 11
14.1229691565
 21
13.1596572469
  0
LINE
  5
274
100
AcDbEntity
  8
0
100
AcDbLine
 62
7
  6
CONTINUOUS
 10
14.6002148622
 20
13.1596572469
 11
14.6610662787
 21
13.1596572469
  0
LINE
  5
275
100
AcDbEntity
  8
0
100
AcDbLine
 62
7
  6
CONTINUOUS
 10
15.1078862762
 20
13.1596572469
 11
15.1687376927
 21
13.1596572469
  0
LINE
  5
276
100
AcDbEntity
  8
0
100
AcDbLine
 62
7
  6
CONTINUOUS
 10
15.6155576903
 20
13.1596572469
 11
15.6764091068
 21
13.1596572469
  0
LINE
  5
277
100
AcDbEntity
  8
0
100
AcDbLine
 62
7
  6
CONTINUOUS
 10
16.1232291043
 20
13.1596572469
 11
16.1840805208
 21
13.1596572469
  0
LINE
  5
278
100
AcDbEntity
  8
0
100
AcDbLine
 62
7
  6
CONTINUOUS
 10
16.6309005183
 20
13.1596572469
 11
16.6917519348
 21
13.1596572469
  0
LINE
  5
279
100
AcDbEntity
  8
0
100
AcDbLine
 62
7
  6
CONTINUOUS
 10
16.8649201618
 20
13.3111440856
 11
16.8167258191
 21
13.3111440856
  0
LINE
  5
27A
100
AcDbEntity
  8
0
100
AcDbLine
 62
7
  6
CONTINUOUS
 10
16.3572487478
 20
13.3111440856
 11
16.3090544051
 21
13.3111440856
  0
LINE
  5
27B
100
AcDbEntity
  8
0
100
AcDbLine
 62
7
  6
CONTINUOUS
 10
15.8495773338
 20
13.3111440856
 11
15.8013829911
 21
13.3111440856
  0
LINE
  5
27C
100
AcDbEntity
  8
0
100
AcDbLine
 62
7
  6
CONTINUOUS
 10
15.3419059198
 20
13.3111440856
 11
15.2937115771
 21
13.3111440856
  0
LINE
  5
27D
100
AcDbEntity
  8
0
100
AcDbLine
 62
7
  6
CONTINUOUS
 10
14.8342345057
 20
13.3111440856
 11
14.786040163
 21
13.3111440856
  0
LINE
  5
27E
100
AcDbEntity
  8
0
100
AcDbLine
 62
7
  6
CONTINUOUS
 10
14.3265630917
 20
13.3111440856
 11
14.278368749
 21
13.3111440856
  0
LINE
  5
27F
100
AcDbEntity
  8
0
100
AcDbLine
 62
7
  6
CONTINUOUS
 10
16.2308679252
 20
11.7479417578
 11
16.231218165
 21
11.7491479603
  0
LINE
  5
280
100
AcDbEntity
  8
0
100
AcDbLine
 62
7
  6
CONTINUOUS
 10
16.3608358593
 20
12.0400825436
 11
16.3604856195
 21
12.038876341
  0
LINE
  5
281
100
AcDbEntity
  8
0
100
AcDbLine
 62
7
  6
CONTINUOUS
 10
16.2308673993
 20
11.7479419202
 11
16.2657082231
 21
11.8606868674
  0
LINE
  5
282
100
AcDbEntity
  8
0
100
AcDbLine
 62
7
  6
CONTINUOUS
 10
16.3608363852
 20
12.0400823812
 11
16.7420431937
 21
13.2736680656
  0
LINE
  5
283
100
AcDbEntity
  8
0
100
AcDbLine
 62
7
  6
CONTINUOUS
 10
16.8192557805
 20
11.8619527389
 11
16.787790832
 21
11.9260715624
  0
LINE
  5
284
100
AcDbEntity
  8
0
100
AcDbLine
 62
7
  6
CONTINUOUS
 10
16.7385393392
 20
11.7479417578
 11
16.738889579
 21
11.7491479603
  0
LINE
  5
285
100
AcDbEntity
  8
0
100
AcDbLine
 62
7
  6
CONTINUOUS
 10
17.1689976406
 20
13.1596572469
 11
16.787790832
 21
11.9260715624
  0
LINE
  5
286
100
AcDbEntity
  8
0
100
AcDbLine
 62
7
  6
CONTINUOUS
 10
16.7385388133
 20
11.7479419202
 11
16.7733796371
 21
11.8606868674
  0
LINE
  5
287
100
AcDbEntity
  8
0
100
AcDbLine
 62
7
  6
CONTINUOUS
 10
17.200462589
 20
13.0955384234
 11
16.8192557805
 21
11.8619527389
  0
LINE
  5
288
100
AcDbEntity
  8
0
100
AcDbLine
 62
7
  6
CONTINUOUS
 10
17.200462589
 20
13.0955384234
 11
17.1689976406
 21
13.1596572469
  0
ARC
  5
289
100
AcDbEntity
  8
0
100
AcDbCircle
 62
7
  6
CONTINUOUS
 10
4.9763318431
 20
5.4685450936
 40
0.3961614173
100
AcDbArc
 50
189.3197114863
 51
207.2630120422
  0
ARC
  5
28A
100
AcDbEntity
  8
0
100
AcDbCircle
 62
7
  6
CONTINUOUS
 10
4.5284971974
 20
5.4685450936
 40
0.3961614173
100
AcDbArc
 50
332.7369879578
 51
350.6802885137
  0
ARC
  5
28B
100
AcDbEntity
  8
0
100
AcDbCircle
 62
7
  6
CONTINUOUS
 10
5.5275129455
 20
5.4685450936
 40
0.3961614173
100
AcDbArc
 50
189.3197114863
 51
207.2630120422
  0
ARC
  5
28C
100
AcDbEntity
  8
0
100
AcDbCircle
 62
7
  6
CONTINUOUS
 10
5.0796782998
 20
5.4685450936
 40
0.3961614173
100
AcDbArc
 50
332.7369879578
 51
350.6802885137
  0
ARC
  5
28D
100
AcDbEntity
  8
0
100
AcDbCircle
 62
7
  6
CONTINUOUS
 10
6.0786940478
 20
5.4685450936
 40
0.3961614173
100
AcDbArc
 50
189.3197114863
 51
207.2630120422
  0
ARC
  5
28E
100
AcDbEntity
  8
0
100
AcDbCircle
 62
7
  6
CONTINUOUS
 10
5.6308594022
 20
5.4685450936
 40
0.3961614173
100
AcDbArc
 50
332.7369879578
 51
350.6802885137
  0
ARC
  5
28F
100
AcDbEntity
  8
0
100
AcDbCircle
 62
7
  6
CONTINUOUS
 10
4.7262521146
 20
5.3396737025
 40
0.1148293963
100
AcDbArc
 50
207.2630120422
 51
270.0
  0
ARC
  5
290
100
AcDbEntity
  8
0
100
AcDbCircle
 62
7
  6
CONTINUOUS
 10
4.7785769259
 20
5.3396737025
 40
0.1148293963
100
AcDbArc
 50
270.0
 51
332.7369879578
  0
ARC
  5
291
100
AcDbEntity
  8
0
100
AcDbCircle
 62
7
  6
CONTINUOUS
 10
5.277433217
 20
5.3396737025
 40
0.1148293963
100
AcDbArc
 50
207.2630120422
 51
270.0
  0
ARC
  5
292
100
AcDbEntity
  8
0
100
AcDbCircle
 62
7
  6
CONTINUOUS
 10
5.3297580283
 20
5.3396737025
 40
0.1148293963
100
AcDbArc
 50
270.0
 51
332.7369879578
  0
ARC
  5
293
100
AcDbEntity
  8
0
100
AcDbCircle
 62
7
  6
CONTINUOUS
 10
5.8286143193
 20
5.3396737025
 40
0.1148293963
100
AcDbArc
 50
207.2630120422
 51
270.0
  0
ARC
  5
294
100
AcDbEntity
  8
0
100
AcDbCircle
 62
7
  6
CONTINUOUS
 10
5.8809391306
 20
5.3396737025
 40
0.1148293963
100
AcDbArc
 50
270.0
 51
332.7369879578
  0
ARC
  5
295
100
AcDbEntity
  8
0
100
AcDbCircle
 62
7
  6
CONTINUOUS
 10
4.9949717453
 20
5.3919921627
 40
0.0765529309
100
AcDbArc
 50
90.0
 51
170.6802885137
  0
ARC
  5
296
100
AcDbEntity
  8
0
100
AcDbCircle
 62
7
  6
CONTINUOUS
 10
4.5098572953
 20
5.3919921627
 40
0.0765529309
100
AcDbArc
 50
9.3197114863
 51
90.0
  0
ARC
  5
297
100
AcDbEntity
  8
0
100
AcDbCircle
 62
7
  6
CONTINUOUS
 10
5.5461528476
 20
5.3919921627
 40
0.0765529309
100
AcDbArc
 50
90.0
 51
170.6802885137
  0
ARC
  5
298
100
AcDbEntity
  8
0
100
AcDbCircle
 62
7
  6
CONTINUOUS
 10
5.0610383976
 20
5.3919921627
 40
0.0765529309
100
AcDbArc
 50
9.3197114863
 51
90.0
  0
ARC
  5
299
100
AcDbEntity
  8
0
100
AcDbCircle
 62
7
  6
CONTINUOUS
 10
6.09733395
 20
5.3919921627
 40
0.0765529309
100
AcDbArc
 50
90.0
 51
170.6802885137
  0
ARC
  5
29A
100
AcDbEntity
  8
0
100
AcDbCircle
 62
7
  6
CONTINUOUS
 10
5.6122195
 20
5.3919921627
 40
0.0765529309
100
AcDbArc
 50
9.3197114863
 51
90.0
  0
ARC
  5
29B
100
AcDbEntity
  8
0
100
AcDbCircle
 62
7
  6
CONTINUOUS
 10
4.9763318431
 20
5.5716946999
 40
0.3961614173
100
AcDbArc
 50
152.7369879578
 51
170.6802885137
  0
ARC
  5
29C
100
AcDbEntity
  8
0
100
AcDbCircle
 62
7
  6
CONTINUOUS
 10
4.5284971974
 20
5.5716946999
 40
0.3961614173
100
AcDbArc
 50
9.3197114863
 51
27.2630120422
  0
ARC
  5
29D
100
AcDbEntity
  8
0
100
AcDbCircle
 62
7
  6
CONTINUOUS
 10
5.5275129455
 20
5.5716946999
 40
0.3961614173
100
AcDbArc
 50
152.7369879578
 51
170.6802885137
  0
ARC
  5
29E
100
AcDbEntity
  8
0
100
AcDbCircle
 62
7
  6
CONTINUOUS
 10
5.0796782998
 20
5.5716946999
 40
0.3961614173
100
AcDbArc
 50
9.3197114863
 51
27.2630120422
  0
ARC
  5
29F
100
AcDbEntity
  8
0
100
AcDbCircle
 62
7
  6
CONTINUOUS
 10
6.0786940478
 20
5.5716946999
 40
0.3961614173
100
AcDbArc
 50
152.7369879578
 51
170.6802885137
  0
ARC
  5
2A0
100
AcDbEntity
  8
0
100
AcDbCircle
 62
7
  6
CONTINUOUS
 10
5.6308594022
 20
5.5716946999
 40
0.3961614173
100
AcDbArc
 50
9.3197114863
 51
27.2630120422
  0
ARC
  5
2A1
100
AcDbEntity
  8
0
100
AcDbCircle
 62
7
  6
CONTINUOUS
 10
4.7785769259
 20
5.700566091
 40
0.1148293963
100
AcDbArc
 50
27.2630120422
 51
90.0
  0
ARC
  5
2A2
100
AcDbEntity
  8
0
100
AcDbCircle
 62
7
  6
CONTINUOUS
 10
4.7262521146
 20
5.700566091
 40
0.1148293963
100
AcDbArc
 50
90.0
 51
152.7369879578
  0
ARC
  5
2A3
100
AcDbEntity
  8
0
100
AcDbCircle
 62
7
  6
CONTINUOUS
 10
5.277433217
 20
5.700566091
 40
0.1148293963
100
AcDbArc
 50
90.0
 51
152.7369879578
  0
ARC
  5
2A4
100
AcDbEntity
  8
0
100
AcDbCircle
 62
7
  6
CONTINUOUS
 10
5.3297580283
 20
5.700566091
 40
0.1148293963
100
AcDbArc
 50
27.2630120422
 51
90.0
  0
ARC
  5
2A5
100
AcDbEntity
  8
0
100
AcDbCircle
 62
7
  6
CONTINUOUS
 10
5.8286143193
 20
5.700566091
 40
0.1148293963
100
AcDbArc
 50
90.0
 51
152.7369879578
  0
ARC
  5
2A6
100
AcDbEntity
  8
0
100
AcDbCircle
 62
7
  6
CONTINUOUS
 10
5.8809391306
 20
5.700566091
 40
0.1148293963
100
AcDbArc
 50
27.2630120422
 51
90.0
  0
ARC
  5
2A7
100
AcDbEntity
  8
0
100
AcDbCircle
 62
7
  6
CONTINUOUS
 10
4.9949717453
 20
5.6482476308
 40
0.0765529309
100
AcDbArc
 50
189.3197114863
 51
270.0
  0
ARC
  5
2A8
100
AcDbEntity
  8
0
100
AcDbCircle
 62
7
  6
CONTINUOUS
 10
4.5098572953
 20
5.6482476308
 40
0.0765529309
100
AcDbArc
 50
270.0
 51
350.6802885137
  0
ARC
  5
2A9
100
AcDbEntity
  8
0
100
AcDbCircle
 62
7
  6
CONTINUOUS
 10
5.5461528476
 20
5.6482476308
 40
0.0765529309
100
AcDbArc
 50
189.3197114863
 51
270.0
  0
ARC
  5
2AA
100
AcDbEntity
  8
0
100
AcDbCircle
 62
7
  6
CONTINUOUS
 10
5.0610383976
 20
5.6482476308
 40
0.0765529309
100
AcDbArc
 50
270.0
 51
350.6802885137
  0
ARC
  5
2AB
100
AcDbEntity
  8
0
100
AcDbCircle
 62
7
  6
CONTINUOUS
 10
6.09733395
 20
5.6482476308
 40
0.0765529309
100
AcDbArc
 50
189.3197114863
 51
270.0
  0
ARC
  5
2AC
100
AcDbEntity
  8
0
100
AcDbCircle
 62
7
  6
CONTINUOUS
 10
5.6122195
 20
5.6482476308
 40
0.0765529309
100
AcDbArc
 50
270.0
 51
350.6802885137
  0
ARC
  5
2AD
100
AcDbEntity
  8
0
100
AcDbCircle
 62
7
  6
CONTINUOUS
 10
6.6298751502
 20
5.4685450936
 40
0.3961614173
100
AcDbArc
 50
189.3197114863
 51
207.2630120422
  0
ARC
  5
2AE
100
AcDbEntity
  8
0
100
AcDbCircle
 62
7
  6
CONTINUOUS
 10
6.1820405045
 20
5.4685450936
 40
0.3961614173
100
AcDbArc
 50
332.7369879578
 51
350.6802885137
  0
ARC
  5
2AF
100
AcDbEntity
  8
0
100
AcDbCircle
 62
7
  6
CONTINUOUS
 10
7.1810562525
 20
5.4685450936
 40
0.3961614173
100
AcDbArc
 50
189.3197114863
 51
207.2630120422
  0
ARC
  5
2B0
100
AcDbEntity
  8
0
100
AcDbCircle
 62
7
  6
CONTINUOUS
 10
6.7332216069
 20
5.4685450936
 40
0.3961614173
100
AcDbArc
 50
332.7369879578
 51
350.6802885137
  0
ARC
  5
2B1
100
AcDbEntity
  8
0
100
AcDbCircle
 62
7
  6
CONTINUOUS
 10
7.2844027092
 20
5.4685450936
 40
0.3961614173
100
AcDbArc
 50
332.7369879578
 51
350.6802885137
  0
ARC
  5
2B2
100
AcDbEntity
  8
0
100
AcDbCircle
 62
7
  6
CONTINUOUS
 10
7.7322373549
 20
5.4685450936
 40
0.3961614173
100
AcDbArc
 50
189.3197114863
 51
207.2630120422
  0
ARC
  5
2B3
100
AcDbEntity
  8
0
100
AcDbCircle
 62
7
  6
CONTINUOUS
 10
6.3797954217
 20
5.3396737025
 40
0.1148293963
100
AcDbArc
 50
207.2630120422
 51
270.0
  0
ARC
  5
2B4
100
AcDbEntity
  8
0
100
AcDbCircle
 62
7
  6
CONTINUOUS
 10
6.432120233
 20
5.3396737025
 40
0.1148293963
100
AcDbArc
 50
270.0
 51
332.7369879578
  0
ARC
  5
2B5
100
AcDbEntity
  8
0
100
AcDbCircle
 62
7
  6
CONTINUOUS
 10
6.9309765241
 20
5.3396737025
 40
0.1148293963
100
AcDbArc
 50
207.2630120422
 51
270.0
  0
ARC
  5
2B6
100
AcDbEntity
  8
0
100
AcDbCircle
 62
7
  6
CONTINUOUS
 10
6.9833013354
 20
5.3396737025
 40
0.1148293963
100
AcDbArc
 50
270.0
 51
332.7369879578
  0
ARC
  5
2B7
100
AcDbEntity
  8
0
100
AcDbCircle
 62
7
  6
CONTINUOUS
 10
7.5344824377
 20
5.3396737025
 40
0.1148293963
100
AcDbArc
 50
270.0
 51
332.7369879578
  0
ARC
  5
2B8
100
AcDbEntity
  8
0
100
AcDbCircle
 62
7
  6
CONTINUOUS
 10
7.4821576264
 20
5.3396737025
 40
0.1148293963
100
AcDbArc
 50
207.2630120422
 51
270.0
  0
ARC
  5
2B9
100
AcDbEntity
  8
0
100
AcDbCircle
 62
7
  6
CONTINUOUS
 10
6.6485150523
 20
5.3919921627
 40
0.0765529309
100
AcDbArc
 50
90.0
 51
170.6802885137
  0
ARC
  5
2BA
100
AcDbEntity
  8
0
100
AcDbCircle
 62
7
  6
CONTINUOUS
 10
6.1634006024
 20
5.3919921627
 40
0.0765529309
100
AcDbArc
 50
9.3197114863
 51
90.0
  0
ARC
  5
2BB
100
AcDbEntity
  8
0
100
AcDbCircle
 62
7
  6
CONTINUOUS
 10
7.1996961547
 20
5.3919921627
 40
0.0765529309
100
AcDbArc
 50
90.0
 51
170.6802885137
  0
ARC
  5
2BC
100
AcDbEntity
  8
0
100
AcDbCircle
 62
7
  6
CONTINUOUS
 10
6.7145817047
 20
5.3919921627
 40
0.0765529309
100
AcDbArc
 50
9.3197114863
 51
90.0
  0
ARC
  5
2BD
100
AcDbEntity
  8
0
100
AcDbCircle
 62
7
  6
CONTINUOUS
 10
7.7508772571
 20
5.3919921627
 40
0.0765529309
100
AcDbArc
 50
90.0
 51
170.6802885137
  0
ARC
  5
2BE
100
AcDbEntity
  8
0
100
AcDbCircle
 62
7
  6
CONTINUOUS
 10
7.2657628071
 20
5.3919921627
 40
0.0765529309
100
AcDbArc
 50
9.3197114863
 51
90.0
  0
ARC
  5
2BF
100
AcDbEntity
  8
0
100
AcDbCircle
 62
7
  6
CONTINUOUS
 10
6.6298751502
 20
5.5716946999
 40
0.3961614173
100
AcDbArc
 50
152.7369879578
 51
170.6802885137
  0
ARC
  5
2C0
100
AcDbEntity
  8
0
100
AcDbCircle
 62
7
  6
CONTINUOUS
 10
6.1820405045
 20
5.5716946999
 40
0.3961614173
100
AcDbArc
 50
9.3197114863
 51
27.2630120422
  0
ARC
  5
2C1
100
AcDbEntity
  8
0
100
AcDbCircle
 62
7
  6
CONTINUOUS
 10
7.1810562525
 20
5.5716946999
 40
0.3961614173
100
AcDbArc
 50
152.7369879578
 51
170.6802885137
  0
ARC
  5
2C2
100
AcDbEntity
  8
0
100
AcDbCircle
 62
7
  6
CONTINUOUS
 10
6.7332216069
 20
5.5716946999
 40
0.3961614173
100
AcDbArc
 50
9.3197114863
 51
27.2630120422
  0
ARC
  5
2C3
100
AcDbEntity
  8
0
100
AcDbCircle
 62
7
  6
CONTINUOUS
 10
7.7322373549
 20
5.5716946999
 40
0.3961614173
100
AcDbArc
 50
152.7369879578
 51
170.6802885137
  0
ARC
  5
2C4
100
AcDbEntity
  8
0
100
AcDbCircle
 62
7
  6
CONTINUOUS
 10
7.2844027092
 20
5.5716946999
 40
0.3961614173
100
AcDbArc
 50
9.3197114863
 51
27.2630120422
  0
ARC
  5
2C5
100
AcDbEntity
  8
0
100
AcDbCircle
 62
7
  6
CONTINUOUS
 10
6.3797954217
 20
5.700566091
 40
0.1148293963
100
AcDbArc
 50
90.0
 51
152.7369879578
  0
ARC
  5
2C6
100
AcDbEntity
  8
0
100
AcDbCircle
 62
7
  6
CONTINUOUS
 10
6.432120233
 20
5.700566091
 40
0.1148293963
100
AcDbArc
 50
27.2630120422
 51
90.0
  0
ARC
  5
2C7
100
AcDbEntity
  8
0
100
AcDbCircle
 62
7
  6
CONTINUOUS
 10
6.9309765241
 20
5.700566091
 40
0.1148293963
100
AcDbArc
 50
90.0
 51
152.7369879578
  0
ARC
  5
2C8
100
AcDbEntity
  8
0
100
AcDbCircle
 62
7
  6
CONTINUOUS
 10
6.9833013354
 20
5.700566091
 40
0.1148293963
100
AcDbArc
 50
27.2630120422
 51
90.0
  0
ARC
  5
2C9
100
AcDbEntity
  8
0
100
AcDbCircle
 62
7
  6
CONTINUOUS
 10
7.4821576264
 20
5.700566091
 40
0.1148293963
100
AcDbArc
 50
90.0
 51
152.7369879578
  0
ARC
  5
2CA
100
AcDbEntity
  8
0
100
AcDbCircle
 62
7
  6
CONTINUOUS
 10
7.5344824377
 20
5.700566091
 40
0.1148293963
100
AcDbArc
 50
27.2630120422
 51
90.0
  0
ARC
  5
2CB
100
AcDbEntity
  8
0
100
AcDbCircle
 62
7
  6
CONTINUOUS
 10
6.6485150523
 20
5.6482476308
 40
0.0765529309
100
AcDbArc
 50
189.3197114863
 51
270.0
  0
ARC
  5
2CC
100
AcDbEntity
  8
0
100
AcDbCircle
 62
7
  6
CONTINUOUS
 10
6.1634006024
 20
5.6482476308
 40
0.0765529309
100
AcDbArc
 50
270.0
 51
350.6802885137
  0
ARC
  5
2CD
100
AcDbEntity
  8
0
100
AcDbCircle
 62
7
  6
CONTINUOUS
 10
7.1996961547
 20
5.6482476308
 40
0.0765529309
100
AcDbArc
 50
189.3197114863
 51
270.0
  0
ARC
  5
2CE
100
AcDbEntity
  8
0
100
AcDbCircle
 62
7
  6
CONTINUOUS
 10
6.7145817047
 20
5.6482476308
 40
0.0765529309
100
AcDbArc
 50
270.0
 51
350.6802885137
  0
ARC
  5
2CF
100
AcDbEntity
  8
0
100
AcDbCircle
 62
7
  6
CONTINUOUS
 10
7.7508772571
 20
5.6482476308
 40
0.0765529309
100
AcDbArc
 50
189.3197114863
 51
270.0
  0
ARC
  5
2D0
100
AcDbEntity
  8
0
100
AcDbCircle
 62
7
  6
CONTINUOUS
 10
7.2657628071
 20
5.6482476308
 40
0.0765529309
100
AcDbArc
 50
270.0
 51
350.6802885137
  0
SPLINE
  5
2D1
100
AcDbEntity
  8
0
100
AcDbSpline
 62
7
  6
CONTINUOUS
 70
0
 71
3
 72
9
 73
5
 74
0
 42
0.0000001
 43
0.0000001
 44
0.0000000001
 40
0.0
 40
0.0
 40
0.0
 40
0.0
 40
0.2355953265
 40
1.0
 40
1.0
 40
1.0
 40
1.0
 10
14.5110654972
 20
13.1995370665
 30
0.0
 10
14.5063120524
 20
13.2060140712
 30
0.0
 10
14.4850472735
 20
13.2327049215
 30
0.0
 10
14.4599435566
 20
13.2562120771
 30
0.0
 10
14.4395612788
 20
13.2724620255
 30
0.0
  0
SPLINE
  5
2D2
100
AcDbEntity
  8
0
100
AcDbSpline
 62
7
  6
CONTINUOUS
 70
0
 71
3
 72
11
 73
7
 74
0
 42
0.0000001
 43
0.0000001
 44
0.0000000001
 40
0.0
 40
0.0
 40
0.0
 40
0.0
 40
0.247260909
 40
0.5047666406
 40
0.7597953302
 40
1.0
 40
1.0
 40
1.0
 40
1.0
 10
14.3265630917
 20
13.3111440856
 30
0.0
 10
14.3365682816
 20
13.3111440856
 30
0.0
 10
14.357020056
 20
13.3092138764
 30
0.0
 10
14.3869002597
 20
13.301498016
 30
0.0
 10
14.4149887546
 20
13.2894182096
 30
0.0
 10
14.4319613431
 20
13.2785211404
 30
0.0
 10
14.4395612788
 20
13.2724620255
 30
0.0
  0
SPLINE
  5
2D3
100
AcDbEntity
  8
0
100
AcDbSpline
 62
7
  6
CONTINUOUS
 70
0
 71
3
 72
11
 73
7
 74
0
 42
0.0000001
 43
0.0000001
 44
0.0000000001
 40
0.0
 40
0.0
 40
0.0
 40
0.0
 40
0.2022213038
 40
0.4300646783
 40
0.6961818454
 40
1.0
 40
1.0
 40
1.0
 40
1.0
 10
14.2006846884
 20
11.8369686856
 30
0.0
 10
14.201862716
 20
11.8407798483
 30
0.0
 10
14.2064660748
 20
11.8483175922
 30
0.0
 10
14.2180278881
 20
11.8562337032
 30
0.0
 10
14.2331928881
 20
11.8610029003
 30
0.0
 10
14.2444798005
 20
11.8619527389
 30
0.0
 10
14.2504730022
 20
11.8619527389
 30
0.0
  0
SPLINE
  5
2D4
100
AcDbEntity
  8
0
100
AcDbSpline
 62
7
  6
CONTINUOUS
 70
0
 71
3
 72
11
 73
7
 74
0
 42
0.0000001
 43
0.0000001
 44
0.0000000001
 40
0.0
 40
0.0
 40
0.0
 40
0.0
 40
0.2022213038
 40
0.4300646783
 40
0.6961818454
 40
1.0
 40
1.0
 40
1.0
 40
1.0
 10
14.7083561024
 20
11.8369686856
 30
0.0
 10
14.7095341301
 20
11.8407798483
 30
0.0
 10
14.7141374888
 20
11.8483175922
 30
0.0
 10
14.7256993021
 20
11.8562337032
 30
0.0
 10
14.7408643021
 20
11.8610029003
 30
0.0
 10
14.7521512145
 20
11.8619527389
 30
0.0
 10
14.7581444162
 20
11.8619527389
 30
0.0
  0
SPLINE
  5
2D5
100
AcDbEntity
  8
0
100
AcDbSpline
 62
7
  6
CONTINUOUS
 70
0
 71
3
 72
11
 73
7
 74
0
 42
0.0000001
 43
0.0000001
 44
0.0000000001
 40
0.0
 40
0.0
 40
0.0
 40
0.0
 40
0.2022213038
 40
0.4300646783
 40
0.6961818454
 40
1.0
 40
1.0
 40
1.0
 40
1.0
 10
15.2160275165
 20
11.8369686856
 30
0.0
 10
15.2172055441
 20
11.8407798483
 30
0.0
 10
15.2218089028
 20
11.8483175922
 30
0.0
 10
15.2333707162
 20
11.8562337032
 30
0.0
 10
15.2485357161
 20
11.8610029003
 30
0.0
 10
15.2598226285
 20
11.8619527389
 30
0.0
 10
15.2658158302
 20
11.8619527389
 30
0.0
  0
SPLINE
  5
2D6
100
AcDbEntity
  8
0
100
AcDbSpline
 62
7
  6
CONTINUOUS
 70
0
 71
3
 72
11
 73
7
 74
0
 42
0.0000001
 43
0.0000001
 44
0.0000000001
 40
0.0
 40
0.0
 40
0.0
 40
0.0
 40
0.2022213038
 40
0.4300646783
 40
0.6961818454
 40
1.0
 40
1.0
 40
1.0
 40
1.0
 10
15.7236989305
 20
11.8369686856
 30
0.0
 10
15.7248769581
 20
11.8407798483
 30
0.0
 10
15.7294803169
 20
11.8483175922
 30
0.0
 10
15.7410421302
 20
11.8562337032
 30
0.0
 10
15.7562071301
 20
11.8610029003
 30
0.0
 10
15.7674940425
 20
11.8619527389
 30
0.0
 10
15.7734872442
 20
11.8619527389
 30
0.0
  0
SPLINE
  5
2D7
100
AcDbEntity
  8
0
100
AcDbSpline
 62
7
  6
CONTINUOUS
 70
0
 71
3
 72
11
 73
7
 74
0
 42
0.0000001
 43
0.0000001
 44
0.0000000001
 40
0.0
 40
0.0
 40
0.0
 40
0.0
 40
0.2022213038
 40
0.4300646783
 40
0.6961818454
 40
1.0
 40
1.0
 40
1.0
 40
1.0
 10
16.2313703445
 20
11.8369686856
 30
0.0
 10
16.2325483721
 20
11.8407798483
 30
0.0
 10
16.2371517309
 20
11.8483175922
 30
0.0
 10
16.2487135442
 20
11.8562337032
 30
0.0
 10
16.2638785441
 20
11.8610029003
 30
0.0
 10
16.2751654566
 20
11.8619527389
 30
0.0
 10
16.2811586582
 20
11.8619527389
 30
0.0
  0
SPLINE
  5
2D8
100
AcDbEntity
  8
0
100
AcDbSpline
 62
7
  6
CONTINUOUS
 70
0
 71
3
 72
11
 73
7
 74
0
 42
0.0000001
 43
0.0000001
 44
0.0000000001
 40
0.0
 40
0.0
 40
0.0
 40
0.0
 40
0.2022213038
 40
0.4300646783
 40
0.6961818454
 40
1.0
 40
1.0
 40
1.0
 40
1.0
 10
16.7390417585
 20
11.8369686856
 30
0.0
 10
16.7402197861
 20
11.8407798483
 30
0.0
 10
16.7448231449
 20
11.8483175922
 30
0.0
 10
16.7563849582
 20
11.8562337032
 30
0.0
 10
16.7715499582
 20
11.8610029003
 30
0.0
 10
16.7828368706
 20
11.8619527389
 30
0.0
 10
16.7888300722
 20
11.8619527389
 30
0.0
  0
SPLINE
  5
2D9
100
AcDbEntity
  8
0
100
AcDbSpline
 62
7
  6
CONTINUOUS
 70
0
 71
3
 72
12
 73
8
 74
0
 42
0.0000001
 43
0.0000001
 44
0.0000000001
 40
0.0
 40
0.0
 40
0.0
 40
0.0
 40
0.0998443254
 40
0.203292849
 40
0.4308244092
 40
0.6965818132
 40
1.0
 40
1.0
 40
1.0
 40
1.0
 10
14.2036862564
 20
13.2736680244
 30
0.0
 10
14.2045602185
 20
13.276494148
 30
0.0
 10
14.2070376137
 20
13.2820555881
 30
0.0
 10
14.2148016083
 20
13.2923078288
 30
0.0
 10
14.2297096756
 20
13.3025937005
 30
0.0
 10
14.2524469768
 20
13.3097097494
 30
0.0
 10
14.2693791212
 20
13.3111440856
 30
0.0
 10
14.278368749
 20
13.3111440856
 30
0.0
  0
SPLINE
  5
2DA
100
AcDbEntity
  8
0
100
AcDbSpline
 62
7
  6
CONTINUOUS
 70
0
 71
3
 72
9
 73
5
 74
0
 42
0.0000001
 43
0.0000001
 44
0.0000000001
 40
0.0
 40
0.0
 40
0.0
 40
0.0
 40
0.2356730812
 40
1.0
 40
1.0
 40
1.0
 40
1.0
 10
17.0494225673
 20
13.1995370665
 30
0.0
 10
17.0446675489
 20
13.2060162154
 30
0.0
 10
17.0234034687
 20
13.2327077045
 30
0.0
 10
16.998298574
 20
13.2562137137
 30
0.0
 10
16.9779183489
 20
13.2724620255
 30
0.0
  0
SPLINE
  5
2DB
100
AcDbEntity
  8
0
100
AcDbSpline
 62
7
  6
CONTINUOUS
 70
0
 71
3
 72
11
 73
7
 74
0
 42
0.0000001
 43
0.0000001
 44
0.0000000001
 40
0.0
 40
0.0
 40
0.0
 40
0.0
 40
0.247260909
 40
0.5047666406
 40
0.7597953302
 40
1.0
 40
1.0
 40
1.0
 40
1.0
 10
16.8649201618
 20
13.3111440856
 30
0.0
 10
16.8749253516
 20
13.3111440856
 30
0.0
 10
16.8953771261
 20
13.3092138764
 30
0.0
 10
16.9252573298
 20
13.301498016
 30
0.0
 10
16.9533458247
 20
13.2894182096
 30
0.0
 10
16.9703184132
 20
13.2785211404
 30
0.0
 10
16.9779183489
 20
13.2724620255
 30
0.0
  0
SPLINE
  5
2DC
100
AcDbEntity
  8
0
100
AcDbSpline
 62
7
  6
CONTINUOUS
 70
0
 71
3
 72
9
 73
5
 74
0
 42
0.0000001
 43
0.0000001
 44
0.0000000001
 40
0.0
 40
0.0
 40
0.0
 40
0.0
 40
0.2355957311
 40
1.0
 40
1.0
 40
1.0
 40
1.0
 10
16.5417511533
 20
13.1995370665
 30
0.0
 10
16.5369977003
 20
13.2060140823
 30
0.0
 10
16.5157329053
 20
13.2327049195
 30
0.0
 10
16.4906292018
 20
13.2562120859
 30
0.0
 10
16.4702469349
 20
13.2724620255
 30
0.0
  0
SPLINE
  5
2DD
100
AcDbEntity
  8
0
100
AcDbSpline
 62
7
  6
CONTINUOUS
 70
0
 71
3
 72
11
 73
7
 74
0
 42
0.0000001
 43
0.0000001
 44
0.0000000001
 40
0.0
 40
0.0
 40
0.0
 40
0.0
 40
0.247260909
 40
0.5047666406
 40
0.7597953302
 40
1.0
 40
1.0
 40
1.0
 40
1.0
 10
16.3572487478
 20
13.3111440856
 30
0.0
 10
16.3672539376
 20
13.3111440856
 30
0.0
 10
16.3877057121
 20
13.3092138764
 30
0.0
 10
16.4175859158
 20
13.301498016
 30
0.0
 10
16.4456744107
 20
13.2894182096
 30
0.0
 10
16.4626469992
 20
13.2785211404
 30
0.0
 10
16.4702469349
 20
13.2724620255
 30
0.0
  0
SPLINE
  5
2DE
100
AcDbEntity
  8
0
100
AcDbSpline
 62
7
  6
CONTINUOUS
 70
0
 71
3
 72
12
 73
8
 74
0
 42
0.0000001
 43
0.0000001
 44
0.0000000001
 40
0.0
 40
0.0
 40
0.0
 40
0.0
 40
0.0998443254
 40
0.203292849
 40
0.4308244092
 40
0.6965818132
 40
1.0
 40
1.0
 40
1.0
 40
1.0
 10
14.7113576704
 20
13.2736680244
 30
0.0
 10
14.7122316325
 20
13.276494148
 30
0.0
 10
14.7147090277
 20
13.2820555881
 30
0.0
 10
14.7224730223
 20
13.2923078288
 30
0.0
 10
14.7373810896
 20
13.3025937005
 30
0.0
 10
14.7601183909
 20
13.3097097494
 30
0.0
 10
14.7770505352
 20
13.3111440856
 30
0.0
 10
14.786040163
 20
13.3111440856
 30
0.0
  0
SPLINE
  5
2DF
100
AcDbEntity
  8
0
100
AcDbSpline
 62
7
  6
CONTINUOUS
 70
0
 71
3
 72
9
 73
5
 74
0
 42
0.0000001
 43
0.0000001
 44
0.0000000001
 40
0.0
 40
0.0
 40
0.0
 40
0.0
 40
0.2355957311
 40
1.0
 40
1.0
 40
1.0
 40
1.0
 10
16.0340797393
 20
13.1995370665
 30
0.0
 10
16.0293262863
 20
13.2060140823
 30
0.0
 10
16.0080614913
 20
13.2327049195
 30
0.0
 10
15.9829577877
 20
13.2562120859
 30
0.0
 10
15.9625755209
 20
13.2724620255
 30
0.0
  0
SPLINE
  5
2E0
100
AcDbEntity
  8
0
100
AcDbSpline
 62
7
  6
CONTINUOUS
 70
0
 71
3
 72
11
 73
7
 74
0
 42
0.0000001
 43
0.0000001
 44
0.0000000001
 40
0.0
 40
0.0
 40
0.0
 40
0.0
 40
0.247260909
 40
0.5047666406
 40
0.7597953302
 40
1.0
 40
1.0
 40
1.0
 40
1.0
 10
15.8495773338
 20
13.3111440856
 30
0.0
 10
15.8595825236
 20
13.3111440856
 30
0.0
 10
15.8800342981
 20
13.3092138764
 30
0.0
 10
15.9099145017
 20
13.301498016
 30
0.0
 10
15.9380029967
 20
13.2894182096
 30
0.0
 10
15.9549755852
 20
13.2785211404
 30
0.0
 10
15.9625755209
 20
13.2724620255
 30
0.0
  0
SPLINE
  5
2E1
100
AcDbEntity
  8
0
100
AcDbSpline
 62
7
  6
CONTINUOUS
 70
0
 71
3
 72
9
 73
5
 74
0
 42
0.0000001
 43
0.0000001
 44
0.0000000001
 40
0.0
 40
0.0
 40
0.0
 40
0.0
 40
0.2355957311
 40
1.0
 40
1.0
 40
1.0
 40
1.0
 10
15.5264083252
 20
13.1995370665
 30
0.0
 10
15.5216548723
 20
13.2060140823
 30
0.0
 10
15.5003900772
 20
13.2327049195
 30
0.0
 10
15.4752863737
 20
13.2562120859
 30
0.0
 10
15.4549041069
 20
13.2724620255
 30
0.0
  0
SPLINE
  5
2E2
100
AcDbEntity
  8
0
100
AcDbSpline
 62
7
  6
CONTINUOUS
 70
0
 71
3
 72
11
 73
7
 74
0
 42
0.0000001
 43
0.0000001
 44
0.0000000001
 40
0.0
 40
0.0
 40
0.0
 40
0.0
 40
0.247260909
 40
0.5047666406
 40
0.7597953302
 40
1.0
 40
1.0
 40
1.0
 40
1.0
 10
15.3419059198
 20
13.3111440856
 30
0.0
 10
15.3519111096
 20
13.3111440856
 30
0.0
 10
15.3723628841
 20
13.3092138764
 30
0.0
 10
15.4022430877
 20
13.301498016
 30
0.0
 10
15.4303315827
 20
13.2894182096
 30
0.0
 10
15.4473041711
 20
13.2785211404
 30
0.0
 10
15.4549041069
 20
13.2724620255
 30
0.0
  0
SPLINE
  5
2E3
100
AcDbEntity
  8
0
100
AcDbSpline
 62
7
  6
CONTINUOUS
 70
0
 71
3
 72
12
 73
8
 74
0
 42
0.0000001
 43
0.0000001
 44
0.0000000001
 40
0.0
 40
0.0
 40
0.0
 40
0.0
 40
0.0998443254
 40
0.203292849
 40
0.4308244092
 40
0.6965818132
 40
1.0
 40
1.0
 40
1.0
 40
1.0
 10
15.2190290844
 20
13.2736680244
 30
0.0
 10
15.2199030466
 20
13.276494148
 30
0.0
 10
15.2223804417
 20
13.2820555881
 30
0.0
 10
15.2301444363
 20
13.2923078288
 30
0.0
 10
15.2450525037
 20
13.3025937005
 30
0.0
 10
15.2677898049
 20
13.3097097494
 30
0.0
 10
15.2847219493
 20
13.3111440856
 30
0.0
 10
15.2937115771
 20
13.3111440856
 30
0.0
  0
SPLINE
  5
2E4
100
AcDbEntity
  8
0
100
AcDbSpline
 62
7
  6
CONTINUOUS
 70
0
 71
3
 72
9
 73
5
 74
0
 42
0.0000001
 43
0.0000001
 44
0.0000000001
 40
0.0
 40
0.0
 40
0.0
 40
0.0
 40
0.2355953265
 40
1.0
 40
1.0
 40
1.0
 40
1.0
 10
15.0187369112
 20
13.1995370665
 30
0.0
 10
15.0139834664
 20
13.2060140712
 30
0.0
 10
14.9927186875
 20
13.2327049215
 30
0.0
 10
14.9676149706
 20
13.2562120771
 30
0.0
 10
14.9472326929
 20
13.2724620255
 30
0.0
  0
SPLINE
  5
2E5
100
AcDbEntity
  8
0
100
AcDbSpline
 62
7
  6
CONTINUOUS
 70
0
 71
3
 72
11
 73
7
 74
0
 42
0.0000001
 43
0.0000001
 44
0.0000000001
 40
0.0
 40
0.0
 40
0.0
 40
0.0
 40
0.247260909
 40
0.5047666406
 40
0.7597953302
 40
1.0
 40
1.0
 40
1.0
 40
1.0
 10
14.8342345057
 20
13.3111440856
 30
0.0
 10
14.8442396956
 20
13.3111440856
 30
0.0
 10
14.8646914701
 20
13.3092138764
 30
0.0
 10
14.8945716737
 20
13.301498016
 30
0.0
 10
14.9226601687
 20
13.2894182096
 30
0.0
 10
14.9396327571
 20
13.2785211404
 30
0.0
 10
14.9472326929
 20
13.2724620255
 30
0.0
  0
SPLINE
  5
2E6
100
AcDbEntity
  8
0
100
AcDbSpline
 62
7
  6
CONTINUOUS
 70
0
 71
3
 72
9
 73
5
 74
0
 42
0.0000001
 43
0.0000001
 44
0.0000000001
 40
0.0
 40
0.0
 40
0.0
 40
0.0
 40
0.4871870484
 40
1.0
 40
1.0
 40
1.0
 40
1.0
 10
14.3297999634
 20
12.038876341
 30
0.0
 10
14.3266569111
 20
12.027356601
 30
0.0
 10
14.323513441
 20
12.0027035132
 30
0.0
 10
14.3268480865
 20
11.978151977
 30
0.0
 10
14.3298684892
 20
11.965951382
 30
0.0
  0
SPLINE
  5
2E7
100
AcDbEntity
  8
0
100
AcDbSpline
 62
7
  6
CONTINUOUS
 70
0
 71
3
 72
9
 73
5
 74
0
 42
0.0000001
 43
0.0000001
 44
0.0000000001
 40
0.0
 40
0.0
 40
0.0
 40
0.0
 40
0.4871862864
 40
1.0
 40
1.0
 40
1.0
 40
1.0
 10
14.8374713775
 20
12.038876341
 30
0.0
 10
14.8343283301
 20
12.027356619
 30
0.0
 10
14.8311848544
 20
12.0027035331
 30
0.0
 10
14.8345194961
 20
11.9781519951
 30
0.0
 10
14.8375399033
 20
11.965951382
 30
0.0
  0
SPLINE
  5
2E8
100
AcDbEntity
  8
0
100
AcDbSpline
 62
7
  6
CONTINUOUS
 70
0
 71
3
 72
9
 73
5
 74
0
 42
0.0000001
 43
0.0000001
 44
0.0000000001
 40
0.0
 40
0.0
 40
0.0
 40
0.0
 40
0.4871862864
 40
1.0
 40
1.0
 40
1.0
 40
1.0
 10
15.3451427915
 20
12.038876341
 30
0.0
 10
15.3419997441
 20
12.027356619
 30
0.0
 10
15.3388562684
 20
12.0027035331
 30
0.0
 10
15.3421909101
 20
11.9781519951
 30
0.0
 10
15.3452113173
 20
11.965951382
 30
0.0
  0
SPLINE
  5
2E9
100
AcDbEntity
  8
0
100
AcDbSpline
 62
7
  6
CONTINUOUS
 70
0
 71
3
 72
9
 73
5
 74
0
 42
0.0000001
 43
0.0000001
 44
0.0000000001
 40
0.0
 40
0.0
 40
0.0
 40
0.0
 40
0.4871862864
 40
1.0
 40
1.0
 40
1.0
 40
1.0
 10
15.8528142055
 20
12.038876341
 30
0.0
 10
15.8496711581
 20
12.027356619
 30
0.0
 10
15.8465276824
 20
12.0027035331
 30
0.0
 10
15.8498623241
 20
11.9781519951
 30
0.0
 10
15.8528827313
 20
11.965951382
 30
0.0
  0
SPLINE
  5
2EA
100
AcDbEntity
  8
0
100
AcDbSpline
 62
7
  6
CONTINUOUS
 70
0
 71
3
 72
9
 73
5
 74
0
 42
0.0000001
 43
0.0000001
 44
0.0000000001
 40
0.0
 40
0.0
 40
0.0
 40
0.0
 40
0.4871860435
 40
1.0
 40
1.0
 40
1.0
 40
1.0
 10
16.3604856195
 20
12.038876341
 30
0.0
 10
16.3573425724
 20
12.02735662
 30
0.0
 10
16.3541988627
 20
12.0027035409
 30
0.0
 10
16.3575337355
 20
11.9781520059
 30
0.0
 10
16.3605541453
 20
11.965951382
 30
0.0
  0
SPLINE
  5
2EB
100
AcDbEntity
  8
0
100
AcDbSpline
 62
7
  6
CONTINUOUS
 70
0
 71
3
 72
12
 73
8
 74
0
 42
0.0000001
 43
0.0000001
 44
0.0000000001
 40
0.0
 40
0.0
 40
0.0
 40
0.0
 40
0.3034181868
 40
0.5691755908
 40
0.796707151
 40
0.9001556746
 40
1.0
 40
1.0
 40
1.0
 40
1.0
 10
16.6638561879
 20
11.7104659002
 30
0.0
 10
16.6728458157
 20
11.7104659002
 30
0.0
 10
16.6897779601
 20
11.7119002364
 30
0.0
 10
16.7125152613
 20
11.7190162854
 30
0.0
 10
16.7274233286
 20
11.7293021571
 30
0.0
 10
16.7351873232
 20
11.7395543977
 30
0.0
 10
16.7376647184
 20
11.7451158378
 30
0.0
 10
16.7385386806
 20
11.7479419614
 30
0.0
  0
SPLINE
  5
2EC
100
AcDbEntity
  8
0
100
AcDbSpline
 62
7
  6
CONTINUOUS
 70
0
 71
3
 72
11
 73
7
 74
0
 42
0.0000001
 43
0.0000001
 44
0.0000000001
 40
0.0
 40
0.0
 40
0.0
 40
0.0
 40
0.2402046698
 40
0.4952333594
 40
0.752739091
 40
1.0
 40
1.0
 40
1.0
 40
1.0
 10
16.5026636581
 20
11.7491479603
 30
0.0
 10
16.5102635938
 20
11.7430888454
 30
0.0
 10
16.5272361823
 20
11.7321917762
 30
0.0
 10
16.5553246773
 20
11.7201119698
 30
0.0
 10
16.5852048809
 20
11.7123961094
 30
0.0
 10
16.6056566554
 20
11.7104659002
 30
0.0
 10
16.6156618452
 20
11.7104659002
 30
0.0
  0
SPLINE
  5
2ED
100
AcDbEntity
  8
0
100
AcDbSpline
 62
7
  6
CONTINUOUS
 70
0
 71
3
 72
9
 73
5
 74
0
 42
0.0000001
 43
0.0000001
 44
0.0000000001
 40
0.0
 40
0.0
 40
0.0
 40
0.0
 40
0.2356730812
 40
1.0
 40
1.0
 40
1.0
 40
1.0
 10
16.4311594397
 20
11.8220729193
 30
0.0
 10
16.4359144581
 20
11.8155937704
 30
0.0
 10
16.4571785383
 20
11.7889022813
 30
0.0
 10
16.482283433
 20
11.7653962721
 30
0.0
 10
16.5026636581
 20
11.7491479603
 30
0.0
  0
SPLINE
  5
2EE
100
AcDbEntity
  8
0
100
AcDbSpline
 62
7
  6
CONTINUOUS
 70
0
 71
3
 72
12
 73
8
 74
0
 42
0.0000001
 43
0.0000001
 44
0.0000000001
 40
0.0
 40
0.0
 40
0.0
 40
0.0
 40
0.3034181868
 40
0.5691755908
 40
0.796707151
 40
0.9001556746
 40
1.0
 40
1.0
 40
1.0
 40
1.0
 10
16.1561847739
 20
11.7104659002
 30
0.0
 10
16.1651744017
 20
11.7104659002
 30
0.0
 10
16.1821065461
 20
11.7119002364
 30
0.0
 10
16.2048438473
 20
11.7190162854
 30
0.0
 10
16.2197519146
 20
11.7293021571
 30
0.0
 10
16.2275159092
 20
11.7395543977
 30
0.0
 10
16.2299933044
 20
11.7451158378
 30
0.0
 10
16.2308672666
 20
11.7479419614
 30
0.0
  0
SPLINE
  5
2EF
100
AcDbEntity
  8
0
100
AcDbSpline
 62
7
  6
CONTINUOUS
 70
0
 71
3
 72
11
 73
7
 74
0
 42
0.0000001
 43
0.0000001
 44
0.0000000001
 40
0.0
 40
0.0
 40
0.0
 40
0.0
 40
0.2402046698
 40
0.4952333594
 40
0.752739091
 40
1.0
 40
1.0
 40
1.0
 40
1.0
 10
15.9949922441
 20
11.7491479603
 30
0.0
 10
16.0025921798
 20
11.7430888454
 30
0.0
 10
16.0195647683
 20
11.7321917762
 30
0.0
 10
16.0476532632
 20
11.7201119698
 30
0.0
 10
16.0775334669
 20
11.7123961094
 30
0.0
 10
16.0979852414
 20
11.7104659002
 30
0.0
 10
16.1079904312
 20
11.7104659002
 30
0.0
  0
SPLINE
  5
2F0
100
AcDbEntity
  8
0
100
AcDbSpline
 62
7
  6
CONTINUOUS
 70
0
 71
3
 72
9
 73
5
 74
0
 42
0.0000001
 43
0.0000001
 44
0.0000000001
 40
0.0
 40
0.0
 40
0.0
 40
0.0
 40
0.2355957311
 40
1.0
 40
1.0
 40
1.0
 40
1.0
 10
15.9234880257
 20
11.8220729193
 30
0.0
 10
15.9282414787
 20
11.8155959035
 30
0.0
 10
15.9495062737
 20
11.7889050663
 30
0.0
 10
15.9746099772
 20
11.7653979
 30
0.0
 10
15.9949922441
 20
11.7491479603
 30
0.0
  0
SPLINE
  5
2F1
100
AcDbEntity
  8
0
100
AcDbSpline
 62
7
  6
CONTINUOUS
 70
0
 71
3
 72
12
 73
8
 74
0
 42
0.0000001
 43
0.0000001
 44
0.0000000001
 40
0.0
 40
0.0
 40
0.0
 40
0.0
 40
0.3034181868
 40
0.5691755908
 40
0.796707151
 40
0.9001556746
 40
1.0
 40
1.0
 40
1.0
 40
1.0
 10
15.6485133599
 20
11.7104659002
 30
0.0
 10
15.6575029877
 20
11.7104659002
 30
0.0
 10
15.6744351321
 20
11.7119002364
 30
0.0
 10
15.6971724333
 20
11.7190162854
 30
0.0
 10
15.7120805006
 20
11.7293021571
 30
0.0
 10
15.7198444952
 20
11.7395543977
 30
0.0
 10
15.7223218904
 20
11.7451158378
 30
0.0
 10
15.7231958526
 20
11.7479419614
 30
0.0
  0
SPLINE
  5
2F2
100
AcDbEntity
  8
0
100
AcDbSpline
 62
7
  6
CONTINUOUS
 70
0
 71
3
 72
11
 73
7
 74
0
 42
0.0000001
 43
0.0000001
 44
0.0000000001
 40
0.0
 40
0.0
 40
0.0
 40
0.0
 40
0.2402046698
 40
0.4952333594
 40
0.752739091
 40
1.0
 40
1.0
 40
1.0
 40
1.0
 10
15.4873208301
 20
11.7491479603
 30
0.0
 10
15.4949207658
 20
11.7430888454
 30
0.0
 10
15.5118933543
 20
11.7321917762
 30
0.0
 10
15.5399818492
 20
11.7201119698
 30
0.0
 10
15.5698620529
 20
11.7123961094
 30
0.0
 10
15.5903138274
 20
11.7104659002
 30
0.0
 10
15.6003190172
 20
11.7104659002
 30
0.0
  0
SPLINE
  5
2F3
100
AcDbEntity
  8
0
100
AcDbSpline
 62
7
  6
CONTINUOUS
 70
0
 71
3
 72
9
 73
5
 74
0
 42
0.0000001
 43
0.0000001
 44
0.0000000001
 40
0.0
 40
0.0
 40
0.0
 40
0.0
 40
0.2355957311
 40
1.0
 40
1.0
 40
1.0
 40
1.0
 10
15.4158166117
 20
11.8220729193
 30
0.0
 10
15.4205700646
 20
11.8155959035
 30
0.0
 10
15.4418348597
 20
11.7889050663
 30
0.0
 10
15.4669385632
 20
11.7653979
 30
0.0
 10
15.4873208301
 20
11.7491479603
 30
0.0
  0
SPLINE
  5
2F4
100
AcDbEntity
  8
0
100
AcDbSpline
 62
7
  6
CONTINUOUS
 70
0
 71
3
 72
12
 73
8
 74
0
 42
0.0000001
 43
0.0000001
 44
0.0000000001
 40
0.0
 40
0.0
 40
0.0
 40
0.0
 40
0.3034181868
 40
0.5691755908
 40
0.796707151
 40
0.9001556746
 40
1.0
 40
1.0
 40
1.0
 40
1.0
 10
15.1408419459
 20
11.7104659002
 30
0.0
 10
15.1498315737
 20
11.7104659002
 30
0.0
 10
15.1667637181
 20
11.7119002364
 30
0.0
 10
15.1895010193
 20
11.7190162854
 30
0.0
 10
15.2044090866
 20
11.7293021571
 30
0.0
 10
15.2121730812
 20
11.7395543977
 30
0.0
 10
15.2146504764
 20
11.7451158378
 30
0.0
 10
15.2155244385
 20
11.7479419614
 30
0.0
  0
SPLINE
  5
2F5
100
AcDbEntity
  8
0
100
AcDbSpline
 62
7
  6
CONTINUOUS
 70
0
 71
3
 72
11
 73
7
 74
0
 42
0.0000001
 43
0.0000001
 44
0.0000000001
 40
0.0
 40
0.0
 40
0.0
 40
0.0
 40
0.2402046698
 40
0.4952333594
 40
0.752739091
 40
1.0
 40
1.0
 40
1.0
 40
1.0
 10
14.979649416
 20
11.7491479603
 30
0.0
 10
14.9872493518
 20
11.7430888454
 30
0.0
 10
15.0042219403
 20
11.7321917762
 30
0.0
 10
15.0323104352
 20
11.7201119698
 30
0.0
 10
15.0621906388
 20
11.7123961094
 30
0.0
 10
15.0826424133
 20
11.7104659002
 30
0.0
 10
15.0926476032
 20
11.7104659002
 30
0.0
  0
SPLINE
  5
2F6
100
AcDbEntity
  8
0
100
AcDbSpline
 62
7
  6
CONTINUOUS
 70
0
 71
3
 72
9
 73
5
 74
0
 42
0.0000001
 43
0.0000001
 44
0.0000000001
 40
0.0
 40
0.0
 40
0.0
 40
0.0
 40
0.2355957311
 40
1.0
 40
1.0
 40
1.0
 40
1.0
 10
14.9081451977
 20
11.8220729193
 30
0.0
 10
14.9128986506
 20
11.8155959035
 30
0.0
 10
14.9341634457
 20
11.7889050663
 30
0.0
 10
14.9592671492
 20
11.7653979
 30
0.0
 10
14.979649416
 20
11.7491479603
 30
0.0
  0
SPLINE
  5
2F7
100
AcDbEntity
  8
0
100
AcDbSpline
 62
7
  6
CONTINUOUS
 70
0
 71
3
 72
12
 73
8
 74
0
 42
0.0000001
 43
0.0000001
 44
0.0000000001
 40
0.0
 40
0.0
 40
0.0
 40
0.0
 40
0.3034181868
 40
0.5691755908
 40
0.796707151
 40
0.9001556746
 40
1.0
 40
1.0
 40
1.0
 40
1.0
 10
14.6331705319
 20
11.7104659002
 30
0.0
 10
14.6421601597
 20
11.7104659002
 30
0.0
 10
14.659092304
 20
11.7119002364
 30
0.0
 10
14.6818296053
 20
11.7190162854
 30
0.0
 10
14.6967376726
 20
11.7293021571
 30
0.0
 10
14.7045016672
 20
11.7395543977
 30
0.0
 10
14.7069790624
 20
11.7451158378
 30
0.0
 10
14.7078530245
 20
11.7479419614
 30
0.0
  0
SPLINE
  5
2F8
100
AcDbEntity
  8
0
100
AcDbSpline
 62
7
  6
CONTINUOUS
 70
0
 71
3
 72
11
 73
7
 74
0
 42
0.0000001
 43
0.0000001
 44
0.0000000001
 40
0.0
 40
0.0
 40
0.0
 40
0.0
 40
0.2402046698
 40
0.4952333594
 40
0.752739091
 40
1.0
 40
1.0
 40
1.0
 40
1.0
 10
14.471978002
 20
11.7491479603
 30
0.0
 10
14.4795779378
 20
11.7430888454
 30
0.0
 10
14.4965505262
 20
11.7321917762
 30
0.0
 10
14.5246390212
 20
11.7201119698
 30
0.0
 10
14.5545192248
 20
11.7123961094
 30
0.0
 10
14.5749709993
 20
11.7104659002
 30
0.0
 10
14.5849761891
 20
11.7104659002
 30
0.0
  0
SPLINE
  5
2F9
100
AcDbEntity
  8
0
100
AcDbSpline
 62
7
  6
CONTINUOUS
 70
0
 71
3
 72
9
 73
5
 74
0
 42
0.0000001
 43
0.0000001
 44
0.0000000001
 40
0.0
 40
0.0
 40
0.0
 40
0.0
 40
0.2355953265
 40
1.0
 40
1.0
 40
1.0
 40
1.0
 10
14.4004737837
 20
11.8220729193
 30
0.0
 10
14.4052272285
 20
11.8155959146
 30
0.0
 10
14.4264920074
 20
11.7889050643
 30
0.0
 10
14.4515957243
 20
11.7653979087
 30
0.0
 10
14.471978002
 20
11.7491479603
 30
0.0
  0
SPLINE
  5
2FA
100
AcDbEntity
  8
0
100
AcDbSpline
 62
7
  6
CONTINUOUS
 70
0
 71
3
 72
12
 73
8
 74
0
 42
0.0000001
 43
0.0000001
 44
0.0000000001
 40
0.0
 40
0.0
 40
0.0
 40
0.0
 40
0.3034181868
 40
0.5691755908
 40
0.796707151
 40
0.9001556746
 40
1.0
 40
1.0
 40
1.0
 40
1.0
 10
14.1254991178
 20
11.7104659002
 30
0.0
 10
14.1344887456
 20
11.7104659002
 30
0.0
 10
14.15142089
 20
11.7119002364
 30
0.0
 10
14.1741581912
 20
11.7190162854
 30
0.0
 10
14.1890662586
 20
11.7293021571
 30
0.0
 10
14.1968302532
 20
11.7395543977
 30
0.0
 10
14.1993076483
 20
11.7451158378
 30
0.0
 10
14.2001816105
 20
11.7479419614
 30
0.0
  0
SPLINE
  5
2FB
100
AcDbEntity
  8
0
100
AcDbSpline
 62
7
  6
CONTINUOUS
 70
0
 71
3
 72
11
 73
7
 74
0
 42
0.0000001
 43
0.0000001
 44
0.0000000001
 40
0.0
 40
0.0
 40
0.0
 40
0.0
 40
0.2402046698
 40
0.4952333594
 40
0.752739091
 40
1.0
 40
1.0
 40
1.0
 40
1.0
 10
13.964306588
 20
11.7491479603
 30
0.0
 10
13.9719065238
 20
11.7430888454
 30
0.0
 10
13.9888791122
 20
11.7321917762
 30
0.0
 10
14.0169676072
 20
11.7201119698
 30
0.0
 10
14.0468478108
 20
11.7123961094
 30
0.0
 10
14.0672995853
 20
11.7104659002
 30
0.0
 10
14.0773047751
 20
11.7104659002
 30
0.0
  0
SPLINE
  5
2FC
100
AcDbEntity
  8
0
100
AcDbSpline
 62
7
  6
CONTINUOUS
 70
0
 71
3
 72
9
 73
5
 74
0
 42
0.0000001
 43
0.0000001
 44
0.0000000001
 40
0.0
 40
0.0
 40
0.0
 40
0.0
 40
0.2355953265
 40
1.0
 40
1.0
 40
1.0
 40
1.0
 10
13.8928023696
 20
11.8220729193
 30
0.0
 10
13.8975558145
 20
11.8155959146
 30
0.0
 10
13.9188205934
 20
11.7889050643
 30
0.0
 10
13.9439243102
 20
11.7653979087
 30
0.0
 10
13.964306588
 20
11.7491479603
 30
0.0
  0
SPLINE
  5
2FD
100
AcDbEntity
  8
0
100
AcDbSpline
 62
7
  6
CONTINUOUS
 70
0
 71
3
 72
9
 73
5
 74
0
 42
0.0000001
 43
0.0000001
 44
0.0000000001
 40
0.0
 40
0.0
 40
0.0
 40
0.0
 40
0.4871870484
 40
1.0
 40
1.0
 40
1.0
 40
1.0
 10
13.8221285494
 20
12.038876341
 30
0.0
 10
13.8189854971
 20
12.027356601
 30
0.0
 10
13.815842027
 20
12.0027035132
 30
0.0
 10
13.8191766725
 20
11.978151977
 30
0.0
 10
13.8221970752
 20
11.965951382
 30
0.0
  0
SPLINE
  5
2FE
100
AcDbEntity
  8
0
100
AcDbSpline
 62
7
  6
CONTINUOUS
 70
0
 71
3
 72
12
 73
8
 74
0
 42
0.0000001
 43
0.0000001
 44
0.0000000001
 40
0.0
 40
0.0
 40
0.0
 40
0.0
 40
0.0998443254
 40
0.203292849
 40
0.4308244092
 40
0.6965818132
 40
1.0
 40
1.0
 40
1.0
 40
1.0
 10
15.7267004984
 20
13.2736680244
 30
0.0
 10
15.7275744606
 20
13.276494148
 30
0.0
 10
15.7300518558
 20
13.2820555881
 30
0.0
 10
15.7378158504
 20
13.2923078288
 30
0.0
 10
15.7527239177
 20
13.3025937005
 30
0.0
 10
15.7754612189
 20
13.3097097494
 30
0.0
 10
15.7923933633
 20
13.3111440856
 30
0.0
 10
15.8013829911
 20
13.3111440856
 30
0.0
  0
SPLINE
  5
2FF
100
AcDbEntity
  8
0
100
AcDbSpline
 62
7
  6
CONTINUOUS
 70
0
 71
3
 72
12
 73
8
 74
0
 42
0.0000001
 43
0.0000001
 44
0.0000000001
 40
0.0
 40
0.0
 40
0.0
 40
0.0
 40
0.0998443254
 40
0.203292849
 40
0.4308244092
 40
0.6965818132
 40
1.0
 40
1.0
 40
1.0
 40
1.0
 10
16.2343719124
 20
13.2736680244
 30
0.0
 10
16.2352458746
 20
13.276494148
 30
0.0
 10
16.2377232698
 20
13.2820555881
 30
0.0
 10
16.2454872644
 20
13.2923078288
 30
0.0
 10
16.2603953317
 20
13.3025937005
 30
0.0
 10
16.2831326329
 20
13.3097097494
 30
0.0
 10
16.3000647773
 20
13.3111440856
 30
0.0
 10
16.3090544051
 20
13.3111440856
 30
0.0
  0
SPLINE
  5
300
100
AcDbEntity
  8
0
100
AcDbSpline
 62
7
  6
CONTINUOUS
 70
0
 71
3
 72
12
 73
8
 74
0
 42
0.0000001
 43
0.0000001
 44
0.0000000001
 40
0.0
 40
0.0
 40
0.0
 40
0.0
 40
0.0998443254
 40
0.203292849
 40
0.4308244092
 40
0.6965818132
 40
1.0
 40
1.0
 40
1.0
 40
1.0
 10
16.7420433264
 20
13.2736680244
 30
0.0
 10
16.7429172886
 20
13.276494148
 30
0.0
 10
16.7453946838
 20
13.2820555881
 30
0.0
 10
16.7531586784
 20
13.2923078288
 30
0.0
 10
16.7680667457
 20
13.3025937005
 30
0.0
 10
16.7908040469
 20
13.3097097494
 30
0.0
 10
16.8077361913
 20
13.3111440856
 30
0.0
 10
16.8167258191
 20
13.3111440856
 30
0.0
  0
SPLINE
  5
301
100
AcDbEntity
  8
0
100
AcDbSpline
 62
7
  6
CONTINUOUS
 70
0
 71
3
 72
11
 73
7
 74
0
 42
0.0000001
 43
0.0000001
 44
0.0000000001
 40
0.0
 40
0.0
 40
0.0
 40
0.0
 40
0.2575926419
 40
0.5240194434
 40
0.7775847622
 40
1.0
 40
1.0
 40
1.0
 40
1.0
 10
13.8036530046
 20
11.8619527389
 30
0.0
 10
13.8122898732
 20
11.8619527389
 30
0.0
 10
13.8298912557
 20
11.8598190776
 30
0.0
 10
13.8548071767
 20
11.8516115261
 30
0.0
 10
13.876579584
 20
11.8392160758
 30
0.0
 10
13.888390137
 20
11.8280849911
 30
0.0
 10
13.8928023696
 20
11.8220729193
 30
0.0
  0
SPLINE
  5
302
100
AcDbEntity
  8
0
100
AcDbSpline
 62
7
  6
CONTINUOUS
 70
0
 71
3
 72
11
 73
7
 74
0
 42
0.0000001
 43
0.0000001
 44
0.0000000001
 40
0.0
 40
0.0
 40
0.0
 40
0.0
 40
0.2224152378
 40
0.4759805566
 40
0.7424073581
 40
1.0
 40
1.0
 40
1.0
 40
1.0
 10
14.5110654972
 20
13.1995370665
 30
0.0
 10
14.5154777298
 20
13.1935249947
 30
0.0
 10
14.5272882828
 20
13.18239391
 30
0.0
 10
14.5490606901
 20
13.1699984597
 30
0.0
 10
14.5739766112
 20
13.1617909082
 30
0.0
 10
14.5915779936
 20
13.1596572469
 30
0.0
 10
14.6002148622
 20
13.1596572469
 30
0.0
  0
SPLINE
  5
303
100
AcDbEntity
  8
0
100
AcDbSpline
 62
7
  6
CONTINUOUS
 70
0
 71
3
 72
9
 73
5
 74
0
 42
0.0000001
 43
0.0000001
 44
0.0000000001
 40
0.0
 40
0.0
 40
0.0
 40
0.0
 40
0.5127288822
 40
1.0
 40
1.0
 40
1.0
 40
1.0
 10
13.8221970752
 20
11.965951382
 30
0.0
 10
13.8228146917
 20
11.9634565859
 30
0.0
 10
13.8234643221
 20
11.9584236491
 30
0.0
 10
13.8226976729
 20
11.95338918
 30
0.0
 10
13.8219763699
 20
11.9510556158
 30
0.0
  0
SPLINE
  5
304
100
AcDbEntity
  8
0
100
AcDbSpline
 62
7
  6
CONTINUOUS
 70
0
 71
3
 72
9
 73
5
 74
0
 42
0.0000001
 43
0.0000001
 44
0.0000000001
 40
0.0
 40
0.0
 40
0.0
 40
0.0
 40
0.2582734163
 40
1.0
 40
1.0
 40
1.0
 40
1.0
 10
14.1533948647
 20
13.1596572469
 30
0.0
 10
14.154731152
 20
13.1596572469
 30
0.0
 10
14.1599040635
 20
13.1597575758
 30
0.0
 10
14.1650731997
 20
13.1602629714
 30
0.0
 10
14.1688558001
 20
13.1609105805
 30
0.0
  0
SPLINE
  5
305
100
AcDbEntity
  8
0
100
AcDbSpline
 62
7
  6
CONTINUOUS
 70
0
 71
3
 72
11
 73
7
 74
0
 42
0.0000001
 43
0.0000001
 44
0.0000000001
 40
0.0
 40
0.0
 40
0.0
 40
0.0
 40
0.2575926419
 40
0.5240194434
 40
0.7775847622
 40
1.0
 40
1.0
 40
1.0
 40
1.0
 10
14.3113244187
 20
11.8619527389
 30
0.0
 10
14.3199612872
 20
11.8619527389
 30
0.0
 10
14.3375626697
 20
11.8598190776
 30
0.0
 10
14.3624785908
 20
11.8516115261
 30
0.0
 10
14.3842509981
 20
11.8392160758
 30
0.0
 10
14.3960615511
 20
11.8280849911
 30
0.0
 10
14.4004737837
 20
11.8220729193
 30
0.0
  0
SPLINE
  5
306
100
AcDbEntity
  8
0
100
AcDbSpline
 62
7
  6
CONTINUOUS
 70
0
 71
3
 72
11
 73
7
 74
0
 42
0.0000001
 43
0.0000001
 44
0.0000000001
 40
0.0
 40
0.0
 40
0.0
 40
0.0
 40
0.2224152378
 40
0.4759805566
 40
0.7424073581
 40
1.0
 40
1.0
 40
1.0
 40
1.0
 10
15.0187369112
 20
13.1995370665
 30
0.0
 10
15.0231491438
 20
13.1935249947
 30
0.0
 10
15.0349596968
 20
13.18239391
 30
0.0
 10
15.0567321041
 20
13.1699984597
 30
0.0
 10
15.0816480252
 20
13.1617909082
 30
0.0
 10
15.0992494077
 20
13.1596572469
 30
0.0
 10
15.1078862762
 20
13.1596572469
 30
0.0
  0
SPLINE
  5
307
100
AcDbEntity
  8
0
100
AcDbSpline
 62
7
  6
CONTINUOUS
 70
0
 71
3
 72
9
 73
5
 74
0
 42
0.0000001
 43
0.0000001
 44
0.0000000001
 40
0.0
 40
0.0
 40
0.0
 40
0.0
 40
0.5127288822
 40
1.0
 40
1.0
 40
1.0
 40
1.0
 10
14.3298684892
 20
11.965951382
 30
0.0
 10
14.3304861057
 20
11.9634565859
 30
0.0
 10
14.3311357362
 20
11.9584236491
 30
0.0
 10
14.3303690869
 20
11.95338918
 30
0.0
 10
14.3296477839
 20
11.9510556158
 30
0.0
  0
SPLINE
  5
308
100
AcDbEntity
  8
0
100
AcDbSpline
 62
7
  6
CONTINUOUS
 70
0
 71
3
 72
9
 73
5
 74
0
 42
0.0000001
 43
0.0000001
 44
0.0000000001
 40
0.0
 40
0.0
 40
0.0
 40
0.0
 40
0.2582734163
 40
1.0
 40
1.0
 40
1.0
 40
1.0
 10
14.6610662787
 20
13.1596572469
 30
0.0
 10
14.662402566
 20
13.1596572469
 30
0.0
 10
14.6675754775
 20
13.1597575758
 30
0.0
 10
14.6727446137
 20
13.1602629714
 30
0.0
 10
14.6765272142
 20
13.1609105805
 30
0.0
  0
SPLINE
  5
309
100
AcDbEntity
  8
0
100
AcDbSpline
 62
7
  6
CONTINUOUS
 70
0
 71
3
 72
11
 73
7
 74
0
 42
0.0000001
 43
0.0000001
 44
0.0000000001
 40
0.0
 40
0.0
 40
0.0
 40
0.0
 40
0.2575926419
 40
0.5240194434
 40
0.7775847622
 40
1.0
 40
1.0
 40
1.0
 40
1.0
 10
14.8189958327
 20
11.8619527389
 30
0.0
 10
14.8276327012
 20
11.8619527389
 30
0.0
 10
14.8452340837
 20
11.8598190776
 30
0.0
 10
14.8701500048
 20
11.8516115261
 30
0.0
 10
14.8919224121
 20
11.8392160758
 30
0.0
 10
14.9037329651
 20
11.8280849911
 30
0.0
 10
14.9081451977
 20
11.8220729193
 30
0.0
  0
SPLINE
  5
30A
100
AcDbEntity
  8
0
100
AcDbSpline
 62
7
  6
CONTINUOUS
 70
0
 71
3
 72
11
 73
7
 74
0
 42
0.0000001
 43
0.0000001
 44
0.0000000001
 40
0.0
 40
0.0
 40
0.0
 40
0.0
 40
0.2224152378
 40
0.4759805566
 40
0.7424073581
 40
1.0
 40
1.0
 40
1.0
 40
1.0
 10
15.5264083252
 20
13.1995370665
 30
0.0
 10
15.5308205579
 20
13.1935249947
 30
0.0
 10
15.5426311109
 20
13.18239391
 30
0.0
 10
15.5644035182
 20
13.1699984597
 30
0.0
 10
15.5893194392
 20
13.1617909082
 30
0.0
 10
15.6069208217
 20
13.1596572469
 30
0.0
 10
15.6155576903
 20
13.1596572469
 30
0.0
  0
SPLINE
  5
30B
100
AcDbEntity
  8
0
100
AcDbSpline
 62
7
  6
CONTINUOUS
 70
0
 71
3
 72
9
 73
5
 74
0
 42
0.0000001
 43
0.0000001
 44
0.0000000001
 40
0.0
 40
0.0
 40
0.0
 40
0.0
 40
0.5127288822
 40
1.0
 40
1.0
 40
1.0
 40
1.0
 10
14.8375399033
 20
11.965951382
 30
0.0
 10
14.8381575198
 20
11.9634565859
 30
0.0
 10
14.8388071502
 20
11.9584236491
 30
0.0
 10
14.838040501
 20
11.95338918
 30
0.0
 10
14.837319198
 20
11.9510556158
 30
0.0
  0
SPLINE
  5
30C
100
AcDbEntity
  8
0
100
AcDbSpline
 62
7
  6
CONTINUOUS
 70
0
 71
3
 72
9
 73
5
 74
0
 42
0.0000001
 43
0.0000001
 44
0.0000000001
 40
0.0
 40
0.0
 40
0.0
 40
0.0
 40
0.2582734163
 40
1.0
 40
1.0
 40
1.0
 40
1.0
 10
15.1687376927
 20
13.1596572469
 30
0.0
 10
15.17007398
 20
13.1596572469
 30
0.0
 10
15.1752468915
 20
13.1597575758
 30
0.0
 10
15.1804160277
 20
13.1602629714
 30
0.0
 10
15.1841986282
 20
13.1609105805
 30
0.0
  0
SPLINE
  5
30D
100
AcDbEntity
  8
0
100
AcDbSpline
 62
7
  6
CONTINUOUS
 70
0
 71
3
 72
11
 73
7
 74
0
 42
0.0000001
 43
0.0000001
 44
0.0000000001
 40
0.0
 40
0.0
 40
0.0
 40
0.0
 40
0.2575926419
 40
0.5240194434
 40
0.7775847622
 40
1.0
 40
1.0
 40
1.0
 40
1.0
 10
15.3266672467
 20
11.8619527389
 30
0.0
 10
15.3353041153
 20
11.8619527389
 30
0.0
 10
15.3529054977
 20
11.8598190776
 30
0.0
 10
15.3778214188
 20
11.8516115261
 30
0.0
 10
15.3995938261
 20
11.8392160758
 30
0.0
 10
15.4114043791
 20
11.8280849911
 30
0.0
 10
15.4158166117
 20
11.8220729193
 30
0.0
  0
SPLINE
  5
30E
100
AcDbEntity
  8
0
100
AcDbSpline
 62
7
  6
CONTINUOUS
 70
0
 71
3
 72
11
 73
7
 74
0
 42
0.0000001
 43
0.0000001
 44
0.0000000001
 40
0.0
 40
0.0
 40
0.0
 40
0.0
 40
0.2224152378
 40
0.4759805566
 40
0.7424073581
 40
1.0
 40
1.0
 40
1.0
 40
1.0
 10
16.0340797393
 20
13.1995370665
 30
0.0
 10
16.0384919719
 20
13.1935249947
 30
0.0
 10
16.0503025249
 20
13.18239391
 30
0.0
 10
16.0720749322
 20
13.1699984597
 30
0.0
 10
16.0969908532
 20
13.1617909082
 30
0.0
 10
16.1145922357
 20
13.1596572469
 30
0.0
 10
16.1232291043
 20
13.1596572469
 30
0.0
  0
SPLINE
  5
30F
100
AcDbEntity
  8
0
100
AcDbSpline
 62
7
  6
CONTINUOUS
 70
0
 71
3
 72
9
 73
5
 74
0
 42
0.0000001
 43
0.0000001
 44
0.0000000001
 40
0.0
 40
0.0
 40
0.0
 40
0.0
 40
0.5127288822
 40
1.0
 40
1.0
 40
1.0
 40
1.0
 10
15.3452113173
 20
11.965951382
 30
0.0
 10
15.3458289338
 20
11.9634565859
 30
0.0
 10
15.3464785642
 20
11.9584236491
 30
0.0
 10
15.345711915
 20
11.95338918
 30
0.0
 10
15.344990612
 20
11.9510556158
 30
0.0
  0
SPLINE
  5
310
100
AcDbEntity
  8
0
100
AcDbSpline
 62
7
  6
CONTINUOUS
 70
0
 71
3
 72
9
 73
5
 74
0
 42
0.0000001
 43
0.0000001
 44
0.0000000001
 40
0.0
 40
0.0
 40
0.0
 40
0.0
 40
0.2582734163
 40
1.0
 40
1.0
 40
1.0
 40
1.0
 10
15.6764091068
 20
13.1596572469
 30
0.0
 10
15.6777453941
 20
13.1596572469
 30
0.0
 10
15.6829183055
 20
13.1597575758
 30
0.0
 10
15.6880874417
 20
13.1602629714
 30
0.0
 10
15.6918700422
 20
13.1609105805
 30
0.0
  0
SPLINE
  5
311
100
AcDbEntity
  8
0
100
AcDbSpline
 62
7
  6
CONTINUOUS
 70
0
 71
3
 72
11
 73
7
 74
0
 42
0.0000001
 43
0.0000001
 44
0.0000000001
 40
0.0
 40
0.0
 40
0.0
 40
0.0
 40
0.2575926419
 40
0.5240194434
 40
0.7775847622
 40
1.0
 40
1.0
 40
1.0
 40
1.0
 10
15.8343386607
 20
11.8619527389
 30
0.0
 10
15.8429755293
 20
11.8619527389
 30
0.0
 10
15.8605769117
 20
11.8598190776
 30
0.0
 10
15.8854928328
 20
11.8516115261
 30
0.0
 10
15.9072652401
 20
11.8392160758
 30
0.0
 10
15.9190757931
 20
11.8280849911
 30
0.0
 10
15.9234880257
 20
11.8220729193
 30
0.0
  0
SPLINE
  5
312
100
AcDbEntity
  8
0
100
AcDbSpline
 62
7
  6
CONTINUOUS
 70
0
 71
3
 72
11
 73
7
 74
0
 42
0.0000001
 43
0.0000001
 44
0.0000000001
 40
0.0
 40
0.0
 40
0.0
 40
0.0
 40
0.2224152378
 40
0.4759805566
 40
0.7424073581
 40
1.0
 40
1.0
 40
1.0
 40
1.0
 10
16.5417511533
 20
13.1995370665
 30
0.0
 10
16.5461633859
 20
13.1935249947
 30
0.0
 10
16.5579739389
 20
13.18239391
 30
0.0
 10
16.5797463462
 20
13.1699984597
 30
0.0
 10
16.6046622673
 20
13.1617909082
 30
0.0
 10
16.6222636497
 20
13.1596572469
 30
0.0
 10
16.6309005183
 20
13.1596572469
 30
0.0
  0
SPLINE
  5
313
100
AcDbEntity
  8
0
100
AcDbSpline
 62
7
  6
CONTINUOUS
 70
0
 71
3
 72
9
 73
5
 74
0
 42
0.0000001
 43
0.0000001
 44
0.0000000001
 40
0.0
 40
0.0
 40
0.0
 40
0.0
 40
0.5127288822
 40
1.0
 40
1.0
 40
1.0
 40
1.0
 10
15.8528827313
 20
11.965951382
 30
0.0
 10
15.8535003478
 20
11.9634565859
 30
0.0
 10
15.8541499782
 20
11.9584236491
 30
0.0
 10
15.853383329
 20
11.95338918
 30
0.0
 10
15.852662026
 20
11.9510556158
 30
0.0
  0
SPLINE
  5
314
100
AcDbEntity
  8
0
100
AcDbSpline
 62
7
  6
CONTINUOUS
 70
0
 71
3
 72
9
 73
5
 74
0
 42
0.0000001
 43
0.0000001
 44
0.0000000001
 40
0.0
 40
0.0
 40
0.0
 40
0.0
 40
0.2582734163
 40
1.0
 40
1.0
 40
1.0
 40
1.0
 10
16.1840805208
 20
13.1596572469
 30
0.0
 10
16.1854168081
 20
13.1596572469
 30
0.0
 10
16.1905897195
 20
13.1597575758
 30
0.0
 10
16.1957588558
 20
13.1602629714
 30
0.0
 10
16.1995414562
 20
13.1609105805
 30
0.0
  0
SPLINE
  5
315
100
AcDbEntity
  8
0
100
AcDbSpline
 62
7
  6
CONTINUOUS
 70
0
 71
3
 72
11
 73
7
 74
0
 42
0.0000001
 43
0.0000001
 44
0.0000000001
 40
0.0
 40
0.0
 40
0.0
 40
0.0
 40
0.2575926419
 40
0.5240194434
 40
0.7775847622
 40
1.0
 40
1.0
 40
1.0
 40
1.0
 10
16.3420100747
 20
11.8619527389
 30
0.0
 10
16.3506469433
 20
11.8619527389
 30
0.0
 10
16.3682483258
 20
11.8598190776
 30
0.0
 10
16.3931642468
 20
11.8516115261
 30
0.0
 10
16.4149366541
 20
11.8392160758
 30
0.0
 10
16.4267472071
 20
11.8280849911
 30
0.0
 10
16.4311594397
 20
11.8220729193
 30
0.0
  0
SPLINE
  5
316
100
AcDbEntity
  8
0
100
AcDbSpline
 62
7
  6
CONTINUOUS
 70
0
 71
3
 72
11
 73
7
 74
0
 42
0.0000001
 43
0.0000001
 44
0.0000000001
 40
0.0
 40
0.0
 40
0.0
 40
0.0
 40
0.2224152378
 40
0.4759805566
 40
0.7424073581
 40
1.0
 40
1.0
 40
1.0
 40
1.0
 10
17.0494225673
 20
13.1995370665
 30
0.0
 10
17.0538347999
 20
13.1935249947
 30
0.0
 10
17.0656453529
 20
13.18239391
 30
0.0
 10
17.0874177602
 20
13.1699984597
 30
0.0
 10
17.1123336813
 20
13.1617909082
 30
0.0
 10
17.1299350637
 20
13.1596572469
 30
0.0
 10
17.1385719323
 20
13.1596572469
 30
0.0
  0
SPLINE
  5
317
100
AcDbEntity
  8
0
100
AcDbSpline
 62
7
  6
CONTINUOUS
 70
0
 71
3
 72
9
 73
5
 74
0
 42
0.0000001
 43
0.0000001
 44
0.0000000001
 40
0.0
 40
0.0
 40
0.0
 40
0.0
 40
0.5127288822
 40
1.0
 40
1.0
 40
1.0
 40
1.0
 10
16.3605541453
 20
11.965951382
 30
0.0
 10
16.3611717618
 20
11.9634565859
 30
0.0
 10
16.3618213922
 20
11.9584236491
 30
0.0
 10
16.361054743
 20
11.95338918
 30
0.0
 10
16.36033344
 20
11.9510556158
 30
0.0
  0
SPLINE
  5
318
100
AcDbEntity
  8
0
100
AcDbSpline
 62
7
  6
CONTINUOUS
 70
0
 71
3
 72
9
 73
5
 74
0
 42
0.0000001
 43
0.0000001
 44
0.0000000001
 40
0.0
 40
0.0
 40
0.0
 40
0.0
 40
0.2582734163
 40
1.0
 40
1.0
 40
1.0
 40
1.0
 10
16.6917519348
 20
13.1596572469
 30
0.0
 10
16.6930882221
 20
13.1596572469
 30
0.0
 10
16.6982611335
 20
13.1597575758
 30
0.0
 10
16.7034302698
 20
13.1602629714
 30
0.0
 10
16.7072128702
 20
13.1609105805
 30
0.0
  0
SPLINE
  5
319
100
AcDbEntity
  8
0
100
AcDbSpline
 62
7
  6
CONTINUOUS
 70
0
 71
3
 72
9
 73
5
 74
0
 42
0.0000001
 43
0.0000001
 44
0.0000000001
 40
0.0
 40
0.0
 40
0.0
 40
0.0
 40
0.4871860435
 40
1.0
 40
1.0
 40
1.0
 40
1.0
 10
16.738889579
 20
11.7491479603
 30
0.0
 10
16.7420326261
 20
11.7606676814
 30
0.0
 10
16.7451763359
 20
11.7853207605
 30
0.0
 10
16.7418414631
 20
11.8098722955
 30
0.0
 10
16.7388210532
 20
11.8220729193
 30
0.0
  0
SPLINE
  5
31A
100
AcDbEntity
  8
0
100
AcDbSpline
 62
7
  6
CONTINUOUS
 70
0
 71
3
 72
11
 73
7
 74
0
 42
0.0000001
 43
0.0000001
 44
0.0000000001
 40
0.0
 40
0.0
 40
0.0
 40
0.0
 40
0.2022213038
 40
0.4300646783
 40
0.6961818454
 40
1.0
 40
1.0
 40
1.0
 40
1.0
 10
15.852662026
 20
11.9510556158
 30
0.0
 10
15.8514839984
 20
11.9472444531
 30
0.0
 10
15.8468806396
 20
11.9397067091
 30
0.0
 10
15.8353188263
 20
11.9317905981
 30
0.0
 10
15.8201538263
 20
11.927021401
 30
0.0
 10
15.8088669139
 20
11.9260715624
 30
0.0
 10
15.8028737123
 20
11.9260715624
 30
0.0
  0
SPLINE
  5
31B
100
AcDbEntity
  8
0
100
AcDbSpline
 62
7
  6
CONTINUOUS
 70
0
 71
3
 72
11
 73
7
 74
0
 42
0.0000001
 43
0.0000001
 44
0.0000000001
 40
0.0
 40
0.0
 40
0.0
 40
0.0
 40
0.2022213038
 40
0.4300646783
 40
0.6961818454
 40
1.0
 40
1.0
 40
1.0
 40
1.0
 10
14.3296477839
 20
11.9510556158
 30
0.0
 10
14.3284697563
 20
11.9472444531
 30
0.0
 10
14.3238663976
 20
11.9397067091
 30
0.0
 10
14.3123045842
 20
11.9317905981
 30
0.0
 10
14.2971395843
 20
11.927021401
 30
0.0
 10
14.2858526719
 20
11.9260715624
 30
0.0
 10
14.2798594702
 20
11.9260715624
 30
0.0
  0
SPLINE
  5
31C
100
AcDbEntity
  8
0
100
AcDbSpline
 62
7
  6
CONTINUOUS
 70
0
 71
3
 72
9
 73
5
 74
0
 42
0.0000001
 43
0.0000001
 44
0.0000000001
 40
0.0
 40
0.0
 40
0.0
 40
0.0
 40
0.2355953265
 40
1.0
 40
1.0
 40
1.0
 40
1.0
 10
14.1298586887
 20
11.965951382
 30
0.0
 10
14.1251052439
 20
11.9724283867
 30
0.0
 10
14.103840465
 20
11.9991192371
 30
0.0
 10
14.0787367481
 20
12.0226263927
 30
0.0
 10
14.0583544703
 20
12.038876341
 30
0.0
  0
SPLINE
  5
31D
100
AcDbEntity
  8
0
100
AcDbSpline
 62
7
  6
CONTINUOUS
 70
0
 71
3
 72
9
 73
5
 74
0
 42
0.0000001
 43
0.0000001
 44
0.0000000001
 40
0.0
 40
0.0
 40
0.0
 40
0.0
 40
0.4871862864
 40
1.0
 40
1.0
 40
1.0
 40
1.0
 10
16.231218165
 20
11.7491479603
 30
0.0
 10
16.2343612124
 20
11.7606676824
 30
0.0
 10
16.2375046881
 20
11.7853207683
 30
0.0
 10
16.2341700464
 20
11.8098723062
 30
0.0
 10
16.2311496392
 20
11.8220729193
 30
0.0
  0
SPLINE
  5
31E
100
AcDbEntity
  8
0
100
AcDbSpline
 62
7
  6
CONTINUOUS
 70
0
 71
3
 72
11
 73
7
 74
0
 42
0.0000001
 43
0.0000001
 44
0.0000000001
 40
0.0
 40
0.0
 40
0.0
 40
0.0
 40
0.2022213038
 40
0.4300646783
 40
0.6961818454
 40
1.0
 40
1.0
 40
1.0
 40
1.0
 10
14.837319198
 20
11.9510556158
 30
0.0
 10
14.8361411703
 20
11.9472444531
 30
0.0
 10
14.8315378116
 20
11.9397067091
 30
0.0
 10
14.8199759983
 20
11.9317905981
 30
0.0
 10
14.8048109983
 20
11.927021401
 30
0.0
 10
14.7935240859
 20
11.9260715624
 30
0.0
 10
14.7875308842
 20
11.9260715624
 30
0.0
  0
SPLINE
  5
31F
100
AcDbEntity
  8
0
100
AcDbSpline
 62
7
  6
CONTINUOUS
 70
0
 71
3
 72
12
 73
8
 74
0
 42
0.0000001
 43
0.0000001
 44
0.0000000001
 40
0.0
 40
0.0
 40
0.0
 40
0.0
 40
0.3034181868
 40
0.5691755908
 40
0.796707151
 40
0.9001556746
 40
1.0
 40
1.0
 40
1.0
 40
1.0
 10
14.4048333545
 20
12.0775584012
 30
0.0
 10
14.3958437267
 20
12.0775584012
 30
0.0
 10
14.3789115823
 20
12.0761240649
 30
0.0
 10
14.3561742811
 20
12.069008016
 30
0.0
 10
14.3412662138
 20
12.0587221443
 30
0.0
 10
14.3335022192
 20
12.0484699037
 30
0.0
 10
14.331024824
 20
12.0429084635
 30
0.0
 10
14.3301508619
 20
12.04008234
 30
0.0
  0
SPLINE
  5
320
100
AcDbEntity
  8
0
100
AcDbSpline
 62
7
  6
CONTINUOUS
 70
0
 71
3
 72
11
 73
7
 74
0
 42
0.0000001
 43
0.0000001
 44
0.0000000001
 40
0.0
 40
0.0
 40
0.0
 40
0.0
 40
0.2402046698
 40
0.4952333594
 40
0.752739091
 40
1.0
 40
1.0
 40
1.0
 40
1.0
 10
14.5660258844
 20
12.038876341
 30
0.0
 10
14.5584259486
 20
12.0449354559
 30
0.0
 10
14.5414533601
 20
12.0558325251
 30
0.0
 10
14.5133648652
 20
12.0679123315
 30
0.0
 10
14.4834846616
 20
12.075628192
 30
0.0
 10
14.4630328871
 20
12.0775584012
 30
0.0
 10
14.4530276972
 20
12.0775584012
 30
0.0
  0
SPLINE
  5
321
100
AcDbEntity
  8
0
100
AcDbSpline
 62
7
  6
CONTINUOUS
 70
0
 71
3
 72
9
 73
5
 74
0
 42
0.0000001
 43
0.0000001
 44
0.0000000001
 40
0.0
 40
0.0
 40
0.0
 40
0.0
 40
0.4871862864
 40
1.0
 40
1.0
 40
1.0
 40
1.0
 10
15.723546751
 20
11.7491479603
 30
0.0
 10
15.7266897984
 20
11.7606676824
 30
0.0
 10
15.7298332741
 20
11.7853207683
 30
0.0
 10
15.7264986324
 20
11.8098723062
 30
0.0
 10
15.7234782252
 20
11.8220729193
 30
0.0
  0
SPLINE
  5
322
100
AcDbEntity
  8
0
100
AcDbSpline
 62
7
  6
CONTINUOUS
 70
0
 71
3
 72
9
 73
5
 74
0
 42
0.0000001
 43
0.0000001
 44
0.0000000001
 40
0.0
 40
0.0
 40
0.0
 40
0.0
 40
0.5127288822
 40
1.0
 40
1.0
 40
1.0
 40
1.0
 10
14.2004639831
 20
11.8220729193
 30
0.0
 10
14.1998463666
 20
11.8245677154
 30
0.0
 10
14.1991967362
 20
11.8296006522
 30
0.0
 10
14.1999633854
 20
11.8346351214
 30
0.0
 10
14.2006846884
 20
11.8369686856
 30
0.0
  0
SPLINE
  5
323
100
AcDbEntity
  8
0
100
AcDbSpline
 62
7
  6
CONTINUOUS
 70
0
 71
3
 72
9
 73
5
 74
0
 42
0.0000001
 43
0.0000001
 44
0.0000000001
 40
0.0
 40
0.0
 40
0.0
 40
0.0
 40
0.2355953265
 40
1.0
 40
1.0
 40
1.0
 40
1.0
 10
14.6375301027
 20
11.965951382
 30
0.0
 10
14.6327766579
 20
11.9724283867
 30
0.0
 10
14.611511879
 20
11.9991192371
 30
0.0
 10
14.5864081621
 20
12.0226263927
 30
0.0
 10
14.5660258844
 20
12.038876341
 30
0.0
  0
SPLINE
  5
324
100
AcDbEntity
  8
0
100
AcDbSpline
 62
7
  6
CONTINUOUS
 70
0
 71
3
 72
11
 73
7
 74
0
 42
0.0000001
 43
0.0000001
 44
0.0000000001
 40
0.0
 40
0.0
 40
0.0
 40
0.0
 40
0.2575926419
 40
0.5240194434
 40
0.7775847622
 40
1.0
 40
1.0
 40
1.0
 40
1.0
 10
14.2190080537
 20
11.9260715624
 30
0.0
 10
14.2103711851
 20
11.9260715624
 30
0.0
 10
14.1927698027
 20
11.9282052238
 30
0.0
 10
14.1678538816
 20
11.9364127753
 30
0.0
 10
14.1460814743
 20
11.9488082256
 30
0.0
 10
14.1342709213
 20
11.9599393102
 30
0.0
 10
14.1298586887
 20
11.965951382
 30
0.0
  0
SPLINE
  5
325
100
AcDbEntity
  8
0
100
AcDbSpline
 62
7
  6
CONTINUOUS
 70
0
 71
3
 72
11
 73
7
 74
0
 42
0.0000001
 43
0.0000001
 44
0.0000000001
 40
0.0
 40
0.0
 40
0.0
 40
0.0
 40
0.2022213038
 40
0.4300646783
 40
0.6961818454
 40
1.0
 40
1.0
 40
1.0
 40
1.0
 10
13.8219763699
 20
11.9510556158
 30
0.0
 10
13.8207983423
 20
11.9472444531
 30
0.0
 10
13.8161949835
 20
11.9397067091
 30
0.0
 10
13.8046331702
 20
11.9317905981
 30
0.0
 10
13.7894681703
 20
11.927021401
 30
0.0
 10
13.7781812579
 20
11.9260715624
 30
0.0
 10
13.7721880562
 20
11.9260715624
 30
0.0
  0
SPLINE
  5
326
100
AcDbEntity
  8
0
100
AcDbSpline
 62
7
  6
CONTINUOUS
 70
0
 71
3
 72
12
 73
8
 74
0
 42
0.0000001
 43
0.0000001
 44
0.0000000001
 40
0.0
 40
0.0
 40
0.0
 40
0.0
 40
0.3034181868
 40
0.5691755908
 40
0.796707151
 40
0.9001556746
 40
1.0
 40
1.0
 40
1.0
 40
1.0
 10
14.9125047685
 20
12.0775584012
 30
0.0
 10
14.9035151407
 20
12.0775584012
 30
0.0
 10
14.8865829964
 20
12.0761240649
 30
0.0
 10
14.8638456951
 20
12.069008016
 30
0.0
 10
14.8489376278
 20
12.0587221443
 30
0.0
 10
14.8411736332
 20
12.0484699037
 30
0.0
 10
14.838696238
 20
12.0429084635
 30
0.0
 10
14.8378222759
 20
12.04008234
 30
0.0
  0
SPLINE
  5
327
100
AcDbEntity
  8
0
100
AcDbSpline
 62
7
  6
CONTINUOUS
 70
0
 71
3
 72
9
 73
5
 74
0
 42
0.0000001
 43
0.0000001
 44
0.0000000001
 40
0.0
 40
0.0
 40
0.0
 40
0.0
 40
0.4871862864
 40
1.0
 40
1.0
 40
1.0
 40
1.0
 10
15.215875337
 20
11.7491479603
 30
0.0
 10
15.2190183843
 20
11.7606676824
 30
0.0
 10
15.22216186
 20
11.7853207683
 30
0.0
 10
15.2188272183
 20
11.8098723062
 30
0.0
 10
15.2158068112
 20
11.8220729193
 30
0.0
  0
SPLINE
  5
328
100
AcDbEntity
  8
0
100
AcDbSpline
 62
7
  6
CONTINUOUS
 70
0
 71
3
 72
11
 73
7
 74
0
 42
0.0000001
 43
0.0000001
 44
0.0000000001
 40
0.0
 40
0.0
 40
0.0
 40
0.0
 40
0.2402046698
 40
0.4952333594
 40
0.752739091
 40
1.0
 40
1.0
 40
1.0
 40
1.0
 10
15.0736972984
 20
12.038876341
 30
0.0
 10
15.0660973626
 20
12.0449354559
 30
0.0
 10
15.0491247742
 20
12.0558325251
 30
0.0
 10
15.0210362792
 20
12.0679123315
 30
0.0
 10
14.9911560756
 20
12.075628192
 30
0.0
 10
14.9707043011
 20
12.0775584012
 30
0.0
 10
14.9606991113
 20
12.0775584012
 30
0.0
  0
SPLINE
  5
329
100
AcDbEntity
  8
0
100
AcDbSpline
 62
7
  6
CONTINUOUS
 70
0
 71
3
 72
9
 73
5
 74
0
 42
0.0000001
 43
0.0000001
 44
0.0000000001
 40
0.0
 40
0.0
 40
0.0
 40
0.0
 40
0.5127288822
 40
1.0
 40
1.0
 40
1.0
 40
1.0
 10
14.7081353971
 20
11.8220729193
 30
0.0
 10
14.7075177806
 20
11.8245677154
 30
0.0
 10
14.7068681502
 20
11.8296006522
 30
0.0
 10
14.7076347994
 20
11.8346351214
 30
0.0
 10
14.7083561024
 20
11.8369686856
 30
0.0
  0
SPLINE
  5
32A
100
AcDbEntity
  8
0
100
AcDbSpline
 62
7
  6
CONTINUOUS
 70
0
 71
3
 72
9
 73
5
 74
0
 42
0.0000001
 43
0.0000001
 44
0.0000000001
 40
0.0
 40
0.0
 40
0.0
 40
0.0
 40
0.2355957311
 40
1.0
 40
1.0
 40
1.0
 40
1.0
 10
15.1452015167
 20
11.965951382
 30
0.0
 10
15.1404480638
 20
11.9724283978
 30
0.0
 10
15.1191832687
 20
11.999119235
 30
0.0
 10
15.0940795652
 20
12.0226264014
 30
0.0
 10
15.0736972984
 20
12.038876341
 30
0.0
  0
SPLINE
  5
32B
100
AcDbEntity
  8
0
100
AcDbSpline
 62
7
  6
CONTINUOUS
 70
0
 71
3
 72
11
 73
7
 74
0
 42
0.0000001
 43
0.0000001
 44
0.0000000001
 40
0.0
 40
0.0
 40
0.0
 40
0.0
 40
0.2575926419
 40
0.5240194434
 40
0.7775847622
 40
1.0
 40
1.0
 40
1.0
 40
1.0
 10
14.7266794677
 20
11.9260715624
 30
0.0
 10
14.7180425991
 20
11.9260715624
 30
0.0
 10
14.7004412167
 20
11.9282052238
 30
0.0
 10
14.6755252956
 20
11.9364127753
 30
0.0
 10
14.6537528883
 20
11.9488082256
 30
0.0
 10
14.6419423353
 20
11.9599393102
 30
0.0
 10
14.6375301027
 20
11.965951382
 30
0.0
  0
SPLINE
  5
32C
100
AcDbEntity
  8
0
100
AcDbSpline
 62
7
  6
CONTINUOUS
 70
0
 71
3
 72
11
 73
7
 74
0
 42
0.0000001
 43
0.0000001
 44
0.0000000001
 40
0.0
 40
0.0
 40
0.0
 40
0.0
 40
0.2022213038
 40
0.4300646783
 40
0.6961818454
 40
1.0
 40
1.0
 40
1.0
 40
1.0
 10
15.344990612
 20
11.9510556158
 30
0.0
 10
15.3438125844
 20
11.9472444531
 30
0.0
 10
15.3392092256
 20
11.9397067091
 30
0.0
 10
15.3276474123
 20
11.9317905981
 30
0.0
 10
15.3124824123
 20
11.927021401
 30
0.0
 10
15.3011954999
 20
11.9260715624
 30
0.0
 10
15.2952022982
 20
11.9260715624
 30
0.0
  0
SPLINE
  5
32D
100
AcDbEntity
  8
0
100
AcDbSpline
 62
7
  6
CONTINUOUS
 70
0
 71
3
 72
12
 73
8
 74
0
 42
0.0000001
 43
0.0000001
 44
0.0000000001
 40
0.0
 40
0.0
 40
0.0
 40
0.0
 40
0.3034181868
 40
0.5691755908
 40
0.796707151
 40
0.9001556746
 40
1.0
 40
1.0
 40
1.0
 40
1.0
 10
15.4201761826
 20
12.0775584012
 30
0.0
 10
15.4111865548
 20
12.0775584012
 30
0.0
 10
15.3942544104
 20
12.0761240649
 30
0.0
 10
15.3715171092
 20
12.069008016
 30
0.0
 10
15.3566090418
 20
12.0587221443
 30
0.0
 10
15.3488450472
 20
12.0484699037
 30
0.0
 10
15.3463676521
 20
12.0429084635
 30
0.0
 10
15.3454936899
 20
12.04008234
 30
0.0
  0
SPLINE
  5
32E
100
AcDbEntity
  8
0
100
AcDbSpline
 62
7
  6
CONTINUOUS
 70
0
 71
3
 72
9
 73
5
 74
0
 42
0.0000001
 43
0.0000001
 44
0.0000000001
 40
0.0
 40
0.0
 40
0.0
 40
0.0
 40
0.4871870484
 40
1.0
 40
1.0
 40
1.0
 40
1.0
 10
14.7082039229
 20
11.7491479603
 30
0.0
 10
14.7113469752
 20
11.7606677004
 30
0.0
 10
14.7144904454
 20
11.7853207882
 30
0.0
 10
14.7111557998
 20
11.8098723244
 30
0.0
 10
14.7081353971
 20
11.8220729193
 30
0.0
  0
SPLINE
  5
32F
100
AcDbEntity
  8
0
100
AcDbSpline
 62
7
  6
CONTINUOUS
 70
0
 71
3
 72
9
 73
5
 74
0
 42
0.0000001
 43
0.0000001
 44
0.0000000001
 40
0.0
 40
0.0
 40
0.0
 40
0.0
 40
0.5127288822
 40
1.0
 40
1.0
 40
1.0
 40
1.0
 10
15.2158068112
 20
11.8220729193
 30
0.0
 10
15.2151891947
 20
11.8245677154
 30
0.0
 10
15.2145395642
 20
11.8296006522
 30
0.0
 10
15.2153062135
 20
11.8346351214
 30
0.0
 10
15.2160275165
 20
11.8369686856
 30
0.0
  0
SPLINE
  5
330
100
AcDbEntity
  8
0
100
AcDbSpline
 62
7
  6
CONTINUOUS
 70
0
 71
3
 72
11
 73
7
 74
0
 42
0.0000001
 43
0.0000001
 44
0.0000000001
 40
0.0
 40
0.0
 40
0.0
 40
0.0
 40
0.2402046698
 40
0.4952333594
 40
0.752739091
 40
1.0
 40
1.0
 40
1.0
 40
1.0
 10
15.5813687124
 20
12.038876341
 30
0.0
 10
15.5737687766
 20
12.0449354559
 30
0.0
 10
15.5567961882
 20
12.0558325251
 30
0.0
 10
15.5287076932
 20
12.0679123315
 30
0.0
 10
15.4988274896
 20
12.075628192
 30
0.0
 10
15.4783757151
 20
12.0775584012
 30
0.0
 10
15.4683705253
 20
12.0775584012
 30
0.0
  0
SPLINE
  5
331
100
AcDbEntity
  8
0
100
AcDbSpline
 62
7
  6
CONTINUOUS
 70
0
 71
3
 72
11
 73
7
 74
0
 42
0.0000001
 43
0.0000001
 44
0.0000000001
 40
0.0
 40
0.0
 40
0.0
 40
0.0
 40
0.2575926419
 40
0.5240194434
 40
0.7775847622
 40
1.0
 40
1.0
 40
1.0
 40
1.0
 10
15.2343508817
 20
11.9260715624
 30
0.0
 10
15.2257140132
 20
11.9260715624
 30
0.0
 10
15.2081126307
 20
11.9282052238
 30
0.0
 10
15.1831967096
 20
11.9364127753
 30
0.0
 10
15.1614243023
 20
11.9488082256
 30
0.0
 10
15.1496137493
 20
11.9599393102
 30
0.0
 10
15.1452015167
 20
11.965951382
 30
0.0
  0
SPLINE
  5
332
100
AcDbEntity
  8
0
100
AcDbSpline
 62
7
  6
CONTINUOUS
 70
0
 71
3
 72
9
 73
5
 74
0
 42
0.0000001
 43
0.0000001
 44
0.0000000001
 40
0.0
 40
0.0
 40
0.0
 40
0.0
 40
0.2355957311
 40
1.0
 40
1.0
 40
1.0
 40
1.0
 10
15.6528729307
 20
11.965951382
 30
0.0
 10
15.6481194778
 20
11.9724283978
 30
0.0
 10
15.6268546827
 20
11.999119235
 30
0.0
 10
15.6017509792
 20
12.0226264014
 30
0.0
 10
15.5813687124
 20
12.038876341
 30
0.0
  0
SPLINE
  5
333
100
AcDbEntity
  8
0
100
AcDbSpline
 62
7
  6
CONTINUOUS
 70
0
 71
3
 72
11
 73
7
 74
0
 42
0.0000001
 43
0.0000001
 44
0.0000000001
 40
0.0
 40
0.0
 40
0.0
 40
0.0
 40
0.2022213038
 40
0.4300646783
 40
0.6961818454
 40
1.0
 40
1.0
 40
1.0
 40
1.0
 10
16.36033344
 20
11.9510556158
 30
0.0
 10
16.3591554124
 20
11.9472444531
 30
0.0
 10
16.3545520536
 20
11.9397067091
 30
0.0
 10
16.3429902403
 20
11.9317905981
 30
0.0
 10
16.3278252404
 20
11.927021401
 30
0.0
 10
16.3165383279
 20
11.9260715624
 30
0.0
 10
16.3105451263
 20
11.9260715624
 30
0.0
  0
SPLINE
  5
334
100
AcDbEntity
  8
0
100
AcDbSpline
 62
7
  6
CONTINUOUS
 70
0
 71
3
 72
9
 73
5
 74
0
 42
0.0000001
 43
0.0000001
 44
0.0000000001
 40
0.0
 40
0.0
 40
0.0
 40
0.0
 40
0.4871870484
 40
1.0
 40
1.0
 40
1.0
 40
1.0
 10
14.2005325089
 20
11.7491479603
 30
0.0
 10
14.2036755612
 20
11.7606677004
 30
0.0
 10
14.2068190314
 20
11.7853207882
 30
0.0
 10
14.2034843858
 20
11.8098723244
 30
0.0
 10
14.2004639831
 20
11.8220729193
 30
0.0
  0
SPLINE
  5
335
100
AcDbEntity
  8
0
100
AcDbSpline
 62
7
  6
CONTINUOUS
 70
0
 71
3
 72
12
 73
8
 74
0
 42
0.0000001
 43
0.0000001
 44
0.0000000001
 40
0.0
 40
0.0
 40
0.0
 40
0.0
 40
0.3034181868
 40
0.5691755908
 40
0.796707151
 40
0.9001556746
 40
1.0
 40
1.0
 40
1.0
 40
1.0
 10
15.9278475966
 20
12.0775584012
 30
0.0
 10
15.9188579688
 20
12.0775584012
 30
0.0
 10
15.9019258244
 20
12.0761240649
 30
0.0
 10
15.8791885232
 20
12.069008016
 30
0.0
 10
15.8642804559
 20
12.0587221443
 30
0.0
 10
15.8565164613
 20
12.0484699037
 30
0.0
 10
15.8540390661
 20
12.0429084635
 30
0.0
 10
15.8531651039
 20
12.04008234
 30
0.0
  0
SPLINE
  5
336
100
AcDbEntity
  8
0
100
AcDbSpline
 62
7
  6
CONTINUOUS
 70
0
 71
3
 72
9
 73
5
 74
0
 42
0.0000001
 43
0.0000001
 44
0.0000000001
 40
0.0
 40
0.0
 40
0.0
 40
0.0
 40
0.5127288822
 40
1.0
 40
1.0
 40
1.0
 40
1.0
 10
15.7234782252
 20
11.8220729193
 30
0.0
 10
15.7228606087
 20
11.8245677154
 30
0.0
 10
15.7222109783
 20
11.8296006522
 30
0.0
 10
15.7229776275
 20
11.8346351214
 30
0.0
 10
15.7236989305
 20
11.8369686856
 30
0.0
  0
SPLINE
  5
337
100
AcDbEntity
  8
0
100
AcDbSpline
 62
7
  6
CONTINUOUS
 70
0
 71
3
 72
11
 73
7
 74
0
 42
0.0000001
 43
0.0000001
 44
0.0000000001
 40
0.0
 40
0.0
 40
0.0
 40
0.0
 40
0.2575926419
 40
0.5240194434
 40
0.7775847622
 40
1.0
 40
1.0
 40
1.0
 40
1.0
 10
15.7420222958
 20
11.9260715624
 30
0.0
 10
15.7333854272
 20
11.9260715624
 30
0.0
 10
15.7157840447
 20
11.9282052238
 30
0.0
 10
15.6908681237
 20
11.9364127753
 30
0.0
 10
15.6690957164
 20
11.9488082256
 30
0.0
 10
15.6572851634
 20
11.9599393102
 30
0.0
 10
15.6528729307
 20
11.965951382
 30
0.0
  0
SPLINE
  5
338
100
AcDbEntity
  8
0
100
AcDbSpline
 62
7
  6
CONTINUOUS
 70
0
 71
3
 72
11
 73
7
 74
0
 42
0.0000001
 43
0.0000001
 44
0.0000000001
 40
0.0
 40
0.0
 40
0.0
 40
0.0
 40
0.2402046698
 40
0.4952333594
 40
0.752739091
 40
1.0
 40
1.0
 40
1.0
 40
1.0
 10
16.0890401264
 20
12.038876341
 30
0.0
 10
16.0814401907
 20
12.0449354559
 30
0.0
 10
16.0644676022
 20
12.0558325251
 30
0.0
 10
16.0363791072
 20
12.0679123315
 30
0.0
 10
16.0064989036
 20
12.075628192
 30
0.0
 10
15.9860471291
 20
12.0775584012
 30
0.0
 10
15.9760419393
 20
12.0775584012
 30
0.0
  0
SPLINE
  5
339
100
AcDbEntity
  8
0
100
AcDbSpline
 62
7
  6
CONTINUOUS
 70
0
 71
3
 72
9
 73
5
 74
0
 42
0.0000001
 43
0.0000001
 44
0.0000000001
 40
0.0
 40
0.0
 40
0.0
 40
0.0
 40
0.2355957311
 40
1.0
 40
1.0
 40
1.0
 40
1.0
 10
16.1605443448
 20
11.965951382
 30
0.0
 10
16.1557908918
 20
11.9724283978
 30
0.0
 10
16.1345260968
 20
11.999119235
 30
0.0
 10
16.1094223932
 20
12.0226264014
 30
0.0
 10
16.0890401264
 20
12.038876341
 30
0.0
  0
SPLINE
  5
33A
100
AcDbEntity
  8
0
100
AcDbSpline
 62
7
  6
CONTINUOUS
 70
0
 71
3
 72
12
 73
8
 74
0
 42
0.0000001
 43
0.0000001
 44
0.0000000001
 40
0.0
 40
0.0
 40
0.0
 40
0.0
 40
0.3034181868
 40
0.5691755908
 40
0.796707151
 40
0.9001556746
 40
1.0
 40
1.0
 40
1.0
 40
1.0
 10
16.4355190106
 20
12.0775584012
 30
0.0
 10
16.4265293828
 20
12.0775584012
 30
0.0
 10
16.4095972384
 20
12.0761240649
 30
0.0
 10
16.3868599372
 20
12.069008016
 30
0.0
 10
16.3719518699
 20
12.0587221443
 30
0.0
 10
16.3641878753
 20
12.0484699037
 30
0.0
 10
16.3617104801
 20
12.0429084635
 30
0.0
 10
16.3608365179
 20
12.04008234
 30
0.0
  0
SPLINE
  5
33B
100
AcDbEntity
  8
0
100
AcDbSpline
 62
7
  6
CONTINUOUS
 70
0
 71
3
 72
9
 73
5
 74
0
 42
0.0000001
 43
0.0000001
 44
0.0000000001
 40
0.0
 40
0.0
 40
0.0
 40
0.0
 40
0.5127288822
 40
1.0
 40
1.0
 40
1.0
 40
1.0
 10
16.2311496392
 20
11.8220729193
 30
0.0
 10
16.2305320227
 20
11.8245677154
 30
0.0
 10
16.2298823923
 20
11.8296006522
 30
0.0
 10
16.2306490415
 20
11.8346351214
 30
0.0
 10
16.2313703445
 20
11.8369686856
 30
0.0
  0
SPLINE
  5
33C
100
AcDbEntity
  8
0
100
AcDbSpline
 62
7
  6
CONTINUOUS
 70
0
 71
3
 72
11
 73
7
 74
0
 42
0.0000001
 43
0.0000001
 44
0.0000000001
 40
0.0
 40
0.0
 40
0.0
 40
0.0
 40
0.2575926419
 40
0.5240194434
 40
0.7775847622
 40
1.0
 40
1.0
 40
1.0
 40
1.0
 10
16.2496937098
 20
11.9260715624
 30
0.0
 10
16.2410568412
 20
11.9260715624
 30
0.0
 10
16.2234554587
 20
11.9282052238
 30
0.0
 10
16.1985395377
 20
11.9364127753
 30
0.0
 10
16.1767671304
 20
11.9488082256
 30
0.0
 10
16.1649565774
 20
11.9599393102
 30
0.0
 10
16.1605443448
 20
11.965951382
 30
0.0
  0
SPLINE
  5
33D
100
AcDbEntity
  8
0
100
AcDbSpline
 62
7
  6
CONTINUOUS
 70
0
 71
3
 72
12
 73
8
 74
0
 42
0.0000001
 43
0.0000001
 44
0.0000000001
 40
0.0
 40
0.0
 40
0.0
 40
0.0
 40
0.3034181868
 40
0.5691755908
 40
0.796707151
 40
0.9001556746
 40
1.0
 40
1.0
 40
1.0
 40
1.0
 10
13.8971619405
 20
12.0775584012
 30
0.0
 10
13.8881723127
 20
12.0775584012
 30
0.0
 10
13.8712401683
 20
12.0761240649
 30
0.0
 10
13.8485028671
 20
12.069008016
 30
0.0
 10
13.8335947998
 20
12.0587221443
 30
0.0
 10
13.8258308052
 20
12.0484699037
 30
0.0
 10
13.82335341
 20
12.0429084635
 30
0.0
 10
13.8224794478
 20
12.04008234
 30
0.0
  0
SPLINE
  5
33E
100
AcDbEntity
  8
0
100
AcDbSpline
 62
7
  6
CONTINUOUS
 70
0
 71
3
 72
11
 73
7
 74
0
 42
0.0000001
 43
0.0000001
 44
0.0000000001
 40
0.0
 40
0.0
 40
0.0
 40
0.0
 40
0.2402046698
 40
0.4952333594
 40
0.752739091
 40
1.0
 40
1.0
 40
1.0
 40
1.0
 10
14.0583544703
 20
12.038876341
 30
0.0
 10
14.0507545346
 20
12.0449354559
 30
0.0
 10
14.0337819461
 20
12.0558325251
 30
0.0
 10
14.0056934512
 20
12.0679123315
 30
0.0
 10
13.9758132475
 20
12.075628192
 30
0.0
 10
13.955361473
 20
12.0775584012
 30
0.0
 10
13.9453562832
 20
12.0775584012
 30
0.0
  0
SPLINE
  5
33F
100
AcDbEntity
  8
0
100
AcDbSpline
 62
7
  6
CONTINUOUS
 70
0
 71
3
 72
9
 73
5
 74
0
 42
0.0000001
 43
0.0000001
 44
0.0000000001
 40
0.0
 40
0.0
 40
0.0
 40
0.0
 40
0.5127288822
 40
1.0
 40
1.0
 40
1.0
 40
1.0
 10
16.7388210532
 20
11.8220729193
 30
0.0
 10
16.7382034367
 20
11.8245677154
 30
0.0
 10
16.7375538063
 20
11.8296006522
 30
0.0
 10
16.7383204555
 20
11.8346351214
 30
0.0
 10
16.7390417585
 20
11.8369686856
 30
0.0
  0
SPLINE
  5
340
100
AcDbEntity
  8
0
100
AcDbSpline
 62
7
  6
CONTINUOUS
 70
0
 71
3
 72
11
 73
7
 74
0
 42
0.0000001
 43
0.0000001
 44
0.0000000001
 40
0.0
 40
0.0
 40
0.0
 40
0.0
 40
0.2402046698
 40
0.4952333594
 40
0.752739091
 40
1.0
 40
1.0
 40
1.0
 40
1.0
 10
16.5967115404
 20
12.038876341
 30
0.0
 10
16.5891116047
 20
12.0449354559
 30
0.0
 10
16.5721390162
 20
12.0558325251
 30
0.0
 10
16.5440505213
 20
12.0679123315
 30
0.0
 10
16.5141703176
 20
12.075628192
 30
0.0
 10
16.4937185431
 20
12.0775584012
 30
0.0
 10
16.4837133533
 20
12.0775584012
 30
0.0
  0
SPLINE
  5
341
100
AcDbEntity
  8
0
100
AcDbSpline
 62
7
  6
CONTINUOUS
 70
0
 71
3
 72
11
 73
7
 74
0
 42
0.0000001
 43
0.0000001
 44
0.0000000001
 40
0.0
 40
0.0
 40
0.0
 40
0.0
 40
0.2575926419
 40
0.5240194434
 40
0.7775847622
 40
1.0
 40
1.0
 40
1.0
 40
1.0
 10
16.7573651238
 20
11.9260715624
 30
0.0
 10
16.7487282552
 20
11.9260715624
 30
0.0
 10
16.7311268728
 20
11.9282052238
 30
0.0
 10
16.7062109517
 20
11.9364127753
 30
0.0
 10
16.6844385444
 20
11.9488082256
 30
0.0
 10
16.6726279914
 20
11.9599393102
 30
0.0
 10
16.6682157588
 20
11.965951382
 30
0.0
  0
SPLINE
  5
342
100
AcDbEntity
  8
0
100
AcDbSpline
 62
7
  6
CONTINUOUS
 70
0
 71
3
 72
9
 73
5
 74
0
 42
0.0000001
 43
0.0000001
 44
0.0000000001
 40
0.0
 40
0.0
 40
0.0
 40
0.0
 40
0.2356730812
 40
1.0
 40
1.0
 40
1.0
 40
1.0
 10
16.6682157588
 20
11.965951382
 30
0.0
 10
16.6634607404
 20
11.9724305309
 30
0.0
 10
16.6421966602
 20
11.99912202
 30
0.0
 10
16.6170917655
 20
12.0226280292
 30
0.0
 10
16.5967115404
 20
12.038876341
 30
0.0
  0
ENDSEC
  0
SECTION
  2
OBJECTS
  0
DICTIONARY
  5
C
100
AcDbDictionary
280
0
281
1
  3
ACAD_GROUP
350
D
  3
ACAD_MLINESTYLE
350
17
  3
ACAD_LAYOUT
350
1A
  3
ACAD_PLOTSETTINGS
350
19
  3
ACAD_PLOTSTYLENAME
350
E
  0
DICTIONARY
  5
D
102
{ACAD_REACTORS
330
C
102
}
100
AcDbDictionary
280
0
281
1
  0
ACDBDICTIONARYWDFLT
  5
E
102
{ACAD_REACTORS
330
C
102
}
100
AcDbDictionary
281
1
  3
Normal
350
F
100
AcDbDictionaryWithDefault
340
F
  0
DICTIONARY
  5
17
102
{ACAD_REACTORS
330
C
102
}
100
AcDbDictionary
280
0
281
1
  3
Standard
350
18
  0
DICTIONARY
  5
19
102
{ACAD_REACTORS
330
C
102
}
100
AcDbDictionary
281
1
  0
DICTIONARY
  5
1A
102
{ACAD_REACTORS
330
C
102
}
100
AcDbDictionary
281
1
  3
Model
350
343
  3
Layout1
350
344
  0
ACDBPLACEHOLDER
  5
F
102
{ACAD_REACTORS
330
E
102
}
  0
MLINESTYLE
  5
18
102
{ACAD_REACTORS
330
17
102
}
100
AcDbMlineStyle
  2
STANDARD
 70
0
  3

 62
256
 51
90.0
 52
90.0
 71
2
 49
0.5
 62
256
  6
BYLAYER
 49
-0.5
 62
256
  6
BYLAYER
  0
LAYOUT
  5
343
102
{ACAD_REACTORS
330
1A
102
}
100
AcDbPlotSettings
  1

  2
none_device
  4
ANSI_C_(22.00_x_17.00_Inches)
  6

 40
0.0
 41
0.0
 42
0.0
 43
0.0
 44
558.8
 45
431.8
 46
0.0
 47
0.0
 48
0.0
 49
0.0
140
0.0
141
0.0
142
1.0
143
1.0
 70
1024
 72
0
 73
0
 74
0
  7

 75
0
147
1.0
148
0.0
149
0.0
100
AcDbLayout
  1
Model
 70
0
 71
0
 10
0.0
 20
0.0
 11
22.0
 21
17.0
 12
0.0
 22
0.0
 32
0.0
 14
0.0
 24
0.0
 34
0.0
 15
0.0
 25
0.0
 35
0.0
146
0.0
 13
0.0
 23
0.0
 33
0.0
 16
1.0
 26
0.0
 36
0.0
 17
0.0
 27
1.0
 37
0.0
 76
0
330
216
345
0
346
0
  0
LAYOUT
  5
344
102
{ACAD_REACTORS
330
1A
102
}
100
AcDbPlotSettings
  1

  2
none_device
  4
ANSI_C_(22.00_x_17.00_Inches)
  6

 40
0.0
 41
0.0
 42
0.0
 43
0.0
 44
558.8
 45
431.8
 46
0.0
 47
0.0
 48
0.0
 49
0.0
140
0.0
141
0.0
142
1.0
143
1.0
 70
0
 72
0
 73
0
 74
0
  7

 75
0
147
1.0
148
0.0
149
0.0
100
AcDbLayout
  1
Layout1
 70
0
 71
1
 10
0.0
 20
0.0
 11
22.0
 21
17.0
 12
0.0
 22
0.0
 32
0.0
 14
0.0
 24
0.0
 34
0.0
 15
0.0
 25
0.0
 35
0.0
146
0.0
 13
0.0
 23
0.0
 33
0.0
 16
1.0
 26
0.0
 36
0.0
 17
0.0
 27
1.0
 37
0.0
 76
0
330
217
345
0
346
0
  0
ENDSEC
  0
EOF