999
DXF file: _cgs_temp_output.dxf
999
Pro/ENGINEER 2015110 by Parametric Technology Corporation
  0
SECTION
  2
HEADER
  9
$ACADVER
  1
AC1021
  9
$DWGCODEPAGE
  3
ANSI_1252
  9
$EXTMAX
 10
22.0
 20
17.0
 30
0.0
  9
$EXTMIN
 10
0.0
 20
0.0
 30
0.0
  9
$LIMMIN
 10
0.0
 20
0.0
  9
$LIMMAX
 10
22.0
 20
17.0
  9
$VIEWCTR
 10
11.0
 20
8.5
  9
$VIEWSIZE
 40
17.0
  9
$CLAYER
  8
0
  9
$LTSCALE
 40
1.21
  9
$CELTYPE
  6
BYLAYER
  9
$DIMSCALE
 40
1.0
  9
$DIMASZ
 40
0.1875
  9
$DIMEXO
 40
0.0625
  9
$DIMDLI
 40
0.836
  9
$DIMEXE
 40
0.125
  9
$DIMCEN
 40
0.198
  9
$DIMLFAC
 40
1.0
  9
$DIMBLK
  1
_CLOSED
  9
$DIMALT
 70
0
  9
$DIMALTF
 40
25.4
  9
$DIMTXT
 40
0.15625
  9
$DIMTOL
 70
0
  9
$DIMLIM
 70
0
  9
$DIMTFAC
 40
1.0
  9
$DIMGAP
 40
0.09
  9
$DIMDSEP
 70
46
  9
$AUNITS
 70
0
  9
$PDMODE
 70
3
  9
$PDSIZE
 40
0.3125
  9
$HANDSEED
  5
379
  9
$TILEMODE
 70
1
  9
$MEASUREMENT
 70
0
  9
$INSUNITS
 70
1
  0
ENDSEC
  0
SECTION
  2
CLASSES
  0
CLASS
  1
ACDBDICTIONARYWDFLT
  2
AcDbDictionaryWithDefault
  3
AutoCAD 2000
 90
0
 91
1
280
0
281
0
  0
CLASS
  1
ACDBPLACEHOLDER
  2
AcDbPlaceHolder
  3
AutoCAD 2000
 90
0
 91
1
280
0
281
0
  0
CLASS
  1
LAYOUT
  2
AcDbLayout
  3
AutoCAD 2000
 90
0
 91
0
280
0
281
0
  0
ENDSEC
  0
SECTION
  2
TABLES
  0
TABLE
  2
VPORT
  5
8
100
AcDbSymbolTable
 70
2
  0
VPORT
  5
1F4
100
AcDbSymbolTableRecord
100
AcDbViewportTableRecord
  2
*ACTIVE
 70
0
 10
0.0
 20
0.0
 11
1.0
 21
1.0
 12
11.0
 22
8.5
 13
0.0
 23
0.0
 14
1.0
 24
1.0
 15
0.0
 25
0.0
 16
0.0
 26
0.0
 36
1.0
 17
0.0
 27
0.0
 37
0.0
 40
17.0
 41
1.2941176471
 42
50.0
 43
0.0
 44
0.0
 50
0.0
 51
0.0
 71
0
 72
100
 73
1
 74
1
 75
0
 76
0
 77
0
 78
0
  0
ENDTAB
  0
TABLE
  2
LTYPE
  5
5
100
AcDbSymbolTable
 70
6
  0
LTYPE
  5
14
100
AcDbSymbolTableRecord
100
AcDbLinetypeTableRecord
  2
BYBLOCK
 70
0
  3

 72
65
 73
0
 40
0.0
  0
LTYPE
  5
15
100
AcDbSymbolTableRecord
100
AcDbLinetypeTableRecord
  2
BYLAYER
 70
0
  3

 72
65
 73
0
 40
0.0
  0
LTYPE
  5
16
100
AcDbSymbolTableRecord
100
AcDbLinetypeTableRecord
  2
CONTINUOUS
 70
64
  3
Solid line
 72
65
 73
0
 40
0.0
  0
LTYPE
  5
1F5
100
AcDbSymbolTableRecord
100
AcDbLinetypeTableRecord
  2
CENTER
 70
64
  3
____ _ ____ _ ____ _ ____ _ ____ _ ____ _ ____
 72
65
 73
4
 40
0.6
 49
0.375
 74
0
 49
-0.075
 74
0
 49
0.075
 74
0
 49
-0.075
 74
0
  0
LTYPE
  5
1F6
100
AcDbSymbolTableRecord
100
AcDbLinetypeTableRecord
  2
HIDDEN
 70
64
  3
- - - - - - - - - - - - - - - - - - - -
 72
65
 73
2
 40
0.2
 49
0.1
 74
0
 49
-0.1
 74
0
  0
LTYPE
  5
1F7
100
AcDbSymbolTableRecord
100
AcDbLinetypeTableRecord
  2
PHANTOM
 70
64
  3
_____ _ _ _____ _ _ _____ _ _ _____
 72
65
 73
6
 40
0.8
 49
0.45
 74
0
 49
-0.05
 74
0
 49
0.1
 74
0
 49
-0.05
 74
0
 49
0.1
 74
0
 49
-0.05
 74
0
  0
LTYPE
  5
1F8
100
AcDbSymbolTableRecord
100
AcDbLinetypeTableRecord
  2
DOT
 70
64
  3
. . . . . . . . . . . . . . . . . . . .
 72
65
 73
2
 40
0.2
 49
0.1
 74
0
 49
-0.1
 74
0
  0
LTYPE
  5
1F9
100
AcDbSymbolTableRecord
100
AcDbLinetypeTableRecord
  2
DASHED
 70
64
  3
- - - - - - - - - - - - - - - - - - - -
 72
65
 73
2
 40
0.2
 49
0.1
 74
0
 49
-0.1
 74
0
  0
ENDTAB
  0
TABLE
  2
LAYER
  5
2
100
AcDbSymbolTable
 70
36
  0
LAYER
  5
10
100
AcDbSymbolTableRecord
100
AcDbLayerTableRecord
  2
0
 70
0
 62
7
  6
CONTINUOUS
370
-3
390
F
  0
LAYER
  5
1FA
100
AcDbSymbolTableRecord
100
AcDbLayerTableRecord
  2
DEFAULT_1
 70
0
 62
7
  6
CENTER
370
-3
390
F
  0
LAYER
  5
1FB
100
AcDbSymbolTableRecord
100
AcDbLayerTableRecord
  2
DEFAULT_2
 70
0
 62
8
  6
HIDDEN
370
-3
390
F
  0
LAYER
  5
1FC
100
AcDbSymbolTableRecord
100
AcDbLayerTableRecord
  2
DEFAULT_3
 70
0
 62
7
  6
PHANTOM
370
-3
390
F
  0
LAYER
  5
1FD
100
AcDbSymbolTableRecord
100
AcDbLayerTableRecord
  2
01_ALL_DTM_PLN
 70
0
 62
7
  6
CONTINUOUS
370
-3
390
F
  0
LAYER
  5
1FE
100
AcDbSymbolTableRecord
100
AcDbLayerTableRecord
  2
01__ASM_ALL_DTM_PLN
 70
0
 62
7
  6
CONTINUOUS
370
-3
390
F
  0
LAYER
  5
1FF
100
AcDbSymbolTableRecord
100
AcDbLayerTableRecord
  2
01__ASM_DEF_DTM_PLN
 70
0
 62
7
  6
CONTINUOUS
370
-3
390
F
  0
LAYER
  5
200
100
AcDbSymbolTableRecord
100
AcDbLayerTableRecord
  2
01___PRT_ALL_DTM_PLN
 70
0
 62
7
  6
CONTINUOUS
370
-3
390
F
  0
LAYER
  5
201
100
AcDbSymbolTableRecord
100
AcDbLayerTableRecord
  2
01___PRT_DEF_DTM_PLN
 70
0
 62
7
  6
CONTINUOUS
370
-3
390
F
  0
LAYER
  5
202
100
AcDbSymbolTableRecord
100
AcDbLayerTableRecord
  2
02_ALL_AXES
 70
0
 62
7
  6
CONTINUOUS
370
-3
390
F
  0
LAYER
  5
203
100
AcDbSymbolTableRecord
100
AcDbLayerTableRecord
  2
02__ASM_ALL_AXES
 70
0
 62
7
  6
CONTINUOUS
370
-3
390
F
  0
LAYER
  5
204
100
AcDbSymbolTableRecord
100
AcDbLayerTableRecord
  2
02___PRT_ALL_AXES
 70
0
 62
7
  6
CONTINUOUS
370
-3
390
F
  0
LAYER
  5
205
100
AcDbSymbolTableRecord
100
AcDbLayerTableRecord
  2
03_ALL_CURVES
 70
0
 62
7
  6
CONTINUOUS
370
-3
390
F
  0
LAYER
  5
206
100
AcDbSymbolTableRecord
100
AcDbLayerTableRecord
  2
03__ASM_ALL_CURVES
 70
0
 62
7
  6
CONTINUOUS
370
-3
390
F
  0
LAYER
  5
207
100
AcDbSymbolTableRecord
100
AcDbLayerTableRecord
  2
03___PRT_ALL_CURVES
 70
0
 62
7
  6
CONTINUOUS
370
-3
390
F
  0
LAYER
  5
208
100
AcDbSymbolTableRecord
100
AcDbLayerTableRecord
  2
04_ALL_DTM_PNT
 70
0
 62
7
  6
CONTINUOUS
370
-3
390
F
  0
LAYER
  5
209
100
AcDbSymbolTableRecord
100
AcDbLayerTableRecord
  2
04__ASM_ALL_DTM_PNT
 70
0
 62
7
  6
CONTINUOUS
370
-3
390
F
  0
LAYER
  5
20A
100
AcDbSymbolTableRecord
100
AcDbLayerTableRecord
  2
04___PRT_ALL_DTM_PNT
 70
0
 62
7
  6
CONTINUOUS
370
-3
390
F
  0
LAYER
  5
20B
100
AcDbSymbolTableRecord
100
AcDbLayerTableRecord
  2
05_ALL_DTM_CSYS
 70
0
 62
7
  6
CONTINUOUS
370
-3
390
F
  0
LAYER
  5
20C
100
AcDbSymbolTableRecord
100
AcDbLayerTableRecord
  2
05__ASM_ALL_DTM_CSYS
 70
0
 62
7
  6
CONTINUOUS
370
-3
390
F
  0
LAYER
  5
20D
100
AcDbSymbolTableRecord
100
AcDbLayerTableRecord
  2
05__ASM_DEF_DTM_CSYS
 70
0
 62
7
  6
CONTINUOUS
370
-3
390
F
  0
LAYER
  5
20E
100
AcDbSymbolTableRecord
100
AcDbLayerTableRecord
  2
05___PRT_ALL_DTM_CSYS
 70
0
 62
7
  6
CONTINUOUS
370
-3
390
F
  0
LAYER
  5
20F
100
AcDbSymbolTableRecord
100
AcDbLayerTableRecord
  2
05___PRT_DEF_DTM_CSYS
 70
0
 62
7
  6
CONTINUOUS
370
-3
390
F
  0
LAYER
  5
210
100
AcDbSymbolTableRecord
100
AcDbLayerTableRecord
  2
06_ALL_SURFS
 70
0
 62
7
  6
CONTINUOUS
370
-3
390
F
  0
LAYER
  5
211
100
AcDbSymbolTableRecord
100
AcDbLayerTableRecord
  2
06__ASM_ALL_SURFS
 70
0
 62
7
  6
CONTINUOUS
370
-3
390
F
  0
LAYER
  5
212
100
AcDbSymbolTableRecord
100
AcDbLayerTableRecord
  2
06___PRT_ALL_SURFS
 70
0
 62
7
  6
CONTINUOUS
370
-3
390
F
  0
LAYER
  5
213
100
AcDbSymbolTableRecord
100
AcDbLayerTableRecord
  2
07__ASM_ALL_SKELETONS
 70
0
 62
7
  6
CONTINUOUS
370
-3
390
F
  0
ENDTAB
  0
TABLE
  2
STYLE
  5
3
100
AcDbSymbolTable
 70
1
  0
STYLE
  5
11
100
AcDbSymbolTableRecord
100
AcDbTextStyleTableRecord
  2
STANDARD
 70
0
 40
0.0
 41
0.8
 50
0.0
 71
0
 42
0.2
  3
txt
  4

  0
STYLE
  5
214
100
AcDbSymbolTableRecord
100
AcDbTextStyleTableRecord
  2
TEXTSTYLE_1
 70
0
 40
0.0
 41
0.8
 50
0.0
 71
0
 42
0.2
  3
gdt
  4

  0
ENDTAB
  0
TABLE
  2
VIEW
  5
6
100
AcDbSymbolTable
 70
0
  0
ENDTAB
  0
TABLE
  2
UCS
  5
7
100
AcDbSymbolTable
 70
0
  0
ENDTAB
  0
TABLE
  2
APPID
  5
9
100
AcDbSymbolTable
 70
1
  0
APPID
  5
215
100
AcDbSymbolTableRecord
100
AcDbRegAppTableRecord
  2
ACAD
 70
0
  0
ENDTAB
  0
TABLE
  2
BLOCK_RECORD
  5
1
100
AcDbSymbolTable
 70
0
  0
BLOCK_RECORD
  5
216
100
AcDbSymbolTableRecord
100
AcDbBlockTableRecord
  2
*Model_Space
  0
BLOCK_RECORD
  5
217
100
AcDbSymbolTableRecord
100
AcDbBlockTableRecord
  2
*Paper_Space
  0
ENDTAB
  0
TABLE
  2
DIMSTYLE
  5
A
100
AcDbSymbolTable
 70
1
100
AcDbDimStyleTable
 71
0
  0
DIMSTYLE
105
218
100
AcDbSymbolTableRecord
100
AcDbDimStyleTableRecord
  2
STANDARD
 70
0
  3

  4

 40
1.0
 41
0.1875
 42
0.0625
 43
0.38
 44
0.125
 45
0.0
 46
0.0
 47
0.0001
 48
0.0001
140
0.15625
141
0.09
142
0.0
143
25.4
144
1.0
145
0.0
146
1.0
147
0.09
 71
0.0
 72
0.0
 73
1
 74
1
 75
0
 76
0
 77
0
 78
4
170
0
171
2
172
0
173
0
174
0
175
0
176
0
177
0
178
0
270
2
271
4
272
4
273
2
274
2
275
0
280
0
281
0
282
0
283
1
284
4
285
0
286
0
287
3
288
0
340
11
278
46
  0
ENDTAB
  0
ENDSEC
  0
SECTION
  2
BLOCKS
  0
BLOCK
  5
20
100
AcDbEntity
  8
0
100
AcDbBlockBegin
  2
*Model_Space
 70
0
 10
0.0
 20
0.0
 30
0.0
  3
*Model_Space
  1

  0
ENDBLK
  5
21
100
AcDbEntity
  8
0
100
AcDbBlockEnd
  0
BLOCK
  5
1C
100
AcDbEntity
  8
0
100
AcDbBlockBegin
  2
*Paper_Space
 70
0
 10
0.0
 20
0.0
 30
0.0
  3
*Paper_Space
  1

  0
ENDBLK
  5
1D
100
AcDbEntity
  8
0
100
AcDbBlockEnd
  0
ENDSEC
  0
SECTION
  2
ENTITIES
  0
MTEXT
  5
219
100
AcDbEntity
  8
0
100
AcDbMText
 62
7
  6
CONTINUOUS
  7
STANDARD
 71
1
 72
1
 10
15.9560215477
 20
0.9479130325
 30
0.0
 11
1.0
 21
0.0
 31
0.0
 44
0.9
  1
SCALE: 1:1.000
 40
0.3
 41
3.36
  0
LINE
  5
21A
100
AcDbEntity
  8
0
100
AcDbLine
 62
7
  6
CONTINUOUS
 10
0.0
 20
0.0
 11
0.0
 21
17.0
  0
LINE
  5
21B
100
AcDbEntity
  8
0
100
AcDbLine
 62
7
  6
CONTINUOUS
 10
0.0
 20
0.0
 11
22.0
 21
0.0
  0
LINE
  5
21C
100
AcDbEntity
  8
0
100
AcDbLine
 62
7
  6
CONTINUOUS
 10
0.0
 20
17.0
 11
22.0
 21
17.0
  0
LINE
  5
21D
100
AcDbEntity
  8
0
100
AcDbLine
 62
7
  6
CONTINUOUS
 10
22.0
 20
0.0
 11
22.0
 21
17.0
  0
LINE
  5
21E
100
AcDbEntity
  8
0
100
AcDbLine
 62
7
  6
CONTINUOUS
 10
4.6303672762
 20
5.5551198968
 11
4.6303672762
 21
5.4851198968
  0
LINE
  5
21F
100
AcDbEntity
  8
0
100
AcDbLine
 62
7
  6
CONTINUOUS
 10
4.8371572762
 20
5.3951198968
 11
4.9235772762
 21
5.3951198968
  0
LINE
  5
220
100
AcDbEntity
  8
0
100
AcDbLine
 62
7
  6
CONTINUOUS
 10
5.3371572762
 20
5.3951198968
 11
5.4235772762
 21
5.3951198968
  0
LINE
  5
221
100
AcDbEntity
  8
0
100
AcDbLine
 62
7
  6
CONTINUOUS
 10
5.8371572762
 20
5.3951198968
 11
5.9235772762
 21
5.3951198968
  0
LINE
  5
222
100
AcDbEntity
  8
0
100
AcDbLine
 62
7
  6
CONTINUOUS
 10
6.3371572762
 20
5.3951198968
 11
6.4235772762
 21
5.3951198968
  0
LINE
  5
223
100
AcDbEntity
  8
0
100
AcDbLine
 62
7
  6
CONTINUOUS
 10
6.8371572762
 20
5.3951198968
 11
6.9235772762
 21
5.3951198968
  0
LINE
  5
224
100
AcDbEntity
  8
0
100
AcDbLine
 62
7
  6
CONTINUOUS
 10
7.3371572762
 20
5.3951198968
 11
7.4235772762
 21
5.3951198968
  0
LINE
  5
225
100
AcDbEntity
  8
0
100
AcDbLine
 62
7
  6
CONTINUOUS
 10
4.6303672762
 20
5.4851198968
 11
4.7274372762
 21
5.4851198968
  0
LINE
  5
226
100
AcDbEntity
  8
0
100
AcDbLine
 62
7
  6
CONTINUOUS
 10
5.0332972762
 20
5.4851198968
 11
5.2274372762
 21
5.4851198968
  0
LINE
  5
227
100
AcDbEntity
  8
0
100
AcDbLine
 62
7
  6
CONTINUOUS
 10
5.5332972762
 20
5.4851198968
 11
5.7274372762
 21
5.4851198968
  0
LINE
  5
228
100
AcDbEntity
  8
0
100
AcDbLine
 62
7
  6
CONTINUOUS
 10
6.0332972762
 20
5.4851198968
 11
6.2274372762
 21
5.4851198968
  0
LINE
  5
229
100
AcDbEntity
  8
0
100
AcDbLine
 62
7
  6
CONTINUOUS
 10
6.5332972762
 20
5.4851198968
 11
6.7274372762
 21
5.4851198968
  0
LINE
  5
22A
100
AcDbEntity
  8
0
100
AcDbLine
 62
7
  6
CONTINUOUS
 10
7.0332972762
 20
5.4851198968
 11
7.2274372762
 21
5.4851198968
  0
LINE
  5
22B
100
AcDbEntity
  8
0
100
AcDbLine
 62
7
  6
CONTINUOUS
 10
7.5332972762
 20
5.4851198968
 11
7.6303672762
 21
5.4851198968
  0
LINE
  5
22C
100
AcDbEntity
  8
0
100
AcDbLine
 62
7
  6
CONTINUOUS
 10
7.6303672762
 20
5.5551198968
 11
7.5332972762
 21
5.5551198968
  0
LINE
  5
22D
100
AcDbEntity
  8
0
100
AcDbLine
 62
7
  6
CONTINUOUS
 10
7.2274372762
 20
5.5551198968
 11
7.0332972762
 21
5.5551198968
  0
LINE
  5
22E
100
AcDbEntity
  8
0
100
AcDbLine
 62
7
  6
CONTINUOUS
 10
6.7274372762
 20
5.5551198968
 11
6.5332972762
 21
5.5551198968
  0
LINE
  5
22F
100
AcDbEntity
  8
0
100
AcDbLine
 62
7
  6
CONTINUOUS
 10
6.2274372762
 20
5.5551198968
 11
6.0332972762
 21
5.5551198968
  0
LINE
  5
230
100
AcDbEntity
  8
0
100
AcDbLine
 62
7
  6
CONTINUOUS
 10
5.7274372762
 20
5.5551198968
 11
5.5332972762
 21
5.5551198968
  0
LINE
  5
231
100
AcDbEntity
  8
0
100
AcDbLine
 62
7
  6
CONTINUOUS
 10
5.2274372762
 20
5.5551198968
 11
5.0332972762
 21
5.5551198968
  0
LINE
  5
232
100
AcDbEntity
  8
0
100
AcDbLine
 62
7
  6
CONTINUOUS
 10
4.7274372762
 20
5.5551198968
 11
4.6303672762
 21
5.5551198968
  0
LINE
  5
233
100
AcDbEntity
  8
0
100
AcDbLine
 62
7
  6
CONTINUOUS
 10
7.4235772762
 20
5.6451198968
 11
7.3371572762
 21
5.6451198968
  0
LINE
  5
234
100
AcDbEntity
  8
0
100
AcDbLine
 62
7
  6
CONTINUOUS
 10
6.9235772762
 20
5.6451198968
 11
6.8371572762
 21
5.6451198968
  0
LINE
  5
235
100
AcDbEntity
  8
0
100
AcDbLine
 62
7
  6
CONTINUOUS
 10
6.4235772762
 20
5.6451198968
 11
6.3371572762
 21
5.6451198968
  0
LINE
  5
236
100
AcDbEntity
  8
0
100
AcDbLine
 62
7
  6
CONTINUOUS
 10
5.9235772762
 20
5.6451198968
 11
5.8371572762
 21
5.6451198968
  0
LINE
  5
237
100
AcDbEntity
  8
0
100
AcDbLine
 62
7
  6
CONTINUOUS
 10
5.4235772762
 20
5.6451198968
 11
5.3371572762
 21
5.6451198968
  0
LINE
  5
238
100
AcDbEntity
  8
0
100
AcDbLine
 62
7
  6
CONTINUOUS
 10
4.9235772762
 20
5.6451198968
 11
4.8371572762
 21
5.6451198968
  0
LINE
  5
239
100
AcDbEntity
  8
0
100
AcDbLine
 62
7
  6
CONTINUOUS
 10
7.6303672762
 20
5.4851198968
 11
7.6303672762
 21
5.5551198968
  0
LINE
  5
23A
100
AcDbEntity
  8
0
100
AcDbLine
 62
7
  6
CONTINUOUS
 10
4.5708720839
 20
13.6000477814
 11
4.5708720839
 21
11.6000477814
  0
LINE
  5
23B
100
AcDbEntity
  8
0
100
AcDbLine
 62
7
  6
CONTINUOUS
 10
7.5708720839
 20
11.6000477814
 11
4.5708720839
 21
11.6000477814
  0
LINE
  5
23C
100
AcDbEntity
  8
0
100
AcDbLine
 62
7
  6
CONTINUOUS
 10
4.5708720839
 20
13.6000477814
 11
7.5708720839
 21
13.6000477814
  0
LINE
  5
23D
100
AcDbEntity
  8
0
100
AcDbLine
 62
7
  6
CONTINUOUS
 10
7.5708720839
 20
13.6000477814
 11
7.5708720839
 21
11.6000477814
  0
LINE
  5
23E
100
AcDbEntity
  8
0
100
AcDbLine
 62
7
  6
CONTINUOUS
 10
14.5603552569
 20
5.3356247044
 11
14.5603552569
 21
5.5856247044
  0
LINE
  5
23F
100
AcDbEntity
  8
0
100
AcDbLine
 62
7
  6
CONTINUOUS
 10
16.5603552569
 20
5.3356247044
 11
14.5603552569
 21
5.3356247044
  0
LINE
  5
240
100
AcDbEntity
  8
0
100
AcDbLine
 62
7
  6
CONTINUOUS
 10
16.5603552569
 20
5.4256247044
 11
14.5603552569
 21
5.4256247044
  0
LINE
  5
241
100
AcDbEntity
  8
0
100
AcDbLine
 62
7
  6
CONTINUOUS
 10
16.5603552569
 20
5.4956247044
 11
14.5603552569
 21
5.4956247044
  0
LINE
  5
242
100
AcDbEntity
  8
0
100
AcDbLine
 62
7
  6
CONTINUOUS
 10
16.5603552569
 20
5.5856247044
 11
14.5603552569
 21
5.5856247044
  0
LINE
  5
243
100
AcDbEntity
  8
0
100
AcDbLine
 62
7
  6
CONTINUOUS
 10
16.5603552569
 20
5.3356247044
 11
16.5603552569
 21
5.5856247044
  0
LINE
  5
244
100
AcDbEntity
  8
0
100
AcDbLine
 62
7
  6
CONTINUOUS
 10
13.8367781887
 20
11.7492344322
 11
13.8581311194
 21
11.7057217344
  0
LINE
  5
245
100
AcDbEntity
  8
0
100
AcDbLine
 62
7
  6
CONTINUOUS
 10
13.9583828785
 20
11.7673202387
 11
13.9578431099
 21
11.7651438134
  0
LINE
  5
246
100
AcDbEntity
  8
0
100
AcDbLine
 62
7
  6
CONTINUOUS
 10
14.3209108355
 20
13.3158882514
 11
13.8367781887
 21
11.7492344322
  0
LINE
  5
247
100
AcDbEntity
  8
0
100
AcDbLine
 62
7
  6
CONTINUOUS
 10
14.4451775833
 20
13.3514189057
 11
13.962291193
 21
11.7887979742
  0
LINE
  5
248
100
AcDbEntity
  8
0
100
AcDbLine
 62
7
  6
CONTINUOUS
 10
14.1970569267
 20
11.6876359279
 11
14.1975966952
 21
11.6898123531
  0
LINE
  5
249
100
AcDbEntity
  8
0
100
AcDbLine
 62
7
  6
CONTINUOUS
 10
14.2028426171
 20
11.697528004
 11
14.1960600981
 21
11.6755797646
  0
LINE
  5
24A
100
AcDbEntity
  8
0
100
AcDbLine
 62
7
  6
CONTINUOUS
 10
14.0760510903
 20
11.6497768372
 11
14.1556491814
 21
11.6497768372
  0
LINE
  5
24B
100
AcDbEntity
  8
0
100
AcDbLine
 62
7
  6
CONTINUOUS
 10
14.5365815873
 20
11.6497768372
 11
14.6161796784
 21
11.6497768372
  0
LINE
  5
24C
100
AcDbEntity
  8
0
100
AcDbLine
 62
7
  6
CONTINUOUS
 10
14.9971120843
 20
11.6497768372
 11
15.0767101754
 21
11.6497768372
  0
LINE
  5
24D
100
AcDbEntity
  8
0
100
AcDbLine
 62
7
  6
CONTINUOUS
 10
15.4576425813
 20
11.6497768372
 11
15.5372406724
 21
11.6497768372
  0
LINE
  5
24E
100
AcDbEntity
  8
0
100
AcDbLine
 62
7
  6
CONTINUOUS
 10
15.9181730783
 20
11.6497768372
 11
15.9977711694
 21
11.6497768372
  0
LINE
  5
24F
100
AcDbEntity
  8
0
100
AcDbLine
 62
7
  6
CONTINUOUS
 10
16.3787035753
 20
11.6497768372
 11
16.4583016665
 21
11.6497768372
  0
LINE
  5
250
100
AcDbEntity
  8
0
100
AcDbLine
 62
7
  6
CONTINUOUS
 10
14.4189133755
 20
11.7673202387
 11
14.4183736069
 21
11.7651438134
  0
LINE
  5
251
100
AcDbEntity
  8
0
100
AcDbLine
 62
7
  6
CONTINUOUS
 10
14.9057080803
 20
13.3514189057
 11
14.42282169
 21
11.7887979742
  0
LINE
  5
252
100
AcDbEntity
  8
0
100
AcDbLine
 62
7
  6
CONTINUOUS
 10
13.8581311194
 20
11.7057217344
 11
13.9475385101
 21
11.7057217344
  0
LINE
  5
253
100
AcDbEntity
  8
0
100
AcDbLine
 62
7
  6
CONTINUOUS
 10
14.2292542257
 20
11.7057217344
 11
14.4080690071
 21
11.7057217344
  0
LINE
  5
254
100
AcDbEntity
  8
0
100
AcDbLine
 62
7
  6
CONTINUOUS
 10
14.6897847227
 20
11.7057217344
 11
14.8685995041
 21
11.7057217344
  0
LINE
  5
255
100
AcDbEntity
  8
0
100
AcDbLine
 62
7
  6
CONTINUOUS
 10
15.1503152197
 20
11.7057217344
 11
15.3291300011
 21
11.7057217344
  0
LINE
  5
256
100
AcDbEntity
  8
0
100
AcDbLine
 62
7
  6
CONTINUOUS
 10
15.6108457167
 20
11.7057217344
 11
15.7896604981
 21
11.7057217344
  0
LINE
  5
257
100
AcDbEntity
  8
0
100
AcDbLine
 62
7
  6
CONTINUOUS
 10
16.0713762137
 20
11.7057217344
 11
16.2501909951
 21
11.7057217344
  0
LINE
  5
258
100
AcDbEntity
  8
0
100
AcDbLine
 62
7
  6
CONTINUOUS
 10
16.5319067107
 20
11.7057217344
 11
16.6213141014
 21
11.7057217344
  0
LINE
  5
259
100
AcDbEntity
  8
0
100
AcDbLine
 62
7
  6
CONTINUOUS
 10
16.5999611707
 20
11.7492344322
 11
16.5105537801
 21
11.7492344322
  0
LINE
  5
25A
100
AcDbEntity
  8
0
100
AcDbLine
 62
7
  6
CONTINUOUS
 10
16.2288380644
 20
11.7492344322
 11
16.0500232831
 21
11.7492344322
  0
LINE
  5
25B
100
AcDbEntity
  8
0
100
AcDbLine
 62
7
  6
CONTINUOUS
 10
15.7683075674
 20
11.7492344322
 11
15.589492786
 21
11.7492344322
  0
LINE
  5
25C
100
AcDbEntity
  8
0
100
AcDbLine
 62
7
  6
CONTINUOUS
 10
15.3077770704
 20
11.7492344322
 11
15.128962289
 21
11.7492344322
  0
LINE
  5
25D
100
AcDbEntity
  8
0
100
AcDbLine
 62
7
  6
CONTINUOUS
 10
14.8472465734
 20
11.7492344322
 11
14.668431792
 21
11.7492344322
  0
LINE
  5
25E
100
AcDbEntity
  8
0
100
AcDbLine
 62
7
  6
CONTINUOUS
 10
14.3867160764
 20
11.7492344322
 11
14.207901295
 21
11.7492344322
  0
LINE
  5
25F
100
AcDbEntity
  8
0
100
AcDbLine
 62
7
  6
CONTINUOUS
 10
13.9261855794
 20
11.7492344322
 11
13.8367781887
 21
11.7492344322
  0
LINE
  5
260
100
AcDbEntity
  8
0
100
AcDbLine
 62
7
  6
CONTINUOUS
 10
16.3820411998
 20
11.8051793293
 11
16.3024431087
 21
11.8051793293
  0
LINE
  5
261
100
AcDbEntity
  8
0
100
AcDbLine
 62
7
  6
CONTINUOUS
 10
15.9215107028
 20
11.8051793293
 11
15.8419126117
 21
11.8051793293
  0
LINE
  5
262
100
AcDbEntity
  8
0
100
AcDbLine
 62
7
  6
CONTINUOUS
 10
15.4609802058
 20
11.8051793293
 11
15.3813821147
 21
11.8051793293
  0
LINE
  5
263
100
AcDbEntity
  8
0
100
AcDbLine
 62
7
  6
CONTINUOUS
 10
15.0004497088
 20
11.8051793293
 11
14.9208516177
 21
11.8051793293
  0
LINE
  5
264
100
AcDbEntity
  8
0
100
AcDbLine
 62
7
  6
CONTINUOUS
 10
14.5399192118
 20
11.8051793293
 11
14.4603211207
 21
11.8051793293
  0
LINE
  5
265
100
AcDbEntity
  8
0
100
AcDbLine
 62
7
  6
CONTINUOUS
 10
14.0793887148
 20
11.8051793293
 11
13.9997906237
 21
11.8051793293
  0
LINE
  5
266
100
AcDbEntity
  8
0
100
AcDbLine
 62
7
  6
CONTINUOUS
 10
14.6575874237
 20
11.6876359279
 11
14.6581271922
 21
11.6898123531
  0
LINE
  5
267
100
AcDbEntity
  8
0
100
AcDbLine
 62
7
  6
CONTINUOUS
 10
14.6633731141
 20
11.697528004
 11
14.6565905951
 21
11.6755797646
  0
LINE
  5
268
100
AcDbEntity
  8
0
100
AcDbLine
 62
7
  6
CONTINUOUS
 10
14.8794438725
 20
11.7673202387
 11
14.8789230542
 21
11.7651379044
  0
LINE
  5
269
100
AcDbEntity
  8
0
100
AcDbLine
 62
7
  6
CONTINUOUS
 10
15.3662385773
 20
13.3514189057
 11
14.883352187
 21
11.7887979742
  0
LINE
  5
26A
100
AcDbEntity
  8
0
100
AcDbLine
 62
7
  6
CONTINUOUS
 10
15.1181179207
 20
11.6876359279
 11
15.1186387389
 21
11.6898182622
  0
LINE
  5
26B
100
AcDbEntity
  8
0
100
AcDbLine
 62
7
  6
CONTINUOUS
 10
15.1237589259
 20
11.6970598026
 11
15.1171210921
 21
11.6755797646
  0
LINE
  5
26C
100
AcDbEntity
  8
0
100
AcDbLine
 62
7
  6
CONTINUOUS
 10
15.3399743695
 20
11.7673202387
 11
15.3394535512
 21
11.7651379044
  0
LINE
  5
26D
100
AcDbEntity
  8
0
100
AcDbLine
 62
7
  6
CONTINUOUS
 10
15.8267690743
 20
13.3514189057
 11
15.343882684
 21
11.7887979742
  0
LINE
  5
26E
100
AcDbEntity
  8
0
100
AcDbLine
 62
7
  6
CONTINUOUS
 10
15.5786484177
 20
11.6876359279
 11
15.5791692359
 21
11.6898182622
  0
LINE
  5
26F
100
AcDbEntity
  8
0
100
AcDbLine
 62
7
  6
CONTINUOUS
 10
15.5842894229
 20
11.6970598026
 11
15.5776515891
 21
11.6755797646
  0
LINE
  5
270
100
AcDbEntity
  8
0
100
AcDbLine
 62
7
  6
CONTINUOUS
 10
15.8005048665
 20
11.7673202387
 11
15.7999840482
 21
11.7651379044
  0
LINE
  5
271
100
AcDbEntity
  8
0
100
AcDbLine
 62
7
  6
CONTINUOUS
 10
16.2872995713
 20
13.3514189057
 11
15.804413181
 21
11.7887979742
  0
LINE
  5
272
100
AcDbEntity
  8
0
100
AcDbLine
 62
7
  6
CONTINUOUS
 10
16.0391789147
 20
11.6876359279
 11
16.0396997329
 21
11.6898182622
  0
LINE
  5
273
100
AcDbEntity
  8
0
100
AcDbLine
 62
7
  6
CONTINUOUS
 10
16.6213141014
 20
11.7057217344
 11
16.5999611707
 21
11.7492344322
  0
LINE
  5
274
100
AcDbEntity
  8
0
100
AcDbLine
 62
7
  6
CONTINUOUS
 10
16.0448199199
 20
11.6970598026
 11
16.0381820861
 21
11.6755797646
  0
LINE
  5
275
100
AcDbEntity
  8
0
100
AcDbLine
 62
7
  6
CONTINUOUS
 10
17.0840938176
 20
13.3158882514
 11
16.9946864269
 21
13.3158882514
  0
LINE
  5
276
100
AcDbEntity
  8
0
100
AcDbLine
 62
7
  6
CONTINUOUS
 10
14.4103182262
 20
13.3158882514
 11
14.3209108355
 21
13.3158882514
  0
LINE
  5
277
100
AcDbEntity
  8
0
100
AcDbLine
 62
7
  6
CONTINUOUS
 10
14.6920339419
 20
13.3158882514
 11
14.8708487232
 21
13.3158882514
  0
LINE
  5
278
100
AcDbEntity
  8
0
100
AcDbLine
 62
7
  6
CONTINUOUS
 10
15.1525644389
 20
13.3158882514
 11
15.3313792202
 21
13.3158882514
  0
LINE
  5
279
100
AcDbEntity
  8
0
100
AcDbLine
 62
7
  6
CONTINUOUS
 10
15.6130949359
 20
13.3158882514
 11
15.7919097172
 21
13.3158882514
  0
LINE
  5
27A
100
AcDbEntity
  8
0
100
AcDbLine
 62
7
  6
CONTINUOUS
 10
16.0736254329
 20
13.3158882514
 11
16.2524402142
 21
13.3158882514
  0
LINE
  5
27B
100
AcDbEntity
  8
0
100
AcDbLine
 62
7
  6
CONTINUOUS
 10
16.5341559299
 20
13.3158882514
 11
16.7129707112
 21
13.3158882514
  0
LINE
  5
27C
100
AcDbEntity
  8
0
100
AcDbLine
 62
7
  6
CONTINUOUS
 10
16.8661738466
 20
13.3718331486
 11
16.7865757555
 21
13.3718331486
  0
LINE
  5
27D
100
AcDbEntity
  8
0
100
AcDbLine
 62
7
  6
CONTINUOUS
 10
16.4056433496
 20
13.3718331486
 11
16.3260452585
 21
13.3718331486
  0
LINE
  5
27E
100
AcDbEntity
  8
0
100
AcDbLine
 62
7
  6
CONTINUOUS
 10
15.9451128526
 20
13.3718331486
 11
15.8655147615
 21
13.3718331486
  0
LINE
  5
27F
100
AcDbEntity
  8
0
100
AcDbLine
 62
7
  6
CONTINUOUS
 10
15.4845823556
 20
13.3718331486
 11
15.4049842645
 21
13.3718331486
  0
LINE
  5
280
100
AcDbEntity
  8
0
100
AcDbLine
 62
7
  6
CONTINUOUS
 10
15.0240518586
 20
13.3718331486
 11
14.9444537675
 21
13.3718331486
  0
LINE
  5
281
100
AcDbEntity
  8
0
100
AcDbLine
 62
7
  6
CONTINUOUS
 10
14.5635213616
 20
13.3718331486
 11
14.4839232705
 21
13.3718331486
  0
LINE
  5
282
100
AcDbEntity
  8
0
100
AcDbLine
 62
7
  6
CONTINUOUS
 10
16.2610353635
 20
11.7673202387
 11
16.260520486
 21
11.7651360663
  0
LINE
  5
283
100
AcDbEntity
  8
0
100
AcDbLine
 62
7
  6
CONTINUOUS
 10
16.7478300683
 20
13.3514189057
 11
16.264943678
 21
11.7887979742
  0
LINE
  5
284
100
AcDbEntity
  8
0
100
AcDbLine
 62
7
  6
CONTINUOUS
 10
16.4997094117
 20
11.6876359279
 11
16.5002242892
 21
11.6898201002
  0
LINE
  5
285
100
AcDbEntity
  8
0
100
AcDbLine
 62
7
  6
CONTINUOUS
 10
16.5054681891
 20
11.6974409137
 11
16.4987125831
 21
11.6755797646
  0
LINE
  5
286
100
AcDbEntity
  8
0
100
AcDbLine
 62
7
  6
CONTINUOUS
 10
17.0840938176
 20
13.3158882514
 11
16.5999611707
 21
11.7492344322
  0
LINE
  5
287
100
AcDbEntity
  8
0
100
AcDbLine
 62
7
  6
CONTINUOUS
 10
17.1054467482
 20
13.2723755536
 11
16.6213141014
 21
11.7057217344
  0
LINE
  5
288
100
AcDbEntity
  8
0
100
AcDbLine
 62
7
  6
CONTINUOUS
 10
17.1054467482
 20
13.2723755536
 11
17.0840938176
 21
13.3158882514
  0
ARC
  5
289
100
AcDbEntity
  8
0
100
AcDbCircle
 62
7
  6
CONTINUOUS
 10
4.7426847325
 20
5.2230637398
 40
0.57834
100
AcDbArc
 50
21.6998722745
 51
23.7539541897
  0
ARC
  5
28A
100
AcDbEntity
  8
0
100
AcDbCircle
 62
7
  6
CONTINUOUS
 10
6.0180498198
 20
5.2230637398
 40
0.57834
100
AcDbArc
 50
156.2460458103
 51
158.3001277255
  0
ARC
  5
28B
100
AcDbEntity
  8
0
100
AcDbCircle
 62
7
  6
CONTINUOUS
 10
5.2426847325
 20
5.2230637398
 40
0.57834
100
AcDbArc
 50
21.6998722745
 51
23.7539541897
  0
ARC
  5
28C
100
AcDbEntity
  8
0
100
AcDbCircle
 62
7
  6
CONTINUOUS
 10
5.7426847325
 20
5.2230637398
 40
0.57834
100
AcDbArc
 50
21.6998722745
 51
23.7539541897
  0
ARC
  5
28D
100
AcDbEntity
  8
0
100
AcDbCircle
 62
7
  6
CONTINUOUS
 10
5.5180498198
 20
5.2230637398
 40
0.57834
100
AcDbArc
 50
156.2460458103
 51
158.3001277255
  0
ARC
  5
28E
100
AcDbEntity
  8
0
100
AcDbCircle
 62
7
  6
CONTINUOUS
 10
4.2426847325
 20
5.2230637398
 40
0.57834
100
AcDbArc
 50
21.6998722745
 51
23.7539541897
  0
ARC
  5
28F
100
AcDbEntity
  8
0
100
AcDbCircle
 62
7
  6
CONTINUOUS
 10
5.3589872762
 20
5.4683187178
 40
0.084969
100
AcDbArc
 50
201.6998722745
 51
213.3351729967
  0
ARC
  5
290
100
AcDbEntity
  8
0
100
AcDbCircle
 62
7
  6
CONTINUOUS
 10
5.4017472762
 20
5.4683187178
 40
0.084969
100
AcDbArc
 50
326.6648270033
 51
338.3001277255
  0
ARC
  5
291
100
AcDbEntity
  8
0
100
AcDbCircle
 62
7
  6
CONTINUOUS
 10
5.8589872762
 20
5.4683187178
 40
0.084969
100
AcDbArc
 50
201.6998722745
 51
213.3351729967
  0
ARC
  5
292
100
AcDbEntity
  8
0
100
AcDbCircle
 62
7
  6
CONTINUOUS
 10
5.9017472762
 20
5.4683187178
 40
0.084969
100
AcDbArc
 50
326.6648270033
 51
338.3001277255
  0
ARC
  5
293
100
AcDbEntity
  8
0
100
AcDbCircle
 62
7
  6
CONTINUOUS
 10
4.9017472762
 20
5.4683187178
 40
0.084969
100
AcDbArc
 50
326.6648270033
 51
338.3001277255
  0
ARC
  5
294
100
AcDbEntity
  8
0
100
AcDbCircle
 62
7
  6
CONTINUOUS
 10
4.8589872762
 20
5.4683187178
 40
0.084969
100
AcDbArc
 50
201.6998722745
 51
213.3351729967
  0
ARC
  5
295
100
AcDbEntity
  8
0
100
AcDbCircle
 62
7
  6
CONTINUOUS
 10
5.3371572762
 20
5.4539598968
 40
0.05884
100
AcDbArc
 50
213.3351729967
 51
270.0
  0
ARC
  5
296
100
AcDbEntity
  8
0
100
AcDbCircle
 62
7
  6
CONTINUOUS
 10
5.4235772762
 20
5.4539598968
 40
0.05884
100
AcDbArc
 50
270.0
 51
326.6648270033
  0
ARC
  5
297
100
AcDbEntity
  8
0
100
AcDbCircle
 62
7
  6
CONTINUOUS
 10
5.8371572762
 20
5.4539598968
 40
0.05884
100
AcDbArc
 50
213.3351729967
 51
270.0
  0
ARC
  5
298
100
AcDbEntity
  8
0
100
AcDbCircle
 62
7
  6
CONTINUOUS
 10
5.9235772762
 20
5.4539598968
 40
0.05884
100
AcDbArc
 50
270.0
 51
326.6648270033
  0
ARC
  5
299
100
AcDbEntity
  8
0
100
AcDbCircle
 62
7
  6
CONTINUOUS
 10
4.9235772762
 20
5.4539598968
 40
0.05884
100
AcDbArc
 50
270.0
 51
326.6648270033
  0
ARC
  5
29A
100
AcDbEntity
  8
0
100
AcDbCircle
 62
7
  6
CONTINUOUS
 10
4.8371572762
 20
5.4539598968
 40
0.05884
100
AcDbArc
 50
213.3351729967
 51
270.0
  0
ARC
  5
29B
100
AcDbEntity
  8
0
100
AcDbCircle
 62
7
  6
CONTINUOUS
 10
5.2274372762
 20
5.4363998968
 40
0.04872
100
AcDbArc
 50
23.7539541897
 51
90.0
  0
ARC
  5
29C
100
AcDbEntity
  8
0
100
AcDbCircle
 62
7
  6
CONTINUOUS
 10
5.5332972762
 20
5.4363998968
 40
0.04872
100
AcDbArc
 50
90.0
 51
156.2460458103
  0
ARC
  5
29D
100
AcDbEntity
  8
0
100
AcDbCircle
 62
7
  6
CONTINUOUS
 10
5.7274372762
 20
5.4363998968
 40
0.04872
100
AcDbArc
 50
23.7539541897
 51
90.0
  0
ARC
  5
29E
100
AcDbEntity
  8
0
100
AcDbCircle
 62
7
  6
CONTINUOUS
 10
6.0332972762
 20
5.4363998968
 40
0.04872
100
AcDbArc
 50
90.0
 51
156.2460458103
  0
ARC
  5
29F
100
AcDbEntity
  8
0
100
AcDbCircle
 62
7
  6
CONTINUOUS
 10
5.0332972762
 20
5.4363998968
 40
0.04872
100
AcDbArc
 50
90.0
 51
156.2460458103
  0
ARC
  5
2A0
100
AcDbEntity
  8
0
100
AcDbCircle
 62
7
  6
CONTINUOUS
 10
4.7274372762
 20
5.4363998968
 40
0.04872
100
AcDbArc
 50
23.7539541897
 51
90.0
  0
ARC
  5
2A1
100
AcDbEntity
  8
0
100
AcDbCircle
 62
7
  6
CONTINUOUS
 10
5.7426847325
 20
5.8171760537
 40
0.57834
100
AcDbArc
 50
336.2460458103
 51
338.3001277255
  0
ARC
  5
2A2
100
AcDbEntity
  8
0
100
AcDbCircle
 62
7
  6
CONTINUOUS
 10
5.2426847325
 20
5.8171760537
 40
0.57834
100
AcDbArc
 50
336.2460458103
 51
338.3001277255
  0
ARC
  5
2A3
100
AcDbEntity
  8
0
100
AcDbCircle
 62
7
  6
CONTINUOUS
 10
6.0180498198
 20
5.8171760537
 40
0.57834
100
AcDbArc
 50
201.6998722745
 51
203.7539541897
  0
ARC
  5
2A4
100
AcDbEntity
  8
0
100
AcDbCircle
 62
7
  6
CONTINUOUS
 10
4.7426847325
 20
5.8171760537
 40
0.57834
100
AcDbArc
 50
336.2460458103
 51
338.3001277255
  0
ARC
  5
2A5
100
AcDbEntity
  8
0
100
AcDbCircle
 62
7
  6
CONTINUOUS
 10
5.5180498198
 20
5.8171760537
 40
0.57834
100
AcDbArc
 50
201.6998722745
 51
203.7539541897
  0
ARC
  5
2A6
100
AcDbEntity
  8
0
100
AcDbCircle
 62
7
  6
CONTINUOUS
 10
4.2426847325
 20
5.8171760537
 40
0.57834
100
AcDbArc
 50
336.2460458103
 51
338.3001277255
  0
ARC
  5
2A7
100
AcDbEntity
  8
0
100
AcDbCircle
 62
7
  6
CONTINUOUS
 10
5.9017472762
 20
5.5719210757
 40
0.084969
100
AcDbArc
 50
21.6998722745
 51
33.3351729967
  0
ARC
  5
2A8
100
AcDbEntity
  8
0
100
AcDbCircle
 62
7
  6
CONTINUOUS
 10
5.8589872762
 20
5.5719210757
 40
0.084969
100
AcDbArc
 50
146.6648270033
 51
158.3001277255
  0
ARC
  5
2A9
100
AcDbEntity
  8
0
100
AcDbCircle
 62
7
  6
CONTINUOUS
 10
5.4017472762
 20
5.5719210757
 40
0.084969
100
AcDbArc
 50
21.6998722745
 51
33.3351729967
  0
ARC
  5
2AA
100
AcDbEntity
  8
0
100
AcDbCircle
 62
7
  6
CONTINUOUS
 10
5.3589872762
 20
5.5719210757
 40
0.084969
100
AcDbArc
 50
146.6648270033
 51
158.3001277255
  0
ARC
  5
2AB
100
AcDbEntity
  8
0
100
AcDbCircle
 62
7
  6
CONTINUOUS
 10
4.9017472762
 20
5.5719210757
 40
0.084969
100
AcDbArc
 50
21.6998722745
 51
33.3351729967
  0
ARC
  5
2AC
100
AcDbEntity
  8
0
100
AcDbCircle
 62
7
  6
CONTINUOUS
 10
4.8589872762
 20
5.5719210757
 40
0.084969
100
AcDbArc
 50
146.6648270033
 51
158.3001277255
  0
ARC
  5
2AD
100
AcDbEntity
  8
0
100
AcDbCircle
 62
7
  6
CONTINUOUS
 10
5.9235772762
 20
5.5862798968
 40
0.05884
100
AcDbArc
 50
33.3351729967
 51
90.0
  0
ARC
  5
2AE
100
AcDbEntity
  8
0
100
AcDbCircle
 62
7
  6
CONTINUOUS
 10
5.8371572762
 20
5.5862798968
 40
0.05884
100
AcDbArc
 50
90.0
 51
146.6648270033
  0
ARC
  5
2AF
100
AcDbEntity
  8
0
100
AcDbCircle
 62
7
  6
CONTINUOUS
 10
5.4235772762
 20
5.5862798968
 40
0.05884
100
AcDbArc
 50
33.3351729967
 51
90.0
  0
ARC
  5
2B0
100
AcDbEntity
  8
0
100
AcDbCircle
 62
7
  6
CONTINUOUS
 10
5.3371572762
 20
5.5862798968
 40
0.05884
100
AcDbArc
 50
90.0
 51
146.6648270033
  0
ARC
  5
2B1
100
AcDbEntity
  8
0
100
AcDbCircle
 62
7
  6
CONTINUOUS
 10
4.9235772762
 20
5.5862798968
 40
0.05884
100
AcDbArc
 50
33.3351729967
 51
90.0
  0
ARC
  5
2B2
100
AcDbEntity
  8
0
100
AcDbCircle
 62
7
  6
CONTINUOUS
 10
4.8371572762
 20
5.5862798968
 40
0.05884
100
AcDbArc
 50
90.0
 51
146.6648270033
  0
ARC
  5
2B3
100
AcDbEntity
  8
0
100
AcDbCircle
 62
7
  6
CONTINUOUS
 10
6.0332972762
 20
5.6038398968
 40
0.04872
100
AcDbArc
 50
203.7539541897
 51
270.0
  0
ARC
  5
2B4
100
AcDbEntity
  8
0
100
AcDbCircle
 62
7
  6
CONTINUOUS
 10
5.7274372762
 20
5.6038398968
 40
0.04872
100
AcDbArc
 50
270.0
 51
336.2460458103
  0
ARC
  5
2B5
100
AcDbEntity
  8
0
100
AcDbCircle
 62
7
  6
CONTINUOUS
 10
5.5332972762
 20
5.6038398968
 40
0.04872
100
AcDbArc
 50
203.7539541897
 51
270.0
  0
ARC
  5
2B6
100
AcDbEntity
  8
0
100
AcDbCircle
 62
7
  6
CONTINUOUS
 10
5.2274372762
 20
5.6038398968
 40
0.04872
100
AcDbArc
 50
270.0
 51
336.2460458103
  0
ARC
  5
2B7
100
AcDbEntity
  8
0
100
AcDbCircle
 62
7
  6
CONTINUOUS
 10
5.0332972762
 20
5.6038398968
 40
0.04872
100
AcDbArc
 50
203.7539541897
 51
270.0
  0
ARC
  5
2B8
100
AcDbEntity
  8
0
100
AcDbCircle
 62
7
  6
CONTINUOUS
 10
4.7274372762
 20
5.6038398968
 40
0.04872
100
AcDbArc
 50
270.0
 51
336.2460458103
  0
ARC
  5
2B9
100
AcDbEntity
  8
0
100
AcDbCircle
 62
7
  6
CONTINUOUS
 10
6.5180498198
 20
5.2230637398
 40
0.57834
100
AcDbArc
 50
156.2460458103
 51
158.3001277255
  0
ARC
  5
2BA
100
AcDbEntity
  8
0
100
AcDbCircle
 62
7
  6
CONTINUOUS
 10
7.0180498198
 20
5.2230637398
 40
0.57834
100
AcDbArc
 50
156.2460458103
 51
158.3001277255
  0
ARC
  5
2BB
100
AcDbEntity
  8
0
100
AcDbCircle
 62
7
  6
CONTINUOUS
 10
6.2426847325
 20
5.2230637398
 40
0.57834
100
AcDbArc
 50
21.6998722745
 51
23.7539541897
  0
ARC
  5
2BC
100
AcDbEntity
  8
0
100
AcDbCircle
 62
7
  6
CONTINUOUS
 10
7.5180498198
 20
5.2230637398
 40
0.57834
100
AcDbArc
 50
156.2460458103
 51
158.3001277255
  0
ARC
  5
2BD
100
AcDbEntity
  8
0
100
AcDbCircle
 62
7
  6
CONTINUOUS
 10
6.7426847325
 20
5.2230637398
 40
0.57834
100
AcDbArc
 50
21.6998722745
 51
23.7539541897
  0
ARC
  5
2BE
100
AcDbEntity
  8
0
100
AcDbCircle
 62
7
  6
CONTINUOUS
 10
8.0180498198
 20
5.2230637398
 40
0.57834
100
AcDbArc
 50
156.2460458103
 51
158.3001277255
  0
ARC
  5
2BF
100
AcDbEntity
  8
0
100
AcDbCircle
 62
7
  6
CONTINUOUS
 10
6.3589872762
 20
5.4683187178
 40
0.084969
100
AcDbArc
 50
201.6998722745
 51
213.3351729967
  0
ARC
  5
2C0
100
AcDbEntity
  8
0
100
AcDbCircle
 62
7
  6
CONTINUOUS
 10
6.4017472762
 20
5.4683187178
 40
0.084969
100
AcDbArc
 50
326.6648270033
 51
338.3001277255
  0
ARC
  5
2C1
100
AcDbEntity
  8
0
100
AcDbCircle
 62
7
  6
CONTINUOUS
 10
6.8589872762
 20
5.4683187178
 40
0.084969
100
AcDbArc
 50
201.6998722745
 51
213.3351729967
  0
ARC
  5
2C2
100
AcDbEntity
  8
0
100
AcDbCircle
 62
7
  6
CONTINUOUS
 10
6.9017472762
 20
5.4683187178
 40
0.084969
100
AcDbArc
 50
326.6648270033
 51
338.3001277255
  0
ARC
  5
2C3
100
AcDbEntity
  8
0
100
AcDbCircle
 62
7
  6
CONTINUOUS
 10
7.3589872762
 20
5.4683187178
 40
0.084969
100
AcDbArc
 50
201.6998722745
 51
213.3351729967
  0
ARC
  5
2C4
100
AcDbEntity
  8
0
100
AcDbCircle
 62
7
  6
CONTINUOUS
 10
7.4017472762
 20
5.4683187178
 40
0.084969
100
AcDbArc
 50
326.6648270033
 51
338.3001277255
  0
ARC
  5
2C5
100
AcDbEntity
  8
0
100
AcDbCircle
 62
7
  6
CONTINUOUS
 10
6.3371572762
 20
5.4539598968
 40
0.05884
100
AcDbArc
 50
213.3351729967
 51
270.0
  0
ARC
  5
2C6
100
AcDbEntity
  8
0
100
AcDbCircle
 62
7
  6
CONTINUOUS
 10
6.4235772762
 20
5.4539598968
 40
0.05884
100
AcDbArc
 50
270.0
 51
326.6648270033
  0
ARC
  5
2C7
100
AcDbEntity
  8
0
100
AcDbCircle
 62
7
  6
CONTINUOUS
 10
6.8371572762
 20
5.4539598968
 40
0.05884
100
AcDbArc
 50
213.3351729967
 51
270.0
  0
ARC
  5
2C8
100
AcDbEntity
  8
0
100
AcDbCircle
 62
7
  6
CONTINUOUS
 10
6.9235772762
 20
5.4539598968
 40
0.05884
100
AcDbArc
 50
270.0
 51
326.6648270033
  0
ARC
  5
2C9
100
AcDbEntity
  8
0
100
AcDbCircle
 62
7
  6
CONTINUOUS
 10
7.3371572762
 20
5.4539598968
 40
0.05884
100
AcDbArc
 50
213.3351729967
 51
270.0
  0
ARC
  5
2CA
100
AcDbEntity
  8
0
100
AcDbCircle
 62
7
  6
CONTINUOUS
 10
7.4235772762
 20
5.4539598968
 40
0.05884
100
AcDbArc
 50
270.0
 51
326.6648270033
  0
ARC
  5
2CB
100
AcDbEntity
  8
0
100
AcDbCircle
 62
7
  6
CONTINUOUS
 10
6.2274372762
 20
5.4363998968
 40
0.04872
100
AcDbArc
 50
23.7539541897
 51
90.0
  0
ARC
  5
2CC
100
AcDbEntity
  8
0
100
AcDbCircle
 62
7
  6
CONTINUOUS
 10
6.5332972762
 20
5.4363998968
 40
0.04872
100
AcDbArc
 50
90.0
 51
156.2460458103
  0
ARC
  5
2CD
100
AcDbEntity
  8
0
100
AcDbCircle
 62
7
  6
CONTINUOUS
 10
6.7274372762
 20
5.4363998968
 40
0.04872
100
AcDbArc
 50
23.7539541897
 51
90.0
  0
ARC
  5
2CE
100
AcDbEntity
  8
0
100
AcDbCircle
 62
7
  6
CONTINUOUS
 10
7.0332972762
 20
5.4363998968
 40
0.04872
100
AcDbArc
 50
90.0
 51
156.2460458103
  0
ARC
  5
2CF
100
AcDbEntity
  8
0
100
AcDbCircle
 62
7
  6
CONTINUOUS
 10
7.2274372762
 20
5.4363998968
 40
0.04872
100
AcDbArc
 50
23.7539541897
 51
90.0
  0
ARC
  5
2D0
100
AcDbEntity
  8
0
100
AcDbCircle
 62
7
  6
CONTINUOUS
 10
7.5332972762
 20
5.4363998968
 40
0.04872
100
AcDbArc
 50
90.0
 51
156.2460458103
  0
ARC
  5
2D1
100
AcDbEntity
  8
0
100
AcDbCircle
 62
7
  6
CONTINUOUS
 10
8.0180498198
 20
5.8171760537
 40
0.57834
100
AcDbArc
 50
201.6998722745
 51
203.7539541897
  0
ARC
  5
2D2
100
AcDbEntity
  8
0
100
AcDbCircle
 62
7
  6
CONTINUOUS
 10
6.7426847325
 20
5.8171760537
 40
0.57834
100
AcDbArc
 50
336.2460458103
 51
338.3001277255
  0
ARC
  5
2D3
100
AcDbEntity
  8
0
100
AcDbCircle
 62
7
  6
CONTINUOUS
 10
7.5180498198
 20
5.8171760537
 40
0.57834
100
AcDbArc
 50
201.6998722745
 51
203.7539541897
  0
ARC
  5
2D4
100
AcDbEntity
  8
0
100
AcDbCircle
 62
7
  6
CONTINUOUS
 10
6.2426847325
 20
5.8171760537
 40
0.57834
100
AcDbArc
 50
336.2460458103
 51
338.3001277255
  0
ARC
  5
2D5
100
AcDbEntity
  8
0
100
AcDbCircle
 62
7
  6
CONTINUOUS
 10
7.0180498198
 20
5.8171760537
 40
0.57834
100
AcDbArc
 50
201.6998722745
 51
203.7539541897
  0
ARC
  5
2D6
100
AcDbEntity
  8
0
100
AcDbCircle
 62
7
  6
CONTINUOUS
 10
6.5180498198
 20
5.8171760537
 40
0.57834
100
AcDbArc
 50
201.6998722745
 51
203.7539541897
  0
ARC
  5
2D7
100
AcDbEntity
  8
0
100
AcDbCircle
 62
7
  6
CONTINUOUS
 10
7.4017472762
 20
5.5719210757
 40
0.084969
100
AcDbArc
 50
21.6998722745
 51
33.3351729967
  0
ARC
  5
2D8
100
AcDbEntity
  8
0
100
AcDbCircle
 62
7
  6
CONTINUOUS
 10
7.3589872762
 20
5.5719210757
 40
0.084969
100
AcDbArc
 50
146.6648270033
 51
158.3001277255
  0
ARC
  5
2D9
100
AcDbEntity
  8
0
100
AcDbCircle
 62
7
  6
CONTINUOUS
 10
6.9017472762
 20
5.5719210757
 40
0.084969
100
AcDbArc
 50
21.6998722745
 51
33.3351729967
  0
ARC
  5
2DA
100
AcDbEntity
  8
0
100
AcDbCircle
 62
7
  6
CONTINUOUS
 10
6.8589872762
 20
5.5719210757
 40
0.084969
100
AcDbArc
 50
146.6648270033
 51
158.3001277255
  0
ARC
  5
2DB
100
AcDbEntity
  8
0
100
AcDbCircle
 62
7
  6
CONTINUOUS
 10
6.4017472762
 20
5.5719210757
 40
0.084969
100
AcDbArc
 50
21.6998722745
 51
33.3351729967
  0
ARC
  5
2DC
100
AcDbEntity
  8
0
100
AcDbCircle
 62
7
  6
CONTINUOUS
 10
6.3589872762
 20
5.5719210757
 40
0.084969
100
AcDbArc
 50
146.6648270033
 51
158.3001277255
  0
ARC
  5
2DD
100
AcDbEntity
  8
0
100
AcDbCircle
 62
7
  6
CONTINUOUS
 10
7.4235772762
 20
5.5862798968
 40
0.05884
100
AcDbArc
 50
33.3351729967
 51
90.0
  0
ARC
  5
2DE
100
AcDbEntity
  8
0
100
AcDbCircle
 62
7
  6
CONTINUOUS
 10
7.3371572762
 20
5.5862798968
 40
0.05884
100
AcDbArc
 50
90.0
 51
146.6648270033
  0
ARC
  5
2DF
100
AcDbEntity
  8
0
100
AcDbCircle
 62
7
  6
CONTINUOUS
 10
6.9235772762
 20
5.5862798968
 40
0.05884
100
AcDbArc
 50
33.3351729967
 51
90.0
  0
ARC
  5
2E0
100
AcDbEntity
  8
0
100
AcDbCircle
 62
7
  6
CONTINUOUS
 10
6.8371572762
 20
5.5862798968
 40
0.05884
100
AcDbArc
 50
90.0
 51
146.6648270033
  0
ARC
  5
2E1
100
AcDbEntity
  8
0
100
AcDbCircle
 62
7
  6
CONTINUOUS
 10
6.4235772762
 20
5.5862798968
 40
0.05884
100
AcDbArc
 50
33.3351729967
 51
90.0
  0
ARC
  5
2E2
100
AcDbEntity
  8
0
100
AcDbCircle
 62
7
  6
CONTINUOUS
 10
6.3371572762
 20
5.5862798968
 40
0.05884
100
AcDbArc
 50
90.0
 51
146.6648270033
  0
ARC
  5
2E3
100
AcDbEntity
  8
0
100
AcDbCircle
 62
7
  6
CONTINUOUS
 10
7.5332972762
 20
5.6038398968
 40
0.04872
100
AcDbArc
 50
203.7539541897
 51
270.0
  0
ARC
  5
2E4
100
AcDbEntity
  8
0
100
AcDbCircle
 62
7
  6
CONTINUOUS
 10
7.2274372762
 20
5.6038398968
 40
0.04872
100
AcDbArc
 50
270.0
 51
336.2460458103
  0
ARC
  5
2E5
100
AcDbEntity
  8
0
100
AcDbCircle
 62
7
  6
CONTINUOUS
 10
7.0332972762
 20
5.6038398968
 40
0.04872
100
AcDbArc
 50
203.7539541897
 51
270.0
  0
ARC
  5
2E6
100
AcDbEntity
  8
0
100
AcDbCircle
 62
7
  6
CONTINUOUS
 10
6.7274372762
 20
5.6038398968
 40
0.04872
100
AcDbArc
 50
270.0
 51
336.2460458103
  0
ARC
  5
2E7
100
AcDbEntity
  8
0
100
AcDbCircle
 62
7
  6
CONTINUOUS
 10
6.5332972762
 20
5.6038398968
 40
0.04872
100
AcDbArc
 50
203.7539541897
 51
270.0
  0
ARC
  5
2E8
100
AcDbEntity
  8
0
100
AcDbCircle
 62
7
  6
CONTINUOUS
 10
6.2274372762
 20
5.6038398968
 40
0.04872
100
AcDbArc
 50
270.0
 51
336.2460458103
  0
ARC
  5
2E9
100
AcDbEntity
  8
0
100
AcDbCircle
 62
7
  6
CONTINUOUS
 10
13.5769168399
 20
11.2069432626
 40
0.638704998
100
AcDbArc
 50
47.2222834731
 51
48.8165500072
  0
ARC
  5
2EA
100
AcDbEntity
  8
0
100
AcDbCircle
 62
7
  6
CONTINUOUS
 10
14.9585083309
 20
11.2069432626
 40
0.638704998
100
AcDbArc
 50
47.2222834731
 51
48.8165500072
  0
ARC
  5
2EB
100
AcDbEntity
  8
0
100
AcDbCircle
 62
7
  6
CONTINUOUS
 10
15.4190388279
 20
11.2069432626
 40
0.638704998
100
AcDbArc
 50
47.222283473
 51
48.8165500072
  0
ARC
  5
2EC
100
AcDbEntity
  8
0
100
AcDbCircle
 62
7
  6
CONTINUOUS
 10
14.4979778339
 20
11.2069432626
 40
0.638704998
100
AcDbArc
 50
47.222283473
 51
48.8165500072
  0
ARC
  5
2ED
100
AcDbEntity
  8
0
100
AcDbCircle
 62
7
  6
CONTINUOUS
 10
14.0374473369
 20
11.2069432626
 40
0.638704998
100
AcDbArc
 50
47.222283473
 51
48.8165500072
  0
ARC
  5
2EE
100
AcDbEntity
  8
0
100
AcDbCircle
 62
7
  6
CONTINUOUS
 10
14.5785229652
 20
12.248012904
 40
0.638704998
100
AcDbArc
 50
227.222283473
 51
228.8165500072
  0
ARC
  5
2EF
100
AcDbEntity
  8
0
100
AcDbCircle
 62
7
  6
CONTINUOUS
 10
15.0390534622
 20
12.248012904
 40
0.638704998
100
AcDbArc
 50
227.222283473
 51
228.8165500072
  0
ARC
  5
2F0
100
AcDbEntity
  8
0
100
AcDbCircle
 62
7
  6
CONTINUOUS
 10
13.7652724213
 20
11.7984514565
 40
0.1956036845
100
AcDbArc
 50
350.8421728857
 51
354.3538923847
  0
ARC
  5
2F1
100
AcDbEntity
  8
0
100
AcDbCircle
 62
7
  6
CONTINUOUS
 10
14.2258029183
 20
11.7984514565
 40
0.1956036845
100
AcDbArc
 50
350.8421728857
 51
354.3538923847
  0
ARC
  5
2F2
100
AcDbEntity
  8
0
100
AcDbCircle
 62
7
  6
CONTINUOUS
 10
14.6863334153
 20
11.7984514565
 40
0.1956036845
100
AcDbArc
 50
350.8421728857
 51
354.3538923847
  0
ARC
  5
2F3
100
AcDbEntity
  8
0
100
AcDbCircle
 62
7
  6
CONTINUOUS
 10
15.1468639123
 20
11.7984514565
 40
0.1956036846
100
AcDbArc
 50
350.8421728858
 51
354.3538923847
  0
ARC
  5
2F4
100
AcDbEntity
  8
0
100
AcDbCircle
 62
7
  6
CONTINUOUS
 10
14.3901673839
 20
11.6565047101
 40
0.1956036846
100
AcDbArc
 50
170.8421728858
 51
174.3538923847
  0
ARC
  5
2F5
100
AcDbEntity
  8
0
100
AcDbCircle
 62
7
  6
CONTINUOUS
 10
15.3112283779
 20
11.6565047101
 40
0.1956036845
100
AcDbArc
 50
170.8421728857
 51
174.3538923847
  0
ARC
  5
2F6
100
AcDbEntity
  8
0
100
AcDbCircle
 62
7
  6
CONTINUOUS
 10
14.8506978809
 20
11.6565047101
 40
0.1956036845
100
AcDbArc
 50
170.8421728857
 51
174.3538923847
  0
ARC
  5
2F7
100
AcDbEntity
  8
0
100
AcDbCircle
 62
7
  6
CONTINUOUS
 10
13.9878992898
 20
11.7764728453
 40
0.0281054762
100
AcDbArc
 50
154.1673306624
 51
174.4168540288
  0
ARC
  5
2F8
100
AcDbEntity
  8
0
100
AcDbCircle
 62
7
  6
CONTINUOUS
 10
14.4484297868
 20
11.7764728453
 40
0.0281054762
100
AcDbArc
 50
154.1673306622
 51
174.4168540287
  0
ARC
  5
2F9
100
AcDbEntity
  8
0
100
AcDbCircle
 62
7
  6
CONTINUOUS
 10
14.9089602838
 20
11.7764728453
 40
0.0281054762
100
AcDbArc
 50
154.1673306624
 51
174.4168540289
  0
ARC
  5
2FA
100
AcDbEntity
  8
0
100
AcDbCircle
 62
7
  6
CONTINUOUS
 10
15.3694907808
 20
11.7764728453
 40
0.0281054762
100
AcDbArc
 50
154.1673306624
 51
174.4168540287
  0
ARC
  5
2FB
100
AcDbEntity
  8
0
100
AcDbCircle
 62
7
  6
CONTINUOUS
 10
14.1675405153
 20
11.6784833212
 40
0.0281054762
100
AcDbArc
 50
334.1673306623
 51
354.4168540287
  0
ARC
  5
2FC
100
AcDbEntity
  8
0
100
AcDbCircle
 62
7
  6
CONTINUOUS
 10
15.0886015093
 20
11.6784833212
 40
0.0281054762
100
AcDbArc
 50
334.1673306623
 51
354.4168540287
  0
ARC
  5
2FD
100
AcDbEntity
  8
0
100
AcDbCircle
 62
7
  6
CONTINUOUS
 10
14.6280710123
 20
11.6784833212
 40
0.0281054762
100
AcDbArc
 50
334.1673306622
 51
354.4168540288
  0
ARC
  5
2FE
100
AcDbEntity
  8
0
100
AcDbCircle
 62
7
  6
CONTINUOUS
 10
15.062655612
 20
13.8146667232
 40
0.638704998
100
AcDbArc
 50
227.222283473
 51
228.8165500072
  0
ARC
  5
2FF
100
AcDbEntity
  8
0
100
AcDbCircle
 62
7
  6
CONTINUOUS
 10
14.4720277055
 20
13.3431099946
 40
0.0281063569
100
AcDbArc
 50
154.1673306622
 51
162.8050439066
  0
ARC
  5
300
100
AcDbEntity
  8
0
100
AcDbCircle
 62
7
  6
CONTINUOUS
 10
15.3930886995
 20
13.3431099946
 40
0.0281063569
100
AcDbArc
 50
154.1673306624
 51
162.8050439065
  0
ARC
  5
301
100
AcDbEntity
  8
0
100
AcDbCircle
 62
7
  6
CONTINUOUS
 10
14.9325582025
 20
13.3431099946
 40
0.0281063569
100
AcDbArc
 50
154.1673306623
 51
162.8050439066
  0
ARC
  5
302
100
AcDbEntity
  8
0
100
AcDbCircle
 62
7
  6
CONTINUOUS
 10
15.8795693249
 20
11.2069432626
 40
0.638704998
100
AcDbArc
 50
47.2222834731
 51
48.8165500072
  0
ARC
  5
303
100
AcDbEntity
  8
0
100
AcDbCircle
 62
7
  6
CONTINUOUS
 10
15.4995839593
 20
12.248012904
 40
0.638704998
100
AcDbArc
 50
227.222283473
 51
228.8165500072
  0
ARC
  5
304
100
AcDbEntity
  8
0
100
AcDbCircle
 62
7
  6
CONTINUOUS
 10
16.4206449532
 20
12.248012904
 40
0.638704998
100
AcDbArc
 50
227.222283473
 51
228.8165500072
  0
ARC
  5
305
100
AcDbEntity
  8
0
100
AcDbCircle
 62
7
  6
CONTINUOUS
 10
16.8811754503
 20
12.248012904
 40
0.638704998
100
AcDbArc
 50
227.222283473
 51
228.8165500072
  0
ARC
  5
306
100
AcDbEntity
  8
0
100
AcDbCircle
 62
7
  6
CONTINUOUS
 10
15.9601144562
 20
12.248012904
 40
0.638704998
100
AcDbArc
 50
227.222283473
 51
228.8165500072
  0
ARC
  5
307
100
AcDbEntity
  8
0
100
AcDbCircle
 62
7
  6
CONTINUOUS
 10
15.6073944093
 20
11.7984514565
 40
0.1956036845
100
AcDbArc
 50
350.8421728857
 51
354.3538923847
  0
ARC
  5
308
100
AcDbEntity
  8
0
100
AcDbCircle
 62
7
  6
CONTINUOUS
 10
16.0679249063
 20
11.7984514565
 40
0.1956036845
100
AcDbArc
 50
350.8421728857
 51
354.3538923847
  0
ARC
  5
309
100
AcDbEntity
  8
0
100
AcDbCircle
 62
7
  6
CONTINUOUS
 10
16.6928198689
 20
11.6565047101
 40
0.1956036846
100
AcDbArc
 50
170.8421728857
 51
174.3538923847
  0
ARC
  5
30A
100
AcDbEntity
  8
0
100
AcDbCircle
 62
7
  6
CONTINUOUS
 10
16.2322893719
 20
11.6565047101
 40
0.1956036846
100
AcDbArc
 50
170.8421728857
 51
174.3538923847
  0
ARC
  5
30B
100
AcDbEntity
  8
0
100
AcDbCircle
 62
7
  6
CONTINUOUS
 10
15.7717588749
 20
11.6565047101
 40
0.1956036846
100
AcDbArc
 50
170.8421728858
 51
174.3538923847
  0
ARC
  5
30C
100
AcDbEntity
  8
0
100
AcDbCircle
 62
7
  6
CONTINUOUS
 10
15.8300212778
 20
11.7764728453
 40
0.0281054762
100
AcDbArc
 50
154.1673306624
 51
174.4168540287
  0
ARC
  5
30D
100
AcDbEntity
  8
0
100
AcDbCircle
 62
7
  6
CONTINUOUS
 10
16.2905517748
 20
11.7764728453
 40
0.0281054762
100
AcDbArc
 50
154.1673306625
 51
174.4168540288
  0
ARC
  5
30E
100
AcDbEntity
  8
0
100
AcDbCircle
 62
7
  6
CONTINUOUS
 10
16.4701930003
 20
11.6784833212
 40
0.0281054762
100
AcDbArc
 50
334.1673306622
 51
354.416854029
  0
ARC
  5
30F
100
AcDbEntity
  8
0
100
AcDbCircle
 62
7
  6
CONTINUOUS
 10
15.5491320063
 20
11.6784833212
 40
0.0281054762
100
AcDbArc
 50
334.1673306622
 51
354.4168540288
  0
ARC
  5
310
100
AcDbEntity
  8
0
100
AcDbCircle
 62
7
  6
CONTINUOUS
 10
16.0096625033
 20
11.6784833212
 40
0.0281054762
100
AcDbArc
 50
334.1673306624
 51
354.4168540287
  0
ARC
  5
311
100
AcDbEntity
  8
0
100
AcDbCircle
 62
7
  6
CONTINUOUS
 10
17.3653080971
 20
13.8146667232
 40
0.638704998
100
AcDbArc
 50
227.222283473
 51
228.8165500072
  0
ARC
  5
312
100
AcDbEntity
  8
0
100
AcDbCircle
 62
7
  6
CONTINUOUS
 10
16.9047776001
 20
13.8146667232
 40
0.638704998
100
AcDbArc
 50
227.2222834731
 51
228.8165500072
  0
ARC
  5
313
100
AcDbEntity
  8
0
100
AcDbCircle
 62
7
  6
CONTINUOUS
 10
16.4442471031
 20
13.8146667232
 40
0.638704998
100
AcDbArc
 50
227.2222834731
 51
228.8165500072
  0
ARC
  5
314
100
AcDbEntity
  8
0
100
AcDbCircle
 62
7
  6
CONTINUOUS
 10
15.5231861091
 20
13.8146667232
 40
0.638704998
100
AcDbArc
 50
227.2222834731
 51
228.8165500072
  0
ARC
  5
315
100
AcDbEntity
  8
0
100
AcDbCircle
 62
7
  6
CONTINUOUS
 10
15.983716606
 20
13.8146667232
 40
0.638704998
100
AcDbArc
 50
227.222283473
 51
228.8165500072
  0
ARC
  5
316
100
AcDbEntity
  8
0
100
AcDbCircle
 62
7
  6
CONTINUOUS
 10
16.7746801905
 20
13.3431099946
 40
0.0281063569
100
AcDbArc
 50
154.1673306624
 51
162.8050439065
  0
ARC
  5
317
100
AcDbEntity
  8
0
100
AcDbCircle
 62
7
  6
CONTINUOUS
 10
16.3141496935
 20
13.3431099946
 40
0.0281063569
100
AcDbArc
 50
154.1673306624
 51
162.8050439065
  0
ARC
  5
318
100
AcDbEntity
  8
0
100
AcDbCircle
 62
7
  6
CONTINUOUS
 10
15.8536191965
 20
13.3431099946
 40
0.0281063569
100
AcDbArc
 50
154.1673306624
 51
162.8050439064
  0
SPLINE
  5
319
100
AcDbEntity
  8
0
100
AcDbSpline
 62
7
  6
CONTINUOUS
 70
0
 71
3
 72
13
 73
9
 74
0
 42
0.0000001
 43
0.0000001
 44
0.0000000001
 40
0.0
 40
0.0
 40
0.0
 40
0.0
 40
0.1220777926
 40
0.2488756815
 40
0.5079295526
 40
0.7628129667
 40
0.884590511
 40
1.0
 40
1.0
 40
1.0
 40
1.0
 10
14.6920339419
 20
13.3158882514
 30
0.0
 10
14.6898311498
 20
13.3158882514
 30
0.0
 10
14.6853381595
 20
13.3161156474
 30
0.0
 10
14.6762518403
 20
13.3173820512
 30
0.0
 10
14.6650401014
 20
13.3204246524
 30
0.0
 10
14.6545505336
 20
13.325215161
 30
0.0
 10
14.6470392065
 20
13.3299693488
 30
0.0
 10
14.6436533939
 20
13.3326027244
 30
0.0
 10
14.6420861933
 20
13.3339740579
 30
0.0
  0
SPLINE
  5
31A
100
AcDbEntity
  8
0
100
AcDbSpline
 62
7
  6
CONTINUOUS
 70
0
 71
3
 72
9
 73
5
 74
0
 42
0.0000001
 43
0.0000001
 44
0.0000000001
 40
0.0
 40
0.0
 40
0.0
 40
0.0
 40
0.2423988484
 40
1.0
 40
1.0
 40
1.0
 40
1.0
 10
14.6288753503
 20
13.3458610503
 30
0.0
 10
14.627967916
 20
13.3467009727
 30
0.0
 10
14.6241540418
 20
13.3500897037
 30
0.0
 10
14.6200771862
 20
13.3531787945
 30
0.0
 10
14.6168850888
 20
13.3553571816
 30
0.0
  0
SPLINE
  5
31B
100
AcDbEntity
  8
0
100
AcDbSpline
 62
7
  6
CONTINUOUS
 70
0
 71
3
 72
13
 73
9
 74
0
 42
0.0000001
 43
0.0000001
 44
0.0000000001
 40
0.0
 40
0.0
 40
0.0
 40
0.0
 40
0.1203837678
 40
0.2448858705
 40
0.5000359659
 40
0.7551674118
 40
0.8796468281
 40
1.0
 40
1.0
 40
1.0
 40
1.0
 10
14.6168850888
 20
13.3553571816
 30
0.0
 10
14.61500891
 20
13.3566375446
 30
0.0
 10
14.6110789083
 20
13.3590790309
 30
0.0
 10
14.6027019213
 20
13.3634349636
 30
0.0
 10
14.5914919455
 20
13.3677750118
 30
0.0
 10
14.5797868511
 20
13.370510053
 30
0.0
 10
14.5704135768
 20
13.3716344446
 30
0.0
 10
14.5657922103
 20
13.3718331486
 30
0.0
 10
14.5635213616
 20
13.3718331486
 30
0.0
  0
SPLINE
  5
31C
100
AcDbEntity
  8
0
100
AcDbSpline
 62
7
  6
CONTINUOUS
 70
0
 71
3
 72
15
 73
11
 74
0
 42
0.0000001
 43
0.0000001
 44
0.0000000001
 40
0.0
 40
0.0
 40
0.0
 40
0.0
 40
0.1530780943
 40
0.2990728638
 40
0.4366363831
 40
0.5650828719
 40
0.6846338945
 40
0.796035822
 40
0.9005658846
 40
1.0
 40
1.0
 40
1.0
 40
1.0
 10
14.4839232705
 20
13.3718331486
 30
0.0
 10
14.4817440719
 20
13.3718331486
 30
0.0
 10
14.4774838724
 20
13.3716570834
 30
0.0
 10
14.471312705
 20
13.3708418808
 30
0.0
 10
14.4655935432
 20
13.369489822
 30
0.0
 10
14.4604214277
 20
13.3676112005
 30
0.0
 10
14.4558695611
 20
13.3652372946
 30
0.0
 10
14.4520091782
 20
13.362387628
 30
0.0
 10
14.4489041843
 20
13.3591111784
 30
0.0
 10
14.4473465748
 20
13.356631374
 30
0.0
 10
14.4467300038
 20
13.3553571816
 30
0.0
  0
SPLINE
  5
31D
100
AcDbEntity
  8
0
100
AcDbSpline
 62
7
  6
CONTINUOUS
 70
0
 71
3
 72
13
 73
9
 74
0
 42
0.0000001
 43
0.0000001
 44
0.0000000001
 40
0.0
 40
0.0
 40
0.0
 40
0.0
 40
0.2129656442
 40
0.3286511744
 40
0.4508735487
 40
0.5796906043
 40
0.7146398501
 40
1.0
 40
1.0
 40
1.0
 40
1.0
 10
14.4368964339
 20
13.3239928954
 30
0.0
 10
14.4354060571
 20
13.3226392188
 30
0.0
 10
14.4327998426
 20
13.3208745196
 30
0.0
 10
14.4289342616
 20
13.3190717908
 30
0.0
 10
14.4256581771
 20
13.3179187542
 30
0.0
 10
14.4221180399
 20
13.3170165808
 30
0.0
 10
14.4169983196
 20
13.3161338
 30
0.0
 10
14.4130160131
 20
13.3158882514
 30
0.0
 10
14.4103182262
 20
13.3158882514
 30
0.0
  0
SPLINE
  5
31E
100
AcDbEntity
  8
0
100
AcDbSpline
 62
7
  6
CONTINUOUS
 70
0
 71
3
 72
14
 73
10
 74
0
 42
0.0000001
 43
0.0000001
 44
0.0000000001
 40
0.0
 40
0.0
 40
0.0
 40
0.0
 40
0.0997129423
 40
0.20313066
 40
0.3129436641
 40
0.4312487046
 40
0.6969674484
 40
0.8445822317
 40
1.0
 40
1.0
 40
1.0
 40
1.0
 10
14.197570407
 20
11.6898204946
 30
0.0
 10
14.1979432044
 20
11.6910188293
 30
0.0
 10
14.1989980759
 20
11.6933772816
 30
0.0
 10
14.2013883587
 20
11.6965447682
 30
0.0
 10
14.2045549427
 20
11.6993033375
 30
0.0
 10
14.2099163958
 20
11.7024989231
 30
0.0
 10
14.2163921867
 20
11.7045247807
 30
0.0
 10
14.2234796258
 20
11.7055493427
 30
0.0
 10
14.2272981431
 20
11.7057217344
 30
0.0
 10
14.2292542257
 20
11.7057217344
 30
0.0
  0
SPLINE
  5
31F
100
AcDbEntity
  8
0
100
AcDbSpline
 62
7
  6
CONTINUOUS
 70
0
 71
3
 72
13
 73
9
 74
0
 42
0.0000001
 43
0.0000001
 44
0.0000000001
 40
0.0
 40
0.0
 40
0.0
 40
0.0
 40
0.2129656442
 40
0.3286511744
 40
0.4508735487
 40
0.5796906043
 40
0.7146398501
 40
1.0
 40
1.0
 40
1.0
 40
1.0
 10
14.8974269309
 20
13.3239928954
 30
0.0
 10
14.8959365541
 20
13.3226392188
 30
0.0
 10
14.8933303396
 20
13.3208745196
 30
0.0
 10
14.8894647586
 20
13.3190717908
 30
0.0
 10
14.8861886741
 20
13.3179187542
 30
0.0
 10
14.8826485369
 20
13.3170165808
 30
0.0
 10
14.8775288166
 20
13.3161338
 30
0.0
 10
14.8735465101
 20
13.3158882514
 30
0.0
 10
14.8708487232
 20
13.3158882514
 30
0.0
  0
SPLINE
  5
320
100
AcDbEntity
  8
0
100
AcDbSpline
 62
7
  6
CONTINUOUS
 70
0
 71
3
 72
14
 73
10
 74
0
 42
0.0000001
 43
0.0000001
 44
0.0000000001
 40
0.0
 40
0.0
 40
0.0
 40
0.0
 40
0.0997129423
 40
0.20313066
 40
0.3129436641
 40
0.4312487046
 40
0.6969674484
 40
0.8445822317
 40
1.0
 40
1.0
 40
1.0
 40
1.0
 10
14.658100904
 20
11.6898204946
 30
0.0
 10
14.6584737014
 20
11.6910188293
 30
0.0
 10
14.6595285729
 20
11.6933772816
 30
0.0
 10
14.6619188557
 20
11.6965447682
 30
0.0
 10
14.6650854397
 20
11.6993033375
 30
0.0
 10
14.6704468928
 20
11.7024989231
 30
0.0
 10
14.6769226837
 20
11.7045247807
 30
0.0
 10
14.6840101228
 20
11.7055493427
 30
0.0
 10
14.6878286401
 20
11.7057217344
 30
0.0
 10
14.6897847227
 20
11.7057217344
 30
0.0
  0
SPLINE
  5
321
100
AcDbEntity
  8
0
100
AcDbSpline
 62
7
  6
CONTINUOUS
 70
0
 71
3
 72
12
 73
8
 74
0
 42
0.0000001
 43
0.0000001
 44
0.0000000001
 40
0.0
 40
0.0
 40
0.0
 40
0.0
 40
0.2121425101
 40
0.3275624019
 40
0.4495695023
 40
0.7131364635
 40
1.0
 40
1.0
 40
1.0
 40
1.0
 10
15.3583327109
 20
13.3243427801
 30
0.0
 10
15.3568541019
 20
13.3229354974
 30
0.0
 10
15.3542427891
 20
13.3210933238
 30
0.0
 10
15.350342497
 20
13.3192151164
 30
0.0
 10
15.345803559
 20
13.3175668441
 30
0.0
 10
15.3394434835
 20
13.3162174917
 30
0.0
 10
15.3341394502
 20
13.3158882514
 30
0.0
 10
15.3313792202
 20
13.3158882514
 30
0.0
  0
SPLINE
  5
322
100
AcDbEntity
  8
0
100
AcDbSpline
 62
7
  6
CONTINUOUS
 70
0
 71
3
 72
9
 73
5
 74
0
 42
0.0000001
 43
0.0000001
 44
0.0000000001
 40
0.0
 40
0.0
 40
0.0
 40
0.0
 40
0.4944528547
 40
1.0
 40
1.0
 40
1.0
 40
1.0
 10
15.1186298675
 20
11.6898210058
 30
0.0
 10
15.1189175107
 20
11.6907496249
 30
0.0
 10
15.1196729392
 20
11.6925779766
 30
0.0
 10
15.120740799
 20
11.6942419912
 30
0.0
 10
15.1213452307
 20
11.6950310541
 30
0.0
  0
SPLINE
  5
323
100
AcDbEntity
  8
0
100
AcDbSpline
 62
7
  6
CONTINUOUS
 70
0
 71
3
 72
14
 73
10
 74
0
 42
0.0000001
 43
0.0000001
 44
0.0000000001
 40
0.0
 40
0.0
 40
0.0
 40
0.0
 40
0.1011706613
 40
0.2079584709
 40
0.3215083982
 40
0.442515737
 40
0.7072637476
 40
0.8506392902
 40
1.0
 40
1.0
 40
1.0
 40
1.0
 10
15.1213452307
 20
11.6950310541
 30
0.0
 10
15.1219991635
 20
11.6958847386
 30
0.0
 10
15.1235037922
 20
11.6975207804
 30
0.0
 10
15.1261929663
 20
11.6996483667
 30
0.0
 10
15.12933382
 20
11.7014863297
 30
0.0
 10
15.1342194679
 20
11.7035861704
 30
0.0
 10
15.1397245537
 20
11.704932252
 30
0.0
 10
15.1456139598
 20
11.7056090273
 30
0.0
 10
15.1487276353
 20
11.7057217344
 30
0.0
 10
15.1503152197
 20
11.7057217344
 30
0.0
  0
SPLINE
  5
324
100
AcDbEntity
  8
0
100
AcDbSpline
 62
7
  6
CONTINUOUS
 70
0
 71
3
 72
12
 73
8
 74
0
 42
0.0000001
 43
0.0000001
 44
0.0000000001
 40
0.0
 40
0.0
 40
0.0
 40
0.0
 40
0.2121425101
 40
0.3275624019
 40
0.4495695023
 40
0.7131364635
 40
1.0
 40
1.0
 40
1.0
 40
1.0
 10
15.8188632079
 20
13.3243427801
 30
0.0
 10
15.8173845989
 20
13.3229354974
 30
0.0
 10
15.8147732861
 20
13.3210933238
 30
0.0
 10
15.810872994
 20
13.3192151164
 30
0.0
 10
15.806334056
 20
13.3175668441
 30
0.0
 10
15.7999739805
 20
13.3162174917
 30
0.0
 10
15.7946699472
 20
13.3158882514
 30
0.0
 10
15.7919097172
 20
13.3158882514
 30
0.0
  0
SPLINE
  5
325
100
AcDbEntity
  8
0
100
AcDbSpline
 62
7
  6
CONTINUOUS
 70
0
 71
3
 72
9
 73
5
 74
0
 42
0.0000001
 43
0.0000001
 44
0.0000000001
 40
0.0
 40
0.0
 40
0.0
 40
0.0
 40
0.4944528547
 40
1.0
 40
1.0
 40
1.0
 40
1.0
 10
15.5791603645
 20
11.6898210058
 30
0.0
 10
15.5794480077
 20
11.6907496249
 30
0.0
 10
15.5802034362
 20
11.6925779766
 30
0.0
 10
15.581271296
 20
11.6942419912
 30
0.0
 10
15.5818757277
 20
11.6950310541
 30
0.0
  0
SPLINE
  5
326
100
AcDbEntity
  8
0
100
AcDbSpline
 62
7
  6
CONTINUOUS
 70
0
 71
3
 72
14
 73
10
 74
0
 42
0.0000001
 43
0.0000001
 44
0.0000000001
 40
0.0
 40
0.0
 40
0.0
 40
0.0
 40
0.1011706613
 40
0.2079584709
 40
0.3215083982
 40
0.442515737
 40
0.7072637476
 40
0.8506392902
 40
1.0
 40
1.0
 40
1.0
 40
1.0
 10
15.5818757277
 20
11.6950310541
 30
0.0
 10
15.5825296605
 20
11.6958847386
 30
0.0
 10
15.5840342892
 20
11.6975207804
 30
0.0
 10
15.5867234633
 20
11.6996483667
 30
0.0
 10
15.589864317
 20
11.7014863297
 30
0.0
 10
15.5947499649
 20
11.7035861704
 30
0.0
 10
15.6002550507
 20
11.704932252
 30
0.0
 10
15.6061444568
 20
11.7056090273
 30
0.0
 10
15.6092581323
 20
11.7057217344
 30
0.0
 10
15.6108457167
 20
11.7057217344
 30
0.0
  0
SPLINE
  5
327
100
AcDbEntity
  8
0
100
AcDbSpline
 62
7
  6
CONTINUOUS
 70
0
 71
3
 72
12
 73
8
 74
0
 42
0.0000001
 43
0.0000001
 44
0.0000000001
 40
0.0
 40
0.0
 40
0.0
 40
0.0
 40
0.2121425101
 40
0.3275624019
 40
0.4495695023
 40
0.7131364635
 40
1.0
 40
1.0
 40
1.0
 40
1.0
 10
16.2793937049
 20
13.3243427801
 30
0.0
 10
16.2779150959
 20
13.3229354974
 30
0.0
 10
16.2753037831
 20
13.3210933238
 30
0.0
 10
16.271403491
 20
13.3192151164
 30
0.0
 10
16.266864553
 20
13.3175668441
 30
0.0
 10
16.2605044775
 20
13.3162174917
 30
0.0
 10
16.2552004442
 20
13.3158882514
 30
0.0
 10
16.2524402142
 20
13.3158882514
 30
0.0
  0
SPLINE
  5
328
100
AcDbEntity
  8
0
100
AcDbSpline
 62
7
  6
CONTINUOUS
 70
0
 71
3
 72
9
 73
5
 74
0
 42
0.0000001
 43
0.0000001
 44
0.0000000001
 40
0.0
 40
0.0
 40
0.0
 40
0.0
 40
0.4944528547
 40
1.0
 40
1.0
 40
1.0
 40
1.0
 10
16.0396908615
 20
11.6898210058
 30
0.0
 10
16.0399785047
 20
11.6907496249
 30
0.0
 10
16.0407339332
 20
11.6925779766
 30
0.0
 10
16.041801793
 20
11.6942419912
 30
0.0
 10
16.0424062247
 20
11.6950310541
 30
0.0
  0
SPLINE
  5
329
100
AcDbEntity
  8
0
100
AcDbSpline
 62
7
  6
CONTINUOUS
 70
0
 71
3
 72
14
 73
10
 74
0
 42
0.0000001
 43
0.0000001
 44
0.0000000001
 40
0.0
 40
0.0
 40
0.0
 40
0.0
 40
0.1011706613
 40
0.2079584709
 40
0.3215083982
 40
0.442515737
 40
0.7072637476
 40
0.8506392902
 40
1.0
 40
1.0
 40
1.0
 40
1.0
 10
16.0424062247
 20
11.6950310541
 30
0.0
 10
16.0430601575
 20
11.6958847386
 30
0.0
 10
16.0445647862
 20
11.6975207804
 30
0.0
 10
16.0472539603
 20
11.6996483667
 30
0.0
 10
16.050394814
 20
11.7014863297
 30
0.0
 10
16.0552804619
 20
11.7035861704
 30
0.0
 10
16.0607855477
 20
11.704932252
 30
0.0
 10
16.0666749538
 20
11.7056090273
 30
0.0
 10
16.0697886293
 20
11.7057217344
 30
0.0
 10
16.0713762137
 20
11.7057217344
 30
0.0
  0
SPLINE
  5
32A
100
AcDbEntity
  8
0
100
AcDbSpline
 62
7
  6
CONTINUOUS
 70
0
 71
3
 72
12
 73
8
 74
0
 42
0.0000001
 43
0.0000001
 44
0.0000000001
 40
0.0
 40
0.0
 40
0.0
 40
0.0
 40
0.2129063219
 40
0.4504080461
 40
0.578957232
 40
0.713795517
 40
1.0
 40
1.0
 40
1.0
 40
1.0
 10
16.7396187829
 20
13.32405743
 30
0.0
 10
16.7381291601
 20
13.3226946363
 30
0.0
 10
16.7345578785
 20
13.3202595571
 30
0.0
 10
16.7294294006
 20
13.3182100184
 30
0.0
 10
16.7248257962
 20
13.3170231477
 30
0.0
 10
16.7196864217
 20
13.3161313904
 30
0.0
 10
16.7156847416
 20
13.3158882514
 30
0.0
 10
16.7129707112
 20
13.3158882514
 30
0.0
  0
SPLINE
  5
32B
100
AcDbEntity
  8
0
100
AcDbSpline
 62
7
  6
CONTINUOUS
 70
0
 71
3
 72
9
 73
5
 74
0
 42
0.0000001
 43
0.0000001
 44
0.0000000001
 40
0.0
 40
0.0
 40
0.0
 40
0.0
 40
0.4970656586
 40
1.0
 40
1.0
 40
1.0
 40
1.0
 10
16.5002208673
 20
11.689821158
 30
0.0
 10
16.5004284054
 20
11.6904920363
 30
0.0
 10
16.5009355264
 20
11.6918155676
 30
0.0
 10
16.5016103274
 20
11.693061739
 30
0.0
 10
16.5019871851
 20
11.6936641023
 30
0.0
  0
SPLINE
  5
32C
100
AcDbEntity
  8
0
100
AcDbSpline
 62
7
  6
CONTINUOUS
 70
0
 71
3
 72
15
 73
11
 74
0
 42
0.0000001
 43
0.0000001
 44
0.0000000001
 40
0.0
 40
0.0
 40
0.0
 40
0.0
 40
0.1002094141
 40
0.2057752028
 40
0.3182902825
 40
0.4386528898
 40
0.5672541698
 40
0.7040721381
 40
0.8486831991
 40
1.0
 40
1.0
 40
1.0
 40
1.0
 10
16.5019871851
 20
11.6936641023
 30
0.0
 10
16.5025817127
 20
11.6946143858
 30
0.0
 10
16.5039995006
 20
11.6964478226
 30
0.0
 10
16.5066520845
 20
11.6988460168
 30
0.0
 10
16.5098350399
 20
11.7009211333
 30
0.0
 10
16.5135011714
 20
11.7026524377
 30
0.0
 10
16.5176043741
 20
11.7040177164
 30
0.0
 10
16.5220915145
 20
11.7050033603
 30
0.0
 10
16.526902085
 20
11.7055946822
 30
0.0
 10
16.530214088
 20
11.7057217344
 30
0.0
 10
16.5319067107
 20
11.7057217344
 30
0.0
  0
SPLINE
  5
32D
100
AcDbEntity
  8
0
100
AcDbSpline
 62
7
  6
CONTINUOUS
 70
0
 71
3
 72
15
 73
11
 74
0
 42
0.0000001
 43
0.0000001
 44
0.0000000001
 40
0.0
 40
0.0
 40
0.0
 40
0.0
 40
0.1222817011
 40
0.2489157101
 40
0.3780263748
 40
0.5079164659
 40
0.6367627405
 40
0.7627815246
 40
0.8844047757
 40
1.0
 40
1.0
 40
1.0
 40
1.0
 10
16.9946864269
 20
13.3158882514
 30
0.0
 10
16.9924788966
 20
13.3158882514
 30
0.0
 10
16.9879830873
 20
13.3161120712
 30
0.0
 10
16.9812162536
 20
13.3170564001
 30
0.0
 10
16.9744195143
 20
13.3186010603
 30
0.0
 10
16.9677356197
 20
13.3207129226
 30
0.0
 10
16.9612997395
 20
13.3233467108
 30
0.0
 10
16.9552434969
 20
13.3264511922
 30
0.0
 10
16.9496944528
 20
13.329961904
 30
0.0
 10
16.9463091544
 20
13.3325998583
 30
0.0
 10
16.9447386783
 20
13.3339740579
 30
0.0
  0
SPLINE
  5
32E
100
AcDbEntity
  8
0
100
AcDbSpline
 62
7
  6
CONTINUOUS
 70
0
 71
3
 72
9
 73
5
 74
0
 42
0.0000001
 43
0.0000001
 44
0.0000000001
 40
0.0
 40
0.0
 40
0.0
 40
0.0
 40
0.2423988484
 40
1.0
 40
1.0
 40
1.0
 40
1.0
 10
16.9315278353
 20
13.3458610503
 30
0.0
 10
16.930620401
 20
13.3467009727
 30
0.0
 10
16.9268065268
 20
13.3500897037
 30
0.0
 10
16.9227296712
 20
13.3531787945
 30
0.0
 10
16.9195375738
 20
13.3553571816
 30
0.0
  0
SPLINE
  5
32F
100
AcDbEntity
  8
0
100
AcDbSpline
 62
7
  6
CONTINUOUS
 70
0
 71
3
 72
13
 73
9
 74
0
 42
0.0000001
 43
0.0000001
 44
0.0000000001
 40
0.0
 40
0.0
 40
0.0
 40
0.0
 40
0.1205724429
 40
0.2449984083
 40
0.5000359535
 40
0.7550549225
 40
0.8794582258
 40
1.0
 40
1.0
 40
1.0
 40
1.0
 10
16.9195375738
 20
13.3553571816
 30
0.0
 10
16.9176584343
 20
13.3566395652
 30
0.0
 10
16.9137279018
 20
13.3590842965
 30
0.0
 10
16.9053499673
 20
13.3634390709
 30
0.0
 10
16.8941433522
 20
13.3677715223
 30
0.0
 10
16.882445316
 20
13.3705109431
 30
0.0
 10
16.8730719116
 20
13.3716368266
 30
0.0
 10
16.8684482785
 20
13.3718331486
 30
0.0
 10
16.8661738466
 20
13.3718331486
 30
0.0
  0
SPLINE
  5
330
100
AcDbEntity
  8
0
100
AcDbSpline
 62
7
  6
CONTINUOUS
 70
0
 71
3
 72
15
 73
11
 74
0
 42
0.0000001
 43
0.0000001
 44
0.0000000001
 40
0.0
 40
0.0
 40
0.0
 40
0.0
 40
0.1533512302
 40
0.2992405476
 40
0.4366039312
 40
0.5650532778
 40
0.6846259244
 40
0.7959435865
 40
0.9004117086
 40
1.0
 40
1.0
 40
1.0
 40
1.0
 10
16.7865757555
 20
13.3718331486
 30
0.0
 10
16.784392607
 20
13.3718331486
 30
0.0
 10
16.7801298411
 20
13.3716593556
 30
0.0
 10
16.7739587555
 20
13.3708438816
 30
0.0
 10
16.7682448676
 20
13.3694878973
 30
0.0
 10
16.7630750248
 20
13.3676100505
 30
0.0
 10
16.7585241148
 20
13.3652362501
 30
0.0
 10
16.7546616074
 20
13.3623925292
 30
0.0
 10
16.7515550416
 20
13.3591164154
 30
0.0
 10
16.7500000332
 20
13.3566333857
 30
0.0
 10
16.7493824888
 20
13.3553571816
 30
0.0
  0
SPLINE
  5
331
100
AcDbEntity
  8
0
100
AcDbSpline
 62
7
  6
CONTINUOUS
 70
0
 71
3
 72
15
 73
11
 74
0
 42
0.0000001
 43
0.0000001
 44
0.0000000001
 40
0.0
 40
0.0
 40
0.0
 40
0.0
 40
0.1222057151
 40
0.2488986716
 40
0.3780641057
 40
0.507917285
 40
0.6367249041
 40
0.7627980176
 40
0.884475195
 40
1.0
 40
1.0
 40
1.0
 40
1.0
 10
16.5341559299
 20
13.3158882514
 30
0.0
 10
16.5319497776
 20
13.3158882514
 30
0.0
 10
16.527454383
 20
13.3161131757
 30
0.0
 10
16.5206866328
 20
13.3170557354
 30
0.0
 10
16.5138888179
 20
13.3186018759
 30
0.0
 10
16.5072048073
 20
13.3207120752
 30
0.0
 10
16.5007699217
 20
13.3233472194
 30
0.0
 10
16.4947119956
 20
13.3264511719
 30
0.0
 10
16.4891634389
 20
13.3299638873
 30
0.0
 10
16.4857776962
 20
13.3326006993
 30
0.0
 10
16.4842081813
 20
13.3339740579
 30
0.0
  0
SPLINE
  5
332
100
AcDbEntity
  8
0
100
AcDbSpline
 62
7
  6
CONTINUOUS
 70
0
 71
3
 72
9
 73
5
 74
0
 42
0.0000001
 43
0.0000001
 44
0.0000000001
 40
0.0
 40
0.0
 40
0.0
 40
0.0
 40
0.2423988484
 40
1.0
 40
1.0
 40
1.0
 40
1.0
 10
16.4709973383
 20
13.3458610503
 30
0.0
 10
16.470089904
 20
13.3467009727
 30
0.0
 10
16.4662760298
 20
13.3500897037
 30
0.0
 10
16.4621991742
 20
13.3531787945
 30
0.0
 10
16.4590070768
 20
13.3553571816
 30
0.0
  0
SPLINE
  5
333
100
AcDbEntity
  8
0
100
AcDbSpline
 62
7
  6
CONTINUOUS
 70
0
 71
3
 72
13
 73
9
 74
0
 42
0.0000001
 43
0.0000001
 44
0.0000000001
 40
0.0
 40
0.0
 40
0.0
 40
0.0
 40
0.1203837678
 40
0.2448858705
 40
0.5000359659
 40
0.7551674118
 40
0.8796468281
 40
1.0
 40
1.0
 40
1.0
 40
1.0
 10
16.4590070768
 20
13.3553571816
 30
0.0
 10
16.4571308981
 20
13.3566375446
 30
0.0
 10
16.4532008963
 20
13.3590790309
 30
0.0
 10
16.4448239093
 20
13.3634349636
 30
0.0
 10
16.4336139335
 20
13.3677750118
 30
0.0
 10
16.4219088391
 20
13.370510053
 30
0.0
 10
16.4125355648
 20
13.3716344446
 30
0.0
 10
16.4079141983
 20
13.3718331486
 30
0.0
 10
16.4056433496
 20
13.3718331486
 30
0.0
  0
SPLINE
  5
334
100
AcDbEntity
  8
0
100
AcDbSpline
 62
7
  6
CONTINUOUS
 70
0
 71
3
 72
15
 73
11
 74
0
 42
0.0000001
 43
0.0000001
 44
0.0000000001
 40
0.0
 40
0.0
 40
0.0
 40
0.0
 40
0.1530780943
 40
0.2990728638
 40
0.4366363831
 40
0.5650828719
 40
0.6846338945
 40
0.796035822
 40
0.9005658846
 40
1.0
 40
1.0
 40
1.0
 40
1.0
 10
16.3260452585
 20
13.3718331486
 30
0.0
 10
16.3238660599
 20
13.3718331486
 30
0.0
 10
16.3196058604
 20
13.3716570834
 30
0.0
 10
16.313434693
 20
13.3708418808
 30
0.0
 10
16.3077155312
 20
13.369489822
 30
0.0
 10
16.3025434157
 20
13.3676112005
 30
0.0
 10
16.2979915491
 20
13.3652372946
 30
0.0
 10
16.2941311662
 20
13.362387628
 30
0.0
 10
16.2910261723
 20
13.3591111784
 30
0.0
 10
16.2894685628
 20
13.356631374
 30
0.0
 10
16.2888519918
 20
13.3553571816
 30
0.0
  0
SPLINE
  5
335
100
AcDbEntity
  8
0
100
AcDbSpline
 62
7
  6
CONTINUOUS
 70
0
 71
3
 72
15
 73
11
 74
0
 42
0.0000001
 43
0.0000001
 44
0.0000000001
 40
0.0
 40
0.0
 40
0.0
 40
0.0
 40
0.1222057151
 40
0.2488986716
 40
0.3780641057
 40
0.507917285
 40
0.6367249041
 40
0.7627980176
 40
0.884475195
 40
1.0
 40
1.0
 40
1.0
 40
1.0
 10
16.0736254329
 20
13.3158882514
 30
0.0
 10
16.0714192806
 20
13.3158882514
 30
0.0
 10
16.066923886
 20
13.3161131757
 30
0.0
 10
16.0601561358
 20
13.3170557354
 30
0.0
 10
16.0533583209
 20
13.3186018759
 30
0.0
 10
16.0466743103
 20
13.3207120752
 30
0.0
 10
16.0402394247
 20
13.3233472194
 30
0.0
 10
16.0341814986
 20
13.3264511719
 30
0.0
 10
16.0286329419
 20
13.3299638873
 30
0.0
 10
16.0252471992
 20
13.3326006993
 30
0.0
 10
16.0236776843
 20
13.3339740579
 30
0.0
  0
SPLINE
  5
336
100
AcDbEntity
  8
0
100
AcDbSpline
 62
7
  6
CONTINUOUS
 70
0
 71
3
 72
9
 73
5
 74
0
 42
0.0000001
 43
0.0000001
 44
0.0000000001
 40
0.0
 40
0.0
 40
0.0
 40
0.0
 40
0.2423988484
 40
1.0
 40
1.0
 40
1.0
 40
1.0
 10
16.0104668413
 20
13.3458610503
 30
0.0
 10
16.009559407
 20
13.3467009727
 30
0.0
 10
16.0057455328
 20
13.3500897037
 30
0.0
 10
16.0016686772
 20
13.3531787945
 30
0.0
 10
15.9984765798
 20
13.3553571816
 30
0.0
  0
SPLINE
  5
337
100
AcDbEntity
  8
0
100
AcDbSpline
 62
7
  6
CONTINUOUS
 70
0
 71
3
 72
13
 73
9
 74
0
 42
0.0000001
 43
0.0000001
 44
0.0000000001
 40
0.0
 40
0.0
 40
0.0
 40
0.0
 40
0.1203837678
 40
0.2448858705
 40
0.5000359659
 40
0.7551674118
 40
0.8796468281
 40
1.0
 40
1.0
 40
1.0
 40
1.0
 10
15.9984765798
 20
13.3553571816
 30
0.0
 10
15.9966004011
 20
13.3566375446
 30
0.0
 10
15.9926703993
 20
13.3590790309
 30
0.0
 10
15.9842934123
 20
13.3634349636
 30
0.0
 10
15.9730834365
 20
13.3677750118
 30
0.0
 10
15.9613783421
 20
13.370510053
 30
0.0
 10
15.9520050678
 20
13.3716344446
 30
0.0
 10
15.9473837013
 20
13.3718331486
 30
0.0
 10
15.9451128526
 20
13.3718331486
 30
0.0
  0
SPLINE
  5
338
100
AcDbEntity
  8
0
100
AcDbSpline
 62
7
  6
CONTINUOUS
 70
0
 71
3
 72
15
 73
11
 74
0
 42
0.0000001
 43
0.0000001
 44
0.0000000001
 40
0.0
 40
0.0
 40
0.0
 40
0.0
 40
0.1530780943
 40
0.2990728638
 40
0.4366363831
 40
0.5650828719
 40
0.6846338945
 40
0.796035822
 40
0.9005658846
 40
1.0
 40
1.0
 40
1.0
 40
1.0
 10
15.8655147615
 20
13.3718331486
 30
0.0
 10
15.8633355629
 20
13.3718331486
 30
0.0
 10
15.8590753634
 20
13.3716570834
 30
0.0
 10
15.852904196
 20
13.3708418808
 30
0.0
 10
15.8471850342
 20
13.369489822
 30
0.0
 10
15.8420129187
 20
13.3676112005
 30
0.0
 10
15.8374610521
 20
13.3652372946
 30
0.0
 10
15.8336006692
 20
13.362387628
 30
0.0
 10
15.8304956753
 20
13.3591111784
 30
0.0
 10
15.8289380658
 20
13.356631374
 30
0.0
 10
15.8283214948
 20
13.3553571816
 30
0.0
  0
SPLINE
  5
339
100
AcDbEntity
  8
0
100
AcDbSpline
 62
7
  6
CONTINUOUS
 70
0
 71
3
 72
15
 73
11
 74
0
 42
0.0000001
 43
0.0000001
 44
0.0000000001
 40
0.0
 40
0.0
 40
0.0
 40
0.0
 40
0.1222057151
 40
0.2488986716
 40
0.3780641057
 40
0.507917285
 40
0.6367249041
 40
0.7627980176
 40
0.884475195
 40
1.0
 40
1.0
 40
1.0
 40
1.0
 10
15.6130949359
 20
13.3158882514
 30
0.0
 10
15.6108887836
 20
13.3158882514
 30
0.0
 10
15.606393389
 20
13.3161131757
 30
0.0
 10
15.5996256388
 20
13.3170557354
 30
0.0
 10
15.5928278239
 20
13.3186018759
 30
0.0
 10
15.5861438133
 20
13.3207120752
 30
0.0
 10
15.5797089277
 20
13.3233472194
 30
0.0
 10
15.5736510016
 20
13.3264511719
 30
0.0
 10
15.5681024449
 20
13.3299638873
 30
0.0
 10
15.5647167022
 20
13.3326006993
 30
0.0
 10
15.5631471873
 20
13.3339740579
 30
0.0
  0
SPLINE
  5
33A
100
AcDbEntity
  8
0
100
AcDbSpline
 62
7
  6
CONTINUOUS
 70
0
 71
3
 72
9
 73
5
 74
0
 42
0.0000001
 43
0.0000001
 44
0.0000000001
 40
0.0
 40
0.0
 40
0.0
 40
0.0
 40
0.2423988484
 40
1.0
 40
1.0
 40
1.0
 40
1.0
 10
15.5499363443
 20
13.3458610503
 30
0.0
 10
15.54902891
 20
13.3467009727
 30
0.0
 10
15.5452150358
 20
13.3500897037
 30
0.0
 10
15.5411381802
 20
13.3531787945
 30
0.0
 10
15.5379460828
 20
13.3553571816
 30
0.0
  0
SPLINE
  5
33B
100
AcDbEntity
  8
0
100
AcDbSpline
 62
7
  6
CONTINUOUS
 70
0
 71
3
 72
13
 73
9
 74
0
 42
0.0000001
 43
0.0000001
 44
0.0000000001
 40
0.0
 40
0.0
 40
0.0
 40
0.0
 40
0.1203837678
 40
0.2448858705
 40
0.5000359659
 40
0.7551674118
 40
0.8796468281
 40
1.0
 40
1.0
 40
1.0
 40
1.0
 10
15.5379460828
 20
13.3553571816
 30
0.0
 10
15.5360699041
 20
13.3566375446
 30
0.0
 10
15.5321399023
 20
13.3590790309
 30
0.0
 10
15.5237629153
 20
13.3634349636
 30
0.0
 10
15.5125529395
 20
13.3677750118
 30
0.0
 10
15.5008478451
 20
13.370510053
 30
0.0
 10
15.4914745708
 20
13.3716344446
 30
0.0
 10
15.4868532043
 20
13.3718331486
 30
0.0
 10
15.4845823556
 20
13.3718331486
 30
0.0
  0
SPLINE
  5
33C
100
AcDbEntity
  8
0
100
AcDbSpline
 62
7
  6
CONTINUOUS
 70
0
 71
3
 72
15
 73
11
 74
0
 42
0.0000001
 43
0.0000001
 44
0.0000000001
 40
0.0
 40
0.0
 40
0.0
 40
0.0
 40
0.1530780943
 40
0.2990728638
 40
0.4366363831
 40
0.5650828719
 40
0.6846338945
 40
0.796035822
 40
0.9005658846
 40
1.0
 40
1.0
 40
1.0
 40
1.0
 10
15.4049842645
 20
13.3718331486
 30
0.0
 10
15.4028050659
 20
13.3718331486
 30
0.0
 10
15.3985448664
 20
13.3716570834
 30
0.0
 10
15.392373699
 20
13.3708418808
 30
0.0
 10
15.3866545372
 20
13.369489822
 30
0.0
 10
15.3814824217
 20
13.3676112005
 30
0.0
 10
15.3769305551
 20
13.3652372946
 30
0.0
 10
15.3730701722
 20
13.362387628
 30
0.0
 10
15.3699651783
 20
13.3591111784
 30
0.0
 10
15.3684075688
 20
13.356631374
 30
0.0
 10
15.3677909978
 20
13.3553571816
 30
0.0
  0
SPLINE
  5
33D
100
AcDbEntity
  8
0
100
AcDbSpline
 62
7
  6
CONTINUOUS
 70
0
 71
3
 72
13
 73
9
 74
0
 42
0.0000001
 43
0.0000001
 44
0.0000000001
 40
0.0
 40
0.0
 40
0.0
 40
0.0
 40
0.1220777926
 40
0.2488756815
 40
0.5079295526
 40
0.7628129667
 40
0.884590511
 40
1.0
 40
1.0
 40
1.0
 40
1.0
 10
15.1525644389
 20
13.3158882514
 30
0.0
 10
15.1503616468
 20
13.3158882514
 30
0.0
 10
15.1458686565
 20
13.3161156474
 30
0.0
 10
15.1367823373
 20
13.3173820512
 30
0.0
 10
15.1255705984
 20
13.3204246524
 30
0.0
 10
15.1150810306
 20
13.325215161
 30
0.0
 10
15.1075697035
 20
13.3299693488
 30
0.0
 10
15.1041838909
 20
13.3326027244
 30
0.0
 10
15.1026166903
 20
13.3339740579
 30
0.0
  0
SPLINE
  5
33E
100
AcDbEntity
  8
0
100
AcDbSpline
 62
7
  6
CONTINUOUS
 70
0
 71
3
 72
9
 73
5
 74
0
 42
0.0000001
 43
0.0000001
 44
0.0000000001
 40
0.0
 40
0.0
 40
0.0
 40
0.0
 40
0.2423988484
 40
1.0
 40
1.0
 40
1.0
 40
1.0
 10
15.0894058473
 20
13.3458610503
 30
0.0
 10
15.088498413
 20
13.3467009727
 30
0.0
 10
15.0846845388
 20
13.3500897037
 30
0.0
 10
15.0806076832
 20
13.3531787945
 30
0.0
 10
15.0774155858
 20
13.3553571816
 30
0.0
  0
SPLINE
  5
33F
100
AcDbEntity
  8
0
100
AcDbSpline
 62
7
  6
CONTINUOUS
 70
0
 71
3
 72
13
 73
9
 74
0
 42
0.0000001
 43
0.0000001
 44
0.0000000001
 40
0.0
 40
0.0
 40
0.0
 40
0.0
 40
0.1203837678
 40
0.2448858705
 40
0.5000359659
 40
0.7551674118
 40
0.8796468281
 40
1.0
 40
1.0
 40
1.0
 40
1.0
 10
15.0774155858
 20
13.3553571816
 30
0.0
 10
15.0755394071
 20
13.3566375446
 30
0.0
 10
15.0716094053
 20
13.3590790309
 30
0.0
 10
15.0632324183
 20
13.3634349636
 30
0.0
 10
15.0520224425
 20
13.3677750118
 30
0.0
 10
15.0403173481
 20
13.370510053
 30
0.0
 10
15.0309440738
 20
13.3716344446
 30
0.0
 10
15.0263227073
 20
13.3718331486
 30
0.0
 10
15.0240518586
 20
13.3718331486
 30
0.0
  0
SPLINE
  5
340
100
AcDbEntity
  8
0
100
AcDbSpline
 62
7
  6
CONTINUOUS
 70
0
 71
3
 72
15
 73
11
 74
0
 42
0.0000001
 43
0.0000001
 44
0.0000000001
 40
0.0
 40
0.0
 40
0.0
 40
0.0
 40
0.1530780943
 40
0.2990728638
 40
0.4366363831
 40
0.5650828719
 40
0.6846338945
 40
0.796035822
 40
0.9005658846
 40
1.0
 40
1.0
 40
1.0
 40
1.0
 10
14.9444537675
 20
13.3718331486
 30
0.0
 10
14.9422745689
 20
13.3718331486
 30
0.0
 10
14.9380143694
 20
13.3716570834
 30
0.0
 10
14.931843202
 20
13.3708418808
 30
0.0
 10
14.9261240402
 20
13.369489822
 30
0.0
 10
14.9209519247
 20
13.3676112005
 30
0.0
 10
14.9164000581
 20
13.3652372946
 30
0.0
 10
14.9125396752
 20
13.362387628
 30
0.0
 10
14.9094346813
 20
13.3591111784
 30
0.0
 10
14.9078770718
 20
13.356631374
 30
0.0
 10
14.9072605008
 20
13.3553571816
 30
0.0
  0
SPLINE
  5
341
100
AcDbEntity
  8
0
100
AcDbSpline
 62
7
  6
CONTINUOUS
 70
0
 71
3
 72
15
 73
11
 74
0
 42
0.0000001
 43
0.0000001
 44
0.0000000001
 40
0.0
 40
0.0
 40
0.0
 40
0.0
 40
0.1530780943
 40
0.2990728638
 40
0.4366363831
 40
0.5650828719
 40
0.6846338945
 40
0.796035822
 40
0.9005658846
 40
1.0
 40
1.0
 40
1.0
 40
1.0
 10
14.1556491814
 20
11.6497768372
 30
0.0
 10
14.1578283801
 20
11.6497768372
 30
0.0
 10
14.1620885795
 20
11.6499529024
 30
0.0
 10
14.168259747
 20
11.650768105
 30
0.0
 10
14.1739789087
 20
11.6521201638
 30
0.0
 10
14.1791510243
 20
11.6539987853
 30
0.0
 10
14.1837028908
 20
11.6563726912
 30
0.0
 10
14.1875632738
 20
11.6592223578
 30
0.0
 10
14.1906682676
 20
11.6624988074
 30
0.0
 10
14.1922258771
 20
11.6649786118
 30
0.0
 10
14.1928424481
 20
11.6662528042
 30
0.0
  0
SPLINE
  5
342
100
AcDbEntity
  8
0
100
AcDbSpline
 62
7
  6
CONTINUOUS
 70
0
 71
3
 72
13
 73
9
 74
0
 42
0.0000001
 43
0.0000001
 44
0.0000000001
 40
0.0
 40
0.0
 40
0.0
 40
0.0
 40
0.1203837678
 40
0.2448858705
 40
0.5000359659
 40
0.7551674118
 40
0.8796468281
 40
1.0
 40
1.0
 40
1.0
 40
1.0
 10
14.0226873632
 20
11.6662528042
 30
0.0
 10
14.0245635419
 20
11.6649724412
 30
0.0
 10
14.0284935437
 20
11.6625309549
 30
0.0
 10
14.0368705306
 20
11.6581750222
 30
0.0
 10
14.0480805065
 20
11.653834974
 30
0.0
 10
14.0597856009
 20
11.6510999328
 30
0.0
 10
14.0691588752
 20
11.6499755412
 30
0.0
 10
14.0737802416
 20
11.6497768372
 30
0.0
 10
14.0760510903
 20
11.6497768372
 30
0.0
  0
SPLINE
  5
343
100
AcDbEntity
  8
0
100
AcDbSpline
 62
7
  6
CONTINUOUS
 70
0
 71
3
 72
9
 73
5
 74
0
 42
0.0000001
 43
0.0000001
 44
0.0000000001
 40
0.0
 40
0.0
 40
0.0
 40
0.0
 40
0.2423988484
 40
1.0
 40
1.0
 40
1.0
 40
1.0
 10
14.0106971017
 20
11.6757489355
 30
0.0
 10
14.0116045359
 20
11.6749090131
 30
0.0
 10
14.0154184102
 20
11.6715202821
 30
0.0
 10
14.0194952657
 20
11.6684311913
 30
0.0
 10
14.0226873632
 20
11.6662528042
 30
0.0
  0
SPLINE
  5
344
100
AcDbEntity
  8
0
100
AcDbSpline
 62
7
  6
CONTINUOUS
 70
0
 71
3
 72
13
 73
9
 74
0
 42
0.0000001
 43
0.0000001
 44
0.0000000001
 40
0.0
 40
0.0
 40
0.0
 40
0.0
 40
0.1220777926
 40
0.2488756815
 40
0.5079295526
 40
0.7628129667
 40
0.884590511
 40
1.0
 40
1.0
 40
1.0
 40
1.0
 10
13.9475385101
 20
11.7057217344
 30
0.0
 10
13.9497413021
 20
11.7057217344
 30
0.0
 10
13.9542342925
 20
11.7054943384
 30
0.0
 10
13.9633206117
 20
11.7042279346
 30
0.0
 10
13.9745323505
 20
11.7011853334
 30
0.0
 10
13.9850219183
 20
11.6963948248
 30
0.0
 10
13.9925332454
 20
11.691640637
 30
0.0
 10
13.9959190581
 20
11.6890072614
 30
0.0
 10
13.9974862586
 20
11.6876359279
 30
0.0
  0
SPLINE
  5
345
100
AcDbEntity
  8
0
100
AcDbSpline
 62
7
  6
CONTINUOUS
 70
0
 71
3
 72
15
 73
11
 74
0
 42
0.0000001
 43
0.0000001
 44
0.0000000001
 40
0.0
 40
0.0
 40
0.0
 40
0.0
 40
0.1533512302
 40
0.2992405476
 40
0.4366039312
 40
0.5650532778
 40
0.6846259244
 40
0.7959435865
 40
0.9004117086
 40
1.0
 40
1.0
 40
1.0
 40
1.0
 10
16.4583016665
 20
11.6497768372
 30
0.0
 10
16.4604848149
 20
11.6497768372
 30
0.0
 10
16.4647475808
 20
11.6499506302
 30
0.0
 10
16.4709186665
 20
11.6507661043
 30
0.0
 10
16.4766325544
 20
11.6521220885
 30
0.0
 10
16.4818023972
 20
11.6539999353
 30
0.0
 10
16.4863533071
 20
11.6563737357
 30
0.0
 10
16.4902158145
 20
11.6592174566
 30
0.0
 10
16.4933223803
 20
11.6624935704
 30
0.0
 10
16.4948773887
 20
11.6649766002
 30
0.0
 10
16.4954949331
 20
11.6662528042
 30
0.0
  0
SPLINE
  5
346
100
AcDbEntity
  8
0
100
AcDbSpline
 62
7
  6
CONTINUOUS
 70
0
 71
3
 72
13
 73
9
 74
0
 42
0.0000001
 43
0.0000001
 44
0.0000000001
 40
0.0
 40
0.0
 40
0.0
 40
0.0
 40
0.1205724429
 40
0.2449984083
 40
0.5000359535
 40
0.7550549225
 40
0.8794582258
 40
1.0
 40
1.0
 40
1.0
 40
1.0
 10
16.3253398482
 20
11.6662528042
 30
0.0
 10
16.3272189877
 20
11.6649704207
 30
0.0
 10
16.3311495201
 20
11.6625256893
 30
0.0
 10
16.3395274547
 20
11.6581709149
 30
0.0
 10
16.3507340697
 20
11.6538384635
 30
0.0
 10
16.3624321059
 20
11.6510990427
 30
0.0
 10
16.3718055103
 20
11.6499731592
 30
0.0
 10
16.3764291435
 20
11.6497768372
 30
0.0
 10
16.3787035753
 20
11.6497768372
 30
0.0
  0
SPLINE
  5
347
100
AcDbEntity
  8
0
100
AcDbSpline
 62
7
  6
CONTINUOUS
 70
0
 71
3
 72
9
 73
5
 74
0
 42
0.0000001
 43
0.0000001
 44
0.0000000001
 40
0.0
 40
0.0
 40
0.0
 40
0.0
 40
0.2423988484
 40
1.0
 40
1.0
 40
1.0
 40
1.0
 10
16.3133495867
 20
11.6757489355
 30
0.0
 10
16.3142570209
 20
11.6749090131
 30
0.0
 10
16.3180708952
 20
11.6715202821
 30
0.0
 10
16.3221477507
 20
11.6684311913
 30
0.0
 10
16.3253398482
 20
11.6662528042
 30
0.0
  0
SPLINE
  5
348
100
AcDbEntity
  8
0
100
AcDbSpline
 62
7
  6
CONTINUOUS
 70
0
 71
3
 72
15
 73
11
 74
0
 42
0.0000001
 43
0.0000001
 44
0.0000000001
 40
0.0
 40
0.0
 40
0.0
 40
0.0
 40
0.1222817011
 40
0.2489157101
 40
0.3780263748
 40
0.5079164659
 40
0.6367627405
 40
0.7627815246
 40
0.8844047757
 40
1.0
 40
1.0
 40
1.0
 40
1.0
 10
16.2501909951
 20
11.7057217344
 30
0.0
 10
16.2523985254
 20
11.7057217344
 30
0.0
 10
16.2568943347
 20
11.7054979146
 30
0.0
 10
16.2636611683
 20
11.7045535857
 30
0.0
 10
16.2704579077
 20
11.7030089255
 30
0.0
 10
16.2771418023
 20
11.7008970632
 30
0.0
 10
16.2835776824
 20
11.698263275
 30
0.0
 10
16.2896339251
 20
11.6951587936
 30
0.0
 10
16.2951829692
 20
11.6916480818
 30
0.0
 10
16.2985682676
 20
11.6890101275
 30
0.0
 10
16.3001387436
 20
11.6876359279
 30
0.0
  0
SPLINE
  5
349
100
AcDbEntity
  8
0
100
AcDbSpline
 62
7
  6
CONTINUOUS
 70
0
 71
3
 72
15
 73
11
 74
0
 42
0.0000001
 43
0.0000001
 44
0.0000000001
 40
0.0
 40
0.0
 40
0.0
 40
0.0
 40
0.1530780943
 40
0.2990728638
 40
0.4366363831
 40
0.5650828719
 40
0.6846338945
 40
0.796035822
 40
0.9005658846
 40
1.0
 40
1.0
 40
1.0
 40
1.0
 10
15.9977711694
 20
11.6497768372
 30
0.0
 10
15.9999503681
 20
11.6497768372
 30
0.0
 10
16.0042105675
 20
11.6499529024
 30
0.0
 10
16.010381735
 20
11.650768105
 30
0.0
 10
16.0161008968
 20
11.6521201638
 30
0.0
 10
16.0212730123
 20
11.6539987853
 30
0.0
 10
16.0258248788
 20
11.6563726912
 30
0.0
 10
16.0296852618
 20
11.6592223578
 30
0.0
 10
16.0327902556
 20
11.6624988074
 30
0.0
 10
16.0343478651
 20
11.6649786118
 30
0.0
 10
16.0349644361
 20
11.6662528042
 30
0.0
  0
SPLINE
  5
34A
100
AcDbEntity
  8
0
100
AcDbSpline
 62
7
  6
CONTINUOUS
 70
0
 71
3
 72
13
 73
9
 74
0
 42
0.0000001
 43
0.0000001
 44
0.0000000001
 40
0.0
 40
0.0
 40
0.0
 40
0.0
 40
0.1203837678
 40
0.2448858705
 40
0.5000359659
 40
0.7551674118
 40
0.8796468281
 40
1.0
 40
1.0
 40
1.0
 40
1.0
 10
15.8648093512
 20
11.6662528042
 30
0.0
 10
15.8666855299
 20
11.6649724412
 30
0.0
 10
15.8706155317
 20
11.6625309549
 30
0.0
 10
15.8789925187
 20
11.6581750222
 30
0.0
 10
15.8902024945
 20
11.653834974
 30
0.0
 10
15.9019075889
 20
11.6510999328
 30
0.0
 10
15.9112808632
 20
11.6499755412
 30
0.0
 10
15.9159022296
 20
11.6497768372
 30
0.0
 10
15.9181730783
 20
11.6497768372
 30
0.0
  0
SPLINE
  5
34B
100
AcDbEntity
  8
0
100
AcDbSpline
 62
7
  6
CONTINUOUS
 70
0
 71
3
 72
9
 73
5
 74
0
 42
0.0000001
 43
0.0000001
 44
0.0000000001
 40
0.0
 40
0.0
 40
0.0
 40
0.0
 40
0.2423988484
 40
1.0
 40
1.0
 40
1.0
 40
1.0
 10
15.8528190897
 20
11.6757489355
 30
0.0
 10
15.8537265239
 20
11.6749090131
 30
0.0
 10
15.8575403982
 20
11.6715202821
 30
0.0
 10
15.8616172537
 20
11.6684311913
 30
0.0
 10
15.8648093512
 20
11.6662528042
 30
0.0
  0
SPLINE
  5
34C
100
AcDbEntity
  8
0
100
AcDbSpline
 62
7
  6
CONTINUOUS
 70
0
 71
3
 72
15
 73
11
 74
0
 42
0.0000001
 43
0.0000001
 44
0.0000000001
 40
0.0
 40
0.0
 40
0.0
 40
0.0
 40
0.1222057151
 40
0.2488986716
 40
0.3780641057
 40
0.507917285
 40
0.6367249041
 40
0.7627980176
 40
0.884475195
 40
1.0
 40
1.0
 40
1.0
 40
1.0
 10
15.7896604981
 20
11.7057217344
 30
0.0
 10
15.7918666503
 20
11.7057217344
 30
0.0
 10
15.796362045
 20
11.7054968101
 30
0.0
 10
15.8031297952
 20
11.7045542504
 30
0.0
 10
15.80992761
 20
11.7030081099
 30
0.0
 10
15.8166116207
 20
11.7008979106
 30
0.0
 10
15.8230465063
 20
11.6982627664
 30
0.0
 10
15.8291044324
 20
11.695158814
 30
0.0
 10
15.8346529891
 20
11.6916460985
 30
0.0
 10
15.8380387318
 20
11.6890092865
 30
0.0
 10
15.8396082466
 20
11.6876359279
 30
0.0
  0
SPLINE
  5
34D
100
AcDbEntity
  8
0
100
AcDbSpline
 62
7
  6
CONTINUOUS
 70
0
 71
3
 72
15
 73
11
 74
0
 42
0.0000001
 43
0.0000001
 44
0.0000000001
 40
0.0
 40
0.0
 40
0.0
 40
0.0
 40
0.1530780943
 40
0.2990728638
 40
0.4366363831
 40
0.5650828719
 40
0.6846338945
 40
0.796035822
 40
0.9005658846
 40
1.0
 40
1.0
 40
1.0
 40
1.0
 10
15.5372406724
 20
11.6497768372
 30
0.0
 10
15.5394198711
 20
11.6497768372
 30
0.0
 10
15.5436800705
 20
11.6499529024
 30
0.0
 10
15.549851238
 20
11.650768105
 30
0.0
 10
15.5555703998
 20
11.6521201638
 30
0.0
 10
15.5607425153
 20
11.6539987853
 30
0.0
 10
15.5652943818
 20
11.6563726912
 30
0.0
 10
15.5691547648
 20
11.6592223578
 30
0.0
 10
15.5722597586
 20
11.6624988074
 30
0.0
 10
15.5738173681
 20
11.6649786118
 30
0.0
 10
15.5744339391
 20
11.6662528042
 30
0.0
  0
SPLINE
  5
34E
100
AcDbEntity
  8
0
100
AcDbSpline
 62
7
  6
CONTINUOUS
 70
0
 71
3
 72
13
 73
9
 74
0
 42
0.0000001
 43
0.0000001
 44
0.0000000001
 40
0.0
 40
0.0
 40
0.0
 40
0.0
 40
0.1203837678
 40
0.2448858705
 40
0.5000359659
 40
0.7551674118
 40
0.8796468281
 40
1.0
 40
1.0
 40
1.0
 40
1.0
 10
15.4042788542
 20
11.6662528042
 30
0.0
 10
15.4061550329
 20
11.6649724412
 30
0.0
 10
15.4100850347
 20
11.6625309549
 30
0.0
 10
15.4184620217
 20
11.6581750222
 30
0.0
 10
15.4296719975
 20
11.653834974
 30
0.0
 10
15.4413770919
 20
11.6510999328
 30
0.0
 10
15.4507503662
 20
11.6499755412
 30
0.0
 10
15.4553717326
 20
11.6497768372
 30
0.0
 10
15.4576425813
 20
11.6497768372
 30
0.0
  0
SPLINE
  5
34F
100
AcDbEntity
  8
0
100
AcDbSpline
 62
7
  6
CONTINUOUS
 70
0
 71
3
 72
9
 73
5
 74
0
 42
0.0000001
 43
0.0000001
 44
0.0000000001
 40
0.0
 40
0.0
 40
0.0
 40
0.0
 40
0.2423988484
 40
1.0
 40
1.0
 40
1.0
 40
1.0
 10
15.3922885927
 20
11.6757489355
 30
0.0
 10
15.3931960269
 20
11.6749090131
 30
0.0
 10
15.3970099012
 20
11.6715202821
 30
0.0
 10
15.4010867567
 20
11.6684311913
 30
0.0
 10
15.4042788542
 20
11.6662528042
 30
0.0
  0
SPLINE
  5
350
100
AcDbEntity
  8
0
100
AcDbSpline
 62
7
  6
CONTINUOUS
 70
0
 71
3
 72
15
 73
11
 74
0
 42
0.0000001
 43
0.0000001
 44
0.0000000001
 40
0.0
 40
0.0
 40
0.0
 40
0.0
 40
0.1222057151
 40
0.2488986716
 40
0.3780641057
 40
0.507917285
 40
0.6367249041
 40
0.7627980176
 40
0.884475195
 40
1.0
 40
1.0
 40
1.0
 40
1.0
 10
15.3291300011
 20
11.7057217344
 30
0.0
 10
15.3313361533
 20
11.7057217344
 30
0.0
 10
15.335831548
 20
11.7054968101
 30
0.0
 10
15.3425992981
 20
11.7045542504
 30
0.0
 10
15.349397113
 20
11.7030081099
 30
0.0
 10
15.3560811237
 20
11.7008979106
 30
0.0
 10
15.3625160093
 20
11.6982627664
 30
0.0
 10
15.3685739354
 20
11.695158814
 30
0.0
 10
15.3741224921
 20
11.6916460985
 30
0.0
 10
15.3775082348
 20
11.6890092865
 30
0.0
 10
15.3790777496
 20
11.6876359279
 30
0.0
  0
SPLINE
  5
351
100
AcDbEntity
  8
0
100
AcDbSpline
 62
7
  6
CONTINUOUS
 70
0
 71
3
 72
15
 73
11
 74
0
 42
0.0000001
 43
0.0000001
 44
0.0000000001
 40
0.0
 40
0.0
 40
0.0
 40
0.0
 40
0.1530780943
 40
0.2990728638
 40
0.4366363831
 40
0.5650828719
 40
0.6846338945
 40
0.796035822
 40
0.9005658846
 40
1.0
 40
1.0
 40
1.0
 40
1.0
 10
15.0767101754
 20
11.6497768372
 30
0.0
 10
15.0788893741
 20
11.6497768372
 30
0.0
 10
15.0831495735
 20
11.6499529024
 30
0.0
 10
15.089320741
 20
11.650768105
 30
0.0
 10
15.0950399028
 20
11.6521201638
 30
0.0
 10
15.1002120183
 20
11.6539987853
 30
0.0
 10
15.1047638848
 20
11.6563726912
 30
0.0
 10
15.1086242678
 20
11.6592223578
 30
0.0
 10
15.1117292616
 20
11.6624988074
 30
0.0
 10
15.1132868711
 20
11.6649786118
 30
0.0
 10
15.1139034421
 20
11.6662528042
 30
0.0
  0
SPLINE
  5
352
100
AcDbEntity
  8
0
100
AcDbSpline
 62
7
  6
CONTINUOUS
 70
0
 71
3
 72
13
 73
9
 74
0
 42
0.0000001
 43
0.0000001
 44
0.0000000001
 40
0.0
 40
0.0
 40
0.0
 40
0.0
 40
0.1203837678
 40
0.2448858705
 40
0.5000359659
 40
0.7551674118
 40
0.8796468281
 40
1.0
 40
1.0
 40
1.0
 40
1.0
 10
14.9437483572
 20
11.6662528042
 30
0.0
 10
14.9456245359
 20
11.6649724412
 30
0.0
 10
14.9495545377
 20
11.6625309549
 30
0.0
 10
14.9579315247
 20
11.6581750222
 30
0.0
 10
14.9691415005
 20
11.653834974
 30
0.0
 10
14.9808465949
 20
11.6510999328
 30
0.0
 10
14.9902198692
 20
11.6499755412
 30
0.0
 10
14.9948412356
 20
11.6497768372
 30
0.0
 10
14.9971120843
 20
11.6497768372
 30
0.0
  0
SPLINE
  5
353
100
AcDbEntity
  8
0
100
AcDbSpline
 62
7
  6
CONTINUOUS
 70
0
 71
3
 72
9
 73
5
 74
0
 42
0.0000001
 43
0.0000001
 44
0.0000000001
 40
0.0
 40
0.0
 40
0.0
 40
0.0
 40
0.2423988484
 40
1.0
 40
1.0
 40
1.0
 40
1.0
 10
14.9317580957
 20
11.6757489355
 30
0.0
 10
14.9326655299
 20
11.6749090131
 30
0.0
 10
14.9364794042
 20
11.6715202821
 30
0.0
 10
14.9405562597
 20
11.6684311913
 30
0.0
 10
14.9437483572
 20
11.6662528042
 30
0.0
  0
SPLINE
  5
354
100
AcDbEntity
  8
0
100
AcDbSpline
 62
7
  6
CONTINUOUS
 70
0
 71
3
 72
15
 73
11
 74
0
 42
0.0000001
 43
0.0000001
 44
0.0000000001
 40
0.0
 40
0.0
 40
0.0
 40
0.0
 40
0.1222057151
 40
0.2488986716
 40
0.3780641057
 40
0.507917285
 40
0.6367249041
 40
0.7627980176
 40
0.884475195
 40
1.0
 40
1.0
 40
1.0
 40
1.0
 10
14.8685995041
 20
11.7057217344
 30
0.0
 10
14.8708056563
 20
11.7057217344
 30
0.0
 10
14.875301051
 20
11.7054968101
 30
0.0
 10
14.8820688011
 20
11.7045542504
 30
0.0
 10
14.888866616
 20
11.7030081099
 30
0.0
 10
14.8955506267
 20
11.7008979106
 30
0.0
 10
14.9019855123
 20
11.6982627664
 30
0.0
 10
14.9080434384
 20
11.695158814
 30
0.0
 10
14.9135919951
 20
11.6916460985
 30
0.0
 10
14.9169777378
 20
11.6890092865
 30
0.0
 10
14.9185472526
 20
11.6876359279
 30
0.0
  0
SPLINE
  5
355
100
AcDbEntity
  8
0
100
AcDbSpline
 62
7
  6
CONTINUOUS
 70
0
 71
3
 72
15
 73
11
 74
0
 42
0.0000001
 43
0.0000001
 44
0.0000000001
 40
0.0
 40
0.0
 40
0.0
 40
0.0
 40
0.1530780943
 40
0.2990728638
 40
0.4366363831
 40
0.5650828719
 40
0.6846338945
 40
0.796035822
 40
0.9005658846
 40
1.0
 40
1.0
 40
1.0
 40
1.0
 10
14.6161796784
 20
11.6497768372
 30
0.0
 10
14.6183588771
 20
11.6497768372
 30
0.0
 10
14.6226190765
 20
11.6499529024
 30
0.0
 10
14.628790244
 20
11.650768105
 30
0.0
 10
14.6345094058
 20
11.6521201638
 30
0.0
 10
14.6396815213
 20
11.6539987853
 30
0.0
 10
14.6442333878
 20
11.6563726912
 30
0.0
 10
14.6480937708
 20
11.6592223578
 30
0.0
 10
14.6511987646
 20
11.6624988074
 30
0.0
 10
14.6527563741
 20
11.6649786118
 30
0.0
 10
14.6533729451
 20
11.6662528042
 30
0.0
  0
SPLINE
  5
356
100
AcDbEntity
  8
0
100
AcDbSpline
 62
7
  6
CONTINUOUS
 70
0
 71
3
 72
13
 73
9
 74
0
 42
0.0000001
 43
0.0000001
 44
0.0000000001
 40
0.0
 40
0.0
 40
0.0
 40
0.0
 40
0.1203837678
 40
0.2448858705
 40
0.5000359659
 40
0.7551674118
 40
0.8796468281
 40
1.0
 40
1.0
 40
1.0
 40
1.0
 10
14.4832178602
 20
11.6662528042
 30
0.0
 10
14.4850940389
 20
11.6649724412
 30
0.0
 10
14.4890240407
 20
11.6625309549
 30
0.0
 10
14.4974010277
 20
11.6581750222
 30
0.0
 10
14.5086110035
 20
11.653834974
 30
0.0
 10
14.5203160979
 20
11.6510999328
 30
0.0
 10
14.5296893722
 20
11.6499755412
 30
0.0
 10
14.5343107386
 20
11.6497768372
 30
0.0
 10
14.5365815873
 20
11.6497768372
 30
0.0
  0
SPLINE
  5
357
100
AcDbEntity
  8
0
100
AcDbSpline
 62
7
  6
CONTINUOUS
 70
0
 71
3
 72
9
 73
5
 74
0
 42
0.0000001
 43
0.0000001
 44
0.0000000001
 40
0.0
 40
0.0
 40
0.0
 40
0.0
 40
0.2423988484
 40
1.0
 40
1.0
 40
1.0
 40
1.0
 10
14.4712275987
 20
11.6757489355
 30
0.0
 10
14.4721350329
 20
11.6749090131
 30
0.0
 10
14.4759489072
 20
11.6715202821
 30
0.0
 10
14.4800257627
 20
11.6684311913
 30
0.0
 10
14.4832178602
 20
11.6662528042
 30
0.0
  0
SPLINE
  5
358
100
AcDbEntity
  8
0
100
AcDbSpline
 62
7
  6
CONTINUOUS
 70
0
 71
3
 72
13
 73
9
 74
0
 42
0.0000001
 43
0.0000001
 44
0.0000000001
 40
0.0
 40
0.0
 40
0.0
 40
0.0
 40
0.1220777926
 40
0.2488756815
 40
0.5079295526
 40
0.7628129667
 40
0.884590511
 40
1.0
 40
1.0
 40
1.0
 40
1.0
 10
14.4080690071
 20
11.7057217344
 30
0.0
 10
14.4102717991
 20
11.7057217344
 30
0.0
 10
14.4147647895
 20
11.7054943384
 30
0.0
 10
14.4238511087
 20
11.7042279346
 30
0.0
 10
14.4350628475
 20
11.7011853334
 30
0.0
 10
14.4455524154
 20
11.6963948248
 30
0.0
 10
14.4530637424
 20
11.691640637
 30
0.0
 10
14.4564495551
 20
11.6890072614
 30
0.0
 10
14.4580167556
 20
11.6876359279
 30
0.0
  0
SPLINE
  5
359
100
AcDbEntity
  8
0
100
AcDbSpline
 62
7
  6
CONTINUOUS
 70
0
 71
3
 72
15
 73
11
 74
0
 42
0.0000001
 43
0.0000001
 44
0.0000000001
 40
0.0
 40
0.0
 40
0.0
 40
0.0
 40
0.1530780943
 40
0.2990728638
 40
0.4366363831
 40
0.5650828719
 40
0.6846338945
 40
0.796035822
 40
0.9005658846
 40
1.0
 40
1.0
 40
1.0
 40
1.0
 10
15.8419126117
 20
11.8051793293
 30
0.0
 10
15.8397334131
 20
11.8051793293
 30
0.0
 10
15.8354732136
 20
11.8050032641
 30
0.0
 10
15.8293020462
 20
11.8041880616
 30
0.0
 10
15.8235828844
 20
11.8028360027
 30
0.0
 10
15.8184107689
 20
11.8009573813
 30
0.0
 10
15.8138589023
 20
11.7985834753
 30
0.0
 10
15.8099985194
 20
11.7957338087
 30
0.0
 10
15.8068935255
 20
11.7924573591
 30
0.0
 10
15.805335916
 20
11.7899775548
 30
0.0
 10
15.804719345
 20
11.7887033624
 30
0.0
  0
SPLINE
  5
35A
100
AcDbEntity
  8
0
100
AcDbSpline
 62
7
  6
CONTINUOUS
 70
0
 71
3
 72
13
 73
9
 74
0
 42
0.0000001
 43
0.0000001
 44
0.0000000001
 40
0.0
 40
0.0
 40
0.0
 40
0.0
 40
0.1203837678
 40
0.2448858705
 40
0.5000359659
 40
0.7551674118
 40
0.8796468281
 40
1.0
 40
1.0
 40
1.0
 40
1.0
 10
15.97487443
 20
11.7887033624
 30
0.0
 10
15.9729982512
 20
11.7899837254
 30
0.0
 10
15.9690682494
 20
11.7924252116
 30
0.0
 10
15.9606912625
 20
11.7967811444
 30
0.0
 10
15.9494812867
 20
11.8011211926
 30
0.0
 10
15.9377761923
 20
11.8038562337
 30
0.0
 10
15.928402918
 20
11.8049806253
 30
0.0
 10
15.9237815515
 20
11.8051793293
 30
0.0
 10
15.9215107028
 20
11.8051793293
 30
0.0
  0
SPLINE
  5
35B
100
AcDbEntity
  8
0
100
AcDbSpline
 62
7
  6
CONTINUOUS
 70
0
 71
3
 72
9
 73
5
 74
0
 42
0.0000001
 43
0.0000001
 44
0.0000000001
 40
0.0
 40
0.0
 40
0.0
 40
0.0
 40
0.2423988484
 40
1.0
 40
1.0
 40
1.0
 40
1.0
 10
15.9868646915
 20
11.7792072311
 30
0.0
 10
15.9859572572
 20
11.7800471534
 30
0.0
 10
15.982143383
 20
11.7834358845
 30
0.0
 10
15.9780665274
 20
11.7865249753
 30
0.0
 10
15.97487443
 20
11.7887033624
 30
0.0
  0
SPLINE
  5
35C
100
AcDbEntity
  8
0
100
AcDbSpline
 62
7
  6
CONTINUOUS
 70
0
 71
3
 72
15
 73
11
 74
0
 42
0.0000001
 43
0.0000001
 44
0.0000000001
 40
0.0
 40
0.0
 40
0.0
 40
0.0
 40
0.1222057151
 40
0.2488986716
 40
0.3780641057
 40
0.507917285
 40
0.6367249041
 40
0.7627980176
 40
0.884475195
 40
1.0
 40
1.0
 40
1.0
 40
1.0
 10
16.0500232831
 20
11.7492344322
 30
0.0
 10
16.0478171308
 20
11.7492344322
 30
0.0
 10
16.0433217362
 20
11.7494593564
 30
0.0
 10
16.036553986
 20
11.7504019161
 30
0.0
 10
16.0297561711
 20
11.7519480567
 30
0.0
 10
16.0230721605
 20
11.754058256
 30
0.0
 10
16.0166372749
 20
11.7566934002
 30
0.0
 10
16.0105793488
 20
11.7597973526
 30
0.0
 10
16.005030792
 20
11.763310068
 30
0.0
 10
16.0016450494
 20
11.7659468801
 30
0.0
 10
16.0000755345
 20
11.7673202387
 30
0.0
  0
SPLINE
  5
35D
100
AcDbEntity
  8
0
100
AcDbSpline
 62
7
  6
CONTINUOUS
 70
0
 71
3
 72
15
 73
11
 74
0
 42
0.0000001
 43
0.0000001
 44
0.0000000001
 40
0.0
 40
0.0
 40
0.0
 40
0.0
 40
0.1533512302
 40
0.2992405476
 40
0.4366039312
 40
0.5650532778
 40
0.6846259244
 40
0.7959435865
 40
0.9004117086
 40
1.0
 40
1.0
 40
1.0
 40
1.0
 10
16.3024431087
 20
11.8051793293
 30
0.0
 10
16.3002599602
 20
11.8051793293
 30
0.0
 10
16.2959971943
 20
11.8050055364
 30
0.0
 10
16.2898261087
 20
11.8041900623
 30
0.0
 10
16.2841122208
 20
11.802834078
 30
0.0
 10
16.278942378
 20
11.8009562312
 30
0.0
 10
16.274391468
 20
11.7985824309
 30
0.0
 10
16.2705289606
 20
11.7957387099
 30
0.0
 10
16.2674223948
 20
11.7924625962
 30
0.0
 10
16.2658673864
 20
11.7899795664
 30
0.0
 10
16.265249842
 20
11.7887033624
 30
0.0
  0
SPLINE
  5
35E
100
AcDbEntity
  8
0
100
AcDbSpline
 62
7
  6
CONTINUOUS
 70
0
 71
3
 72
13
 73
9
 74
0
 42
0.0000001
 43
0.0000001
 44
0.0000000001
 40
0.0
 40
0.0
 40
0.0
 40
0.0
 40
0.1205724429
 40
0.2449984083
 40
0.5000359535
 40
0.7550549225
 40
0.8794582258
 40
1.0
 40
1.0
 40
1.0
 40
1.0
 10
16.435404927
 20
11.7887033624
 30
0.0
 10
16.4335257875
 20
11.7899857459
 30
0.0
 10
16.429595255
 20
11.7924304773
 30
0.0
 10
16.4212173204
 20
11.7967852517
 30
0.0
 10
16.4100107054
 20
11.801117703
 30
0.0
 10
16.3983126692
 20
11.8038571239
 30
0.0
 10
16.3889392648
 20
11.8049830073
 30
0.0
 10
16.3843156317
 20
11.8051793293
 30
0.0
 10
16.3820411998
 20
11.8051793293
 30
0.0
  0
SPLINE
  5
35F
100
AcDbEntity
  8
0
100
AcDbSpline
 62
7
  6
CONTINUOUS
 70
0
 71
3
 72
9
 73
5
 74
0
 42
0.0000001
 43
0.0000001
 44
0.0000000001
 40
0.0
 40
0.0
 40
0.0
 40
0.0
 40
0.2423988484
 40
1.0
 40
1.0
 40
1.0
 40
1.0
 10
16.4473951885
 20
11.7792072311
 30
0.0
 10
16.4464877542
 20
11.7800471534
 30
0.0
 10
16.44267388
 20
11.7834358845
 30
0.0
 10
16.4385970244
 20
11.7865249753
 30
0.0
 10
16.435404927
 20
11.7887033624
 30
0.0
  0
SPLINE
  5
360
100
AcDbEntity
  8
0
100
AcDbSpline
 62
7
  6
CONTINUOUS
 70
0
 71
3
 72
15
 73
11
 74
0
 42
0.0000001
 43
0.0000001
 44
0.0000000001
 40
0.0
 40
0.0
 40
0.0
 40
0.0
 40
0.1222817011
 40
0.2489157101
 40
0.3780263748
 40
0.5079164659
 40
0.6367627405
 40
0.7627815246
 40
0.8844047757
 40
1.0
 40
1.0
 40
1.0
 40
1.0
 10
16.5105537801
 20
11.7492344322
 30
0.0
 10
16.5083462498
 20
11.7492344322
 30
0.0
 10
16.5038504405
 20
11.7494582519
 30
0.0
 10
16.4970836068
 20
11.7504025808
 30
0.0
 10
16.4902868675
 20
11.7519472411
 30
0.0
 10
16.4836029729
 20
11.7540591034
 30
0.0
 10
16.4771670927
 20
11.7566928915
 30
0.0
 10
16.47111085
 20
11.7597973729
 30
0.0
 10
16.4655618059
 20
11.7633080848
 30
0.0
 10
16.4621765075
 20
11.765946039
 30
0.0
 10
16.4606060315
 20
11.7673202387
 30
0.0
  0
SPLINE
  5
361
100
AcDbEntity
  8
0
100
AcDbSpline
 62
7
  6
CONTINUOUS
 70
0
 71
3
 72
15
 73
11
 74
0
 42
0.0000001
 43
0.0000001
 44
0.0000000001
 40
0.0
 40
0.0
 40
0.0
 40
0.0
 40
0.0997126821
 40
0.2030020668
 40
0.3127270479
 40
0.4309652794
 40
0.5588927943
 40
0.6968347972
 40
0.8443613855
 40
1.0
 40
1.0
 40
1.0
 40
1.0
 10
14.8789319257
 20
11.7651351608
 30
0.0
 10
14.8785603657
 20
11.7639356272
 30
0.0
 10
14.8775097447
 20
11.7615748236
 30
0.0
 10
14.8751137436
 20
11.7584111923
 30
0.0
 10
14.8719458811
 20
11.7556568745
 30
0.0
 10
14.86807997
 20
11.7533498792
 30
0.0
 10
14.8635839477
 20
11.7515225557
 30
0.0
 10
14.8585356556
 20
11.7501988381
 30
0.0
 10
14.8530274563
 20
11.7494048078
 30
0.0
 10
14.8492066553
 20
11.7492344322
 30
0.0
 10
14.8472465734
 20
11.7492344322
 30
0.0
  0
SPLINE
  5
362
100
AcDbEntity
  8
0
100
AcDbSpline
 62
7
  6
CONTINUOUS
 70
0
 71
3
 72
14
 73
10
 74
0
 42
0.0000001
 43
0.0000001
 44
0.0000000001
 40
0.0
 40
0.0
 40
0.0
 40
0.0
 40
0.0997129423
 40
0.20313066
 40
0.3129436641
 40
0.4312487046
 40
0.6969674484
 40
0.8445822317
 40
1.0
 40
1.0
 40
1.0
 40
1.0
 10
14.4183998951
 20
11.7651356719
 30
0.0
 10
14.4180270978
 20
11.7639373372
 30
0.0
 10
14.4169722262
 20
11.761578885
 30
0.0
 10
14.4145819434
 20
11.7584113984
 30
0.0
 10
14.4114153595
 20
11.7556528291
 30
0.0
 10
14.4060539064
 20
11.7524572434
 30
0.0
 10
14.3995781154
 20
11.7504313859
 30
0.0
 10
14.3924906763
 20
11.7494068238
 30
0.0
 10
14.388672159
 20
11.7492344322
 30
0.0
 10
14.3867160764
 20
11.7492344322
 30
0.0
  0
SPLINE
  5
363
100
AcDbEntity
  8
0
100
AcDbSpline
 62
7
  6
CONTINUOUS
 70
0
 71
3
 72
15
 73
11
 74
0
 42
0.0000001
 43
0.0000001
 44
0.0000000001
 40
0.0
 40
0.0
 40
0.0
 40
0.0
 40
0.0997187171
 40
0.2029508029
 40
0.3126581165
 40
0.4309581962
 40
0.5589001823
 40
0.6967751757
 40
0.8442372834
 40
1.0
 40
1.0
 40
1.0
 40
1.0
 10
16.2605239078
 20
11.7651350085
 30
0.0
 10
16.2601527598
 20
11.7639352525
 30
0.0
 10
16.259102972
 20
11.7615745437
 30
0.0
 10
16.2567058521
 20
11.7584129019
 30
0.0
 10
16.2535393164
 20
11.7556573499
 30
0.0
 10
16.2496719976
 20
11.7533509911
 30
0.0
 10
16.2451764298
 20
11.7515222881
 30
0.0
 10
16.2401293579
 20
11.7501993759
 30
0.0
 10
16.2346214197
 20
11.7494038066
 30
0.0
 10
16.2307997321
 20
11.7492344322
 30
0.0
 10
16.2288380644
 20
11.7492344322
 30
0.0
  0
SPLINE
  5
364
100
AcDbEntity
  8
0
100
AcDbSpline
 62
7
  6
CONTINUOUS
 70
0
 71
3
 72
15
 73
11
 74
0
 42
0.0000001
 43
0.0000001
 44
0.0000000001
 40
0.0
 40
0.0
 40
0.0
 40
0.0
 40
0.0997126821
 40
0.2030020668
 40
0.3127270479
 40
0.4309652794
 40
0.5588927943
 40
0.6968347972
 40
0.8443613855
 40
1.0
 40
1.0
 40
1.0
 40
1.0
 10
15.7999929197
 20
11.7651351608
 30
0.0
 10
15.7996213597
 20
11.7639356272
 30
0.0
 10
15.7985707387
 20
11.7615748236
 30
0.0
 10
15.7961747376
 20
11.7584111923
 30
0.0
 10
15.7930068751
 20
11.7556568745
 30
0.0
 10
15.789140964
 20
11.7533498792
 30
0.0
 10
15.7846449417
 20
11.7515225557
 30
0.0
 10
15.7795966496
 20
11.7501988381
 30
0.0
 10
15.7740884504
 20
11.7494048078
 30
0.0
 10
15.7702676493
 20
11.7492344322
 30
0.0
 10
15.7683075674
 20
11.7492344322
 30
0.0
  0
SPLINE
  5
365
100
AcDbEntity
  8
0
100
AcDbSpline
 62
7
  6
CONTINUOUS
 70
0
 71
3
 72
15
 73
11
 74
0
 42
0.0000001
 43
0.0000001
 44
0.0000000001
 40
0.0
 40
0.0
 40
0.0
 40
0.0
 40
0.1530780943
 40
0.2990728638
 40
0.4366363831
 40
0.5650828719
 40
0.6846338945
 40
0.796035822
 40
0.9005658846
 40
1.0
 40
1.0
 40
1.0
 40
1.0
 10
13.9997906237
 20
11.8051793293
 30
0.0
 10
13.9976114251
 20
11.8051793293
 30
0.0
 10
13.9933512256
 20
11.8050032641
 30
0.0
 10
13.9871800582
 20
11.8041880616
 30
0.0
 10
13.9814608964
 20
11.8028360027
 30
0.0
 10
13.9762887809
 20
11.8009573813
 30
0.0
 10
13.9717369143
 20
11.7985834753
 30
0.0
 10
13.9678765314
 20
11.7957338087
 30
0.0
 10
13.9647715375
 20
11.7924573591
 30
0.0
 10
13.963213928
 20
11.7899775548
 30
0.0
 10
13.962597357
 20
11.7887033624
 30
0.0
  0
SPLINE
  5
366
100
AcDbEntity
  8
0
100
AcDbSpline
 62
7
  6
CONTINUOUS
 70
0
 71
3
 72
13
 73
9
 74
0
 42
0.0000001
 43
0.0000001
 44
0.0000000001
 40
0.0
 40
0.0
 40
0.0
 40
0.0
 40
0.1203837678
 40
0.2448858705
 40
0.5000359659
 40
0.7551674118
 40
0.8796468281
 40
1.0
 40
1.0
 40
1.0
 40
1.0
 10
14.132752442
 20
11.7887033624
 30
0.0
 10
14.1308762632
 20
11.7899837254
 30
0.0
 10
14.1269462614
 20
11.7924252116
 30
0.0
 10
14.1185692745
 20
11.7967811444
 30
0.0
 10
14.1073592987
 20
11.8011211926
 30
0.0
 10
14.0956542043
 20
11.8038562337
 30
0.0
 10
14.08628093
 20
11.8049806253
 30
0.0
 10
14.0816595635
 20
11.8051793293
 30
0.0
 10
14.0793887148
 20
11.8051793293
 30
0.0
  0
SPLINE
  5
367
100
AcDbEntity
  8
0
100
AcDbSpline
 62
7
  6
CONTINUOUS
 70
0
 71
3
 72
9
 73
5
 74
0
 42
0.0000001
 43
0.0000001
 44
0.0000000001
 40
0.0
 40
0.0
 40
0.0
 40
0.0
 40
0.2423988484
 40
1.0
 40
1.0
 40
1.0
 40
1.0
 10
14.1447427034
 20
11.7792072311
 30
0.0
 10
14.1438352692
 20
11.7800471534
 30
0.0
 10
14.140021395
 20
11.7834358845
 30
0.0
 10
14.1359445394
 20
11.7865249753
 30
0.0
 10
14.132752442
 20
11.7887033624
 30
0.0
  0
SPLINE
  5
368
100
AcDbEntity
  8
0
100
AcDbSpline
 62
7
  6
CONTINUOUS
 70
0
 71
3
 72
13
 73
9
 74
0
 42
0.0000001
 43
0.0000001
 44
0.0000000001
 40
0.0
 40
0.0
 40
0.0
 40
0.0
 40
0.1220777926
 40
0.2488756815
 40
0.5079295526
 40
0.7628129667
 40
0.884590511
 40
1.0
 40
1.0
 40
1.0
 40
1.0
 10
14.207901295
 20
11.7492344322
 30
0.0
 10
14.205698503
 20
11.7492344322
 30
0.0
 10
14.2012055126
 20
11.7494618281
 30
0.0
 10
14.1921191935
 20
11.7507282319
 30
0.0
 10
14.1809074546
 20
11.7537708332
 30
0.0
 10
14.1704178868
 20
11.7585613418
 30
0.0
 10
14.1629065597
 20
11.7633155296
 30
0.0
 10
14.159520747
 20
11.7659489052
 30
0.0
 10
14.1579535465
 20
11.7673202387
 30
0.0
  0
SPLINE
  5
369
100
AcDbEntity
  8
0
100
AcDbSpline
 62
7
  6
CONTINUOUS
 70
0
 71
3
 72
14
 73
10
 74
0
 42
0.0000001
 43
0.0000001
 44
0.0000000001
 40
0.0
 40
0.0
 40
0.0
 40
0.0
 40
0.0997129423
 40
0.20313066
 40
0.3129436641
 40
0.4312487046
 40
0.6969674484
 40
0.8445822317
 40
1.0
 40
1.0
 40
1.0
 40
1.0
 10
13.9578693981
 20
11.7651356719
 30
0.0
 10
13.9574966008
 20
11.7639373372
 30
0.0
 10
13.9564417292
 20
11.761578885
 30
0.0
 10
13.9540514464
 20
11.7584113984
 30
0.0
 10
13.9508848625
 20
11.7556528291
 30
0.0
 10
13.9455234094
 20
11.7524572434
 30
0.0
 10
13.9390476184
 20
11.7504313859
 30
0.0
 10
13.9319601793
 20
11.7494068238
 30
0.0
 10
13.928141662
 20
11.7492344322
 30
0.0
 10
13.9261855794
 20
11.7492344322
 30
0.0
  0
SPLINE
  5
36A
100
AcDbEntity
  8
0
100
AcDbSpline
 62
7
  6
CONTINUOUS
 70
0
 71
3
 72
15
 73
11
 74
0
 42
0.0000001
 43
0.0000001
 44
0.0000000001
 40
0.0
 40
0.0
 40
0.0
 40
0.0
 40
0.1530780943
 40
0.2990728638
 40
0.4366363831
 40
0.5650828719
 40
0.6846338945
 40
0.796035822
 40
0.9005658846
 40
1.0
 40
1.0
 40
1.0
 40
1.0
 10
14.4603211207
 20
11.8051793293
 30
0.0
 10
14.4581419221
 20
11.8051793293
 30
0.0
 10
14.4538817226
 20
11.8050032641
 30
0.0
 10
14.4477105552
 20
11.8041880616
 30
0.0
 10
14.4419913934
 20
11.8028360027
 30
0.0
 10
14.4368192779
 20
11.8009573813
 30
0.0
 10
14.4322674113
 20
11.7985834753
 30
0.0
 10
14.4284070284
 20
11.7957338087
 30
0.0
 10
14.4253020345
 20
11.7924573591
 30
0.0
 10
14.423744425
 20
11.7899775548
 30
0.0
 10
14.423127854
 20
11.7887033624
 30
0.0
  0
SPLINE
  5
36B
100
AcDbEntity
  8
0
100
AcDbSpline
 62
7
  6
CONTINUOUS
 70
0
 71
3
 72
13
 73
9
 74
0
 42
0.0000001
 43
0.0000001
 44
0.0000000001
 40
0.0
 40
0.0
 40
0.0
 40
0.0
 40
0.1203837678
 40
0.2448858705
 40
0.5000359659
 40
0.7551674118
 40
0.8796468281
 40
1.0
 40
1.0
 40
1.0
 40
1.0
 10
14.593282939
 20
11.7887033624
 30
0.0
 10
14.5914067602
 20
11.7899837254
 30
0.0
 10
14.5874767584
 20
11.7924252116
 30
0.0
 10
14.5790997715
 20
11.7967811444
 30
0.0
 10
14.5678897957
 20
11.8011211926
 30
0.0
 10
14.5561847013
 20
11.8038562337
 30
0.0
 10
14.546811427
 20
11.8049806253
 30
0.0
 10
14.5421900605
 20
11.8051793293
 30
0.0
 10
14.5399192118
 20
11.8051793293
 30
0.0
  0
SPLINE
  5
36C
100
AcDbEntity
  8
0
100
AcDbSpline
 62
7
  6
CONTINUOUS
 70
0
 71
3
 72
9
 73
5
 74
0
 42
0.0000001
 43
0.0000001
 44
0.0000000001
 40
0.0
 40
0.0
 40
0.0
 40
0.0
 40
0.2423988484
 40
1.0
 40
1.0
 40
1.0
 40
1.0
 10
14.6052732004
 20
11.7792072311
 30
0.0
 10
14.6043657662
 20
11.7800471534
 30
0.0
 10
14.600551892
 20
11.7834358845
 30
0.0
 10
14.5964750364
 20
11.7865249753
 30
0.0
 10
14.593282939
 20
11.7887033624
 30
0.0
  0
SPLINE
  5
36D
100
AcDbEntity
  8
0
100
AcDbSpline
 62
7
  6
CONTINUOUS
 70
0
 71
3
 72
13
 73
9
 74
0
 42
0.0000001
 43
0.0000001
 44
0.0000000001
 40
0.0
 40
0.0
 40
0.0
 40
0.0
 40
0.1220777926
 40
0.2488756815
 40
0.5079295526
 40
0.7628129667
 40
0.884590511
 40
1.0
 40
1.0
 40
1.0
 40
1.0
 10
14.668431792
 20
11.7492344322
 30
0.0
 10
14.666229
 20
11.7492344322
 30
0.0
 10
14.6617360096
 20
11.7494618281
 30
0.0
 10
14.6526496905
 20
11.7507282319
 30
0.0
 10
14.6414379516
 20
11.7537708332
 30
0.0
 10
14.6309483838
 20
11.7585613418
 30
0.0
 10
14.6234370567
 20
11.7633155296
 30
0.0
 10
14.620051244
 20
11.7659489052
 30
0.0
 10
14.6184840435
 20
11.7673202387
 30
0.0
  0
SPLINE
  5
36E
100
AcDbEntity
  8
0
100
AcDbSpline
 62
7
  6
CONTINUOUS
 70
0
 71
3
 72
15
 73
11
 74
0
 42
0.0000001
 43
0.0000001
 44
0.0000000001
 40
0.0
 40
0.0
 40
0.0
 40
0.0
 40
0.1530780943
 40
0.2990728638
 40
0.4366363831
 40
0.5650828719
 40
0.6846338945
 40
0.796035822
 40
0.9005658846
 40
1.0
 40
1.0
 40
1.0
 40
1.0
 10
14.9208516177
 20
11.8051793293
 30
0.0
 10
14.9186724191
 20
11.8051793293
 30
0.0
 10
14.9144122196
 20
11.8050032641
 30
0.0
 10
14.9082410522
 20
11.8041880616
 30
0.0
 10
14.9025218904
 20
11.8028360027
 30
0.0
 10
14.8973497749
 20
11.8009573813
 30
0.0
 10
14.8927979083
 20
11.7985834753
 30
0.0
 10
14.8889375254
 20
11.7957338087
 30
0.0
 10
14.8858325315
 20
11.7924573591
 30
0.0
 10
14.884274922
 20
11.7899775548
 30
0.0
 10
14.883658351
 20
11.7887033624
 30
0.0
  0
SPLINE
  5
36F
100
AcDbEntity
  8
0
100
AcDbSpline
 62
7
  6
CONTINUOUS
 70
0
 71
3
 72
13
 73
9
 74
0
 42
0.0000001
 43
0.0000001
 44
0.0000000001
 40
0.0
 40
0.0
 40
0.0
 40
0.0
 40
0.1203837678
 40
0.2448858705
 40
0.5000359659
 40
0.7551674118
 40
0.8796468281
 40
1.0
 40
1.0
 40
1.0
 40
1.0
 10
15.053813436
 20
11.7887033624
 30
0.0
 10
15.0519372572
 20
11.7899837254
 30
0.0
 10
15.0480072554
 20
11.7924252116
 30
0.0
 10
15.0396302685
 20
11.7967811444
 30
0.0
 10
15.0284202927
 20
11.8011211926
 30
0.0
 10
15.0167151983
 20
11.8038562337
 30
0.0
 10
15.007341924
 20
11.8049806253
 30
0.0
 10
15.0027205575
 20
11.8051793293
 30
0.0
 10
15.0004497088
 20
11.8051793293
 30
0.0
  0
SPLINE
  5
370
100
AcDbEntity
  8
0
100
AcDbSpline
 62
7
  6
CONTINUOUS
 70
0
 71
3
 72
9
 73
5
 74
0
 42
0.0000001
 43
0.0000001
 44
0.0000000001
 40
0.0
 40
0.0
 40
0.0
 40
0.0
 40
0.2423988484
 40
1.0
 40
1.0
 40
1.0
 40
1.0
 10
15.0658036974
 20
11.7792072311
 30
0.0
 10
15.0648962632
 20
11.7800471534
 30
0.0
 10
15.061082389
 20
11.7834358845
 30
0.0
 10
15.0570055334
 20
11.7865249753
 30
0.0
 10
15.053813436
 20
11.7887033624
 30
0.0
  0
SPLINE
  5
371
100
AcDbEntity
  8
0
100
AcDbSpline
 62
7
  6
CONTINUOUS
 70
0
 71
3
 72
15
 73
11
 74
0
 42
0.0000001
 43
0.0000001
 44
0.0000000001
 40
0.0
 40
0.0
 40
0.0
 40
0.0
 40
0.1222057151
 40
0.2488986716
 40
0.3780641057
 40
0.507917285
 40
0.6367249041
 40
0.7627980176
 40
0.884475195
 40
1.0
 40
1.0
 40
1.0
 40
1.0
 10
15.128962289
 20
11.7492344322
 30
0.0
 10
15.1267561368
 20
11.7492344322
 30
0.0
 10
15.1222607422
 20
11.7494593564
 30
0.0
 10
15.115492992
 20
11.7504019161
 30
0.0
 10
15.1086951771
 20
11.7519480567
 30
0.0
 10
15.1020111664
 20
11.754058256
 30
0.0
 10
15.0955762809
 20
11.7566934002
 30
0.0
 10
15.0895183548
 20
11.7597973526
 30
0.0
 10
15.083969798
 20
11.763310068
 30
0.0
 10
15.0805840554
 20
11.7659468801
 30
0.0
 10
15.0790145405
 20
11.7673202387
 30
0.0
  0
SPLINE
  5
372
100
AcDbEntity
  8
0
100
AcDbSpline
 62
7
  6
CONTINUOUS
 70
0
 71
3
 72
15
 73
11
 74
0
 42
0.0000001
 43
0.0000001
 44
0.0000000001
 40
0.0
 40
0.0
 40
0.0
 40
0.0
 40
0.0997126821
 40
0.2030020668
 40
0.3127270479
 40
0.4309652794
 40
0.5588927943
 40
0.6968347972
 40
0.8443613855
 40
1.0
 40
1.0
 40
1.0
 40
1.0
 10
15.3394624227
 20
11.7651351608
 30
0.0
 10
15.3390908627
 20
11.7639356272
 30
0.0
 10
15.3380402417
 20
11.7615748236
 30
0.0
 10
15.3356442406
 20
11.7584111923
 30
0.0
 10
15.3324763781
 20
11.7556568745
 30
0.0
 10
15.328610467
 20
11.7533498792
 30
0.0
 10
15.3241144447
 20
11.7515225557
 30
0.0
 10
15.3190661526
 20
11.7501988381
 30
0.0
 10
15.3135579533
 20
11.7494048078
 30
0.0
 10
15.3097371523
 20
11.7492344322
 30
0.0
 10
15.3077770704
 20
11.7492344322
 30
0.0
  0
SPLINE
  5
373
100
AcDbEntity
  8
0
100
AcDbSpline
 62
7
  6
CONTINUOUS
 70
0
 71
3
 72
15
 73
11
 74
0
 42
0.0000001
 43
0.0000001
 44
0.0000000001
 40
0.0
 40
0.0
 40
0.0
 40
0.0
 40
0.1530780943
 40
0.2990728638
 40
0.4366363831
 40
0.5650828719
 40
0.6846338945
 40
0.796035822
 40
0.9005658846
 40
1.0
 40
1.0
 40
1.0
 40
1.0
 10
15.3813821147
 20
11.8051793293
 30
0.0
 10
15.3792029161
 20
11.8051793293
 30
0.0
 10
15.3749427166
 20
11.8050032641
 30
0.0
 10
15.3687715492
 20
11.8041880616
 30
0.0
 10
15.3630523874
 20
11.8028360027
 30
0.0
 10
15.3578802719
 20
11.8009573813
 30
0.0
 10
15.3533284053
 20
11.7985834753
 30
0.0
 10
15.3494680224
 20
11.7957338087
 30
0.0
 10
15.3463630285
 20
11.7924573591
 30
0.0
 10
15.344805419
 20
11.7899775548
 30
0.0
 10
15.344188848
 20
11.7887033624
 30
0.0
  0
SPLINE
  5
374
100
AcDbEntity
  8
0
100
AcDbSpline
 62
7
  6
CONTINUOUS
 70
0
 71
3
 72
13
 73
9
 74
0
 42
0.0000001
 43
0.0000001
 44
0.0000000001
 40
0.0
 40
0.0
 40
0.0
 40
0.0
 40
0.1203837678
 40
0.2448858705
 40
0.5000359659
 40
0.7551674118
 40
0.8796468281
 40
1.0
 40
1.0
 40
1.0
 40
1.0
 10
15.514343933
 20
11.7887033624
 30
0.0
 10
15.5124677542
 20
11.7899837254
 30
0.0
 10
15.5085377524
 20
11.7924252116
 30
0.0
 10
15.5001607655
 20
11.7967811444
 30
0.0
 10
15.4889507897
 20
11.8011211926
 30
0.0
 10
15.4772456953
 20
11.8038562337
 30
0.0
 10
15.467872421
 20
11.8049806253
 30
0.0
 10
15.4632510545
 20
11.8051793293
 30
0.0
 10
15.4609802058
 20
11.8051793293
 30
0.0
  0
SPLINE
  5
375
100
AcDbEntity
  8
0
100
AcDbSpline
 62
7
  6
CONTINUOUS
 70
0
 71
3
 72
9
 73
5
 74
0
 42
0.0000001
 43
0.0000001
 44
0.0000000001
 40
0.0
 40
0.0
 40
0.0
 40
0.0
 40
0.2423988484
 40
1.0
 40
1.0
 40
1.0
 40
1.0
 10
15.5263341945
 20
11.7792072311
 30
0.0
 10
15.5254267602
 20
11.7800471534
 30
0.0
 10
15.521612886
 20
11.7834358845
 30
0.0
 10
15.5175360304
 20
11.7865249753
 30
0.0
 10
15.514343933
 20
11.7887033624
 30
0.0
  0
SPLINE
  5
376
100
AcDbEntity
  8
0
100
AcDbSpline
 62
7
  6
CONTINUOUS
 70
0
 71
3
 72
15
 73
11
 74
0
 42
0.0000001
 43
0.0000001
 44
0.0000000001
 40
0.0
 40
0.0
 40
0.0
 40
0.0
 40
0.1222057151
 40
0.2488986716
 40
0.3780641057
 40
0.507917285
 40
0.6367249041
 40
0.7627980176
 40
0.884475195
 40
1.0
 40
1.0
 40
1.0
 40
1.0
 10
15.589492786
 20
11.7492344322
 30
0.0
 10
15.5872866338
 20
11.7492344322
 30
0.0
 10
15.5827912392
 20
11.7494593564
 30
0.0
 10
15.576023489
 20
11.7504019161
 30
0.0
 10
15.5692256741
 20
11.7519480567
 30
0.0
 10
15.5625416635
 20
11.754058256
 30
0.0
 10
15.5561067779
 20
11.7566934002
 30
0.0
 10
15.5500488518
 20
11.7597973526
 30
0.0
 10
15.544500295
 20
11.763310068
 30
0.0
 10
15.5411145524
 20
11.7659468801
 30
0.0
 10
15.5395450375
 20
11.7673202387
 30
0.0
  0
ENDSEC
  0
SECTION
  2
OBJECTS
  0
DICTIONARY
  5
C
100
AcDbDictionary
280
0
281
1
  3
ACAD_GROUP
350
D
  3
ACAD_MLINESTYLE
350
17
  3
ACAD_LAYOUT
350
1A
  3
ACAD_PLOTSETTINGS
350
19
  3
ACAD_PLOTSTYLENAME
350
E
  0
DICTIONARY
  5
D
102
{ACAD_REACTORS
330
C
102
}
100
AcDbDictionary
280
0
281
1
  0
ACDBDICTIONARYWDFLT
  5
E
102
{ACAD_REACTORS
330
C
102
}
100
AcDbDictionary
281
1
  3
Normal
350
F
100
AcDbDictionaryWithDefault
340
F
  0
DICTIONARY
  5
17
102
{ACAD_REACTORS
330
C
102
}
100
AcDbDictionary
280
0
281
1
  3
Standard
350
18
  0
DICTIONARY
  5
19
102
{ACAD_REACTORS
330
C
102
}
100
AcDbDictionary
281
1
  0
DICTIONARY
  5
1A
102
{ACAD_REACTORS
330
C
102
}
100
AcDbDictionary
281
1
  3
Model
350
377
  3
Layout1
350
378
  0
ACDBPLACEHOLDER
  5
F
102
{ACAD_REACTORS
330
E
102
}
  0
MLINESTYLE
  5
18
102
{ACAD_REACTORS
330
17
102
}
100
AcDbMlineStyle
  2
STANDARD
 70
0
  3

 62
256
 51
90.0
 52
90.0
 71
2
 49
0.5
 62
256
  6
BYLAYER
 49
-0.5
 62
256
  6
BYLAYER
  0
LAYOUT
  5
377
102
{ACAD_REACTORS
330
1A
102
}
100
AcDbPlotSettings
  1

  2
none_device
  4
ANSI_C_(22.00_x_17.00_Inches)
  6

 40
0.0
 41
0.0
 42
0.0
 43
0.0
 44
558.8
 45
431.8
 46
0.0
 47
0.0
 48
0.0
 49
0.0
140
0.0
141
0.0
142
1.0
143
1.0
 70
1024
 72
0
 73
0
 74
0
  7

 75
0
147
1.0
148
0.0
149
0.0
100
AcDbLayout
  1
Model
 70
0
 71
0
 10
0.0
 20
0.0
 11
22.0
 21
17.0
 12
0.0
 22
0.0
 32
0.0
 14
0.0
 24
0.0
 34
0.0
 15
0.0
 25
0.0
 35
0.0
146
0.0
 13
0.0
 23
0.0
 33
0.0
 16
1.0
 26
0.0
 36
0.0
 17
0.0
 27
1.0
 37
0.0
 76
0
330
216
345
0
346
0
  0
LAYOUT
  5
378
102
{ACAD_REACTORS
330
1A
102
}
100
AcDbPlotSettings
  1

  2
none_device
  4
ANSI_C_(22.00_x_17.00_Inches)
  6

 40
0.0
 41
0.0
 42
0.0
 43
0.0
 44
558.8
 45
431.8
 46
0.0
 47
0.0
 48
0.0
 49
0.0
140
0.0
141
0.0
142
1.0
143
1.0
 70
0
 72
0
 73
0
 74
0
  7

 75
0
147
1.0
148
0.0
149
0.0
100
AcDbLayout
  1
Layout1
 70
0
 71
1
 10
0.0
 20
0.0
 11
22.0
 21
17.0
 12
0.0
 22
0.0
 32
0.0
 14
0.0
 24
0.0
 34
0.0
 15
0.0
 25
0.0
 35
0.0
146
0.0
 13
0.0
 23
0.0
 33
0.0
 16
1.0
 26
0.0
 36
0.0
 17
0.0
 27
1.0
 37
0.0
 76
0
330
217
345
0
346
0
  0
ENDSEC
  0
EOF