999
DXF file: _cgs_temp_output.dxf
999
Pro/ENGINEER 2015110 by Parametric Technology Corporation
  0
SECTION
  2
HEADER
  9
$ACADVER
  1
AC1021
  9
$DWGCODEPAGE
  3
ANSI_1252
  9
$EXTMAX
 10
22.0
 20
17.0
 30
0.0
  9
$EXTMIN
 10
0.0
 20
0.0
 30
0.0
  9
$LIMMIN
 10
0.0
 20
0.0
  9
$LIMMAX
 10
22.0
 20
17.0
  9
$VIEWCTR
 10
11.0
 20
8.5
  9
$VIEWSIZE
 40
17.0
  9
$CLAYER
  8
0
  9
$LTSCALE
 40
1.21
  9
$CELTYPE
  6
BYLAYER
  9
$DIMSCALE
 40
1.0
  9
$DIMASZ
 40
0.1875
  9
$DIMEXO
 40
0.0625
  9
$DIMDLI
 40
0.836
  9
$DIMEXE
 40
0.125
  9
$DIMCEN
 40
0.198
  9
$DIMLFAC
 40
1.0
  9
$DIMBLK
  1
_CLOSED
  9
$DIMALT
 70
0
  9
$DIMALTF
 40
25.4
  9
$DIMTXT
 40
0.15625
  9
$DIMTOL
 70
0
  9
$DIMLIM
 70
0
  9
$DIMTFAC
 40
1.0
  9
$DIMGAP
 40
0.09
  9
$DIMDSEP
 70
46
  9
$AUNITS
 70
0
  9
$PDMODE
 70
3
  9
$PDSIZE
 40
0.3125
  9
$HANDSEED
  5
37B
  9
$TILEMODE
 70
1
  9
$MEASUREMENT
 70
0
  9
$INSUNITS
 70
1
  0
ENDSEC
  0
SECTION
  2
CLASSES
  0
CLASS
  1
ACDBDICTIONARYWDFLT
  2
AcDbDictionaryWithDefault
  3
AutoCAD 2000
 90
0
 91
1
280
0
281
0
  0
CLASS
  1
ACDBPLACEHOLDER
  2
AcDbPlaceHolder
  3
AutoCAD 2000
 90
0
 91
1
280
0
281
0
  0
CLASS
  1
LAYOUT
  2
AcDbLayout
  3
AutoCAD 2000
 90
0
 91
0
280
0
281
0
  0
ENDSEC
  0
SECTION
  2
TABLES
  0
TABLE
  2
VPORT
  5
8
100
AcDbSymbolTable
 70
2
  0
VPORT
  5
1F4
100
AcDbSymbolTableRecord
100
AcDbViewportTableRecord
  2
*ACTIVE
 70
0
 10
0.0
 20
0.0
 11
1.0
 21
1.0
 12
11.0
 22
8.5
 13
0.0
 23
0.0
 14
1.0
 24
1.0
 15
0.0
 25
0.0
 16
0.0
 26
0.0
 36
1.0
 17
0.0
 27
0.0
 37
0.0
 40
17.0
 41
1.2941176471
 42
50.0
 43
0.0
 44
0.0
 50
0.0
 51
0.0
 71
0
 72
100
 73
1
 74
1
 75
0
 76
0
 77
0
 78
0
  0
ENDTAB
  0
TABLE
  2
LTYPE
  5
5
100
AcDbSymbolTable
 70
6
  0
LTYPE
  5
14
100
AcDbSymbolTableRecord
100
AcDbLinetypeTableRecord
  2
BYBLOCK
 70
0
  3

 72
65
 73
0
 40
0.0
  0
LTYPE
  5
15
100
AcDbSymbolTableRecord
100
AcDbLinetypeTableRecord
  2
BYLAYER
 70
0
  3

 72
65
 73
0
 40
0.0
  0
LTYPE
  5
16
100
AcDbSymbolTableRecord
100
AcDbLinetypeTableRecord
  2
CONTINUOUS
 70
64
  3
Solid line
 72
65
 73
0
 40
0.0
  0
LTYPE
  5
1F5
100
AcDbSymbolTableRecord
100
AcDbLinetypeTableRecord
  2
CENTER
 70
64
  3
____ _ ____ _ ____ _ ____ _ ____ _ ____ _ ____
 72
65
 73
4
 40
0.6
 49
0.375
 74
0
 49
-0.075
 74
0
 49
0.075
 74
0
 49
-0.075
 74
0
  0
LTYPE
  5
1F6
100
AcDbSymbolTableRecord
100
AcDbLinetypeTableRecord
  2
HIDDEN
 70
64
  3
- - - - - - - - - - - - - - - - - - - -
 72
65
 73
2
 40
0.2
 49
0.1
 74
0
 49
-0.1
 74
0
  0
LTYPE
  5
1F7
100
AcDbSymbolTableRecord
100
AcDbLinetypeTableRecord
  2
PHANTOM
 70
64
  3
_____ _ _ _____ _ _ _____ _ _ _____
 72
65
 73
6
 40
0.8
 49
0.45
 74
0
 49
-0.05
 74
0
 49
0.1
 74
0
 49
-0.05
 74
0
 49
0.1
 74
0
 49
-0.05
 74
0
  0
LTYPE
  5
1F8
100
AcDbSymbolTableRecord
100
AcDbLinetypeTableRecord
  2
DOT
 70
64
  3
. . . . . . . . . . . . . . . . . . . .
 72
65
 73
2
 40
0.2
 49
0.1
 74
0
 49
-0.1
 74
0
  0
LTYPE
  5
1F9
100
AcDbSymbolTableRecord
100
AcDbLinetypeTableRecord
  2
DASHED
 70
64
  3
- - - - - - - - - - - - - - - - - - - -
 72
65
 73
2
 40
0.2
 49
0.1
 74
0
 49
-0.1
 74
0
  0
ENDTAB
  0
TABLE
  2
LAYER
  5
2
100
AcDbSymbolTable
 70
36
  0
LAYER
  5
10
100
AcDbSymbolTableRecord
100
AcDbLayerTableRecord
  2
0
 70
0
 62
7
  6
CONTINUOUS
370
-3
390
F
  0
LAYER
  5
1FA
100
AcDbSymbolTableRecord
100
AcDbLayerTableRecord
  2
DEFAULT_1
 70
0
 62
7
  6
CENTER
370
-3
390
F
  0
LAYER
  5
1FB
100
AcDbSymbolTableRecord
100
AcDbLayerTableRecord
  2
DEFAULT_2
 70
0
 62
8
  6
HIDDEN
370
-3
390
F
  0
LAYER
  5
1FC
100
AcDbSymbolTableRecord
100
AcDbLayerTableRecord
  2
DEFAULT_3
 70
0
 62
7
  6
PHANTOM
370
-3
390
F
  0
LAYER
  5
1FD
100
AcDbSymbolTableRecord
100
AcDbLayerTableRecord
  2
01_ALL_DTM_PLN
 70
0
 62
7
  6
CONTINUOUS
370
-3
390
F
  0
LAYER
  5
1FE
100
AcDbSymbolTableRecord
100
AcDbLayerTableRecord
  2
01__ASM_ALL_DTM_PLN
 70
0
 62
7
  6
CONTINUOUS
370
-3
390
F
  0
LAYER
  5
1FF
100
AcDbSymbolTableRecord
100
AcDbLayerTableRecord
  2
01__ASM_DEF_DTM_PLN
 70
0
 62
7
  6
CONTINUOUS
370
-3
390
F
  0
LAYER
  5
200
100
AcDbSymbolTableRecord
100
AcDbLayerTableRecord
  2
01___PRT_ALL_DTM_PLN
 70
0
 62
7
  6
CONTINUOUS
370
-3
390
F
  0
LAYER
  5
201
100
AcDbSymbolTableRecord
100
AcDbLayerTableRecord
  2
01___PRT_DEF_DTM_PLN
 70
0
 62
7
  6
CONTINUOUS
370
-3
390
F
  0
LAYER
  5
202
100
AcDbSymbolTableRecord
100
AcDbLayerTableRecord
  2
02_ALL_AXES
 70
0
 62
7
  6
CONTINUOUS
370
-3
390
F
  0
LAYER
  5
203
100
AcDbSymbolTableRecord
100
AcDbLayerTableRecord
  2
02__ASM_ALL_AXES
 70
0
 62
7
  6
CONTINUOUS
370
-3
390
F
  0
LAYER
  5
204
100
AcDbSymbolTableRecord
100
AcDbLayerTableRecord
  2
02___PRT_ALL_AXES
 70
0
 62
7
  6
CONTINUOUS
370
-3
390
F
  0
LAYER
  5
205
100
AcDbSymbolTableRecord
100
AcDbLayerTableRecord
  2
03_ALL_CURVES
 70
0
 62
7
  6
CONTINUOUS
370
-3
390
F
  0
LAYER
  5
206
100
AcDbSymbolTableRecord
100
AcDbLayerTableRecord
  2
03__ASM_ALL_CURVES
 70
0
 62
7
  6
CONTINUOUS
370
-3
390
F
  0
LAYER
  5
207
100
AcDbSymbolTableRecord
100
AcDbLayerTableRecord
  2
03___PRT_ALL_CURVES
 70
0
 62
7
  6
CONTINUOUS
370
-3
390
F
  0
LAYER
  5
208
100
AcDbSymbolTableRecord
100
AcDbLayerTableRecord
  2
04_ALL_DTM_PNT
 70
0
 62
7
  6
CONTINUOUS
370
-3
390
F
  0
LAYER
  5
209
100
AcDbSymbolTableRecord
100
AcDbLayerTableRecord
  2
04__ASM_ALL_DTM_PNT
 70
0
 62
7
  6
CONTINUOUS
370
-3
390
F
  0
LAYER
  5
20A
100
AcDbSymbolTableRecord
100
AcDbLayerTableRecord
  2
04___PRT_ALL_DTM_PNT
 70
0
 62
7
  6
CONTINUOUS
370
-3
390
F
  0
LAYER
  5
20B
100
AcDbSymbolTableRecord
100
AcDbLayerTableRecord
  2
05_ALL_DTM_CSYS
 70
0
 62
7
  6
CONTINUOUS
370
-3
390
F
  0
LAYER
  5
20C
100
AcDbSymbolTableRecord
100
AcDbLayerTableRecord
  2
05__ASM_ALL_DTM_CSYS
 70
0
 62
7
  6
CONTINUOUS
370
-3
390
F
  0
LAYER
  5
20D
100
AcDbSymbolTableRecord
100
AcDbLayerTableRecord
  2
05__ASM_DEF_DTM_CSYS
 70
0
 62
7
  6
CONTINUOUS
370
-3
390
F
  0
LAYER
  5
20E
100
AcDbSymbolTableRecord
100
AcDbLayerTableRecord
  2
05___PRT_ALL_DTM_CSYS
 70
0
 62
7
  6
CONTINUOUS
370
-3
390
F
  0
LAYER
  5
20F
100
AcDbSymbolTableRecord
100
AcDbLayerTableRecord
  2
05___PRT_DEF_DTM_CSYS
 70
0
 62
7
  6
CONTINUOUS
370
-3
390
F
  0
LAYER
  5
210
100
AcDbSymbolTableRecord
100
AcDbLayerTableRecord
  2
06_ALL_SURFS
 70
0
 62
7
  6
CONTINUOUS
370
-3
390
F
  0
LAYER
  5
211
100
AcDbSymbolTableRecord
100
AcDbLayerTableRecord
  2
06__ASM_ALL_SURFS
 70
0
 62
7
  6
CONTINUOUS
370
-3
390
F
  0
LAYER
  5
212
100
AcDbSymbolTableRecord
100
AcDbLayerTableRecord
  2
06___PRT_ALL_SURFS
 70
0
 62
7
  6
CONTINUOUS
370
-3
390
F
  0
LAYER
  5
213
100
AcDbSymbolTableRecord
100
AcDbLayerTableRecord
  2
07__ASM_ALL_SKELETONS
 70
0
 62
7
  6
CONTINUOUS
370
-3
390
F
  0
ENDTAB
  0
TABLE
  2
STYLE
  5
3
100
AcDbSymbolTable
 70
1
  0
STYLE
  5
11
100
AcDbSymbolTableRecord
100
AcDbTextStyleTableRecord
  2
STANDARD
 70
0
 40
0.0
 41
0.8
 50
0.0
 71
0
 42
0.2
  3
txt
  4

  0
STYLE
  5
214
100
AcDbSymbolTableRecord
100
AcDbTextStyleTableRecord
  2
TEXTSTYLE_1
 70
0
 40
0.0
 41
0.8
 50
0.0
 71
0
 42
0.2
  3
gdt
  4

  0
ENDTAB
  0
TABLE
  2
VIEW
  5
6
100
AcDbSymbolTable
 70
0
  0
ENDTAB
  0
TABLE
  2
UCS
  5
7
100
AcDbSymbolTable
 70
0
  0
ENDTAB
  0
TABLE
  2
APPID
  5
9
100
AcDbSymbolTable
 70
1
  0
APPID
  5
215
100
AcDbSymbolTableRecord
100
AcDbRegAppTableRecord
  2
ACAD
 70
0
  0
ENDTAB
  0
TABLE
  2
BLOCK_RECORD
  5
1
100
AcDbSymbolTable
 70
0
  0
BLOCK_RECORD
  5
216
100
AcDbSymbolTableRecord
100
AcDbBlockTableRecord
  2
*Model_Space
  0
BLOCK_RECORD
  5
217
100
AcDbSymbolTableRecord
100
AcDbBlockTableRecord
  2
*Paper_Space
  0
ENDTAB
  0
TABLE
  2
DIMSTYLE
  5
A
100
AcDbSymbolTable
 70
1
100
AcDbDimStyleTable
 71
0
  0
DIMSTYLE
105
218
100
AcDbSymbolTableRecord
100
AcDbDimStyleTableRecord
  2
STANDARD
 70
0
  3

  4

 40
1.0
 41
0.1875
 42
0.0625
 43
0.38
 44
0.125
 45
0.0
 46
0.0
 47
0.0001
 48
0.0001
140
0.15625
141
0.09
142
0.0
143
25.4
144
1.0
145
0.0
146
1.0
147
0.09
 71
0.0
 72
0.0
 73
1
 74
1
 75
0
 76
0
 77
0
 78
4
170
0
171
2
172
0
173
0
174
0
175
0
176
0
177
0
178
0
270
2
271
4
272
4
273
2
274
2
275
0
280
0
281
0
282
0
283
1
284
4
285
0
286
0
287
3
288
0
340
11
278
46
  0
ENDTAB
  0
ENDSEC
  0
SECTION
  2
BLOCKS
  0
BLOCK
  5
20
100
AcDbEntity
  8
0
100
AcDbBlockBegin
  2
*Model_Space
 70
0
 10
0.0
 20
0.0
 30
0.0
  3
*Model_Space
  1

  0
ENDBLK
  5
21
100
AcDbEntity
  8
0
100
AcDbBlockEnd
  0
BLOCK
  5
1C
100
AcDbEntity
  8
0
100
AcDbBlockBegin
  2
*Paper_Space
 70
0
 10
0.0
 20
0.0
 30
0.0
  3
*Paper_Space
  1

  0
ENDBLK
  5
1D
100
AcDbEntity
  8
0
100
AcDbBlockEnd
  0
ENDSEC
  0
SECTION
  2
ENTITIES
  0
MTEXT
  5
219
100
AcDbEntity
  8
0
100
AcDbMText
 62
7
  6
CONTINUOUS
  7
STANDARD
 71
1
 72
1
 10
15.9560215477
 20
0.9479130325
 30
0.0
 11
1.0
 21
0.0
 31
0.0
 44
0.9
  1
SCALE: 1:1.000
 40
0.3
 41
3.36
  0
LINE
  5
21A
100
AcDbEntity
  8
0
100
AcDbLine
 62
7
  6
CONTINUOUS
 10
0.0
 20
0.0
 11
0.0
 21
17.0
  0
LINE
  5
21B
100
AcDbEntity
  8
0
100
AcDbLine
 62
7
  6
CONTINUOUS
 10
0.0
 20
0.0
 11
22.0
 21
0.0
  0
LINE
  5
21C
100
AcDbEntity
  8
0
100
AcDbLine
 62
7
  6
CONTINUOUS
 10
0.0
 20
17.0
 11
22.0
 21
17.0
  0
LINE
  5
21D
100
AcDbEntity
  8
0
100
AcDbLine
 62
7
  6
CONTINUOUS
 10
22.0
 20
0.0
 11
22.0
 21
17.0
  0
LINE
  5
21E
100
AcDbEntity
  8
0
100
AcDbLine
 62
7
  6
CONTINUOUS
 10
4.6303672762
 20
5.5551198968
 11
4.6303672762
 21
5.4851198968
  0
LINE
  5
21F
100
AcDbEntity
  8
0
100
AcDbLine
 62
7
  6
CONTINUOUS
 10
4.8371572762
 20
5.3951198968
 11
4.9235772762
 21
5.3951198968
  0
LINE
  5
220
100
AcDbEntity
  8
0
100
AcDbLine
 62
7
  6
CONTINUOUS
 10
5.3371572762
 20
5.3951198968
 11
5.4235772762
 21
5.3951198968
  0
LINE
  5
221
100
AcDbEntity
  8
0
100
AcDbLine
 62
7
  6
CONTINUOUS
 10
5.8371572762
 20
5.3951198968
 11
5.9235772762
 21
5.3951198968
  0
LINE
  5
222
100
AcDbEntity
  8
0
100
AcDbLine
 62
7
  6
CONTINUOUS
 10
6.3371572762
 20
5.3951198968
 11
6.4235772762
 21
5.3951198968
  0
LINE
  5
223
100
AcDbEntity
  8
0
100
AcDbLine
 62
7
  6
CONTINUOUS
 10
6.8371572762
 20
5.3951198968
 11
6.9235772762
 21
5.3951198968
  0
LINE
  5
224
100
AcDbEntity
  8
0
100
AcDbLine
 62
7
  6
CONTINUOUS
 10
7.3371572762
 20
5.3951198968
 11
7.4235772762
 21
5.3951198968
  0
LINE
  5
225
100
AcDbEntity
  8
0
100
AcDbLine
 62
7
  6
CONTINUOUS
 10
4.6303672762
 20
5.4851198968
 11
4.7274372762
 21
5.4851198968
  0
LINE
  5
226
100
AcDbEntity
  8
0
100
AcDbLine
 62
7
  6
CONTINUOUS
 10
5.0332972762
 20
5.4851198968
 11
5.2274372762
 21
5.4851198968
  0
LINE
  5
227
100
AcDbEntity
  8
0
100
AcDbLine
 62
7
  6
CONTINUOUS
 10
5.5332972762
 20
5.4851198968
 11
5.7274372762
 21
5.4851198968
  0
LINE
  5
228
100
AcDbEntity
  8
0
100
AcDbLine
 62
7
  6
CONTINUOUS
 10
6.0332972762
 20
5.4851198968
 11
6.2274372762
 21
5.4851198968
  0
LINE
  5
229
100
AcDbEntity
  8
0
100
AcDbLine
 62
7
  6
CONTINUOUS
 10
6.5332972762
 20
5.4851198968
 11
6.7274372762
 21
5.4851198968
  0
LINE
  5
22A
100
AcDbEntity
  8
0
100
AcDbLine
 62
7
  6
CONTINUOUS
 10
7.0332972762
 20
5.4851198968
 11
7.2274372762
 21
5.4851198968
  0
LINE
  5
22B
100
AcDbEntity
  8
0
100
AcDbLine
 62
7
  6
CONTINUOUS
 10
7.5332972762
 20
5.4851198968
 11
7.6303672762
 21
5.4851198968
  0
LINE
  5
22C
100
AcDbEntity
  8
0
100
AcDbLine
 62
7
  6
CONTINUOUS
 10
7.6303672762
 20
5.5551198968
 11
7.5332972762
 21
5.5551198968
  0
LINE
  5
22D
100
AcDbEntity
  8
0
100
AcDbLine
 62
7
  6
CONTINUOUS
 10
7.2274372762
 20
5.5551198968
 11
7.0332972762
 21
5.5551198968
  0
LINE
  5
22E
100
AcDbEntity
  8
0
100
AcDbLine
 62
7
  6
CONTINUOUS
 10
6.7274372762
 20
5.5551198968
 11
6.5332972762
 21
5.5551198968
  0
LINE
  5
22F
100
AcDbEntity
  8
0
100
AcDbLine
 62
7
  6
CONTINUOUS
 10
6.2274372762
 20
5.5551198968
 11
6.0332972762
 21
5.5551198968
  0
LINE
  5
230
100
AcDbEntity
  8
0
100
AcDbLine
 62
7
  6
CONTINUOUS
 10
5.7274372762
 20
5.5551198968
 11
5.5332972762
 21
5.5551198968
  0
LINE
  5
231
100
AcDbEntity
  8
0
100
AcDbLine
 62
7
  6
CONTINUOUS
 10
5.2274372762
 20
5.5551198968
 11
5.0332972762
 21
5.5551198968
  0
LINE
  5
232
100
AcDbEntity
  8
0
100
AcDbLine
 62
7
  6
CONTINUOUS
 10
4.7274372762
 20
5.5551198968
 11
4.6303672762
 21
5.5551198968
  0
LINE
  5
233
100
AcDbEntity
  8
0
100
AcDbLine
 62
7
  6
CONTINUOUS
 10
7.4235772762
 20
5.6451198968
 11
7.3371572762
 21
5.6451198968
  0
LINE
  5
234
100
AcDbEntity
  8
0
100
AcDbLine
 62
7
  6
CONTINUOUS
 10
6.9235772762
 20
5.6451198968
 11
6.8371572762
 21
5.6451198968
  0
LINE
  5
235
100
AcDbEntity
  8
0
100
AcDbLine
 62
7
  6
CONTINUOUS
 10
6.4235772762
 20
5.6451198968
 11
6.3371572762
 21
5.6451198968
  0
LINE
  5
236
100
AcDbEntity
  8
0
100
AcDbLine
 62
7
  6
CONTINUOUS
 10
5.9235772762
 20
5.6451198968
 11
5.8371572762
 21
5.6451198968
  0
LINE
  5
237
100
AcDbEntity
  8
0
100
AcDbLine
 62
7
  6
CONTINUOUS
 10
5.4235772762
 20
5.6451198968
 11
5.3371572762
 21
5.6451198968
  0
LINE
  5
238
100
AcDbEntity
  8
0
100
AcDbLine
 62
7
  6
CONTINUOUS
 10
4.9235772762
 20
5.6451198968
 11
4.8371572762
 21
5.6451198968
  0
LINE
  5
239
100
AcDbEntity
  8
0
100
AcDbLine
 62
7
  6
CONTINUOUS
 10
7.6303672762
 20
5.4851198968
 11
7.6303672762
 21
5.5551198968
  0
LINE
  5
23A
100
AcDbEntity
  8
0
100
AcDbLine
 62
7
  6
CONTINUOUS
 10
4.5708720839
 20
12.9750477814
 11
4.5708720839
 21
12.2250477814
  0
LINE
  5
23B
100
AcDbEntity
  8
0
100
AcDbLine
 62
7
  6
CONTINUOUS
 10
7.5708720839
 20
12.2250477814
 11
4.5708720839
 21
12.2250477814
  0
LINE
  5
23C
100
AcDbEntity
  8
0
100
AcDbLine
 62
7
  6
CONTINUOUS
 10
4.5708720839
 20
12.9750477814
 11
7.5708720839
 21
12.9750477814
  0
LINE
  5
23D
100
AcDbEntity
  8
0
100
AcDbLine
 62
7
  6
CONTINUOUS
 10
7.5708720839
 20
12.9750477814
 11
7.5708720839
 21
12.2250477814
  0
LINE
  5
23E
100
AcDbEntity
  8
0
100
AcDbLine
 62
7
  6
CONTINUOUS
 10
15.1853552569
 20
5.3356247044
 11
15.1853552569
 21
5.5856247044
  0
LINE
  5
23F
100
AcDbEntity
  8
0
100
AcDbLine
 62
7
  6
CONTINUOUS
 10
15.9353552569
 20
5.3356247044
 11
15.1853552569
 21
5.3356247044
  0
LINE
  5
240
100
AcDbEntity
  8
0
100
AcDbLine
 62
7
  6
CONTINUOUS
 10
15.9353552569
 20
5.4256247044
 11
15.1853552569
 21
5.4256247044
  0
LINE
  5
241
100
AcDbEntity
  8
0
100
AcDbLine
 62
7
  6
CONTINUOUS
 10
15.9353552569
 20
5.4956247044
 11
15.1853552569
 21
5.4956247044
  0
LINE
  5
242
100
AcDbEntity
  8
0
100
AcDbLine
 62
7
  6
CONTINUOUS
 10
15.9353552569
 20
5.5856247044
 11
15.1853552569
 21
5.5856247044
  0
LINE
  5
243
100
AcDbEntity
  8
0
100
AcDbLine
 62
7
  6
CONTINUOUS
 10
15.9353552569
 20
5.3356247044
 11
15.9353552569
 21
5.5856247044
  0
LINE
  5
244
100
AcDbEntity
  8
0
100
AcDbLine
 62
7
  6
CONTINUOUS
 10
13.9880696409
 20
12.2388137507
 11
14.0094225715
 21
12.1953010529
  0
LINE
  5
245
100
AcDbEntity
  8
0
100
AcDbLine
 62
7
  6
CONTINUOUS
 10
14.1696193834
 20
12.8263089329
 11
13.9880696409
 21
12.2388137507
  0
LINE
  5
246
100
AcDbEntity
  8
0
100
AcDbLine
 62
7
  6
CONTINUOUS
 10
14.1096743306
 20
12.2568995572
 11
14.1091535123
 21
12.2547172229
  0
LINE
  5
247
100
AcDbEntity
  8
0
100
AcDbLine
 62
7
  6
CONTINUOUS
 10
14.2938861311
 20
12.8618395871
 11
14.1135826452
 21
12.2783772927
  0
LINE
  5
248
100
AcDbEntity
  8
0
100
AcDbLine
 62
7
  6
CONTINUOUS
 10
14.3483483788
 20
12.1772152464
 11
14.348869197
 21
12.1793975807
  0
LINE
  5
249
100
AcDbEntity
  8
0
100
AcDbLine
 62
7
  6
CONTINUOUS
 10
14.353989384
 20
12.1866391211
 11
14.3473515502
 21
12.1651590831
  0
LINE
  5
24A
100
AcDbEntity
  8
0
100
AcDbLine
 62
7
  6
CONTINUOUS
 10
14.5702048276
 20
12.2568995572
 11
14.5696840093
 21
12.2547172229
  0
LINE
  5
24B
100
AcDbEntity
  8
0
100
AcDbLine
 62
7
  6
CONTINUOUS
 10
14.7544166282
 20
12.8618395871
 11
14.5741131422
 21
12.2783772927
  0
LINE
  5
24C
100
AcDbEntity
  8
0
100
AcDbLine
 62
7
  6
CONTINUOUS
 10
14.8088788758
 20
12.1772152464
 11
14.809399694
 21
12.1793975807
  0
LINE
  5
24D
100
AcDbEntity
  8
0
100
AcDbLine
 62
7
  6
CONTINUOUS
 10
14.814519881
 20
12.1866391211
 11
14.8078820472
 21
12.1651590831
  0
LINE
  5
24E
100
AcDbEntity
  8
0
100
AcDbLine
 62
7
  6
CONTINUOUS
 10
15.0307353246
 20
12.2568995572
 11
15.0302145063
 21
12.2547172229
  0
LINE
  5
24F
100
AcDbEntity
  8
0
100
AcDbLine
 62
7
  6
CONTINUOUS
 10
15.2149471252
 20
12.8618395871
 11
15.0346436392
 21
12.2783772927
  0
LINE
  5
250
100
AcDbEntity
  8
0
100
AcDbLine
 62
7
  6
CONTINUOUS
 10
14.2273425425
 20
12.1393561558
 11
14.3069406336
 21
12.1393561558
  0
LINE
  5
251
100
AcDbEntity
  8
0
100
AcDbLine
 62
7
  6
CONTINUOUS
 10
14.6878730395
 20
12.1393561558
 11
14.7674711306
 21
12.1393561558
  0
LINE
  5
252
100
AcDbEntity
  8
0
100
AcDbLine
 62
7
  6
CONTINUOUS
 10
15.1484035365
 20
12.1393561558
 11
15.2280016276
 21
12.1393561558
  0
LINE
  5
253
100
AcDbEntity
  8
0
100
AcDbLine
 62
7
  6
CONTINUOUS
 10
15.6089340335
 20
12.1393561558
 11
15.6885321246
 21
12.1393561558
  0
LINE
  5
254
100
AcDbEntity
  8
0
100
AcDbLine
 62
7
  6
CONTINUOUS
 10
16.0694645305
 20
12.1393561558
 11
16.1490626216
 21
12.1393561558
  0
LINE
  5
255
100
AcDbEntity
  8
0
100
AcDbLine
 62
7
  6
CONTINUOUS
 10
16.5299950275
 20
12.1393561558
 11
16.6095931186
 21
12.1393561558
  0
LINE
  5
256
100
AcDbEntity
  8
0
100
AcDbLine
 62
7
  6
CONTINUOUS
 10
14.0094225715
 20
12.1953010529
 11
14.0988299622
 21
12.1953010529
  0
LINE
  5
257
100
AcDbEntity
  8
0
100
AcDbLine
 62
7
  6
CONTINUOUS
 10
14.3805456778
 20
12.1953010529
 11
14.5593604592
 21
12.1953010529
  0
LINE
  5
258
100
AcDbEntity
  8
0
100
AcDbLine
 62
7
  6
CONTINUOUS
 10
14.8410761748
 20
12.1953010529
 11
15.0198909562
 21
12.1953010529
  0
LINE
  5
259
100
AcDbEntity
  8
0
100
AcDbLine
 62
7
  6
CONTINUOUS
 10
15.3016066718
 20
12.1953010529
 11
15.4804214532
 21
12.1953010529
  0
LINE
  5
25A
100
AcDbEntity
  8
0
100
AcDbLine
 62
7
  6
CONTINUOUS
 10
15.7621371688
 20
12.1953010529
 11
15.9409519502
 21
12.1953010529
  0
LINE
  5
25B
100
AcDbEntity
  8
0
100
AcDbLine
 62
7
  6
CONTINUOUS
 10
16.2226676658
 20
12.1953010529
 11
16.4014824472
 21
12.1953010529
  0
LINE
  5
25C
100
AcDbEntity
  8
0
100
AcDbLine
 62
7
  6
CONTINUOUS
 10
16.6831981628
 20
12.1953010529
 11
16.7726055535
 21
12.1953010529
  0
LINE
  5
25D
100
AcDbEntity
  8
0
100
AcDbLine
 62
7
  6
CONTINUOUS
 10
16.7512526229
 20
12.2388137507
 11
16.6618452322
 21
12.2388137507
  0
LINE
  5
25E
100
AcDbEntity
  8
0
100
AcDbLine
 62
7
  6
CONTINUOUS
 10
16.3801295166
 20
12.2388137507
 11
16.2013147352
 21
12.2388137507
  0
LINE
  5
25F
100
AcDbEntity
  8
0
100
AcDbLine
 62
7
  6
CONTINUOUS
 10
15.9195990196
 20
12.2388137507
 11
15.7407842382
 21
12.2388137507
  0
LINE
  5
260
100
AcDbEntity
  8
0
100
AcDbLine
 62
7
  6
CONTINUOUS
 10
15.4590685226
 20
12.2388137507
 11
15.2802537412
 21
12.2388137507
  0
LINE
  5
261
100
AcDbEntity
  8
0
100
AcDbLine
 62
7
  6
CONTINUOUS
 10
14.9985380256
 20
12.2388137507
 11
14.8197232442
 21
12.2388137507
  0
LINE
  5
262
100
AcDbEntity
  8
0
100
AcDbLine
 62
7
  6
CONTINUOUS
 10
14.5380075285
 20
12.2388137507
 11
14.3591927472
 21
12.2388137507
  0
LINE
  5
263
100
AcDbEntity
  8
0
100
AcDbLine
 62
7
  6
CONTINUOUS
 10
14.0774770315
 20
12.2388137507
 11
13.9880696409
 21
12.2388137507
  0
LINE
  5
264
100
AcDbEntity
  8
0
100
AcDbLine
 62
7
  6
CONTINUOUS
 10
16.5333326519
 20
12.2947586478
 11
16.4537345608
 21
12.2947586478
  0
LINE
  5
265
100
AcDbEntity
  8
0
100
AcDbLine
 62
7
  6
CONTINUOUS
 10
16.0728021549
 20
12.2947586478
 11
15.9932040638
 21
12.2947586478
  0
LINE
  5
266
100
AcDbEntity
  8
0
100
AcDbLine
 62
7
  6
CONTINUOUS
 10
15.6122716579
 20
12.2947586478
 11
15.5326735668
 21
12.2947586478
  0
LINE
  5
267
100
AcDbEntity
  8
0
100
AcDbLine
 62
7
  6
CONTINUOUS
 10
15.1517411609
 20
12.2947586478
 11
15.0721430698
 21
12.2947586478
  0
LINE
  5
268
100
AcDbEntity
  8
0
100
AcDbLine
 62
7
  6
CONTINUOUS
 10
14.6912106639
 20
12.2947586478
 11
14.6116125728
 21
12.2947586478
  0
LINE
  5
269
100
AcDbEntity
  8
0
100
AcDbLine
 62
7
  6
CONTINUOUS
 10
14.2306801669
 20
12.2947586478
 11
14.1510820758
 21
12.2947586478
  0
LINE
  5
26A
100
AcDbEntity
  8
0
100
AcDbLine
 62
7
  6
CONTINUOUS
 10
15.2694093728
 20
12.1772152464
 11
15.269930191
 21
12.1793975807
  0
LINE
  5
26B
100
AcDbEntity
  8
0
100
AcDbLine
 62
7
  6
CONTINUOUS
 10
15.275050378
 20
12.1866391211
 11
15.2684125442
 21
12.1651590831
  0
LINE
  5
26C
100
AcDbEntity
  8
0
100
AcDbLine
 62
7
  6
CONTINUOUS
 10
15.4912658216
 20
12.2568995572
 11
15.4907450034
 21
12.2547172229
  0
LINE
  5
26D
100
AcDbEntity
  8
0
100
AcDbLine
 62
7
  6
CONTINUOUS
 10
15.6754776222
 20
12.8618395871
 11
15.4951741362
 21
12.2783772927
  0
LINE
  5
26E
100
AcDbEntity
  8
0
100
AcDbLine
 62
7
  6
CONTINUOUS
 10
16.9328023654
 20
12.8263089329
 11
16.8433949747
 21
12.8263089329
  0
LINE
  5
26F
100
AcDbEntity
  8
0
100
AcDbLine
 62
7
  6
CONTINUOUS
 10
14.2590267741
 20
12.8263089329
 11
14.1696193834
 21
12.8263089329
  0
LINE
  5
270
100
AcDbEntity
  8
0
100
AcDbLine
 62
7
  6
CONTINUOUS
 10
14.5407424897
 20
12.8263089329
 11
14.7195572711
 21
12.8263089329
  0
LINE
  5
271
100
AcDbEntity
  8
0
100
AcDbLine
 62
7
  6
CONTINUOUS
 10
15.0012729867
 20
12.8263089329
 11
15.1800877681
 21
12.8263089329
  0
LINE
  5
272
100
AcDbEntity
  8
0
100
AcDbLine
 62
7
  6
CONTINUOUS
 10
15.4618034837
 20
12.8263089329
 11
15.6406182651
 21
12.8263089329
  0
LINE
  5
273
100
AcDbEntity
  8
0
100
AcDbLine
 62
7
  6
CONTINUOUS
 10
15.9223339807
 20
12.8263089329
 11
16.1011487621
 21
12.8263089329
  0
LINE
  5
274
100
AcDbEntity
  8
0
100
AcDbLine
 62
7
  6
CONTINUOUS
 10
16.3828644777
 20
12.8263089329
 11
16.5616792591
 21
12.8263089329
  0
LINE
  5
275
100
AcDbEntity
  8
0
100
AcDbLine
 62
7
  6
CONTINUOUS
 10
15.7299398698
 20
12.1772152464
 11
15.730460688
 21
12.1793975807
  0
LINE
  5
276
100
AcDbEntity
  8
0
100
AcDbLine
 62
7
  6
CONTINUOUS
 10
15.735580875
 20
12.1866391211
 11
15.7289430412
 21
12.1651590831
  0
LINE
  5
277
100
AcDbEntity
  8
0
100
AcDbLine
 62
7
  6
CONTINUOUS
 10
16.7148823945
 20
12.8822538301
 11
16.6352843034
 21
12.8822538301
  0
LINE
  5
278
100
AcDbEntity
  8
0
100
AcDbLine
 62
7
  6
CONTINUOUS
 10
16.2543518975
 20
12.8822538301
 11
16.1747538064
 21
12.8822538301
  0
LINE
  5
279
100
AcDbEntity
  8
0
100
AcDbLine
 62
7
  6
CONTINUOUS
 10
15.7938214005
 20
12.8822538301
 11
15.7142233094
 21
12.8822538301
  0
LINE
  5
27A
100
AcDbEntity
  8
0
100
AcDbLine
 62
7
  6
CONTINUOUS
 10
15.3332909035
 20
12.8822538301
 11
15.2536928124
 21
12.8822538301
  0
LINE
  5
27B
100
AcDbEntity
  8
0
100
AcDbLine
 62
7
  6
CONTINUOUS
 10
14.8727604065
 20
12.8822538301
 11
14.7931623154
 21
12.8822538301
  0
LINE
  5
27C
100
AcDbEntity
  8
0
100
AcDbLine
 62
7
  6
CONTINUOUS
 10
14.4122299095
 20
12.8822538301
 11
14.3326318184
 21
12.8822538301
  0
LINE
  5
27D
100
AcDbEntity
  8
0
100
AcDbLine
 62
7
  6
CONTINUOUS
 10
15.9517963186
 20
12.2568995572
 11
15.9512814411
 21
12.2547153848
  0
LINE
  5
27E
100
AcDbEntity
  8
0
100
AcDbLine
 62
7
  6
CONTINUOUS
 10
16.1360081192
 20
12.8618395871
 11
15.9557046332
 21
12.2783772927
  0
LINE
  5
27F
100
AcDbEntity
  8
0
100
AcDbLine
 62
7
  6
CONTINUOUS
 10
16.1904703668
 20
12.1772152464
 11
16.1909852443
 21
12.1793994188
  0
LINE
  5
280
100
AcDbEntity
  8
0
100
AcDbLine
 62
7
  6
CONTINUOUS
 10
16.1962291443
 20
12.1870202322
 11
16.1894735382
 21
12.1651590831
  0
LINE
  5
281
100
AcDbEntity
  8
0
100
AcDbLine
 62
7
  6
CONTINUOUS
 10
16.4123268156
 20
12.2568995572
 11
16.4118119381
 21
12.2547153848
  0
LINE
  5
282
100
AcDbEntity
  8
0
100
AcDbLine
 62
7
  6
CONTINUOUS
 10
16.5965386162
 20
12.8618395871
 11
16.4162351302
 21
12.2783772927
  0
LINE
  5
283
100
AcDbEntity
  8
0
100
AcDbLine
 62
7
  6
CONTINUOUS
 10
16.7726055535
 20
12.1953010529
 11
16.7512526229
 21
12.2388137507
  0
LINE
  5
284
100
AcDbEntity
  8
0
100
AcDbLine
 62
7
  6
CONTINUOUS
 10
16.6510008638
 20
12.1772152464
 11
16.6515157413
 21
12.1793994188
  0
LINE
  5
285
100
AcDbEntity
  8
0
100
AcDbLine
 62
7
  6
CONTINUOUS
 10
16.6567596413
 20
12.1870202322
 11
16.6500040352
 21
12.1651590831
  0
LINE
  5
286
100
AcDbEntity
  8
0
100
AcDbLine
 62
7
  6
CONTINUOUS
 10
16.9328023654
 20
12.8263089329
 11
16.7512526229
 21
12.2388137507
  0
LINE
  5
287
100
AcDbEntity
  8
0
100
AcDbLine
 62
7
  6
CONTINUOUS
 10
16.9541552961
 20
12.7827962351
 11
16.7726055535
 21
12.1953010529
  0
LINE
  5
288
100
AcDbEntity
  8
0
100
AcDbLine
 62
7
  6
CONTINUOUS
 10
16.9541552961
 20
12.7827962351
 11
16.9328023654
 21
12.8263089329
  0
ARC
  5
289
100
AcDbEntity
  8
0
100
AcDbCircle
 62
7
  6
CONTINUOUS
 10
4.7426847325
 20
5.2230637398
 40
0.57834
100
AcDbArc
 50
21.6998722745
 51
23.7539541897
  0
ARC
  5
28A
100
AcDbEntity
  8
0
100
AcDbCircle
 62
7
  6
CONTINUOUS
 10
6.0180498198
 20
5.2230637398
 40
0.57834
100
AcDbArc
 50
156.2460458103
 51
158.3001277255
  0
ARC
  5
28B
100
AcDbEntity
  8
0
100
AcDbCircle
 62
7
  6
CONTINUOUS
 10
5.2426847325
 20
5.2230637398
 40
0.57834
100
AcDbArc
 50
21.6998722745
 51
23.7539541897
  0
ARC
  5
28C
100
AcDbEntity
  8
0
100
AcDbCircle
 62
7
  6
CONTINUOUS
 10
5.7426847325
 20
5.2230637398
 40
0.57834
100
AcDbArc
 50
21.6998722745
 51
23.7539541897
  0
ARC
  5
28D
100
AcDbEntity
  8
0
100
AcDbCircle
 62
7
  6
CONTINUOUS
 10
5.5180498198
 20
5.2230637398
 40
0.57834
100
AcDbArc
 50
156.2460458103
 51
158.3001277255
  0
ARC
  5
28E
100
AcDbEntity
  8
0
100
AcDbCircle
 62
7
  6
CONTINUOUS
 10
4.2426847325
 20
5.2230637398
 40
0.57834
100
AcDbArc
 50
21.6998722745
 51
23.7539541897
  0
ARC
  5
28F
100
AcDbEntity
  8
0
100
AcDbCircle
 62
7
  6
CONTINUOUS
 10
5.3589872762
 20
5.4683187178
 40
0.084969
100
AcDbArc
 50
201.6998722745
 51
213.3351729967
  0
ARC
  5
290
100
AcDbEntity
  8
0
100
AcDbCircle
 62
7
  6
CONTINUOUS
 10
5.4017472762
 20
5.4683187178
 40
0.084969
100
AcDbArc
 50
326.6648270033
 51
338.3001277255
  0
ARC
  5
291
100
AcDbEntity
  8
0
100
AcDbCircle
 62
7
  6
CONTINUOUS
 10
5.8589872762
 20
5.4683187178
 40
0.084969
100
AcDbArc
 50
201.6998722745
 51
213.3351729967
  0
ARC
  5
292
100
AcDbEntity
  8
0
100
AcDbCircle
 62
7
  6
CONTINUOUS
 10
5.9017472762
 20
5.4683187178
 40
0.084969
100
AcDbArc
 50
326.6648270033
 51
338.3001277255
  0
ARC
  5
293
100
AcDbEntity
  8
0
100
AcDbCircle
 62
7
  6
CONTINUOUS
 10
4.9017472762
 20
5.4683187178
 40
0.084969
100
AcDbArc
 50
326.6648270033
 51
338.3001277255
  0
ARC
  5
294
100
AcDbEntity
  8
0
100
AcDbCircle
 62
7
  6
CONTINUOUS
 10
4.8589872762
 20
5.4683187178
 40
0.084969
100
AcDbArc
 50
201.6998722745
 51
213.3351729967
  0
ARC
  5
295
100
AcDbEntity
  8
0
100
AcDbCircle
 62
7
  6
CONTINUOUS
 10
5.3371572762
 20
5.4539598968
 40
0.05884
100
AcDbArc
 50
213.3351729967
 51
270.0
  0
ARC
  5
296
100
AcDbEntity
  8
0
100
AcDbCircle
 62
7
  6
CONTINUOUS
 10
5.4235772762
 20
5.4539598968
 40
0.05884
100
AcDbArc
 50
270.0
 51
326.6648270033
  0
ARC
  5
297
100
AcDbEntity
  8
0
100
AcDbCircle
 62
7
  6
CONTINUOUS
 10
5.8371572762
 20
5.4539598968
 40
0.05884
100
AcDbArc
 50
213.3351729967
 51
270.0
  0
ARC
  5
298
100
AcDbEntity
  8
0
100
AcDbCircle
 62
7
  6
CONTINUOUS
 10
5.9235772762
 20
5.4539598968
 40
0.05884
100
AcDbArc
 50
270.0
 51
326.6648270033
  0
ARC
  5
299
100
AcDbEntity
  8
0
100
AcDbCircle
 62
7
  6
CONTINUOUS
 10
4.9235772762
 20
5.4539598968
 40
0.05884
100
AcDbArc
 50
270.0
 51
326.6648270033
  0
ARC
  5
29A
100
AcDbEntity
  8
0
100
AcDbCircle
 62
7
  6
CONTINUOUS
 10
4.8371572762
 20
5.4539598968
 40
0.05884
100
AcDbArc
 50
213.3351729967
 51
270.0
  0
ARC
  5
29B
100
AcDbEntity
  8
0
100
AcDbCircle
 62
7
  6
CONTINUOUS
 10
5.2274372762
 20
5.4363998968
 40
0.04872
100
AcDbArc
 50
23.7539541897
 51
90.0
  0
ARC
  5
29C
100
AcDbEntity
  8
0
100
AcDbCircle
 62
7
  6
CONTINUOUS
 10
5.5332972762
 20
5.4363998968
 40
0.04872
100
AcDbArc
 50
90.0
 51
156.2460458103
  0
ARC
  5
29D
100
AcDbEntity
  8
0
100
AcDbCircle
 62
7
  6
CONTINUOUS
 10
5.7274372762
 20
5.4363998968
 40
0.04872
100
AcDbArc
 50
23.7539541897
 51
90.0
  0
ARC
  5
29E
100
AcDbEntity
  8
0
100
AcDbCircle
 62
7
  6
CONTINUOUS
 10
6.0332972762
 20
5.4363998968
 40
0.04872
100
AcDbArc
 50
90.0
 51
156.2460458103
  0
ARC
  5
29F
100
AcDbEntity
  8
0
100
AcDbCircle
 62
7
  6
CONTINUOUS
 10
5.0332972762
 20
5.4363998968
 40
0.04872
100
AcDbArc
 50
90.0
 51
156.2460458103
  0
ARC
  5
2A0
100
AcDbEntity
  8
0
100
AcDbCircle
 62
7
  6
CONTINUOUS
 10
4.7274372762
 20
5.4363998968
 40
0.04872
100
AcDbArc
 50
23.7539541897
 51
90.0
  0
ARC
  5
2A1
100
AcDbEntity
  8
0
100
AcDbCircle
 62
7
  6
CONTINUOUS
 10
5.7426847325
 20
5.8171760537
 40
0.57834
100
AcDbArc
 50
336.2460458103
 51
338.3001277255
  0
ARC
  5
2A2
100
AcDbEntity
  8
0
100
AcDbCircle
 62
7
  6
CONTINUOUS
 10
5.2426847325
 20
5.8171760537
 40
0.57834
100
AcDbArc
 50
336.2460458103
 51
338.3001277255
  0
ARC
  5
2A3
100
AcDbEntity
  8
0
100
AcDbCircle
 62
7
  6
CONTINUOUS
 10
6.0180498198
 20
5.8171760537
 40
0.57834
100
AcDbArc
 50
201.6998722745
 51
203.7539541897
  0
ARC
  5
2A4
100
AcDbEntity
  8
0
100
AcDbCircle
 62
7
  6
CONTINUOUS
 10
4.7426847325
 20
5.8171760537
 40
0.57834
100
AcDbArc
 50
336.2460458103
 51
338.3001277255
  0
ARC
  5
2A5
100
AcDbEntity
  8
0
100
AcDbCircle
 62
7
  6
CONTINUOUS
 10
5.5180498198
 20
5.8171760537
 40
0.57834
100
AcDbArc
 50
201.6998722745
 51
203.7539541897
  0
ARC
  5
2A6
100
AcDbEntity
  8
0
100
AcDbCircle
 62
7
  6
CONTINUOUS
 10
4.2426847325
 20
5.8171760537
 40
0.57834
100
AcDbArc
 50
336.2460458103
 51
338.3001277255
  0
ARC
  5
2A7
100
AcDbEntity
  8
0
100
AcDbCircle
 62
7
  6
CONTINUOUS
 10
5.9017472762
 20
5.5719210757
 40
0.084969
100
AcDbArc
 50
21.6998722745
 51
33.3351729967
  0
ARC
  5
2A8
100
AcDbEntity
  8
0
100
AcDbCircle
 62
7
  6
CONTINUOUS
 10
5.8589872762
 20
5.5719210757
 40
0.084969
100
AcDbArc
 50
146.6648270033
 51
158.3001277255
  0
ARC
  5
2A9
100
AcDbEntity
  8
0
100
AcDbCircle
 62
7
  6
CONTINUOUS
 10
5.4017472762
 20
5.5719210757
 40
0.084969
100
AcDbArc
 50
21.6998722745
 51
33.3351729967
  0
ARC
  5
2AA
100
AcDbEntity
  8
0
100
AcDbCircle
 62
7
  6
CONTINUOUS
 10
5.3589872762
 20
5.5719210757
 40
0.084969
100
AcDbArc
 50
146.6648270033
 51
158.3001277255
  0
ARC
  5
2AB
100
AcDbEntity
  8
0
100
AcDbCircle
 62
7
  6
CONTINUOUS
 10
4.9017472762
 20
5.5719210757
 40
0.084969
100
AcDbArc
 50
21.6998722745
 51
33.3351729967
  0
ARC
  5
2AC
100
AcDbEntity
  8
0
100
AcDbCircle
 62
7
  6
CONTINUOUS
 10
4.8589872762
 20
5.5719210757
 40
0.084969
100
AcDbArc
 50
146.6648270033
 51
158.3001277255
  0
ARC
  5
2AD
100
AcDbEntity
  8
0
100
AcDbCircle
 62
7
  6
CONTINUOUS
 10
5.9235772762
 20
5.5862798968
 40
0.05884
100
AcDbArc
 50
33.3351729967
 51
90.0
  0
ARC
  5
2AE
100
AcDbEntity
  8
0
100
AcDbCircle
 62
7
  6
CONTINUOUS
 10
5.8371572762
 20
5.5862798968
 40
0.05884
100
AcDbArc
 50
90.0
 51
146.6648270033
  0
ARC
  5
2AF
100
AcDbEntity
  8
0
100
AcDbCircle
 62
7
  6
CONTINUOUS
 10
5.4235772762
 20
5.5862798968
 40
0.05884
100
AcDbArc
 50
33.3351729967
 51
90.0
  0
ARC
  5
2B0
100
AcDbEntity
  8
0
100
AcDbCircle
 62
7
  6
CONTINUOUS
 10
5.3371572762
 20
5.5862798968
 40
0.05884
100
AcDbArc
 50
90.0
 51
146.6648270033
  0
ARC
  5
2B1
100
AcDbEntity
  8
0
100
AcDbCircle
 62
7
  6
CONTINUOUS
 10
4.9235772762
 20
5.5862798968
 40
0.05884
100
AcDbArc
 50
33.3351729967
 51
90.0
  0
ARC
  5
2B2
100
AcDbEntity
  8
0
100
AcDbCircle
 62
7
  6
CONTINUOUS
 10
4.8371572762
 20
5.5862798968
 40
0.05884
100
AcDbArc
 50
90.0
 51
146.6648270033
  0
ARC
  5
2B3
100
AcDbEntity
  8
0
100
AcDbCircle
 62
7
  6
CONTINUOUS
 10
6.0332972762
 20
5.6038398968
 40
0.04872
100
AcDbArc
 50
203.7539541897
 51
270.0
  0
ARC
  5
2B4
100
AcDbEntity
  8
0
100
AcDbCircle
 62
7
  6
CONTINUOUS
 10
5.7274372762
 20
5.6038398968
 40
0.04872
100
AcDbArc
 50
270.0
 51
336.2460458103
  0
ARC
  5
2B5
100
AcDbEntity
  8
0
100
AcDbCircle
 62
7
  6
CONTINUOUS
 10
5.5332972762
 20
5.6038398968
 40
0.04872
100
AcDbArc
 50
203.7539541897
 51
270.0
  0
ARC
  5
2B6
100
AcDbEntity
  8
0
100
AcDbCircle
 62
7
  6
CONTINUOUS
 10
5.2274372762
 20
5.6038398968
 40
0.04872
100
AcDbArc
 50
270.0
 51
336.2460458103
  0
ARC
  5
2B7
100
AcDbEntity
  8
0
100
AcDbCircle
 62
7
  6
CONTINUOUS
 10
5.0332972762
 20
5.6038398968
 40
0.04872
100
AcDbArc
 50
203.7539541897
 51
270.0
  0
ARC
  5
2B8
100
AcDbEntity
  8
0
100
AcDbCircle
 62
7
  6
CONTINUOUS
 10
4.7274372762
 20
5.6038398968
 40
0.04872
100
AcDbArc
 50
270.0
 51
336.2460458103
  0
ARC
  5
2B9
100
AcDbEntity
  8
0
100
AcDbCircle
 62
7
  6
CONTINUOUS
 10
6.5180498198
 20
5.2230637398
 40
0.57834
100
AcDbArc
 50
156.2460458103
 51
158.3001277255
  0
ARC
  5
2BA
100
AcDbEntity
  8
0
100
AcDbCircle
 62
7
  6
CONTINUOUS
 10
7.0180498198
 20
5.2230637398
 40
0.57834
100
AcDbArc
 50
156.2460458103
 51
158.3001277255
  0
ARC
  5
2BB
100
AcDbEntity
  8
0
100
AcDbCircle
 62
7
  6
CONTINUOUS
 10
6.2426847325
 20
5.2230637398
 40
0.57834
100
AcDbArc
 50
21.6998722745
 51
23.7539541897
  0
ARC
  5
2BC
100
AcDbEntity
  8
0
100
AcDbCircle
 62
7
  6
CONTINUOUS
 10
7.5180498198
 20
5.2230637398
 40
0.57834
100
AcDbArc
 50
156.2460458103
 51
158.3001277255
  0
ARC
  5
2BD
100
AcDbEntity
  8
0
100
AcDbCircle
 62
7
  6
CONTINUOUS
 10
6.7426847325
 20
5.2230637398
 40
0.57834
100
AcDbArc
 50
21.6998722745
 51
23.7539541897
  0
ARC
  5
2BE
100
AcDbEntity
  8
0
100
AcDbCircle
 62
7
  6
CONTINUOUS
 10
8.0180498198
 20
5.2230637398
 40
0.57834
100
AcDbArc
 50
156.2460458103
 51
158.3001277255
  0
ARC
  5
2BF
100
AcDbEntity
  8
0
100
AcDbCircle
 62
7
  6
CONTINUOUS
 10
6.3589872762
 20
5.4683187178
 40
0.084969
100
AcDbArc
 50
201.6998722745
 51
213.3351729967
  0
ARC
  5
2C0
100
AcDbEntity
  8
0
100
AcDbCircle
 62
7
  6
CONTINUOUS
 10
6.4017472762
 20
5.4683187178
 40
0.084969
100
AcDbArc
 50
326.6648270033
 51
338.3001277255
  0
ARC
  5
2C1
100
AcDbEntity
  8
0
100
AcDbCircle
 62
7
  6
CONTINUOUS
 10
6.8589872762
 20
5.4683187178
 40
0.084969
100
AcDbArc
 50
201.6998722745
 51
213.3351729967
  0
ARC
  5
2C2
100
AcDbEntity
  8
0
100
AcDbCircle
 62
7
  6
CONTINUOUS
 10
6.9017472762
 20
5.4683187178
 40
0.084969
100
AcDbArc
 50
326.6648270033
 51
338.3001277255
  0
ARC
  5
2C3
100
AcDbEntity
  8
0
100
AcDbCircle
 62
7
  6
CONTINUOUS
 10
7.3589872762
 20
5.4683187178
 40
0.084969
100
AcDbArc
 50
201.6998722745
 51
213.3351729967
  0
ARC
  5
2C4
100
AcDbEntity
  8
0
100
AcDbCircle
 62
7
  6
CONTINUOUS
 10
7.4017472762
 20
5.4683187178
 40
0.084969
100
AcDbArc
 50
326.6648270033
 51
338.3001277255
  0
ARC
  5
2C5
100
AcDbEntity
  8
0
100
AcDbCircle
 62
7
  6
CONTINUOUS
 10
6.3371572762
 20
5.4539598968
 40
0.05884
100
AcDbArc
 50
213.3351729967
 51
270.0
  0
ARC
  5
2C6
100
AcDbEntity
  8
0
100
AcDbCircle
 62
7
  6
CONTINUOUS
 10
6.4235772762
 20
5.4539598968
 40
0.05884
100
AcDbArc
 50
270.0
 51
326.6648270033
  0
ARC
  5
2C7
100
AcDbEntity
  8
0
100
AcDbCircle
 62
7
  6
CONTINUOUS
 10
6.8371572762
 20
5.4539598968
 40
0.05884
100
AcDbArc
 50
213.3351729967
 51
270.0
  0
ARC
  5
2C8
100
AcDbEntity
  8
0
100
AcDbCircle
 62
7
  6
CONTINUOUS
 10
6.9235772762
 20
5.4539598968
 40
0.05884
100
AcDbArc
 50
270.0
 51
326.6648270033
  0
ARC
  5
2C9
100
AcDbEntity
  8
0
100
AcDbCircle
 62
7
  6
CONTINUOUS
 10
7.3371572762
 20
5.4539598968
 40
0.05884
100
AcDbArc
 50
213.3351729967
 51
270.0
  0
ARC
  5
2CA
100
AcDbEntity
  8
0
100
AcDbCircle
 62
7
  6
CONTINUOUS
 10
7.4235772762
 20
5.4539598968
 40
0.05884
100
AcDbArc
 50
270.0
 51
326.6648270033
  0
ARC
  5
2CB
100
AcDbEntity
  8
0
100
AcDbCircle
 62
7
  6
CONTINUOUS
 10
6.2274372762
 20
5.4363998968
 40
0.04872
100
AcDbArc
 50
23.7539541897
 51
90.0
  0
ARC
  5
2CC
100
AcDbEntity
  8
0
100
AcDbCircle
 62
7
  6
CONTINUOUS
 10
6.5332972762
 20
5.4363998968
 40
0.04872
100
AcDbArc
 50
90.0
 51
156.2460458103
  0
ARC
  5
2CD
100
AcDbEntity
  8
0
100
AcDbCircle
 62
7
  6
CONTINUOUS
 10
6.7274372762
 20
5.4363998968
 40
0.04872
100
AcDbArc
 50
23.7539541897
 51
90.0
  0
ARC
  5
2CE
100
AcDbEntity
  8
0
100
AcDbCircle
 62
7
  6
CONTINUOUS
 10
7.0332972762
 20
5.4363998968
 40
0.04872
100
AcDbArc
 50
90.0
 51
156.2460458103
  0
ARC
  5
2CF
100
AcDbEntity
  8
0
100
AcDbCircle
 62
7
  6
CONTINUOUS
 10
7.2274372762
 20
5.4363998968
 40
0.04872
100
AcDbArc
 50
23.7539541897
 51
90.0
  0
ARC
  5
2D0
100
AcDbEntity
  8
0
100
AcDbCircle
 62
7
  6
CONTINUOUS
 10
7.5332972762
 20
5.4363998968
 40
0.04872
100
AcDbArc
 50
90.0
 51
156.2460458103
  0
ARC
  5
2D1
100
AcDbEntity
  8
0
100
AcDbCircle
 62
7
  6
CONTINUOUS
 10
8.0180498198
 20
5.8171760537
 40
0.57834
100
AcDbArc
 50
201.6998722745
 51
203.7539541897
  0
ARC
  5
2D2
100
AcDbEntity
  8
0
100
AcDbCircle
 62
7
  6
CONTINUOUS
 10
6.7426847325
 20
5.8171760537
 40
0.57834
100
AcDbArc
 50
336.2460458103
 51
338.3001277255
  0
ARC
  5
2D3
100
AcDbEntity
  8
0
100
AcDbCircle
 62
7
  6
CONTINUOUS
 10
7.5180498198
 20
5.8171760537
 40
0.57834
100
AcDbArc
 50
201.6998722745
 51
203.7539541897
  0
ARC
  5
2D4
100
AcDbEntity
  8
0
100
AcDbCircle
 62
7
  6
CONTINUOUS
 10
6.2426847325
 20
5.8171760537
 40
0.57834
100
AcDbArc
 50
336.2460458103
 51
338.3001277255
  0
ARC
  5
2D5
100
AcDbEntity
  8
0
100
AcDbCircle
 62
7
  6
CONTINUOUS
 10
7.0180498198
 20
5.8171760537
 40
0.57834
100
AcDbArc
 50
201.6998722745
 51
203.7539541897
  0
ARC
  5
2D6
100
AcDbEntity
  8
0
100
AcDbCircle
 62
7
  6
CONTINUOUS
 10
6.5180498198
 20
5.8171760537
 40
0.57834
100
AcDbArc
 50
201.6998722745
 51
203.7539541897
  0
ARC
  5
2D7
100
AcDbEntity
  8
0
100
AcDbCircle
 62
7
  6
CONTINUOUS
 10
7.4017472762
 20
5.5719210757
 40
0.084969
100
AcDbArc
 50
21.6998722745
 51
33.3351729967
  0
ARC
  5
2D8
100
AcDbEntity
  8
0
100
AcDbCircle
 62
7
  6
CONTINUOUS
 10
7.3589872762
 20
5.5719210757
 40
0.084969
100
AcDbArc
 50
146.6648270033
 51
158.3001277255
  0
ARC
  5
2D9
100
AcDbEntity
  8
0
100
AcDbCircle
 62
7
  6
CONTINUOUS
 10
6.9017472762
 20
5.5719210757
 40
0.084969
100
AcDbArc
 50
21.6998722745
 51
33.3351729967
  0
ARC
  5
2DA
100
AcDbEntity
  8
0
100
AcDbCircle
 62
7
  6
CONTINUOUS
 10
6.8589872762
 20
5.5719210757
 40
0.084969
100
AcDbArc
 50
146.6648270033
 51
158.3001277255
  0
ARC
  5
2DB
100
AcDbEntity
  8
0
100
AcDbCircle
 62
7
  6
CONTINUOUS
 10
6.4017472762
 20
5.5719210757
 40
0.084969
100
AcDbArc
 50
21.6998722745
 51
33.3351729967
  0
ARC
  5
2DC
100
AcDbEntity
  8
0
100
AcDbCircle
 62
7
  6
CONTINUOUS
 10
6.3589872762
 20
5.5719210757
 40
0.084969
100
AcDbArc
 50
146.6648270033
 51
158.3001277255
  0
ARC
  5
2DD
100
AcDbEntity
  8
0
100
AcDbCircle
 62
7
  6
CONTINUOUS
 10
7.4235772762
 20
5.5862798968
 40
0.05884
100
AcDbArc
 50
33.3351729967
 51
90.0
  0
ARC
  5
2DE
100
AcDbEntity
  8
0
100
AcDbCircle
 62
7
  6
CONTINUOUS
 10
7.3371572762
 20
5.5862798968
 40
0.05884
100
AcDbArc
 50
90.0
 51
146.6648270033
  0
ARC
  5
2DF
100
AcDbEntity
  8
0
100
AcDbCircle
 62
7
  6
CONTINUOUS
 10
6.9235772762
 20
5.5862798968
 40
0.05884
100
AcDbArc
 50
33.3351729967
 51
90.0
  0
ARC
  5
2E0
100
AcDbEntity
  8
0
100
AcDbCircle
 62
7
  6
CONTINUOUS
 10
6.8371572762
 20
5.5862798968
 40
0.05884
100
AcDbArc
 50
90.0
 51
146.6648270033
  0
ARC
  5
2E1
100
AcDbEntity
  8
0
100
AcDbCircle
 62
7
  6
CONTINUOUS
 10
6.4235772762
 20
5.5862798968
 40
0.05884
100
AcDbArc
 50
33.3351729967
 51
90.0
  0
ARC
  5
2E2
100
AcDbEntity
  8
0
100
AcDbCircle
 62
7
  6
CONTINUOUS
 10
6.3371572762
 20
5.5862798968
 40
0.05884
100
AcDbArc
 50
90.0
 51
146.6648270033
  0
ARC
  5
2E3
100
AcDbEntity
  8
0
100
AcDbCircle
 62
7
  6
CONTINUOUS
 10
7.5332972762
 20
5.6038398968
 40
0.04872
100
AcDbArc
 50
203.7539541897
 51
270.0
  0
ARC
  5
2E4
100
AcDbEntity
  8
0
100
AcDbCircle
 62
7
  6
CONTINUOUS
 10
7.2274372762
 20
5.6038398968
 40
0.04872
100
AcDbArc
 50
270.0
 51
336.2460458103
  0
ARC
  5
2E5
100
AcDbEntity
  8
0
100
AcDbCircle
 62
7
  6
CONTINUOUS
 10
7.0332972762
 20
5.6038398968
 40
0.04872
100
AcDbArc
 50
203.7539541897
 51
270.0
  0
ARC
  5
2E6
100
AcDbEntity
  8
0
100
AcDbCircle
 62
7
  6
CONTINUOUS
 10
6.7274372762
 20
5.6038398968
 40
0.04872
100
AcDbArc
 50
270.0
 51
336.2460458103
  0
ARC
  5
2E7
100
AcDbEntity
  8
0
100
AcDbCircle
 62
7
  6
CONTINUOUS
 10
6.5332972762
 20
5.6038398968
 40
0.04872
100
AcDbArc
 50
203.7539541897
 51
270.0
  0
ARC
  5
2E8
100
AcDbEntity
  8
0
100
AcDbCircle
 62
7
  6
CONTINUOUS
 10
6.2274372762
 20
5.6038398968
 40
0.04872
100
AcDbArc
 50
270.0
 51
336.2460458103
  0
ARC
  5
2E9
100
AcDbEntity
  8
0
100
AcDbCircle
 62
7
  6
CONTINUOUS
 10
15.109799783
 20
11.6965225811
 40
0.638704998
100
AcDbArc
 50
47.2222834731
 51
48.8165500072
  0
ARC
  5
2EA
100
AcDbEntity
  8
0
100
AcDbCircle
 62
7
  6
CONTINUOUS
 10
14.188738789
 20
11.6965225811
 40
0.638704998
100
AcDbArc
 50
47.2222834731
 51
48.8165500072
  0
ARC
  5
2EB
100
AcDbEntity
  8
0
100
AcDbCircle
 62
7
  6
CONTINUOUS
 10
14.649269286
 20
11.6965225811
 40
0.638704998
100
AcDbArc
 50
47.222283473
 51
48.8165500072
  0
ARC
  5
2EC
100
AcDbEntity
  8
0
100
AcDbCircle
 62
7
  6
CONTINUOUS
 10
13.728208292
 20
11.6965225811
 40
0.6387049979
100
AcDbArc
 50
47.222283473
 51
48.8165500073
  0
ARC
  5
2ED
100
AcDbEntity
  8
0
100
AcDbCircle
 62
7
  6
CONTINUOUS
 10
13.9165638734
 20
12.288030775
 40
0.1956036846
100
AcDbArc
 50
350.8421728858
 51
354.3538923847
  0
ARC
  5
2EE
100
AcDbEntity
  8
0
100
AcDbCircle
 62
7
  6
CONTINUOUS
 10
14.3770943704
 20
12.288030775
 40
0.1956036845
100
AcDbArc
 50
350.8421728856
 51
354.3538923848
  0
ARC
  5
2EF
100
AcDbEntity
  8
0
100
AcDbCircle
 62
7
  6
CONTINUOUS
 10
14.8376248674
 20
12.288030775
 40
0.1956036846
100
AcDbArc
 50
350.8421728857
 51
354.3538923847
  0
ARC
  5
2F0
100
AcDbEntity
  8
0
100
AcDbCircle
 62
7
  6
CONTINUOUS
 10
15.2981553644
 20
12.288030775
 40
0.1956036845
100
AcDbArc
 50
350.8421728857
 51
354.3538923847
  0
ARC
  5
2F1
100
AcDbEntity
  8
0
100
AcDbCircle
 62
7
  6
CONTINUOUS
 10
14.541458836
 20
12.1460840286
 40
0.1956036845
100
AcDbArc
 50
170.8421728857
 51
174.3538923847
  0
ARC
  5
2F2
100
AcDbEntity
  8
0
100
AcDbCircle
 62
7
  6
CONTINUOUS
 10
15.46251983
 20
12.1460840286
 40
0.1956036845
100
AcDbArc
 50
170.8421728856
 51
174.3538923848
  0
ARC
  5
2F3
100
AcDbEntity
  8
0
100
AcDbCircle
 62
7
  6
CONTINUOUS
 10
15.001989333
 20
12.1460840286
 40
0.1956036845
100
AcDbArc
 50
170.8421728857
 51
174.3538923847
  0
ARC
  5
2F4
100
AcDbEntity
  8
0
100
AcDbCircle
 62
7
  6
CONTINUOUS
 10
14.139190742
 20
12.2660521638
 40
0.0281054762
100
AcDbArc
 50
154.1673306624
 51
174.4168540288
  0
ARC
  5
2F5
100
AcDbEntity
  8
0
100
AcDbCircle
 62
7
  6
CONTINUOUS
 10
14.599721239
 20
12.2660521638
 40
0.0281054762
100
AcDbArc
 50
154.1673306622
 51
174.4168540286
  0
ARC
  5
2F6
100
AcDbEntity
  8
0
100
AcDbCircle
 62
7
  6
CONTINUOUS
 10
15.060251736
 20
12.2660521638
 40
0.0281054762
100
AcDbArc
 50
154.1673306624
 51
174.4168540287
  0
ARC
  5
2F7
100
AcDbEntity
  8
0
100
AcDbCircle
 62
7
  6
CONTINUOUS
 10
14.3188319674
 20
12.1680626397
 40
0.0281054762
100
AcDbArc
 50
334.1673306623
 51
354.4168540287
  0
ARC
  5
2F8
100
AcDbEntity
  8
0
100
AcDbCircle
 62
7
  6
CONTINUOUS
 10
15.2398929614
 20
12.1680626397
 40
0.0281054762
100
AcDbArc
 50
334.1673306622
 51
354.4168540287
  0
ARC
  5
2F9
100
AcDbEntity
  8
0
100
AcDbCircle
 62
7
  6
CONTINUOUS
 10
14.7793624644
 20
12.1680626397
 40
0.0281054762
100
AcDbArc
 50
334.1673306622
 51
354.4168540287
  0
ARC
  5
2FA
100
AcDbEntity
  8
0
100
AcDbCircle
 62
7
  6
CONTINUOUS
 10
14.7298144174
 20
12.7375922225
 40
0.638704998
100
AcDbArc
 50
227.2222834731
 51
228.8165500072
  0
ARC
  5
2FB
100
AcDbEntity
  8
0
100
AcDbCircle
 62
7
  6
CONTINUOUS
 10
14.9113641599
 20
13.3250874047
 40
0.638704998
100
AcDbArc
 50
227.222283473
 51
228.8165500072
  0
ARC
  5
2FC
100
AcDbEntity
  8
0
100
AcDbCircle
 62
7
  6
CONTINUOUS
 10
15.3718946569
 20
13.3250874047
 40
0.638704998
100
AcDbArc
 50
227.222283473
 51
228.8165500072
  0
ARC
  5
2FD
100
AcDbEntity
  8
0
100
AcDbCircle
 62
7
  6
CONTINUOUS
 10
15.1903449144
 20
12.7375922225
 40
0.638704998
100
AcDbArc
 50
227.222283473
 51
228.8165500072
  0
ARC
  5
2FE
100
AcDbEntity
  8
0
100
AcDbCircle
 62
7
  6
CONTINUOUS
 10
14.3207362533
 20
12.853530676
 40
0.0281063569
100
AcDbArc
 50
154.1673306625
 51
162.8050439064
  0
ARC
  5
2FF
100
AcDbEntity
  8
0
100
AcDbCircle
 62
7
  6
CONTINUOUS
 10
15.2417972473
 20
12.853530676
 40
0.0281063569
100
AcDbArc
 50
154.1673306625
 51
162.8050439063
  0
ARC
  5
300
100
AcDbEntity
  8
0
100
AcDbCircle
 62
7
  6
CONTINUOUS
 10
14.7812667503
 20
12.853530676
 40
0.0281063569
100
AcDbArc
 50
154.1673306624
 51
162.8050439065
  0
ARC
  5
301
100
AcDbEntity
  8
0
100
AcDbCircle
 62
7
  6
CONTINUOUS
 10
16.030860777
 20
11.6965225811
 40
0.638704998
100
AcDbArc
 50
47.222283473
 51
48.8165500072
  0
ARC
  5
302
100
AcDbEntity
  8
0
100
AcDbCircle
 62
7
  6
CONTINUOUS
 10
15.57033028
 20
11.6965225811
 40
0.638704998
100
AcDbArc
 50
47.222283473
 51
48.8165500072
  0
ARC
  5
303
100
AcDbEntity
  8
0
100
AcDbCircle
 62
7
  6
CONTINUOUS
 10
15.7586858614
 20
12.288030775
 40
0.1956036845
100
AcDbArc
 50
350.8421728857
 51
354.3538923847
  0
ARC
  5
304
100
AcDbEntity
  8
0
100
AcDbCircle
 62
7
  6
CONTINUOUS
 10
16.2192163584
 20
12.288030775
 40
0.1956036845
100
AcDbArc
 50
350.8421728857
 51
354.3538923847
  0
ARC
  5
305
100
AcDbEntity
  8
0
100
AcDbCircle
 62
7
  6
CONTINUOUS
 10
16.844111321
 20
12.1460840286
 40
0.1956036845
100
AcDbArc
 50
170.8421728857
 51
174.3538923848
  0
ARC
  5
306
100
AcDbEntity
  8
0
100
AcDbCircle
 62
7
  6
CONTINUOUS
 10
16.383580824
 20
12.1460840286
 40
0.1956036845
100
AcDbArc
 50
170.8421728856
 51
174.3538923848
  0
ARC
  5
307
100
AcDbEntity
  8
0
100
AcDbCircle
 62
7
  6
CONTINUOUS
 10
15.923050327
 20
12.1460840286
 40
0.1956036845
100
AcDbArc
 50
170.8421728857
 51
174.3538923847
  0
ARC
  5
308
100
AcDbEntity
  8
0
100
AcDbCircle
 62
7
  6
CONTINUOUS
 10
15.520782233
 20
12.2660521638
 40
0.0281054762
100
AcDbArc
 50
154.1673306622
 51
174.4168540288
  0
ARC
  5
309
100
AcDbEntity
  8
0
100
AcDbCircle
 62
7
  6
CONTINUOUS
 10
15.98131273
 20
12.2660521638
 40
0.0281054762
100
AcDbArc
 50
154.1673306625
 51
174.4168540287
  0
ARC
  5
30A
100
AcDbEntity
  8
0
100
AcDbCircle
 62
7
  6
CONTINUOUS
 10
16.441843227
 20
12.2660521638
 40
0.0281054762
100
AcDbArc
 50
154.1673306622
 51
174.4168540289
  0
ARC
  5
30B
100
AcDbEntity
  8
0
100
AcDbCircle
 62
7
  6
CONTINUOUS
 10
16.6214844524
 20
12.1680626397
 40
0.0281054762
100
AcDbArc
 50
334.1673306624
 51
354.4168540287
  0
ARC
  5
30C
100
AcDbEntity
  8
0
100
AcDbCircle
 62
7
  6
CONTINUOUS
 10
15.7004234584
 20
12.1680626397
 40
0.0281054762
100
AcDbArc
 50
334.1673306624
 51
354.4168540287
  0
ARC
  5
30D
100
AcDbEntity
  8
0
100
AcDbCircle
 62
7
  6
CONTINUOUS
 10
16.1609539554
 20
12.1680626397
 40
0.0281054762
100
AcDbArc
 50
334.1673306624
 51
354.4168540287
  0
ARC
  5
30E
100
AcDbEntity
  8
0
100
AcDbCircle
 62
7
  6
CONTINUOUS
 10
16.7534861479
 20
13.3250874047
 40
0.638704998
100
AcDbArc
 50
227.2222834731
 51
228.8165500072
  0
ARC
  5
30F
100
AcDbEntity
  8
0
100
AcDbCircle
 62
7
  6
CONTINUOUS
 10
16.292955651
 20
13.3250874047
 40
0.638704998
100
AcDbArc
 50
227.2222834731
 51
228.8165500072
  0
ARC
  5
310
100
AcDbEntity
  8
0
100
AcDbCircle
 62
7
  6
CONTINUOUS
 10
17.0324669024
 20
12.7375922225
 40
0.638704998
100
AcDbArc
 50
227.222283473
 51
228.8165500072
  0
ARC
  5
311
100
AcDbEntity
  8
0
100
AcDbCircle
 62
7
  6
CONTINUOUS
 10
15.6508754114
 20
12.7375922225
 40
0.638704998
100
AcDbArc
 50
227.222283473
 51
228.8165500072
  0
ARC
  5
312
100
AcDbEntity
  8
0
100
AcDbCircle
 62
7
  6
CONTINUOUS
 10
17.2140166449
 20
13.3250874047
 40
0.638704998
100
AcDbArc
 50
227.222283473
 51
228.8165500072
  0
ARC
  5
313
100
AcDbEntity
  8
0
100
AcDbCircle
 62
7
  6
CONTINUOUS
 10
15.8324251539
 20
13.3250874047
 40
0.638704998
100
AcDbArc
 50
227.222283473
 51
228.8165500072
  0
ARC
  5
314
100
AcDbEntity
  8
0
100
AcDbCircle
 62
7
  6
CONTINUOUS
 10
16.5719364054
 20
12.7375922225
 40
0.638704998
100
AcDbArc
 50
227.222283473
 51
228.8165500072
  0
ARC
  5
315
100
AcDbEntity
  8
0
100
AcDbCircle
 62
7
  6
CONTINUOUS
 10
16.1114059084
 20
12.7375922225
 40
0.638704998
100
AcDbArc
 50
227.222283473
 51
228.8165500072
  0
ARC
  5
316
100
AcDbEntity
  8
0
100
AcDbCircle
 62
7
  6
CONTINUOUS
 10
16.6233887383
 20
12.853530676
 40
0.0281063569
100
AcDbArc
 50
154.1673306623
 51
162.8050439066
  0
ARC
  5
317
100
AcDbEntity
  8
0
100
AcDbCircle
 62
7
  6
CONTINUOUS
 10
16.1628582413
 20
12.853530676
 40
0.0281063569
100
AcDbArc
 50
154.1673306623
 51
162.8050439065
  0
ARC
  5
318
100
AcDbEntity
  8
0
100
AcDbCircle
 62
7
  6
CONTINUOUS
 10
15.7023277443
 20
12.853530676
 40
0.0281063569
100
AcDbArc
 50
154.1673306623
 51
162.8050439065
  0
SPLINE
  5
319
100
AcDbEntity
  8
0
100
AcDbSpline
 62
7
  6
CONTINUOUS
 70
0
 71
3
 72
15
 73
11
 74
0
 42
0.0000001
 43
0.0000001
 44
0.0000000001
 40
0.0
 40
0.0
 40
0.0
 40
0.0
 40
0.1222057151
 40
0.2488986716
 40
0.3780641057
 40
0.507917285
 40
0.6367249041
 40
0.7627980176
 40
0.884475195
 40
1.0
 40
1.0
 40
1.0
 40
1.0
 10
14.5407424897
 20
12.8263089329
 30
0.0
 10
14.5385363375
 20
12.8263089329
 30
0.0
 10
14.5340409428
 20
12.8265338572
 30
0.0
 10
14.5272731927
 20
12.8274764169
 30
0.0
 10
14.5204753778
 20
12.8290225574
 30
0.0
 10
14.5137913671
 20
12.8311327567
 30
0.0
 10
14.5073564815
 20
12.8337679009
 30
0.0
 10
14.5012985555
 20
12.8368718533
 30
0.0
 10
14.4957499987
 20
12.8403845688
 30
0.0
 10
14.492364256
 20
12.8430213808
 30
0.0
 10
14.4907947412
 20
12.8443947394
 30
0.0
  0
SPLINE
  5
31A
100
AcDbEntity
  8
0
100
AcDbSpline
 62
7
  6
CONTINUOUS
 70
0
 71
3
 72
9
 73
5
 74
0
 42
0.0000001
 43
0.0000001
 44
0.0000000001
 40
0.0
 40
0.0
 40
0.0
 40
0.0
 40
0.2423988484
 40
1.0
 40
1.0
 40
1.0
 40
1.0
 10
14.4775838981
 20
12.8562817318
 30
0.0
 10
14.4766764639
 20
12.8571216542
 30
0.0
 10
14.4728625896
 20
12.8605103852
 30
0.0
 10
14.4687857341
 20
12.863599476
 30
0.0
 10
14.4655936367
 20
12.8657778631
 30
0.0
  0
SPLINE
  5
31B
100
AcDbEntity
  8
0
100
AcDbSpline
 62
7
  6
CONTINUOUS
 70
0
 71
3
 72
13
 73
9
 74
0
 42
0.0000001
 43
0.0000001
 44
0.0000000001
 40
0.0
 40
0.0
 40
0.0
 40
0.0
 40
0.1203837678
 40
0.2448858705
 40
0.5000359659
 40
0.7551674118
 40
0.8796468281
 40
1.0
 40
1.0
 40
1.0
 40
1.0
 10
14.4655936367
 20
12.8657778631
 30
0.0
 10
14.4637174579
 20
12.8670582261
 30
0.0
 10
14.4597874561
 20
12.8694997124
 30
0.0
 10
14.4514104692
 20
12.8738556451
 30
0.0
 10
14.4402004934
 20
12.8781956933
 30
0.0
 10
14.4284953989
 20
12.8809307345
 30
0.0
 10
14.4191221246
 20
12.8820551261
 30
0.0
 10
14.4145007582
 20
12.8822538301
 30
0.0
 10
14.4122299095
 20
12.8822538301
 30
0.0
  0
SPLINE
  5
31C
100
AcDbEntity
  8
0
100
AcDbSpline
 62
7
  6
CONTINUOUS
 70
0
 71
3
 72
15
 73
11
 74
0
 42
0.0000001
 43
0.0000001
 44
0.0000000001
 40
0.0
 40
0.0
 40
0.0
 40
0.0
 40
0.1530780943
 40
0.2990728638
 40
0.4366363831
 40
0.5650828719
 40
0.6846338945
 40
0.796035822
 40
0.9005658846
 40
1.0
 40
1.0
 40
1.0
 40
1.0
 10
14.3326318184
 20
12.8822538301
 30
0.0
 10
14.3304526197
 20
12.8822538301
 30
0.0
 10
14.3261924203
 20
12.8820777648
 30
0.0
 10
14.3200212528
 20
12.8812625623
 30
0.0
 10
14.3143020911
 20
12.8799105035
 30
0.0
 10
14.3091299755
 20
12.878031882
 30
0.0
 10
14.304578109
 20
12.8756579761
 30
0.0
 10
14.3007177261
 20
12.8728083095
 30
0.0
 10
14.2976127322
 20
12.8695318599
 30
0.0
 10
14.2960551227
 20
12.8670520555
 30
0.0
 10
14.2954385517
 20
12.8657778631
 30
0.0
  0
SPLINE
  5
31D
100
AcDbEntity
  8
0
100
AcDbSpline
 62
7
  6
CONTINUOUS
 70
0
 71
3
 72
13
 73
9
 74
0
 42
0.0000001
 43
0.0000001
 44
0.0000000001
 40
0.0
 40
0.0
 40
0.0
 40
0.0
 40
0.2121062147
 40
0.3275063593
 40
0.4494925856
 40
0.7130144533
 40
0.853985076
 40
1.0
 40
1.0
 40
1.0
 40
1.0
 10
14.2859802647
 20
12.8347634616
 30
0.0
 10
14.2845016558
 20
12.8333561789
 30
0.0
 10
14.2818903725
 20
12.8315140154
 30
0.0
 10
14.2779899958
 20
12.829635779
 30
0.0
 10
14.2734514438
 20
12.8279876392
 30
0.0
 10
14.2684684098
 20
12.8269300963
 30
0.0
 10
14.2631952451
 20
12.8263974828
 30
0.0
 10
14.2604319849
 20
12.8263089329
 30
0.0
 10
14.2590267741
 20
12.8263089329
 30
0.0
  0
SPLINE
  5
31E
100
AcDbEntity
  8
0
100
AcDbSpline
 62
7
  6
CONTINUOUS
 70
0
 71
3
 72
9
 73
5
 74
0
 42
0.0000001
 43
0.0000001
 44
0.0000000001
 40
0.0
 40
0.0
 40
0.0
 40
0.0
 40
0.4944528547
 40
1.0
 40
1.0
 40
1.0
 40
1.0
 10
14.3488603256
 20
12.1794003243
 30
0.0
 10
14.3491479688
 20
12.1803289434
 30
0.0
 10
14.3499033974
 20
12.1821572951
 30
0.0
 10
14.3509712571
 20
12.1838213097
 30
0.0
 10
14.3515756889
 20
12.1846103726
 30
0.0
  0
SPLINE
  5
31F
100
AcDbEntity
  8
0
100
AcDbSpline
 62
7
  6
CONTINUOUS
 70
0
 71
3
 72
14
 73
10
 74
0
 42
0.0000001
 43
0.0000001
 44
0.0000000001
 40
0.0
 40
0.0
 40
0.0
 40
0.0
 40
0.1011706613
 40
0.2079584709
 40
0.3215083982
 40
0.442515737
 40
0.7072637476
 40
0.8506392902
 40
1.0
 40
1.0
 40
1.0
 40
1.0
 10
14.3515756889
 20
12.1846103726
 30
0.0
 10
14.3522296216
 20
12.1854640571
 30
0.0
 10
14.3537342503
 20
12.1871000989
 30
0.0
 10
14.3564234245
 20
12.1892276853
 30
0.0
 10
14.3595642781
 20
12.1910656482
 30
0.0
 10
14.364449926
 20
12.193165489
 30
0.0
 10
14.3699550118
 20
12.1945115705
 30
0.0
 10
14.3758444179
 20
12.1951883459
 30
0.0
 10
14.3789580935
 20
12.1953010529
 30
0.0
 10
14.3805456778
 20
12.1953010529
 30
0.0
  0
SPLINE
  5
320
100
AcDbEntity
  8
0
100
AcDbSpline
 62
7
  6
CONTINUOUS
 70
0
 71
3
 72
13
 73
9
 74
0
 42
0.0000001
 43
0.0000001
 44
0.0000000001
 40
0.0
 40
0.0
 40
0.0
 40
0.0
 40
0.2121062147
 40
0.3275063593
 40
0.4494925856
 40
0.7130144533
 40
0.853985076
 40
1.0
 40
1.0
 40
1.0
 40
1.0
 10
14.7465107618
 20
12.8347634616
 30
0.0
 10
14.7450321528
 20
12.8333561789
 30
0.0
 10
14.7424208695
 20
12.8315140154
 30
0.0
 10
14.7385204928
 20
12.829635779
 30
0.0
 10
14.7339819408
 20
12.8279876392
 30
0.0
 10
14.7289989068
 20
12.8269300963
 30
0.0
 10
14.7237257421
 20
12.8263974828
 30
0.0
 10
14.7209624819
 20
12.8263089329
 30
0.0
 10
14.7195572711
 20
12.8263089329
 30
0.0
  0
SPLINE
  5
321
100
AcDbEntity
  8
0
100
AcDbSpline
 62
7
  6
CONTINUOUS
 70
0
 71
3
 72
9
 73
5
 74
0
 42
0.0000001
 43
0.0000001
 44
0.0000000001
 40
0.0
 40
0.0
 40
0.0
 40
0.0
 40
0.4944528547
 40
1.0
 40
1.0
 40
1.0
 40
1.0
 10
14.8093908226
 20
12.1794003243
 30
0.0
 10
14.8096784658
 20
12.1803289434
 30
0.0
 10
14.8104338944
 20
12.1821572951
 30
0.0
 10
14.8115017541
 20
12.1838213097
 30
0.0
 10
14.8121061859
 20
12.1846103726
 30
0.0
  0
SPLINE
  5
322
100
AcDbEntity
  8
0
100
AcDbSpline
 62
7
  6
CONTINUOUS
 70
0
 71
3
 72
14
 73
10
 74
0
 42
0.0000001
 43
0.0000001
 44
0.0000000001
 40
0.0
 40
0.0
 40
0.0
 40
0.0
 40
0.1011706613
 40
0.2079584709
 40
0.3215083982
 40
0.442515737
 40
0.7072637476
 40
0.8506392902
 40
1.0
 40
1.0
 40
1.0
 40
1.0
 10
14.8121061859
 20
12.1846103726
 30
0.0
 10
14.8127601186
 20
12.1854640571
 30
0.0
 10
14.8142647473
 20
12.1871000989
 30
0.0
 10
14.8169539215
 20
12.1892276853
 30
0.0
 10
14.8200947751
 20
12.1910656482
 30
0.0
 10
14.824980423
 20
12.193165489
 30
0.0
 10
14.8304855088
 20
12.1945115705
 30
0.0
 10
14.8363749149
 20
12.1951883459
 30
0.0
 10
14.8394885905
 20
12.1953010529
 30
0.0
 10
14.8410761748
 20
12.1953010529
 30
0.0
  0
SPLINE
  5
323
100
AcDbEntity
  8
0
100
AcDbSpline
 62
7
  6
CONTINUOUS
 70
0
 71
3
 72
13
 73
9
 74
0
 42
0.0000001
 43
0.0000001
 44
0.0000000001
 40
0.0
 40
0.0
 40
0.0
 40
0.0
 40
0.2121062147
 40
0.3275063593
 40
0.4494925856
 40
0.7130144533
 40
0.853985076
 40
1.0
 40
1.0
 40
1.0
 40
1.0
 10
15.2070412588
 20
12.8347634616
 30
0.0
 10
15.2055626498
 20
12.8333561789
 30
0.0
 10
15.2029513665
 20
12.8315140154
 30
0.0
 10
15.1990509898
 20
12.829635779
 30
0.0
 10
15.1945124378
 20
12.8279876392
 30
0.0
 10
15.1895294038
 20
12.8269300963
 30
0.0
 10
15.1842562391
 20
12.8263974828
 30
0.0
 10
15.1814929789
 20
12.8263089329
 30
0.0
 10
15.1800877681
 20
12.8263089329
 30
0.0
  0
SPLINE
  5
324
100
AcDbEntity
  8
0
100
AcDbSpline
 62
7
  6
CONTINUOUS
 70
0
 71
3
 72
9
 73
5
 74
0
 42
0.0000001
 43
0.0000001
 44
0.0000000001
 40
0.0
 40
0.0
 40
0.0
 40
0.0
 40
0.4944528547
 40
1.0
 40
1.0
 40
1.0
 40
1.0
 10
15.2699213196
 20
12.1794003243
 30
0.0
 10
15.2702089628
 20
12.1803289434
 30
0.0
 10
15.2709643914
 20
12.1821572951
 30
0.0
 10
15.2720322511
 20
12.1838213097
 30
0.0
 10
15.2726366829
 20
12.1846103726
 30
0.0
  0
SPLINE
  5
325
100
AcDbEntity
  8
0
100
AcDbSpline
 62
7
  6
CONTINUOUS
 70
0
 71
3
 72
14
 73
10
 74
0
 42
0.0000001
 43
0.0000001
 44
0.0000000001
 40
0.0
 40
0.0
 40
0.0
 40
0.0
 40
0.1011706613
 40
0.2079584709
 40
0.3215083982
 40
0.442515737
 40
0.7072637476
 40
0.8506392902
 40
1.0
 40
1.0
 40
1.0
 40
1.0
 10
15.2726366829
 20
12.1846103726
 30
0.0
 10
15.2732906156
 20
12.1854640571
 30
0.0
 10
15.2747952443
 20
12.1871000989
 30
0.0
 10
15.2774844185
 20
12.1892276853
 30
0.0
 10
15.2806252721
 20
12.1910656482
 30
0.0
 10
15.28551092
 20
12.193165489
 30
0.0
 10
15.2910160058
 20
12.1945115705
 30
0.0
 10
15.2969054119
 20
12.1951883459
 30
0.0
 10
15.3000190875
 20
12.1953010529
 30
0.0
 10
15.3016066718
 20
12.1953010529
 30
0.0
  0
SPLINE
  5
326
100
AcDbEntity
  8
0
100
AcDbSpline
 62
7
  6
CONTINUOUS
 70
0
 71
3
 72
13
 73
9
 74
0
 42
0.0000001
 43
0.0000001
 44
0.0000000001
 40
0.0
 40
0.0
 40
0.0
 40
0.0
 40
0.2121062147
 40
0.3275063593
 40
0.4494925856
 40
0.7130144533
 40
0.853985076
 40
1.0
 40
1.0
 40
1.0
 40
1.0
 10
15.6675717558
 20
12.8347634616
 30
0.0
 10
15.6660931468
 20
12.8333561789
 30
0.0
 10
15.6634818635
 20
12.8315140154
 30
0.0
 10
15.6595814868
 20
12.829635779
 30
0.0
 10
15.6550429348
 20
12.8279876392
 30
0.0
 10
15.6500599008
 20
12.8269300963
 30
0.0
 10
15.6447867361
 20
12.8263974828
 30
0.0
 10
15.6420234759
 20
12.8263089329
 30
0.0
 10
15.6406182651
 20
12.8263089329
 30
0.0
  0
SPLINE
  5
327
100
AcDbEntity
  8
0
100
AcDbSpline
 62
7
  6
CONTINUOUS
 70
0
 71
3
 72
9
 73
5
 74
0
 42
0.0000001
 43
0.0000001
 44
0.0000000001
 40
0.0
 40
0.0
 40
0.0
 40
0.0
 40
0.4944528547
 40
1.0
 40
1.0
 40
1.0
 40
1.0
 10
15.7304518166
 20
12.1794003243
 30
0.0
 10
15.7307394598
 20
12.1803289434
 30
0.0
 10
15.7314948884
 20
12.1821572951
 30
0.0
 10
15.7325627481
 20
12.1838213097
 30
0.0
 10
15.7331671799
 20
12.1846103726
 30
0.0
  0
SPLINE
  5
328
100
AcDbEntity
  8
0
100
AcDbSpline
 62
7
  6
CONTINUOUS
 70
0
 71
3
 72
14
 73
10
 74
0
 42
0.0000001
 43
0.0000001
 44
0.0000000001
 40
0.0
 40
0.0
 40
0.0
 40
0.0
 40
0.1011706613
 40
0.2079584709
 40
0.3215083982
 40
0.442515737
 40
0.7072637476
 40
0.8506392902
 40
1.0
 40
1.0
 40
1.0
 40
1.0
 10
15.7331671799
 20
12.1846103726
 30
0.0
 10
15.7338211126
 20
12.1854640571
 30
0.0
 10
15.7353257413
 20
12.1871000989
 30
0.0
 10
15.7380149155
 20
12.1892276853
 30
0.0
 10
15.7411557691
 20
12.1910656482
 30
0.0
 10
15.746041417
 20
12.193165489
 30
0.0
 10
15.7515465028
 20
12.1945115705
 30
0.0
 10
15.7574359089
 20
12.1951883459
 30
0.0
 10
15.7605495845
 20
12.1953010529
 30
0.0
 10
15.7621371688
 20
12.1953010529
 30
0.0
  0
SPLINE
  5
329
100
AcDbEntity
  8
0
100
AcDbSpline
 62
7
  6
CONTINUOUS
 70
0
 71
3
 72
13
 73
9
 74
0
 42
0.0000001
 43
0.0000001
 44
0.0000000001
 40
0.0
 40
0.0
 40
0.0
 40
0.0
 40
0.2128446019
 40
0.3284961035
 40
0.4505673688
 40
0.5790792891
 40
0.7138784856
 40
1.0
 40
1.0
 40
1.0
 40
1.0
 10
16.1277968338
 20
12.8344781115
 30
0.0
 10
16.126307211
 20
12.8331153178
 30
0.0
 10
16.123699107
 20
12.8313368699
 30
0.0
 10
16.1198277676
 20
12.8295194785
 30
0.0
 10
16.1165476305
 20
12.8283571164
 30
0.0
 10
16.113003632
 20
12.8274438721
 30
0.0
 10
16.1078646127
 20
12.8265520439
 30
0.0
 10
16.1038627925
 20
12.8263089329
 30
0.0
 10
16.1011487621
 20
12.8263089329
 30
0.0
  0
SPLINE
  5
32A
100
AcDbEntity
  8
0
100
AcDbSpline
 62
7
  6
CONTINUOUS
 70
0
 71
3
 72
9
 73
5
 74
0
 42
0.0000001
 43
0.0000001
 44
0.0000000001
 40
0.0
 40
0.0
 40
0.0
 40
0.0
 40
0.4970656586
 40
1.0
 40
1.0
 40
1.0
 40
1.0
 10
16.1909818224
 20
12.1794004766
 30
0.0
 10
16.1911893606
 20
12.1800713548
 30
0.0
 10
16.1916964815
 20
12.1813948861
 30
0.0
 10
16.1923712826
 20
12.1826410575
 30
0.0
 10
16.1927481403
 20
12.1832434209
 30
0.0
  0
SPLINE
  5
32B
100
AcDbEntity
  8
0
100
AcDbSpline
 62
7
  6
CONTINUOUS
 70
0
 71
3
 72
15
 73
11
 74
0
 42
0.0000001
 43
0.0000001
 44
0.0000000001
 40
0.0
 40
0.0
 40
0.0
 40
0.0
 40
0.1002094141
 40
0.2057752028
 40
0.3182902825
 40
0.4386528898
 40
0.5672541698
 40
0.7040721381
 40
0.8486831991
 40
1.0
 40
1.0
 40
1.0
 40
1.0
 10
16.1927481403
 20
12.1832434209
 30
0.0
 10
16.1933426678
 20
12.1841937043
 30
0.0
 10
16.1947604557
 20
12.1860271411
 30
0.0
 10
16.1974130396
 20
12.1884253353
 30
0.0
 10
16.2005959951
 20
12.1905004518
 30
0.0
 10
16.2042621265
 20
12.1922317562
 30
0.0
 10
16.2083653293
 20
12.193597035
 30
0.0
 10
16.2128524696
 20
12.1945826788
 30
0.0
 10
16.2176630401
 20
12.1951740008
 30
0.0
 10
16.2209750432
 20
12.1953010529
 30
0.0
 10
16.2226676658
 20
12.1953010529
 30
0.0
  0
SPLINE
  5
32C
100
AcDbEntity
  8
0
100
AcDbSpline
 62
7
  6
CONTINUOUS
 70
0
 71
3
 72
13
 73
9
 74
0
 42
0.0000001
 43
0.0000001
 44
0.0000000001
 40
0.0
 40
0.0
 40
0.0
 40
0.0
 40
0.2128446019
 40
0.3284961035
 40
0.4505673688
 40
0.5790792891
 40
0.7138784856
 40
1.0
 40
1.0
 40
1.0
 40
1.0
 10
16.5883273308
 20
12.8344781115
 30
0.0
 10
16.586837708
 20
12.8331153178
 30
0.0
 10
16.584229604
 20
12.8313368699
 30
0.0
 10
16.5803582646
 20
12.8295194785
 30
0.0
 10
16.5770781275
 20
12.8283571164
 30
0.0
 10
16.573534129
 20
12.8274438721
 30
0.0
 10
16.5683951097
 20
12.8265520439
 30
0.0
 10
16.5643932895
 20
12.8263089329
 30
0.0
 10
16.5616792591
 20
12.8263089329
 30
0.0
  0
SPLINE
  5
32D
100
AcDbEntity
  8
0
100
AcDbSpline
 62
7
  6
CONTINUOUS
 70
0
 71
3
 72
9
 73
5
 74
0
 42
0.0000001
 43
0.0000001
 44
0.0000000001
 40
0.0
 40
0.0
 40
0.0
 40
0.0
 40
0.4970656586
 40
1.0
 40
1.0
 40
1.0
 40
1.0
 10
16.6515123194
 20
12.1794004766
 30
0.0
 10
16.6517198576
 20
12.1800713548
 30
0.0
 10
16.6522269785
 20
12.1813948861
 30
0.0
 10
16.6529017796
 20
12.1826410575
 30
0.0
 10
16.6532786373
 20
12.1832434209
 30
0.0
  0
SPLINE
  5
32E
100
AcDbEntity
  8
0
100
AcDbSpline
 62
7
  6
CONTINUOUS
 70
0
 71
3
 72
15
 73
11
 74
0
 42
0.0000001
 43
0.0000001
 44
0.0000000001
 40
0.0
 40
0.0
 40
0.0
 40
0.0
 40
0.1002094141
 40
0.2057752028
 40
0.3182902825
 40
0.4386528898
 40
0.5672541698
 40
0.7040721381
 40
0.8486831991
 40
1.0
 40
1.0
 40
1.0
 40
1.0
 10
16.6532786373
 20
12.1832434209
 30
0.0
 10
16.6538731648
 20
12.1841937043
 30
0.0
 10
16.6552909527
 20
12.1860271411
 30
0.0
 10
16.6579435367
 20
12.1884253353
 30
0.0
 10
16.6611264921
 20
12.1905004518
 30
0.0
 10
16.6647926235
 20
12.1922317562
 30
0.0
 10
16.6688958263
 20
12.193597035
 30
0.0
 10
16.6733829666
 20
12.1945826788
 30
0.0
 10
16.6781935371
 20
12.1951740008
 30
0.0
 10
16.6815055402
 20
12.1953010529
 30
0.0
 10
16.6831981628
 20
12.1953010529
 30
0.0
  0
SPLINE
  5
32F
100
AcDbEntity
  8
0
100
AcDbSpline
 62
7
  6
CONTINUOUS
 70
0
 71
3
 72
15
 73
11
 74
0
 42
0.0000001
 43
0.0000001
 44
0.0000000001
 40
0.0
 40
0.0
 40
0.0
 40
0.0
 40
0.1222817011
 40
0.2489157101
 40
0.3780263748
 40
0.5079164659
 40
0.6367627405
 40
0.7627815246
 40
0.8844047757
 40
1.0
 40
1.0
 40
1.0
 40
1.0
 10
16.8433949747
 20
12.8263089329
 30
0.0
 10
16.8411874444
 20
12.8263089329
 30
0.0
 10
16.8366916351
 20
12.8265327527
 30
0.0
 10
16.8299248015
 20
12.8274770816
 30
0.0
 10
16.8231280621
 20
12.8290217418
 30
0.0
 10
16.8164441675
 20
12.8311336041
 30
0.0
 10
16.8100082874
 20
12.8337673922
 30
0.0
 10
16.8039520447
 20
12.8368718736
 30
0.0
 10
16.7984030006
 20
12.8403825855
 30
0.0
 10
16.7950177022
 20
12.8430205398
 30
0.0
 10
16.7934472262
 20
12.8443947394
 30
0.0
  0
SPLINE
  5
330
100
AcDbEntity
  8
0
100
AcDbSpline
 62
7
  6
CONTINUOUS
 70
0
 71
3
 72
9
 73
5
 74
0
 42
0.0000001
 43
0.0000001
 44
0.0000000001
 40
0.0
 40
0.0
 40
0.0
 40
0.0
 40
0.2423988484
 40
1.0
 40
1.0
 40
1.0
 40
1.0
 10
16.7802363831
 20
12.8562817318
 30
0.0
 10
16.7793289489
 20
12.8571216542
 30
0.0
 10
16.7755150746
 20
12.8605103852
 30
0.0
 10
16.7714382191
 20
12.863599476
 30
0.0
 10
16.7682461217
 20
12.8657778631
 30
0.0
  0
SPLINE
  5
331
100
AcDbEntity
  8
0
100
AcDbSpline
 62
7
  6
CONTINUOUS
 70
0
 71
3
 72
13
 73
9
 74
0
 42
0.0000001
 43
0.0000001
 44
0.0000000001
 40
0.0
 40
0.0
 40
0.0
 40
0.0
 40
0.1205724429
 40
0.2449984083
 40
0.5000359535
 40
0.7550549225
 40
0.8794582258
 40
1.0
 40
1.0
 40
1.0
 40
1.0
 10
16.7682461217
 20
12.8657778631
 30
0.0
 10
16.7663669821
 20
12.8670602466
 30
0.0
 10
16.7624364497
 20
12.869504978
 30
0.0
 10
16.7540585151
 20
12.8738597524
 30
0.0
 10
16.7428519001
 20
12.8781922038
 30
0.0
 10
16.7311538639
 20
12.8809316246
 30
0.0
 10
16.7217804595
 20
12.8820575081
 30
0.0
 10
16.7171568263
 20
12.8822538301
 30
0.0
 10
16.7148823945
 20
12.8822538301
 30
0.0
  0
SPLINE
  5
332
100
AcDbEntity
  8
0
100
AcDbSpline
 62
7
  6
CONTINUOUS
 70
0
 71
3
 72
15
 73
11
 74
0
 42
0.0000001
 43
0.0000001
 44
0.0000000001
 40
0.0
 40
0.0
 40
0.0
 40
0.0
 40
0.1533512302
 40
0.2992405476
 40
0.4366039312
 40
0.5650532778
 40
0.6846259244
 40
0.7959435865
 40
0.9004117086
 40
1.0
 40
1.0
 40
1.0
 40
1.0
 10
16.6352843034
 20
12.8822538301
 30
0.0
 10
16.6331011549
 20
12.8822538301
 30
0.0
 10
16.628838389
 20
12.8820800371
 30
0.0
 10
16.6226673034
 20
12.881264563
 30
0.0
 10
16.6169534155
 20
12.8799085788
 30
0.0
 10
16.6117835726
 20
12.878030732
 30
0.0
 10
16.6072326627
 20
12.8756569316
 30
0.0
 10
16.6033701553
 20
12.8728132107
 30
0.0
 10
16.6002635895
 20
12.8695370969
 30
0.0
 10
16.5987085811
 20
12.8670540671
 30
0.0
 10
16.5980910367
 20
12.8657778631
 30
0.0
  0
SPLINE
  5
333
100
AcDbEntity
  8
0
100
AcDbSpline
 62
7
  6
CONTINUOUS
 70
0
 71
3
 72
15
 73
11
 74
0
 42
0.0000001
 43
0.0000001
 44
0.0000000001
 40
0.0
 40
0.0
 40
0.0
 40
0.0
 40
0.1222817011
 40
0.2489157101
 40
0.3780263748
 40
0.5079164659
 40
0.6367627405
 40
0.7627815246
 40
0.8844047757
 40
1.0
 40
1.0
 40
1.0
 40
1.0
 10
16.3828644777
 20
12.8263089329
 30
0.0
 10
16.3806569474
 20
12.8263089329
 30
0.0
 10
16.3761611381
 20
12.8265327527
 30
0.0
 10
16.3693943045
 20
12.8274770816
 30
0.0
 10
16.3625975651
 20
12.8290217418
 30
0.0
 10
16.3559136705
 20
12.8311336041
 30
0.0
 10
16.3494777904
 20
12.8337673922
 30
0.0
 10
16.3434215477
 20
12.8368718736
 30
0.0
 10
16.3378725036
 20
12.8403825855
 30
0.0
 10
16.3344872052
 20
12.8430205398
 30
0.0
 10
16.3329167292
 20
12.8443947394
 30
0.0
  0
SPLINE
  5
334
100
AcDbEntity
  8
0
100
AcDbSpline
 62
7
  6
CONTINUOUS
 70
0
 71
3
 72
9
 73
5
 74
0
 42
0.0000001
 43
0.0000001
 44
0.0000000001
 40
0.0
 40
0.0
 40
0.0
 40
0.0
 40
0.2423988484
 40
1.0
 40
1.0
 40
1.0
 40
1.0
 10
16.3197058861
 20
12.8562817318
 30
0.0
 10
16.3187984519
 20
12.8571216542
 30
0.0
 10
16.3149845776
 20
12.8605103852
 30
0.0
 10
16.3109077221
 20
12.863599476
 30
0.0
 10
16.3077156247
 20
12.8657778631
 30
0.0
  0
SPLINE
  5
335
100
AcDbEntity
  8
0
100
AcDbSpline
 62
7
  6
CONTINUOUS
 70
0
 71
3
 72
15
 73
11
 74
0
 42
0.0000001
 43
0.0000001
 44
0.0000000001
 40
0.0
 40
0.0
 40
0.0
 40
0.0
 40
0.120477493
 40
0.2449058997
 40
0.3718496822
 40
0.5000359264
 40
0.6282174994
 40
0.7551474115
 40
0.8795531466
 40
1.0
 40
1.0
 40
1.0
 40
1.0
 10
16.3077156247
 20
12.8657778631
 30
0.0
 10
16.3058373535
 20
12.867059654
 30
0.0
 10
16.3019067759
 20
12.8695034859
 30
0.0
 10
16.2956745572
 20
12.8727447052
 30
0.0
 10
16.289086451
 20
12.8755750578
 30
0.0
 10
16.2822475963
 20
12.8779540578
 30
0.0
 10
16.2752581832
 20
12.8798445331
 30
0.0
 10
16.2682219151
 20
12.881220704
 30
0.0
 10
16.2612484419
 20
12.8820567394
 30
0.0
 10
16.2566252784
 20
12.8822538301
 30
0.0
 10
16.2543518975
 20
12.8822538301
 30
0.0
  0
SPLINE
  5
336
100
AcDbEntity
  8
0
100
AcDbSpline
 62
7
  6
CONTINUOUS
 70
0
 71
3
 72
15
 73
11
 74
0
 42
0.0000001
 43
0.0000001
 44
0.0000000001
 40
0.0
 40
0.0
 40
0.0
 40
0.0
 40
0.1532740614
 40
0.2992263589
 40
0.4366312608
 40
0.5650592695
 40
0.6845998962
 40
0.7959558292
 40
0.9004572415
 40
1.0
 40
1.0
 40
1.0
 40
1.0
 10
16.1747538064
 20
12.8822538301
 30
0.0
 10
16.1725717675
 20
12.8822538301
 30
0.0
 10
16.1683092983
 20
12.8820792379
 30
0.0
 10
16.1621376462
 20
12.8812650956
 30
0.0
 10
16.1564228827
 20
12.8799079292
 30
0.0
 10
16.1512527033
 20
12.8780314392
 30
0.0
 10
16.1467027229
 20
12.8756564773
 30
0.0
 10
16.1428390452
 20
12.8728133227
 30
0.0
 10
16.1397336251
 20
12.8695356773
 30
0.0
 10
16.1381777986
 20
12.8670534772
 30
0.0
 10
16.1375605397
 20
12.8657778631
 30
0.0
  0
SPLINE
  5
337
100
AcDbEntity
  8
0
100
AcDbSpline
 62
7
  6
CONTINUOUS
 70
0
 71
3
 72
15
 73
11
 74
0
 42
0.0000001
 43
0.0000001
 44
0.0000000001
 40
0.0
 40
0.0
 40
0.0
 40
0.0
 40
0.1222057151
 40
0.2488986716
 40
0.3780641057
 40
0.507917285
 40
0.6367249041
 40
0.7627980176
 40
0.884475195
 40
1.0
 40
1.0
 40
1.0
 40
1.0
 10
15.9223339807
 20
12.8263089329
 30
0.0
 10
15.9201278285
 20
12.8263089329
 30
0.0
 10
15.9156324338
 20
12.8265338572
 30
0.0
 10
15.9088646837
 20
12.8274764169
 30
0.0
 10
15.9020668688
 20
12.8290225574
 30
0.0
 10
15.8953828581
 20
12.8311327567
 30
0.0
 10
15.8889479725
 20
12.8337679009
 30
0.0
 10
15.8828900465
 20
12.8368718533
 30
0.0
 10
15.8773414897
 20
12.8403845688
 30
0.0
 10
15.873955747
 20
12.8430213808
 30
0.0
 10
15.8723862322
 20
12.8443947394
 30
0.0
  0
SPLINE
  5
338
100
AcDbEntity
  8
0
100
AcDbSpline
 62
7
  6
CONTINUOUS
 70
0
 71
3
 72
9
 73
5
 74
0
 42
0.0000001
 43
0.0000001
 44
0.0000000001
 40
0.0
 40
0.0
 40
0.0
 40
0.0
 40
0.2423988484
 40
1.0
 40
1.0
 40
1.0
 40
1.0
 10
15.8591753891
 20
12.8562817318
 30
0.0
 10
15.8582679549
 20
12.8571216542
 30
0.0
 10
15.8544540806
 20
12.8605103852
 30
0.0
 10
15.8503772251
 20
12.863599476
 30
0.0
 10
15.8471851277
 20
12.8657778631
 30
0.0
  0
SPLINE
  5
339
100
AcDbEntity
  8
0
100
AcDbSpline
 62
7
  6
CONTINUOUS
 70
0
 71
3
 72
15
 73
11
 74
0
 42
0.0000001
 43
0.0000001
 44
0.0000000001
 40
0.0
 40
0.0
 40
0.0
 40
0.0
 40
0.120477493
 40
0.2449058997
 40
0.3718496822
 40
0.5000359264
 40
0.6282174994
 40
0.7551474115
 40
0.8795531466
 40
1.0
 40
1.0
 40
1.0
 40
1.0
 10
15.8471851277
 20
12.8657778631
 30
0.0
 10
15.8453068565
 20
12.867059654
 30
0.0
 10
15.8413762789
 20
12.8695034859
 30
0.0
 10
15.8351440602
 20
12.8727447052
 30
0.0
 10
15.828555954
 20
12.8755750578
 30
0.0
 10
15.8217170993
 20
12.8779540578
 30
0.0
 10
15.8147276862
 20
12.8798445331
 30
0.0
 10
15.8076914181
 20
12.881220704
 30
0.0
 10
15.8007179449
 20
12.8820567394
 30
0.0
 10
15.7960947814
 20
12.8822538301
 30
0.0
 10
15.7938214005
 20
12.8822538301
 30
0.0
  0
SPLINE
  5
33A
100
AcDbEntity
  8
0
100
AcDbSpline
 62
7
  6
CONTINUOUS
 70
0
 71
3
 72
15
 73
11
 74
0
 42
0.0000001
 43
0.0000001
 44
0.0000000001
 40
0.0
 40
0.0
 40
0.0
 40
0.0
 40
0.1532740614
 40
0.2992263589
 40
0.4366312608
 40
0.5650592695
 40
0.6845998962
 40
0.7959558292
 40
0.9004572415
 40
1.0
 40
1.0
 40
1.0
 40
1.0
 10
15.7142233094
 20
12.8822538301
 30
0.0
 10
15.7120412705
 20
12.8822538301
 30
0.0
 10
15.7077788013
 20
12.8820792379
 30
0.0
 10
15.7016071492
 20
12.8812650956
 30
0.0
 10
15.6958923857
 20
12.8799079292
 30
0.0
 10
15.6907222063
 20
12.8780314392
 30
0.0
 10
15.6861722259
 20
12.8756564773
 30
0.0
 10
15.6823085482
 20
12.8728133227
 30
0.0
 10
15.6792031281
 20
12.8695356773
 30
0.0
 10
15.6776473016
 20
12.8670534772
 30
0.0
 10
15.6770300427
 20
12.8657778631
 30
0.0
  0
SPLINE
  5
33B
100
AcDbEntity
  8
0
100
AcDbSpline
 62
7
  6
CONTINUOUS
 70
0
 71
3
 72
15
 73
11
 74
0
 42
0.0000001
 43
0.0000001
 44
0.0000000001
 40
0.0
 40
0.0
 40
0.0
 40
0.0
 40
0.1222057151
 40
0.2488986716
 40
0.3780641057
 40
0.507917285
 40
0.6367249041
 40
0.7627980176
 40
0.884475195
 40
1.0
 40
1.0
 40
1.0
 40
1.0
 10
15.4618034837
 20
12.8263089329
 30
0.0
 10
15.4595973315
 20
12.8263089329
 30
0.0
 10
15.4551019368
 20
12.8265338572
 30
0.0
 10
15.4483341867
 20
12.8274764169
 30
0.0
 10
15.4415363718
 20
12.8290225574
 30
0.0
 10
15.4348523611
 20
12.8311327567
 30
0.0
 10
15.4284174755
 20
12.8337679009
 30
0.0
 10
15.4223595495
 20
12.8368718533
 30
0.0
 10
15.4168109927
 20
12.8403845688
 30
0.0
 10
15.41342525
 20
12.8430213808
 30
0.0
 10
15.4118557352
 20
12.8443947394
 30
0.0
  0
SPLINE
  5
33C
100
AcDbEntity
  8
0
100
AcDbSpline
 62
7
  6
CONTINUOUS
 70
0
 71
3
 72
9
 73
5
 74
0
 42
0.0000001
 43
0.0000001
 44
0.0000000001
 40
0.0
 40
0.0
 40
0.0
 40
0.0
 40
0.2423988484
 40
1.0
 40
1.0
 40
1.0
 40
1.0
 10
15.3986448921
 20
12.8562817318
 30
0.0
 10
15.3977374579
 20
12.8571216542
 30
0.0
 10
15.3939235836
 20
12.8605103852
 30
0.0
 10
15.3898467281
 20
12.863599476
 30
0.0
 10
15.3866546307
 20
12.8657778631
 30
0.0
  0
SPLINE
  5
33D
100
AcDbEntity
  8
0
100
AcDbSpline
 62
7
  6
CONTINUOUS
 70
0
 71
3
 72
15
 73
11
 74
0
 42
0.0000001
 43
0.0000001
 44
0.0000000001
 40
0.0
 40
0.0
 40
0.0
 40
0.0
 40
0.120477493
 40
0.2449058997
 40
0.3718496822
 40
0.5000359264
 40
0.6282174994
 40
0.7551474115
 40
0.8795531466
 40
1.0
 40
1.0
 40
1.0
 40
1.0
 10
15.3866546307
 20
12.8657778631
 30
0.0
 10
15.3847763595
 20
12.867059654
 30
0.0
 10
15.3808457819
 20
12.8695034859
 30
0.0
 10
15.3746135632
 20
12.8727447052
 30
0.0
 10
15.368025457
 20
12.8755750578
 30
0.0
 10
15.3611866023
 20
12.8779540578
 30
0.0
 10
15.3541971892
 20
12.8798445331
 30
0.0
 10
15.3471609211
 20
12.881220704
 30
0.0
 10
15.3401874479
 20
12.8820567394
 30
0.0
 10
15.3355642844
 20
12.8822538301
 30
0.0
 10
15.3332909035
 20
12.8822538301
 30
0.0
  0
SPLINE
  5
33E
100
AcDbEntity
  8
0
100
AcDbSpline
 62
7
  6
CONTINUOUS
 70
0
 71
3
 72
15
 73
11
 74
0
 42
0.0000001
 43
0.0000001
 44
0.0000000001
 40
0.0
 40
0.0
 40
0.0
 40
0.0
 40
0.1532740614
 40
0.2992263589
 40
0.4366312608
 40
0.5650592695
 40
0.6845998962
 40
0.7959558292
 40
0.9004572415
 40
1.0
 40
1.0
 40
1.0
 40
1.0
 10
15.2536928124
 20
12.8822538301
 30
0.0
 10
15.2515107735
 20
12.8822538301
 30
0.0
 10
15.2472483043
 20
12.8820792379
 30
0.0
 10
15.2410766522
 20
12.8812650956
 30
0.0
 10
15.2353618887
 20
12.8799079292
 30
0.0
 10
15.2301917093
 20
12.8780314392
 30
0.0
 10
15.2256417289
 20
12.8756564773
 30
0.0
 10
15.2217780512
 20
12.8728133227
 30
0.0
 10
15.2186726311
 20
12.8695356773
 30
0.0
 10
15.2171168046
 20
12.8670534772
 30
0.0
 10
15.2164995457
 20
12.8657778631
 30
0.0
  0
SPLINE
  5
33F
100
AcDbEntity
  8
0
100
AcDbSpline
 62
7
  6
CONTINUOUS
 70
0
 71
3
 72
15
 73
11
 74
0
 42
0.0000001
 43
0.0000001
 44
0.0000000001
 40
0.0
 40
0.0
 40
0.0
 40
0.0
 40
0.1222057151
 40
0.2488986716
 40
0.3780641057
 40
0.507917285
 40
0.6367249041
 40
0.7627980176
 40
0.884475195
 40
1.0
 40
1.0
 40
1.0
 40
1.0
 10
15.0012729867
 20
12.8263089329
 30
0.0
 10
14.9990668345
 20
12.8263089329
 30
0.0
 10
14.9945714398
 20
12.8265338572
 30
0.0
 10
14.9878036897
 20
12.8274764169
 30
0.0
 10
14.9810058748
 20
12.8290225574
 30
0.0
 10
14.9743218641
 20
12.8311327567
 30
0.0
 10
14.9678869785
 20
12.8337679009
 30
0.0
 10
14.9618290525
 20
12.8368718533
 30
0.0
 10
14.9562804957
 20
12.8403845688
 30
0.0
 10
14.952894753
 20
12.8430213808
 30
0.0
 10
14.9513252382
 20
12.8443947394
 30
0.0
  0
SPLINE
  5
340
100
AcDbEntity
  8
0
100
AcDbSpline
 62
7
  6
CONTINUOUS
 70
0
 71
3
 72
9
 73
5
 74
0
 42
0.0000001
 43
0.0000001
 44
0.0000000001
 40
0.0
 40
0.0
 40
0.0
 40
0.0
 40
0.2423988484
 40
1.0
 40
1.0
 40
1.0
 40
1.0
 10
14.9381143951
 20
12.8562817318
 30
0.0
 10
14.9372069609
 20
12.8571216542
 30
0.0
 10
14.9333930866
 20
12.8605103852
 30
0.0
 10
14.9293162311
 20
12.863599476
 30
0.0
 10
14.9261241337
 20
12.8657778631
 30
0.0
  0
SPLINE
  5
341
100
AcDbEntity
  8
0
100
AcDbSpline
 62
7
  6
CONTINUOUS
 70
0
 71
3
 72
13
 73
9
 74
0
 42
0.0000001
 43
0.0000001
 44
0.0000000001
 40
0.0
 40
0.0
 40
0.0
 40
0.0
 40
0.1203837678
 40
0.2448858705
 40
0.5000359659
 40
0.7551674118
 40
0.8796468281
 40
1.0
 40
1.0
 40
1.0
 40
1.0
 10
14.9261241337
 20
12.8657778631
 30
0.0
 10
14.9242479549
 20
12.8670582261
 30
0.0
 10
14.9203179531
 20
12.8694997124
 30
0.0
 10
14.9119409662
 20
12.8738556451
 30
0.0
 10
14.9007309904
 20
12.8781956933
 30
0.0
 10
14.8890258959
 20
12.8809307345
 30
0.0
 10
14.8796526216
 20
12.8820551261
 30
0.0
 10
14.8750312552
 20
12.8822538301
 30
0.0
 10
14.8727604065
 20
12.8822538301
 30
0.0
  0
SPLINE
  5
342
100
AcDbEntity
  8
0
100
AcDbSpline
 62
7
  6
CONTINUOUS
 70
0
 71
3
 72
15
 73
11
 74
0
 42
0.0000001
 43
0.0000001
 44
0.0000000001
 40
0.0
 40
0.0
 40
0.0
 40
0.0
 40
0.1530780943
 40
0.2990728638
 40
0.4366363831
 40
0.5650828719
 40
0.6846338945
 40
0.796035822
 40
0.9005658846
 40
1.0
 40
1.0
 40
1.0
 40
1.0
 10
14.7931623154
 20
12.8822538301
 30
0.0
 10
14.7909831167
 20
12.8822538301
 30
0.0
 10
14.7867229173
 20
12.8820777648
 30
0.0
 10
14.7805517498
 20
12.8812625623
 30
0.0
 10
14.7748325881
 20
12.8799105035
 30
0.0
 10
14.7696604725
 20
12.878031882
 30
0.0
 10
14.765108606
 20
12.8756579761
 30
0.0
 10
14.7612482231
 20
12.8728083095
 30
0.0
 10
14.7581432292
 20
12.8695318599
 30
0.0
 10
14.7565856197
 20
12.8670520555
 30
0.0
 10
14.7559690487
 20
12.8657778631
 30
0.0
  0
SPLINE
  5
343
100
AcDbEntity
  8
0
100
AcDbSpline
 62
7
  6
CONTINUOUS
 70
0
 71
3
 72
15
 73
11
 74
0
 42
0.0000001
 43
0.0000001
 44
0.0000000001
 40
0.0
 40
0.0
 40
0.0
 40
0.0
 40
0.1530780943
 40
0.2990728638
 40
0.4366363831
 40
0.5650828719
 40
0.6846338945
 40
0.796035822
 40
0.9005658846
 40
1.0
 40
1.0
 40
1.0
 40
1.0
 10
14.3069406336
 20
12.1393561558
 30
0.0
 10
14.3091198322
 20
12.1393561558
 30
0.0
 10
14.3133800317
 20
12.139532221
 30
0.0
 10
14.3195511991
 20
12.1403474235
 30
0.0
 10
14.3252703609
 20
12.1416994823
 30
0.0
 10
14.3304424764
 20
12.1435781038
 30
0.0
 10
14.334994343
 20
12.1459520097
 30
0.0
 10
14.3388547259
 20
12.1488016764
 30
0.0
 10
14.3419597198
 20
12.1520781259
 30
0.0
 10
14.3435173293
 20
12.1545579303
 30
0.0
 10
14.3441339003
 20
12.1558321227
 30
0.0
  0
SPLINE
  5
344
100
AcDbEntity
  8
0
100
AcDbSpline
 62
7
  6
CONTINUOUS
 70
0
 71
3
 72
13
 73
9
 74
0
 42
0.0000001
 43
0.0000001
 44
0.0000000001
 40
0.0
 40
0.0
 40
0.0
 40
0.0
 40
0.1203837678
 40
0.2448858705
 40
0.5000359659
 40
0.7551674118
 40
0.8796468281
 40
1.0
 40
1.0
 40
1.0
 40
1.0
 10
14.1739788153
 20
12.1558321227
 30
0.0
 10
14.175854994
 20
12.1545517597
 30
0.0
 10
14.1797849958
 20
12.1521102734
 30
0.0
 10
14.1881619828
 20
12.1477543407
 30
0.0
 10
14.1993719586
 20
12.1434142925
 30
0.0
 10
14.211077053
 20
12.1406792513
 30
0.0
 10
14.2204503273
 20
12.1395548598
 30
0.0
 10
14.2250716938
 20
12.1393561558
 30
0.0
 10
14.2273425425
 20
12.1393561558
 30
0.0
  0
SPLINE
  5
345
100
AcDbEntity
  8
0
100
AcDbSpline
 62
7
  6
CONTINUOUS
 70
0
 71
3
 72
9
 73
5
 74
0
 42
0.0000001
 43
0.0000001
 44
0.0000000001
 40
0.0
 40
0.0
 40
0.0
 40
0.0
 40
0.2423988484
 40
1.0
 40
1.0
 40
1.0
 40
1.0
 10
14.1619885538
 20
12.165328254
 30
0.0
 10
14.162895988
 20
12.1644883317
 30
0.0
 10
14.1667098623
 20
12.1610996006
 30
0.0
 10
14.1707867178
 20
12.1580105098
 30
0.0
 10
14.1739788153
 20
12.1558321227
 30
0.0
  0
SPLINE
  5
346
100
AcDbEntity
  8
0
100
AcDbSpline
 62
7
  6
CONTINUOUS
 70
0
 71
3
 72
15
 73
11
 74
0
 42
0.0000001
 43
0.0000001
 44
0.0000000001
 40
0.0
 40
0.0
 40
0.0
 40
0.0
 40
0.1222057151
 40
0.2488986716
 40
0.3780641057
 40
0.507917285
 40
0.6367249041
 40
0.7627980176
 40
0.884475195
 40
1.0
 40
1.0
 40
1.0
 40
1.0
 10
14.0988299622
 20
12.1953010529
 30
0.0
 10
14.1010361144
 20
12.1953010529
 30
0.0
 10
14.1055315091
 20
12.1950761286
 30
0.0
 10
14.1122992593
 20
12.1941335689
 30
0.0
 10
14.1190970741
 20
12.1925874284
 30
0.0
 10
14.1257810848
 20
12.1904772291
 30
0.0
 10
14.1322159704
 20
12.1878420849
 30
0.0
 10
14.1382738965
 20
12.1847381325
 30
0.0
 10
14.1438224532
 20
12.181225417
 30
0.0
 10
14.1472081959
 20
12.178588605
 30
0.0
 10
14.1487777108
 20
12.1772152464
 30
0.0
  0
SPLINE
  5
347
100
AcDbEntity
  8
0
100
AcDbSpline
 62
7
  6
CONTINUOUS
 70
0
 71
3
 72
15
 73
11
 74
0
 42
0.0000001
 43
0.0000001
 44
0.0000000001
 40
0.0
 40
0.0
 40
0.0
 40
0.0
 40
0.1533512302
 40
0.2992405476
 40
0.4366039312
 40
0.5650532778
 40
0.6846259244
 40
0.7959435865
 40
0.9004117086
 40
1.0
 40
1.0
 40
1.0
 40
1.0
 10
16.6095931186
 20
12.1393561558
 30
0.0
 10
16.611776267
 20
12.1393561558
 30
0.0
 10
16.6160390329
 20
12.1395299487
 30
0.0
 10
16.6222101186
 20
12.1403454228
 30
0.0
 10
16.6279240065
 20
12.141701407
 30
0.0
 10
16.6330938493
 20
12.1435792538
 30
0.0
 10
16.6376447593
 20
12.1459530542
 30
0.0
 10
16.6415072667
 20
12.1487967751
 30
0.0
 10
16.6446138325
 20
12.1520728889
 30
0.0
 10
16.6461688408
 20
12.1545559187
 30
0.0
 10
16.6467863853
 20
12.1558321227
 30
0.0
  0
SPLINE
  5
348
100
AcDbEntity
  8
0
100
AcDbSpline
 62
7
  6
CONTINUOUS
 70
0
 71
3
 72
13
 73
9
 74
0
 42
0.0000001
 43
0.0000001
 44
0.0000000001
 40
0.0
 40
0.0
 40
0.0
 40
0.0
 40
0.1205724429
 40
0.2449984083
 40
0.5000359535
 40
0.7550549225
 40
0.8794582258
 40
1.0
 40
1.0
 40
1.0
 40
1.0
 10
16.4766313003
 20
12.1558321227
 30
0.0
 10
16.4785104398
 20
12.1545497392
 30
0.0
 10
16.4824409722
 20
12.1521050078
 30
0.0
 10
16.4908189068
 20
12.1477502334
 30
0.0
 10
16.5020255218
 20
12.143417782
 30
0.0
 10
16.5137235581
 20
12.1406783612
 30
0.0
 10
16.5230969625
 20
12.1395524777
 30
0.0
 10
16.5277205956
 20
12.1393561558
 30
0.0
 10
16.5299950275
 20
12.1393561558
 30
0.0
  0
SPLINE
  5
349
100
AcDbEntity
  8
0
100
AcDbSpline
 62
7
  6
CONTINUOUS
 70
0
 71
3
 72
9
 73
5
 74
0
 42
0.0000001
 43
0.0000001
 44
0.0000000001
 40
0.0
 40
0.0
 40
0.0
 40
0.0
 40
0.2423988484
 40
1.0
 40
1.0
 40
1.0
 40
1.0
 10
16.4646410388
 20
12.165328254
 30
0.0
 10
16.465548473
 20
12.1644883317
 30
0.0
 10
16.4693623473
 20
12.1610996006
 30
0.0
 10
16.4734392028
 20
12.1580105098
 30
0.0
 10
16.4766313003
 20
12.1558321227
 30
0.0
  0
SPLINE
  5
34A
100
AcDbEntity
  8
0
100
AcDbSpline
 62
7
  6
CONTINUOUS
 70
0
 71
3
 72
15
 73
11
 74
0
 42
0.0000001
 43
0.0000001
 44
0.0000000001
 40
0.0
 40
0.0
 40
0.0
 40
0.0
 40
0.1222817011
 40
0.2489157101
 40
0.3780263748
 40
0.5079164659
 40
0.6367627405
 40
0.7627815246
 40
0.8844047757
 40
1.0
 40
1.0
 40
1.0
 40
1.0
 10
16.4014824472
 20
12.1953010529
 30
0.0
 10
16.4036899775
 20
12.1953010529
 30
0.0
 10
16.4081857868
 20
12.1950772331
 30
0.0
 10
16.4149526205
 20
12.1941329042
 30
0.0
 10
16.4217493598
 20
12.192588244
 30
0.0
 10
16.4284332544
 20
12.1904763817
 30
0.0
 10
16.4348691345
 20
12.1878425936
 30
0.0
 10
16.4409253772
 20
12.1847381122
 30
0.0
 10
16.4464744213
 20
12.1812274003
 30
0.0
 10
16.4498597197
 20
12.1785894461
 30
0.0
 10
16.4514301958
 20
12.1772152464
 30
0.0
  0
SPLINE
  5
34B
100
AcDbEntity
  8
0
100
AcDbSpline
 62
7
  6
CONTINUOUS
 70
0
 71
3
 72
15
 73
11
 74
0
 42
0.0000001
 43
0.0000001
 44
0.0000000001
 40
0.0
 40
0.0
 40
0.0
 40
0.0
 40
0.1532740614
 40
0.2992263589
 40
0.4366312608
 40
0.5650592695
 40
0.6845998962
 40
0.7959558292
 40
0.9004572415
 40
1.0
 40
1.0
 40
1.0
 40
1.0
 10
16.1490626216
 20
12.1393561558
 30
0.0
 10
16.1512446604
 20
12.1393561558
 30
0.0
 10
16.1555071296
 20
12.1395307479
 30
0.0
 10
16.1616787817
 20
12.1403448903
 30
0.0
 10
16.1673935453
 20
12.1417020566
 30
0.0
 10
16.1725637246
 20
12.1435785466
 30
0.0
 10
16.177113705
 20
12.1459535086
 30
0.0
 10
16.1809773828
 20
12.1487966631
 30
0.0
 10
16.1840828028
 20
12.1520743086
 30
0.0
 10
16.1856386293
 20
12.1545565086
 30
0.0
 10
16.1862558883
 20
12.1558321227
 30
0.0
  0
SPLINE
  5
34C
100
AcDbEntity
  8
0
100
AcDbSpline
 62
7
  6
CONTINUOUS
 70
0
 71
3
 72
15
 73
11
 74
0
 42
0.0000001
 43
0.0000001
 44
0.0000000001
 40
0.0
 40
0.0
 40
0.0
 40
0.0
 40
0.120477493
 40
0.2449058997
 40
0.3718496822
 40
0.5000359264
 40
0.6282174994
 40
0.7551474115
 40
0.8795531466
 40
1.0
 40
1.0
 40
1.0
 40
1.0
 10
16.0161008033
 20
12.1558321227
 30
0.0
 10
16.0179790745
 20
12.1545503318
 30
0.0
 10
16.021909652
 20
12.1521065
 30
0.0
 10
16.0281418708
 20
12.1488652806
 30
0.0
 10
16.034729977
 20
12.1460349281
 30
0.0
 10
16.0415688317
 20
12.143655928
 30
0.0
 10
16.0485582447
 20
12.1417654527
 30
0.0
 10
16.0555945129
 20
12.1403892818
 30
0.0
 10
16.0625679861
 20
12.1395532465
 30
0.0
 10
16.0671911495
 20
12.1393561558
 30
0.0
 10
16.0694645305
 20
12.1393561558
 30
0.0
  0
SPLINE
  5
34D
100
AcDbEntity
  8
0
100
AcDbSpline
 62
7
  6
CONTINUOUS
 70
0
 71
3
 72
9
 73
5
 74
0
 42
0.0000001
 43
0.0000001
 44
0.0000000001
 40
0.0
 40
0.0
 40
0.0
 40
0.0
 40
0.2423988484
 40
1.0
 40
1.0
 40
1.0
 40
1.0
 10
16.0041105418
 20
12.165328254
 30
0.0
 10
16.005017976
 20
12.1644883317
 30
0.0
 10
16.0088318503
 20
12.1610996006
 30
0.0
 10
16.0129087058
 20
12.1580105098
 30
0.0
 10
16.0161008033
 20
12.1558321227
 30
0.0
  0
SPLINE
  5
34E
100
AcDbEntity
  8
0
100
AcDbSpline
 62
7
  6
CONTINUOUS
 70
0
 71
3
 72
15
 73
11
 74
0
 42
0.0000001
 43
0.0000001
 44
0.0000000001
 40
0.0
 40
0.0
 40
0.0
 40
0.0
 40
0.1222817011
 40
0.2489157101
 40
0.3780263748
 40
0.5079164659
 40
0.6367627405
 40
0.7627815246
 40
0.8844047757
 40
1.0
 40
1.0
 40
1.0
 40
1.0
 10
15.9409519502
 20
12.1953010529
 30
0.0
 10
15.9431594805
 20
12.1953010529
 30
0.0
 10
15.9476552898
 20
12.1950772331
 30
0.0
 10
15.9544221235
 20
12.1941329042
 30
0.0
 10
15.9612188628
 20
12.192588244
 30
0.0
 10
15.9679027574
 20
12.1904763817
 30
0.0
 10
15.9743386375
 20
12.1878425936
 30
0.0
 10
15.9803948802
 20
12.1847381122
 30
0.0
 10
15.9859439243
 20
12.1812274003
 30
0.0
 10
15.9893292227
 20
12.1785894461
 30
0.0
 10
15.9908996988
 20
12.1772152464
 30
0.0
  0
SPLINE
  5
34F
100
AcDbEntity
  8
0
100
AcDbSpline
 62
7
  6
CONTINUOUS
 70
0
 71
3
 72
15
 73
11
 74
0
 42
0.0000001
 43
0.0000001
 44
0.0000000001
 40
0.0
 40
0.0
 40
0.0
 40
0.0
 40
0.1532740614
 40
0.2992263589
 40
0.4366312608
 40
0.5650592695
 40
0.6845998962
 40
0.7959558292
 40
0.9004572415
 40
1.0
 40
1.0
 40
1.0
 40
1.0
 10
15.6885321246
 20
12.1393561558
 30
0.0
 10
15.6907141634
 20
12.1393561558
 30
0.0
 10
15.6949766326
 20
12.1395307479
 30
0.0
 10
15.7011482847
 20
12.1403448903
 30
0.0
 10
15.7068630483
 20
12.1417020566
 30
0.0
 10
15.7120332276
 20
12.1435785466
 30
0.0
 10
15.716583208
 20
12.1459535086
 30
0.0
 10
15.7204468858
 20
12.1487966631
 30
0.0
 10
15.7235523058
 20
12.1520743086
 30
0.0
 10
15.7251081323
 20
12.1545565086
 30
0.0
 10
15.7257253913
 20
12.1558321227
 30
0.0
  0
SPLINE
  5
350
100
AcDbEntity
  8
0
100
AcDbSpline
 62
7
  6
CONTINUOUS
 70
0
 71
3
 72
15
 73
11
 74
0
 42
0.0000001
 43
0.0000001
 44
0.0000000001
 40
0.0
 40
0.0
 40
0.0
 40
0.0
 40
0.120477493
 40
0.2449058997
 40
0.3718496822
 40
0.5000359264
 40
0.6282174994
 40
0.7551474115
 40
0.8795531466
 40
1.0
 40
1.0
 40
1.0
 40
1.0
 10
15.5555703063
 20
12.1558321227
 30
0.0
 10
15.5574485775
 20
12.1545503318
 30
0.0
 10
15.561379155
 20
12.1521065
 30
0.0
 10
15.5676113738
 20
12.1488652806
 30
0.0
 10
15.57419948
 20
12.1460349281
 30
0.0
 10
15.5810383347
 20
12.143655928
 30
0.0
 10
15.5880277477
 20
12.1417654527
 30
0.0
 10
15.5950640159
 20
12.1403892818
 30
0.0
 10
15.6020374891
 20
12.1395532465
 30
0.0
 10
15.6066606525
 20
12.1393561558
 30
0.0
 10
15.6089340335
 20
12.1393561558
 30
0.0
  0
SPLINE
  5
351
100
AcDbEntity
  8
0
100
AcDbSpline
 62
7
  6
CONTINUOUS
 70
0
 71
3
 72
9
 73
5
 74
0
 42
0.0000001
 43
0.0000001
 44
0.0000000001
 40
0.0
 40
0.0
 40
0.0
 40
0.0
 40
0.2423988484
 40
1.0
 40
1.0
 40
1.0
 40
1.0
 10
15.5435800448
 20
12.165328254
 30
0.0
 10
15.544487479
 20
12.1644883317
 30
0.0
 10
15.5483013533
 20
12.1610996006
 30
0.0
 10
15.5523782088
 20
12.1580105098
 30
0.0
 10
15.5555703063
 20
12.1558321227
 30
0.0
  0
SPLINE
  5
352
100
AcDbEntity
  8
0
100
AcDbSpline
 62
7
  6
CONTINUOUS
 70
0
 71
3
 72
15
 73
11
 74
0
 42
0.0000001
 43
0.0000001
 44
0.0000000001
 40
0.0
 40
0.0
 40
0.0
 40
0.0
 40
0.1222057151
 40
0.2488986716
 40
0.3780641057
 40
0.507917285
 40
0.6367249041
 40
0.7627980176
 40
0.884475195
 40
1.0
 40
1.0
 40
1.0
 40
1.0
 10
15.4804214532
 20
12.1953010529
 30
0.0
 10
15.4826276054
 20
12.1953010529
 30
0.0
 10
15.4871230001
 20
12.1950761286
 30
0.0
 10
15.4938907503
 20
12.1941335689
 30
0.0
 10
15.5006885651
 20
12.1925874284
 30
0.0
 10
15.5073725758
 20
12.1904772291
 30
0.0
 10
15.5138074614
 20
12.1878420849
 30
0.0
 10
15.5198653875
 20
12.1847381325
 30
0.0
 10
15.5254139442
 20
12.181225417
 30
0.0
 10
15.5287996869
 20
12.178588605
 30
0.0
 10
15.5303692018
 20
12.1772152464
 30
0.0
  0
SPLINE
  5
353
100
AcDbEntity
  8
0
100
AcDbSpline
 62
7
  6
CONTINUOUS
 70
0
 71
3
 72
15
 73
11
 74
0
 42
0.0000001
 43
0.0000001
 44
0.0000000001
 40
0.0
 40
0.0
 40
0.0
 40
0.0
 40
0.1532740614
 40
0.2992263589
 40
0.4366312608
 40
0.5650592695
 40
0.6845998962
 40
0.7959558292
 40
0.9004572415
 40
1.0
 40
1.0
 40
1.0
 40
1.0
 10
15.2280016276
 20
12.1393561558
 30
0.0
 10
15.2301836664
 20
12.1393561558
 30
0.0
 10
15.2344461356
 20
12.1395307479
 30
0.0
 10
15.2406177877
 20
12.1403448903
 30
0.0
 10
15.2463325513
 20
12.1417020566
 30
0.0
 10
15.2515027306
 20
12.1435785466
 30
0.0
 10
15.256052711
 20
12.1459535086
 30
0.0
 10
15.2599163888
 20
12.1487966631
 30
0.0
 10
15.2630218088
 20
12.1520743086
 30
0.0
 10
15.2645776353
 20
12.1545565086
 30
0.0
 10
15.2651948943
 20
12.1558321227
 30
0.0
  0
SPLINE
  5
354
100
AcDbEntity
  8
0
100
AcDbSpline
 62
7
  6
CONTINUOUS
 70
0
 71
3
 72
15
 73
11
 74
0
 42
0.0000001
 43
0.0000001
 44
0.0000000001
 40
0.0
 40
0.0
 40
0.0
 40
0.0
 40
0.120477493
 40
0.2449058997
 40
0.3718496822
 40
0.5000359264
 40
0.6282174994
 40
0.7551474115
 40
0.8795531466
 40
1.0
 40
1.0
 40
1.0
 40
1.0
 10
15.0950398093
 20
12.1558321227
 30
0.0
 10
15.0969180805
 20
12.1545503318
 30
0.0
 10
15.100848658
 20
12.1521065
 30
0.0
 10
15.1070808768
 20
12.1488652806
 30
0.0
 10
15.113668983
 20
12.1460349281
 30
0.0
 10
15.1205078377
 20
12.143655928
 30
0.0
 10
15.1274972507
 20
12.1417654527
 30
0.0
 10
15.1345335189
 20
12.1403892818
 30
0.0
 10
15.1415069921
 20
12.1395532465
 30
0.0
 10
15.1461301555
 20
12.1393561558
 30
0.0
 10
15.1484035365
 20
12.1393561558
 30
0.0
  0
SPLINE
  5
355
100
AcDbEntity
  8
0
100
AcDbSpline
 62
7
  6
CONTINUOUS
 70
0
 71
3
 72
9
 73
5
 74
0
 42
0.0000001
 43
0.0000001
 44
0.0000000001
 40
0.0
 40
0.0
 40
0.0
 40
0.0
 40
0.2423988484
 40
1.0
 40
1.0
 40
1.0
 40
1.0
 10
15.0830495478
 20
12.165328254
 30
0.0
 10
15.083956982
 20
12.1644883317
 30
0.0
 10
15.0877708563
 20
12.1610996006
 30
0.0
 10
15.0918477118
 20
12.1580105098
 30
0.0
 10
15.0950398093
 20
12.1558321227
 30
0.0
  0
SPLINE
  5
356
100
AcDbEntity
  8
0
100
AcDbSpline
 62
7
  6
CONTINUOUS
 70
0
 71
3
 72
15
 73
11
 74
0
 42
0.0000001
 43
0.0000001
 44
0.0000000001
 40
0.0
 40
0.0
 40
0.0
 40
0.0
 40
0.1222057151
 40
0.2488986716
 40
0.3780641057
 40
0.507917285
 40
0.6367249041
 40
0.7627980176
 40
0.884475195
 40
1.0
 40
1.0
 40
1.0
 40
1.0
 10
15.0198909562
 20
12.1953010529
 30
0.0
 10
15.0220971084
 20
12.1953010529
 30
0.0
 10
15.0265925031
 20
12.1950761286
 30
0.0
 10
15.0333602533
 20
12.1941335689
 30
0.0
 10
15.0401580681
 20
12.1925874284
 30
0.0
 10
15.0468420788
 20
12.1904772291
 30
0.0
 10
15.0532769644
 20
12.1878420849
 30
0.0
 10
15.0593348905
 20
12.1847381325
 30
0.0
 10
15.0648834472
 20
12.181225417
 30
0.0
 10
15.0682691899
 20
12.178588605
 30
0.0
 10
15.0698387048
 20
12.1772152464
 30
0.0
  0
SPLINE
  5
357
100
AcDbEntity
  8
0
100
AcDbSpline
 62
7
  6
CONTINUOUS
 70
0
 71
3
 72
15
 73
11
 74
0
 42
0.0000001
 43
0.0000001
 44
0.0000000001
 40
0.0
 40
0.0
 40
0.0
 40
0.0
 40
0.1530780943
 40
0.2990728638
 40
0.4366363831
 40
0.5650828719
 40
0.6846338945
 40
0.796035822
 40
0.9005658846
 40
1.0
 40
1.0
 40
1.0
 40
1.0
 10
14.7674711306
 20
12.1393561558
 30
0.0
 10
14.7696503292
 20
12.1393561558
 30
0.0
 10
14.7739105287
 20
12.139532221
 30
0.0
 10
14.7800816961
 20
12.1403474235
 30
0.0
 10
14.7858008579
 20
12.1416994823
 30
0.0
 10
14.7909729734
 20
12.1435781038
 30
0.0
 10
14.79552484
 20
12.1459520097
 30
0.0
 10
14.7993852229
 20
12.1488016764
 30
0.0
 10
14.8024902168
 20
12.1520781259
 30
0.0
 10
14.8040478263
 20
12.1545579303
 30
0.0
 10
14.8046643973
 20
12.1558321227
 30
0.0
  0
SPLINE
  5
358
100
AcDbEntity
  8
0
100
AcDbSpline
 62
7
  6
CONTINUOUS
 70
0
 71
3
 72
13
 73
9
 74
0
 42
0.0000001
 43
0.0000001
 44
0.0000000001
 40
0.0
 40
0.0
 40
0.0
 40
0.0
 40
0.1203837678
 40
0.2448858705
 40
0.5000359659
 40
0.7551674118
 40
0.8796468281
 40
1.0
 40
1.0
 40
1.0
 40
1.0
 10
14.6345093123
 20
12.1558321227
 30
0.0
 10
14.636385491
 20
12.1545517597
 30
0.0
 10
14.6403154928
 20
12.1521102734
 30
0.0
 10
14.6486924798
 20
12.1477543407
 30
0.0
 10
14.6599024556
 20
12.1434142925
 30
0.0
 10
14.67160755
 20
12.1406792513
 30
0.0
 10
14.6809808243
 20
12.1395548598
 30
0.0
 10
14.6856021908
 20
12.1393561558
 30
0.0
 10
14.6878730395
 20
12.1393561558
 30
0.0
  0
SPLINE
  5
359
100
AcDbEntity
  8
0
100
AcDbSpline
 62
7
  6
CONTINUOUS
 70
0
 71
3
 72
9
 73
5
 74
0
 42
0.0000001
 43
0.0000001
 44
0.0000000001
 40
0.0
 40
0.0
 40
0.0
 40
0.0
 40
0.2423988484
 40
1.0
 40
1.0
 40
1.0
 40
1.0
 10
14.6225190508
 20
12.165328254
 30
0.0
 10
14.623426485
 20
12.1644883317
 30
0.0
 10
14.6272403593
 20
12.1610996006
 30
0.0
 10
14.6313172148
 20
12.1580105098
 30
0.0
 10
14.6345093123
 20
12.1558321227
 30
0.0
  0
SPLINE
  5
35A
100
AcDbEntity
  8
0
100
AcDbSpline
 62
7
  6
CONTINUOUS
 70
0
 71
3
 72
15
 73
11
 74
0
 42
0.0000001
 43
0.0000001
 44
0.0000000001
 40
0.0
 40
0.0
 40
0.0
 40
0.0
 40
0.1222057151
 40
0.2488986716
 40
0.3780641057
 40
0.507917285
 40
0.6367249041
 40
0.7627980176
 40
0.884475195
 40
1.0
 40
1.0
 40
1.0
 40
1.0
 10
14.5593604592
 20
12.1953010529
 30
0.0
 10
14.5615666114
 20
12.1953010529
 30
0.0
 10
14.5660620061
 20
12.1950761286
 30
0.0
 10
14.5728297563
 20
12.1941335689
 30
0.0
 10
14.5796275711
 20
12.1925874284
 30
0.0
 10
14.5863115818
 20
12.1904772291
 30
0.0
 10
14.5927464674
 20
12.1878420849
 30
0.0
 10
14.5988043935
 20
12.1847381325
 30
0.0
 10
14.6043529502
 20
12.181225417
 30
0.0
 10
14.6077386929
 20
12.178588605
 30
0.0
 10
14.6093082078
 20
12.1772152464
 30
0.0
  0
SPLINE
  5
35B
100
AcDbEntity
  8
0
100
AcDbSpline
 62
7
  6
CONTINUOUS
 70
0
 71
3
 72
15
 73
11
 74
0
 42
0.0000001
 43
0.0000001
 44
0.0000000001
 40
0.0
 40
0.0
 40
0.0
 40
0.0
 40
0.1532740614
 40
0.2992263589
 40
0.4366312608
 40
0.5650592695
 40
0.6845998962
 40
0.7959558292
 40
0.9004572415
 40
1.0
 40
1.0
 40
1.0
 40
1.0
 10
15.9932040638
 20
12.2947586478
 30
0.0
 10
15.991022025
 20
12.2947586478
 30
0.0
 10
15.9867595558
 20
12.2945840557
 30
0.0
 10
15.9805879037
 20
12.2937699133
 30
0.0
 10
15.9748731401
 20
12.2924127469
 30
0.0
 10
15.9697029608
 20
12.2905362569
 30
0.0
 10
15.9651529804
 20
12.288161295
 30
0.0
 10
15.9612893026
 20
12.2853181405
 30
0.0
 10
15.9581838826
 20
12.282040495
 30
0.0
 10
15.9566280561
 20
12.279558295
 30
0.0
 10
15.9560107971
 20
12.2782826809
 30
0.0
  0
SPLINE
  5
35C
100
AcDbEntity
  8
0
100
AcDbSpline
 62
7
  6
CONTINUOUS
 70
0
 71
3
 72
15
 73
11
 74
0
 42
0.0000001
 43
0.0000001
 44
0.0000000001
 40
0.0
 40
0.0
 40
0.0
 40
0.0
 40
0.120477493
 40
0.2449058997
 40
0.3718496822
 40
0.5000359264
 40
0.6282174994
 40
0.7551474115
 40
0.8795531466
 40
1.0
 40
1.0
 40
1.0
 40
1.0
 10
16.1261658821
 20
12.2782826809
 30
0.0
 10
16.1242876109
 20
12.2795644718
 30
0.0
 10
16.1203570334
 20
12.2820083036
 30
0.0
 10
16.1141248146
 20
12.285249523
 30
0.0
 10
16.1075367084
 20
12.2880798755
 30
0.0
 10
16.1006978537
 20
12.2904588756
 30
0.0
 10
16.0937084407
 20
12.2923493509
 30
0.0
 10
16.0866721725
 20
12.2937255218
 30
0.0
 10
16.0796986993
 20
12.2945615571
 30
0.0
 10
16.0750755359
 20
12.2947586478
 30
0.0
 10
16.0728021549
 20
12.2947586478
 30
0.0
  0
SPLINE
  5
35D
100
AcDbEntity
  8
0
100
AcDbSpline
 62
7
  6
CONTINUOUS
 70
0
 71
3
 72
9
 73
5
 74
0
 42
0.0000001
 43
0.0000001
 44
0.0000000001
 40
0.0
 40
0.0
 40
0.0
 40
0.0
 40
0.2423988484
 40
1.0
 40
1.0
 40
1.0
 40
1.0
 10
16.1381561436
 20
12.2687865496
 30
0.0
 10
16.1372487094
 20
12.2696264719
 30
0.0
 10
16.1334348351
 20
12.273015203
 30
0.0
 10
16.1293579796
 20
12.2761042938
 30
0.0
 10
16.1261658821
 20
12.2782826809
 30
0.0
  0
SPLINE
  5
35E
100
AcDbEntity
  8
0
100
AcDbSpline
 62
7
  6
CONTINUOUS
 70
0
 71
3
 72
15
 73
11
 74
0
 42
0.0000001
 43
0.0000001
 44
0.0000000001
 40
0.0
 40
0.0
 40
0.0
 40
0.0
 40
0.1222817011
 40
0.2489157101
 40
0.3780263748
 40
0.5079164659
 40
0.6367627405
 40
0.7627815246
 40
0.8844047757
 40
1.0
 40
1.0
 40
1.0
 40
1.0
 10
16.2013147352
 20
12.2388137507
 30
0.0
 10
16.1991072049
 20
12.2388137507
 30
0.0
 10
16.1946113956
 20
12.2390375704
 30
0.0
 10
16.1878445619
 20
12.2399818994
 30
0.0
 10
16.1810478226
 20
12.2415265596
 30
0.0
 10
16.174363928
 20
12.2436384219
 30
0.0
 10
16.1679280479
 20
12.24627221
 30
0.0
 10
16.1618718052
 20
12.2493766914
 30
0.0
 10
16.1563227611
 20
12.2528874033
 30
0.0
 10
16.1529374627
 20
12.2555253575
 30
0.0
 10
16.1513669866
 20
12.2568995572
 30
0.0
  0
SPLINE
  5
35F
100
AcDbEntity
  8
0
100
AcDbSpline
 62
7
  6
CONTINUOUS
 70
0
 71
3
 72
15
 73
11
 74
0
 42
0.0000001
 43
0.0000001
 44
0.0000000001
 40
0.0
 40
0.0
 40
0.0
 40
0.0
 40
0.1533512302
 40
0.2992405476
 40
0.4366039312
 40
0.5650532778
 40
0.6846259244
 40
0.7959435865
 40
0.9004117086
 40
1.0
 40
1.0
 40
1.0
 40
1.0
 10
16.4537345608
 20
12.2947586478
 30
0.0
 10
16.4515514124
 20
12.2947586478
 30
0.0
 10
16.4472886465
 20
12.2945848549
 30
0.0
 10
16.4411175608
 20
12.2937693808
 30
0.0
 10
16.4354036729
 20
12.2924133966
 30
0.0
 10
16.4302338301
 20
12.2905355498
 30
0.0
 10
16.4256829201
 20
12.2881617494
 30
0.0
 10
16.4218204127
 20
12.2853180284
 30
0.0
 10
16.4187138469
 20
12.2820419147
 30
0.0
 10
16.4171588386
 20
12.2795588849
 30
0.0
 10
16.4165412941
 20
12.2782826809
 30
0.0
  0
SPLINE
  5
360
100
AcDbEntity
  8
0
100
AcDbSpline
 62
7
  6
CONTINUOUS
 70
0
 71
3
 72
13
 73
9
 74
0
 42
0.0000001
 43
0.0000001
 44
0.0000000001
 40
0.0
 40
0.0
 40
0.0
 40
0.0
 40
0.1205724429
 40
0.2449984083
 40
0.5000359535
 40
0.7550549225
 40
0.8794582258
 40
1.0
 40
1.0
 40
1.0
 40
1.0
 10
16.5866963791
 20
12.2782826809
 30
0.0
 10
16.5848172396
 20
12.2795650644
 30
0.0
 10
16.5808867072
 20
12.2820097958
 30
0.0
 10
16.5725087726
 20
12.2863645702
 30
0.0
 10
16.5613021576
 20
12.2906970216
 30
0.0
 10
16.5496041213
 20
12.2934364424
 30
0.0
 10
16.5402307169
 20
12.2945623259
 30
0.0
 10
16.5356070838
 20
12.2947586478
 30
0.0
 10
16.5333326519
 20
12.2947586478
 30
0.0
  0
SPLINE
  5
361
100
AcDbEntity
  8
0
100
AcDbSpline
 62
7
  6
CONTINUOUS
 70
0
 71
3
 72
9
 73
5
 74
0
 42
0.0000001
 43
0.0000001
 44
0.0000000001
 40
0.0
 40
0.0
 40
0.0
 40
0.0
 40
0.2423988484
 40
1.0
 40
1.0
 40
1.0
 40
1.0
 10
16.5986866406
 20
12.2687865496
 30
0.0
 10
16.5977792064
 20
12.2696264719
 30
0.0
 10
16.5939653321
 20
12.273015203
 30
0.0
 10
16.5898884766
 20
12.2761042938
 30
0.0
 10
16.5866963791
 20
12.2782826809
 30
0.0
  0
SPLINE
  5
362
100
AcDbEntity
  8
0
100
AcDbSpline
 62
7
  6
CONTINUOUS
 70
0
 71
3
 72
15
 73
11
 74
0
 42
0.0000001
 43
0.0000001
 44
0.0000000001
 40
0.0
 40
0.0
 40
0.0
 40
0.0
 40
0.1222817011
 40
0.2489157101
 40
0.3780263748
 40
0.5079164659
 40
0.6367627405
 40
0.7627815246
 40
0.8844047757
 40
1.0
 40
1.0
 40
1.0
 40
1.0
 10
16.6618452322
 20
12.2388137507
 30
0.0
 10
16.6596377019
 20
12.2388137507
 30
0.0
 10
16.6551418926
 20
12.2390375704
 30
0.0
 10
16.6483750589
 20
12.2399818994
 30
0.0
 10
16.6415783196
 20
12.2415265596
 30
0.0
 10
16.634894425
 20
12.2436384219
 30
0.0
 10
16.6284585449
 20
12.24627221
 30
0.0
 10
16.6224023022
 20
12.2493766914
 30
0.0
 10
16.6168532581
 20
12.2528874033
 30
0.0
 10
16.6134679597
 20
12.2555253575
 30
0.0
 10
16.6118974836
 20
12.2568995572
 30
0.0
  0
SPLINE
  5
363
100
AcDbEntity
  8
0
100
AcDbSpline
 62
7
  6
CONTINUOUS
 70
0
 71
3
 72
15
 73
11
 74
0
 42
0.0000001
 43
0.0000001
 44
0.0000000001
 40
0.0
 40
0.0
 40
0.0
 40
0.0
 40
0.0997126821
 40
0.2030020668
 40
0.3127270479
 40
0.4309652794
 40
0.5588927943
 40
0.6968347972
 40
0.8443613855
 40
1.0
 40
1.0
 40
1.0
 40
1.0
 10
15.0302233778
 20
12.2547144793
 30
0.0
 10
15.0298518178
 20
12.2535149457
 30
0.0
 10
15.0288011969
 20
12.2511541421
 30
0.0
 10
15.0264051957
 20
12.2479905108
 30
0.0
 10
15.0232373333
 20
12.245236193
 30
0.0
 10
15.0193714221
 20
12.2429291978
 30
0.0
 10
15.0148753999
 20
12.2411018742
 30
0.0
 10
15.0098271078
 20
12.2397781566
 30
0.0
 10
15.0043189085
 20
12.2389841263
 30
0.0
 10
15.0004981074
 20
12.2388137507
 30
0.0
 10
14.9985380256
 20
12.2388137507
 30
0.0
  0
SPLINE
  5
364
100
AcDbEntity
  8
0
100
AcDbSpline
 62
7
  6
CONTINUOUS
 70
0
 71
3
 72
15
 73
11
 74
0
 42
0.0000001
 43
0.0000001
 44
0.0000000001
 40
0.0
 40
0.0
 40
0.0
 40
0.0
 40
0.0997126821
 40
0.2030020668
 40
0.3127270479
 40
0.4309652794
 40
0.5588927943
 40
0.6968347972
 40
0.8443613855
 40
1.0
 40
1.0
 40
1.0
 40
1.0
 10
14.5696928808
 20
12.2547144793
 30
0.0
 10
14.5693213208
 20
12.2535149457
 30
0.0
 10
14.5682706999
 20
12.2511541421
 30
0.0
 10
14.5658746987
 20
12.2479905108
 30
0.0
 10
14.5627068363
 20
12.245236193
 30
0.0
 10
14.5588409251
 20
12.2429291978
 30
0.0
 10
14.5543449029
 20
12.2411018742
 30
0.0
 10
14.5492966108
 20
12.2397781566
 30
0.0
 10
14.5437884115
 20
12.2389841263
 30
0.0
 10
14.5399676104
 20
12.2388137507
 30
0.0
 10
14.5380075285
 20
12.2388137507
 30
0.0
  0
SPLINE
  5
365
100
AcDbEntity
  8
0
100
AcDbSpline
 62
7
  6
CONTINUOUS
 70
0
 71
3
 72
15
 73
11
 74
0
 42
0.0000001
 43
0.0000001
 44
0.0000000001
 40
0.0
 40
0.0
 40
0.0
 40
0.0
 40
0.0997187171
 40
0.2029508029
 40
0.3126581165
 40
0.4309581962
 40
0.5589001823
 40
0.6967751757
 40
0.8442372834
 40
1.0
 40
1.0
 40
1.0
 40
1.0
 10
16.41181536
 20
12.254714327
 30
0.0
 10
16.411444212
 20
12.253514571
 30
0.0
 10
16.4103944241
 20
12.2511538623
 30
0.0
 10
16.4079973042
 20
12.2479922204
 30
0.0
 10
16.4048307685
 20
12.2452366684
 30
0.0
 10
16.4009634497
 20
12.2429303096
 30
0.0
 10
16.3964678819
 20
12.2411016066
 30
0.0
 10
16.39142081
 20
12.2397786944
 30
0.0
 10
16.3859128718
 20
12.2389831252
 30
0.0
 10
16.3820911843
 20
12.2388137507
 30
0.0
 10
16.3801295166
 20
12.2388137507
 30
0.0
  0
SPLINE
  5
366
100
AcDbEntity
  8
0
100
AcDbSpline
 62
7
  6
CONTINUOUS
 70
0
 71
3
 72
15
 73
11
 74
0
 42
0.0000001
 43
0.0000001
 44
0.0000000001
 40
0.0
 40
0.0
 40
0.0
 40
0.0
 40
0.0997187171
 40
0.2029508029
 40
0.3126581165
 40
0.4309581962
 40
0.5589001823
 40
0.6967751757
 40
0.8442372834
 40
1.0
 40
1.0
 40
1.0
 40
1.0
 10
15.951284863
 20
12.254714327
 30
0.0
 10
15.950913715
 20
12.253514571
 30
0.0
 10
15.9498639271
 20
12.2511538623
 30
0.0
 10
15.9474668072
 20
12.2479922204
 30
0.0
 10
15.9443002715
 20
12.2452366684
 30
0.0
 10
15.9404329527
 20
12.2429303096
 30
0.0
 10
15.9359373849
 20
12.2411016066
 30
0.0
 10
15.930890313
 20
12.2397786944
 30
0.0
 10
15.9253823748
 20
12.2389831252
 30
0.0
 10
15.9215606873
 20
12.2388137507
 30
0.0
 10
15.9195990196
 20
12.2388137507
 30
0.0
  0
SPLINE
  5
367
100
AcDbEntity
  8
0
100
AcDbSpline
 62
7
  6
CONTINUOUS
 70
0
 71
3
 72
15
 73
11
 74
0
 42
0.0000001
 43
0.0000001
 44
0.0000000001
 40
0.0
 40
0.0
 40
0.0
 40
0.0
 40
0.1530780943
 40
0.2990728638
 40
0.4366363831
 40
0.5650828719
 40
0.6846338945
 40
0.796035822
 40
0.9005658846
 40
1.0
 40
1.0
 40
1.0
 40
1.0
 10
14.1510820758
 20
12.2947586478
 30
0.0
 10
14.1489028772
 20
12.2947586478
 30
0.0
 10
14.1446426777
 20
12.2945825826
 30
0.0
 10
14.1384715103
 20
12.2937673801
 30
0.0
 10
14.1327523485
 20
12.2924153212
 30
0.0
 10
14.127580233
 20
12.2905366998
 30
0.0
 10
14.1230283664
 20
12.2881627939
 30
0.0
 10
14.1191679835
 20
12.2853131272
 30
0.0
 10
14.1160629896
 20
12.2820366777
 30
0.0
 10
14.1145053801
 20
12.2795568733
 30
0.0
 10
14.1138888091
 20
12.2782826809
 30
0.0
  0
SPLINE
  5
368
100
AcDbEntity
  8
0
100
AcDbSpline
 62
7
  6
CONTINUOUS
 70
0
 71
3
 72
13
 73
9
 74
0
 42
0.0000001
 43
0.0000001
 44
0.0000000001
 40
0.0
 40
0.0
 40
0.0
 40
0.0
 40
0.1203837678
 40
0.2448858705
 40
0.5000359659
 40
0.7551674118
 40
0.8796468281
 40
1.0
 40
1.0
 40
1.0
 40
1.0
 10
14.2840438941
 20
12.2782826809
 30
0.0
 10
14.2821677154
 20
12.2795630439
 30
0.0
 10
14.2782377136
 20
12.2820045301
 30
0.0
 10
14.2698607266
 20
12.2863604629
 30
0.0
 10
14.2586507508
 20
12.2907005111
 30
0.0
 10
14.2469456564
 20
12.2934355522
 30
0.0
 10
14.2375723821
 20
12.2945599438
 30
0.0
 10
14.2329510156
 20
12.2947586478
 30
0.0
 10
14.2306801669
 20
12.2947586478
 30
0.0
  0
SPLINE
  5
369
100
AcDbEntity
  8
0
100
AcDbSpline
 62
7
  6
CONTINUOUS
 70
0
 71
3
 72
9
 73
5
 74
0
 42
0.0000001
 43
0.0000001
 44
0.0000000001
 40
0.0
 40
0.0
 40
0.0
 40
0.0
 40
0.2423988484
 40
1.0
 40
1.0
 40
1.0
 40
1.0
 10
14.2960341556
 20
12.2687865496
 30
0.0
 10
14.2951267214
 20
12.2696264719
 30
0.0
 10
14.2913128471
 20
12.273015203
 30
0.0
 10
14.2872359916
 20
12.2761042938
 30
0.0
 10
14.2840438941
 20
12.2782826809
 30
0.0
  0
SPLINE
  5
36A
100
AcDbEntity
  8
0
100
AcDbSpline
 62
7
  6
CONTINUOUS
 70
0
 71
3
 72
15
 73
11
 74
0
 42
0.0000001
 43
0.0000001
 44
0.0000000001
 40
0.0
 40
0.0
 40
0.0
 40
0.0
 40
0.1222057151
 40
0.2488986716
 40
0.3780641057
 40
0.507917285
 40
0.6367249041
 40
0.7627980176
 40
0.884475195
 40
1.0
 40
1.0
 40
1.0
 40
1.0
 10
14.3591927472
 20
12.2388137507
 30
0.0
 10
14.3569865949
 20
12.2388137507
 30
0.0
 10
14.3524912003
 20
12.239038675
 30
0.0
 10
14.3457234501
 20
12.2399812347
 30
0.0
 10
14.3389256353
 20
12.2415273752
 30
0.0
 10
14.3322416246
 20
12.2436375745
 30
0.0
 10
14.325806739
 20
12.2462727187
 30
0.0
 10
14.3197488129
 20
12.2493766711
 30
0.0
 10
14.3142002562
 20
12.2528893865
 30
0.0
 10
14.3108145135
 20
12.2555261986
 30
0.0
 10
14.3092449986
 20
12.2568995572
 30
0.0
  0
SPLINE
  5
36B
100
AcDbEntity
  8
0
100
AcDbSpline
 62
7
  6
CONTINUOUS
 70
0
 71
3
 72
15
 73
11
 74
0
 42
0.0000001
 43
0.0000001
 44
0.0000000001
 40
0.0
 40
0.0
 40
0.0
 40
0.0
 40
0.0997126821
 40
0.2030020668
 40
0.3127270479
 40
0.4309652794
 40
0.5588927943
 40
0.6968347972
 40
0.8443613855
 40
1.0
 40
1.0
 40
1.0
 40
1.0
 10
14.1091623838
 20
12.2547144793
 30
0.0
 10
14.1087908238
 20
12.2535149457
 30
0.0
 10
14.1077402029
 20
12.2511541421
 30
0.0
 10
14.1053442017
 20
12.2479905108
 30
0.0
 10
14.1021763393
 20
12.245236193
 30
0.0
 10
14.0983104281
 20
12.2429291978
 30
0.0
 10
14.0938144059
 20
12.2411018742
 30
0.0
 10
14.0887661138
 20
12.2397781566
 30
0.0
 10
14.0832579145
 20
12.2389841263
 30
0.0
 10
14.0794371134
 20
12.2388137507
 30
0.0
 10
14.0774770315
 20
12.2388137507
 30
0.0
  0
SPLINE
  5
36C
100
AcDbEntity
  8
0
100
AcDbSpline
 62
7
  6
CONTINUOUS
 70
0
 71
3
 72
15
 73
11
 74
0
 42
0.0000001
 43
0.0000001
 44
0.0000000001
 40
0.0
 40
0.0
 40
0.0
 40
0.0
 40
0.1530780943
 40
0.2990728638
 40
0.4366363831
 40
0.5650828719
 40
0.6846338945
 40
0.796035822
 40
0.9005658846
 40
1.0
 40
1.0
 40
1.0
 40
1.0
 10
14.6116125728
 20
12.2947586478
 30
0.0
 10
14.6094333742
 20
12.2947586478
 30
0.0
 10
14.6051731747
 20
12.2945825826
 30
0.0
 10
14.5990020073
 20
12.2937673801
 30
0.0
 10
14.5932828455
 20
12.2924153212
 30
0.0
 10
14.58811073
 20
12.2905366998
 30
0.0
 10
14.5835588634
 20
12.2881627939
 30
0.0
 10
14.5796984805
 20
12.2853131272
 30
0.0
 10
14.5765934866
 20
12.2820366777
 30
0.0
 10
14.5750358771
 20
12.2795568733
 30
0.0
 10
14.5744193061
 20
12.2782826809
 30
0.0
  0
SPLINE
  5
36D
100
AcDbEntity
  8
0
100
AcDbSpline
 62
7
  6
CONTINUOUS
 70
0
 71
3
 72
13
 73
9
 74
0
 42
0.0000001
 43
0.0000001
 44
0.0000000001
 40
0.0
 40
0.0
 40
0.0
 40
0.0
 40
0.1203837678
 40
0.2448858705
 40
0.5000359659
 40
0.7551674118
 40
0.8796468281
 40
1.0
 40
1.0
 40
1.0
 40
1.0
 10
14.7445743911
 20
12.2782826809
 30
0.0
 10
14.7426982124
 20
12.2795630439
 30
0.0
 10
14.7387682106
 20
12.2820045301
 30
0.0
 10
14.7303912236
 20
12.2863604629
 30
0.0
 10
14.7191812478
 20
12.2907005111
 30
0.0
 10
14.7074761534
 20
12.2934355522
 30
0.0
 10
14.6981028791
 20
12.2945599438
 30
0.0
 10
14.6934815126
 20
12.2947586478
 30
0.0
 10
14.6912106639
 20
12.2947586478
 30
0.0
  0
SPLINE
  5
36E
100
AcDbEntity
  8
0
100
AcDbSpline
 62
7
  6
CONTINUOUS
 70
0
 71
3
 72
9
 73
5
 74
0
 42
0.0000001
 43
0.0000001
 44
0.0000000001
 40
0.0
 40
0.0
 40
0.0
 40
0.0
 40
0.2423988484
 40
1.0
 40
1.0
 40
1.0
 40
1.0
 10
14.7565646526
 20
12.2687865496
 30
0.0
 10
14.7556572184
 20
12.2696264719
 30
0.0
 10
14.7518433441
 20
12.273015203
 30
0.0
 10
14.7477664886
 20
12.2761042938
 30
0.0
 10
14.7445743911
 20
12.2782826809
 30
0.0
  0
SPLINE
  5
36F
100
AcDbEntity
  8
0
100
AcDbSpline
 62
7
  6
CONTINUOUS
 70
0
 71
3
 72
15
 73
11
 74
0
 42
0.0000001
 43
0.0000001
 44
0.0000000001
 40
0.0
 40
0.0
 40
0.0
 40
0.0
 40
0.1222057151
 40
0.2488986716
 40
0.3780641057
 40
0.507917285
 40
0.6367249041
 40
0.7627980176
 40
0.884475195
 40
1.0
 40
1.0
 40
1.0
 40
1.0
 10
14.8197232442
 20
12.2388137507
 30
0.0
 10
14.8175170919
 20
12.2388137507
 30
0.0
 10
14.8130216973
 20
12.239038675
 30
0.0
 10
14.8062539471
 20
12.2399812347
 30
0.0
 10
14.7994561323
 20
12.2415273752
 30
0.0
 10
14.7927721216
 20
12.2436375745
 30
0.0
 10
14.786337236
 20
12.2462727187
 30
0.0
 10
14.7802793099
 20
12.2493766711
 30
0.0
 10
14.7747307532
 20
12.2528893865
 30
0.0
 10
14.7713450105
 20
12.2555261986
 30
0.0
 10
14.7697754956
 20
12.2568995572
 30
0.0
  0
SPLINE
  5
370
100
AcDbEntity
  8
0
100
AcDbSpline
 62
7
  6
CONTINUOUS
 70
0
 71
3
 72
15
 73
11
 74
0
 42
0.0000001
 43
0.0000001
 44
0.0000000001
 40
0.0
 40
0.0
 40
0.0
 40
0.0
 40
0.1532740614
 40
0.2992263589
 40
0.4366312608
 40
0.5650592695
 40
0.6845998962
 40
0.7959558292
 40
0.9004572415
 40
1.0
 40
1.0
 40
1.0
 40
1.0
 10
15.0721430698
 20
12.2947586478
 30
0.0
 10
15.069961031
 20
12.2947586478
 30
0.0
 10
15.0656985618
 20
12.2945840557
 30
0.0
 10
15.0595269097
 20
12.2937699133
 30
0.0
 10
15.0538121461
 20
12.2924127469
 30
0.0
 10
15.0486419668
 20
12.2905362569
 30
0.0
 10
15.0440919864
 20
12.288161295
 30
0.0
 10
15.0402283086
 20
12.2853181405
 30
0.0
 10
15.0371228886
 20
12.282040495
 30
0.0
 10
15.0355670621
 20
12.279558295
 30
0.0
 10
15.0349498031
 20
12.2782826809
 30
0.0
  0
SPLINE
  5
371
100
AcDbEntity
  8
0
100
AcDbSpline
 62
7
  6
CONTINUOUS
 70
0
 71
3
 72
15
 73
11
 74
0
 42
0.0000001
 43
0.0000001
 44
0.0000000001
 40
0.0
 40
0.0
 40
0.0
 40
0.0
 40
0.120477493
 40
0.2449058997
 40
0.3718496822
 40
0.5000359264
 40
0.6282174994
 40
0.7551474115
 40
0.8795531466
 40
1.0
 40
1.0
 40
1.0
 40
1.0
 10
15.2051048881
 20
12.2782826809
 30
0.0
 10
15.2032266169
 20
12.2795644718
 30
0.0
 10
15.1992960394
 20
12.2820083036
 30
0.0
 10
15.1930638206
 20
12.285249523
 30
0.0
 10
15.1864757144
 20
12.2880798755
 30
0.0
 10
15.1796368597
 20
12.2904588756
 30
0.0
 10
15.1726474467
 20
12.2923493509
 30
0.0
 10
15.1656111785
 20
12.2937255218
 30
0.0
 10
15.1586377053
 20
12.2945615571
 30
0.0
 10
15.1540145419
 20
12.2947586478
 30
0.0
 10
15.1517411609
 20
12.2947586478
 30
0.0
  0
SPLINE
  5
372
100
AcDbEntity
  8
0
100
AcDbSpline
 62
7
  6
CONTINUOUS
 70
0
 71
3
 72
9
 73
5
 74
0
 42
0.0000001
 43
0.0000001
 44
0.0000000001
 40
0.0
 40
0.0
 40
0.0
 40
0.0
 40
0.2423988484
 40
1.0
 40
1.0
 40
1.0
 40
1.0
 10
15.2170951496
 20
12.2687865496
 30
0.0
 10
15.2161877154
 20
12.2696264719
 30
0.0
 10
15.2123738411
 20
12.273015203
 30
0.0
 10
15.2082969856
 20
12.2761042938
 30
0.0
 10
15.2051048881
 20
12.2782826809
 30
0.0
  0
SPLINE
  5
373
100
AcDbEntity
  8
0
100
AcDbSpline
 62
7
  6
CONTINUOUS
 70
0
 71
3
 72
15
 73
11
 74
0
 42
0.0000001
 43
0.0000001
 44
0.0000000001
 40
0.0
 40
0.0
 40
0.0
 40
0.0
 40
0.1222057151
 40
0.2488986716
 40
0.3780641057
 40
0.507917285
 40
0.6367249041
 40
0.7627980176
 40
0.884475195
 40
1.0
 40
1.0
 40
1.0
 40
1.0
 10
15.2802537412
 20
12.2388137507
 30
0.0
 10
15.2780475889
 20
12.2388137507
 30
0.0
 10
15.2735521943
 20
12.239038675
 30
0.0
 10
15.2667844441
 20
12.2399812347
 30
0.0
 10
15.2599866293
 20
12.2415273752
 30
0.0
 10
15.2533026186
 20
12.2436375745
 30
0.0
 10
15.246867733
 20
12.2462727187
 30
0.0
 10
15.2408098069
 20
12.2493766711
 30
0.0
 10
15.2352612502
 20
12.2528893865
 30
0.0
 10
15.2318755075
 20
12.2555261986
 30
0.0
 10
15.2303059926
 20
12.2568995572
 30
0.0
  0
SPLINE
  5
374
100
AcDbEntity
  8
0
100
AcDbSpline
 62
7
  6
CONTINUOUS
 70
0
 71
3
 72
15
 73
11
 74
0
 42
0.0000001
 43
0.0000001
 44
0.0000000001
 40
0.0
 40
0.0
 40
0.0
 40
0.0
 40
0.0997126821
 40
0.2030020668
 40
0.3127270479
 40
0.4309652794
 40
0.5588927943
 40
0.6968347972
 40
0.8443613855
 40
1.0
 40
1.0
 40
1.0
 40
1.0
 10
15.4907538748
 20
12.2547144793
 30
0.0
 10
15.4903823148
 20
12.2535149457
 30
0.0
 10
15.4893316939
 20
12.2511541421
 30
0.0
 10
15.4869356927
 20
12.2479905108
 30
0.0
 10
15.4837678303
 20
12.245236193
 30
0.0
 10
15.4799019191
 20
12.2429291978
 30
0.0
 10
15.4754058969
 20
12.2411018742
 30
0.0
 10
15.4703576048
 20
12.2397781566
 30
0.0
 10
15.4648494055
 20
12.2389841263
 30
0.0
 10
15.4610286044
 20
12.2388137507
 30
0.0
 10
15.4590685226
 20
12.2388137507
 30
0.0
  0
SPLINE
  5
375
100
AcDbEntity
  8
0
100
AcDbSpline
 62
7
  6
CONTINUOUS
 70
0
 71
3
 72
15
 73
11
 74
0
 42
0.0000001
 43
0.0000001
 44
0.0000000001
 40
0.0
 40
0.0
 40
0.0
 40
0.0
 40
0.1532740614
 40
0.2992263589
 40
0.4366312608
 40
0.5650592695
 40
0.6845998962
 40
0.7959558292
 40
0.9004572415
 40
1.0
 40
1.0
 40
1.0
 40
1.0
 10
15.5326735668
 20
12.2947586478
 30
0.0
 10
15.530491528
 20
12.2947586478
 30
0.0
 10
15.5262290588
 20
12.2945840557
 30
0.0
 10
15.5200574067
 20
12.2937699133
 30
0.0
 10
15.5143426431
 20
12.2924127469
 30
0.0
 10
15.5091724638
 20
12.2905362569
 30
0.0
 10
15.5046224834
 20
12.288161295
 30
0.0
 10
15.5007588056
 20
12.2853181405
 30
0.0
 10
15.4976533856
 20
12.282040495
 30
0.0
 10
15.4960975591
 20
12.279558295
 30
0.0
 10
15.4954803001
 20
12.2782826809
 30
0.0
  0
SPLINE
  5
376
100
AcDbEntity
  8
0
100
AcDbSpline
 62
7
  6
CONTINUOUS
 70
0
 71
3
 72
15
 73
11
 74
0
 42
0.0000001
 43
0.0000001
 44
0.0000000001
 40
0.0
 40
0.0
 40
0.0
 40
0.0
 40
0.120477493
 40
0.2449058997
 40
0.3718496822
 40
0.5000359264
 40
0.6282174994
 40
0.7551474115
 40
0.8795531466
 40
1.0
 40
1.0
 40
1.0
 40
1.0
 10
15.6656353851
 20
12.2782826809
 30
0.0
 10
15.6637571139
 20
12.2795644718
 30
0.0
 10
15.6598265364
 20
12.2820083036
 30
0.0
 10
15.6535943176
 20
12.285249523
 30
0.0
 10
15.6470062114
 20
12.2880798755
 30
0.0
 10
15.6401673567
 20
12.2904588756
 30
0.0
 10
15.6331779437
 20
12.2923493509
 30
0.0
 10
15.6261416755
 20
12.2937255218
 30
0.0
 10
15.6191682023
 20
12.2945615571
 30
0.0
 10
15.6145450389
 20
12.2947586478
 30
0.0
 10
15.6122716579
 20
12.2947586478
 30
0.0
  0
SPLINE
  5
377
100
AcDbEntity
  8
0
100
AcDbSpline
 62
7
  6
CONTINUOUS
 70
0
 71
3
 72
9
 73
5
 74
0
 42
0.0000001
 43
0.0000001
 44
0.0000000001
 40
0.0
 40
0.0
 40
0.0
 40
0.0
 40
0.2423988484
 40
1.0
 40
1.0
 40
1.0
 40
1.0
 10
15.6776256466
 20
12.2687865496
 30
0.0
 10
15.6767182124
 20
12.2696264719
 30
0.0
 10
15.6729043381
 20
12.273015203
 30
0.0
 10
15.6688274826
 20
12.2761042938
 30
0.0
 10
15.6656353851
 20
12.2782826809
 30
0.0
  0
SPLINE
  5
378
100
AcDbEntity
  8
0
100
AcDbSpline
 62
7
  6
CONTINUOUS
 70
0
 71
3
 72
15
 73
11
 74
0
 42
0.0000001
 43
0.0000001
 44
0.0000000001
 40
0.0
 40
0.0
 40
0.0
 40
0.0
 40
0.1222057151
 40
0.2488986716
 40
0.3780641057
 40
0.507917285
 40
0.6367249041
 40
0.7627980176
 40
0.884475195
 40
1.0
 40
1.0
 40
1.0
 40
1.0
 10
15.7407842382
 20
12.2388137507
 30
0.0
 10
15.7385780859
 20
12.2388137507
 30
0.0
 10
15.7340826913
 20
12.239038675
 30
0.0
 10
15.7273149411
 20
12.2399812347
 30
0.0
 10
15.7205171263
 20
12.2415273752
 30
0.0
 10
15.7138331156
 20
12.2436375745
 30
0.0
 10
15.70739823
 20
12.2462727187
 30
0.0
 10
15.7013403039
 20
12.2493766711
 30
0.0
 10
15.6957917472
 20
12.2528893865
 30
0.0
 10
15.6924060045
 20
12.2555261986
 30
0.0
 10
15.6908364896
 20
12.2568995572
 30
0.0
  0
ENDSEC
  0
SECTION
  2
OBJECTS
  0
DICTIONARY
  5
C
100
AcDbDictionary
280
0
281
1
  3
ACAD_GROUP
350
D
  3
ACAD_MLINESTYLE
350
17
  3
ACAD_LAYOUT
350
1A
  3
ACAD_PLOTSETTINGS
350
19
  3
ACAD_PLOTSTYLENAME
350
E
  0
DICTIONARY
  5
D
102
{ACAD_REACTORS
330
C
102
}
100
AcDbDictionary
280
0
281
1
  0
ACDBDICTIONARYWDFLT
  5
E
102
{ACAD_REACTORS
330
C
102
}
100
AcDbDictionary
281
1
  3
Normal
350
F
100
AcDbDictionaryWithDefault
340
F
  0
DICTIONARY
  5
17
102
{ACAD_REACTORS
330
C
102
}
100
AcDbDictionary
280
0
281
1
  3
Standard
350
18
  0
DICTIONARY
  5
19
102
{ACAD_REACTORS
330
C
102
}
100
AcDbDictionary
281
1
  0
DICTIONARY
  5
1A
102
{ACAD_REACTORS
330
C
102
}
100
AcDbDictionary
281
1
  3
Model
350
379
  3
Layout1
350
37A
  0
ACDBPLACEHOLDER
  5
F
102
{ACAD_REACTORS
330
E
102
}
  0
MLINESTYLE
  5
18
102
{ACAD_REACTORS
330
17
102
}
100
AcDbMlineStyle
  2
STANDARD
 70
0
  3

 62
256
 51
90.0
 52
90.0
 71
2
 49
0.5
 62
256
  6
BYLAYER
 49
-0.5
 62
256
  6
BYLAYER
  0
LAYOUT
  5
379
102
{ACAD_REACTORS
330
1A
102
}
100
AcDbPlotSettings
  1

  2
none_device
  4
ANSI_C_(22.00_x_17.00_Inches)
  6

 40
0.0
 41
0.0
 42
0.0
 43
0.0
 44
558.8
 45
431.8
 46
0.0
 47
0.0
 48
0.0
 49
0.0
140
0.0
141
0.0
142
1.0
143
1.0
 70
1024
 72
0
 73
0
 74
0
  7

 75
0
147
1.0
148
0.0
149
0.0
100
AcDbLayout
  1
Model
 70
0
 71
0
 10
0.0
 20
0.0
 11
22.0
 21
17.0
 12
0.0
 22
0.0
 32
0.0
 14
0.0
 24
0.0
 34
0.0
 15
0.0
 25
0.0
 35
0.0
146
0.0
 13
0.0
 23
0.0
 33
0.0
 16
1.0
 26
0.0
 36
0.0
 17
0.0
 27
1.0
 37
0.0
 76
0
330
216
345
0
346
0
  0
LAYOUT
  5
37A
102
{ACAD_REACTORS
330
1A
102
}
100
AcDbPlotSettings
  1

  2
none_device
  4
ANSI_C_(22.00_x_17.00_Inches)
  6

 40
0.0
 41
0.0
 42
0.0
 43
0.0
 44
558.8
 45
431.8
 46
0.0
 47
0.0
 48
0.0
 49
0.0
140
0.0
141
0.0
142
1.0
143
1.0
 70
0
 72
0
 73
0
 74
0
  7

 75
0
147
1.0
148
0.0
149
0.0
100
AcDbLayout
  1
Layout1
 70
0
 71
1
 10
0.0
 20
0.0
 11
22.0
 21
17.0
 12
0.0
 22
0.0
 32
0.0
 14
0.0
 24
0.0
 34
0.0
 15
0.0
 25
0.0
 35
0.0
146
0.0
 13
0.0
 23
0.0
 33
0.0
 16
1.0
 26
0.0
 36
0.0
 17
0.0
 27
1.0
 37
0.0
 76
0
330
217
345
0
346
0
  0
ENDSEC
  0
EOF