999
DXF file: _cgs_temp_output.dxf
999
Pro/ENGINEER 2016360 by Parametric Technology Corporation
  0
SECTION
  2
HEADER
  9
$ACADVER
  1
AC1021
  9
$DWGCODEPAGE
  3
ANSI_1252
  9
$EXTMAX
 10
22.0
 20
17.0
 30
0.0
  9
$EXTMIN
 10
0.0
 20
0.0
 30
0.0
  9
$LIMMIN
 10
0.0
 20
0.0
  9
$LIMMAX
 10
22.0
 20
17.0
  9
$VIEWCTR
 10
11.0
 20
8.5
  9
$VIEWSIZE
 40
17.0
  9
$CLAYER
  8
0
  9
$LTSCALE
 40
1.21
  9
$CELTYPE
  6
BYLAYER
  9
$DIMSCALE
 40
1.0
  9
$DIMASZ
 40
0.1875
  9
$DIMEXO
 40
0.0625
  9
$DIMDLI
 40
0.836
  9
$DIMEXE
 40
0.125
  9
$DIMCEN
 40
0.198
  9
$DIMLFAC
 40
1.0
  9
$DIMBLK
  1
_CLOSED
  9
$DIMALT
 70
0
  9
$DIMALTF
 40
25.4
  9
$DIMTXT
 40
0.15625
  9
$DIMTOL
 70
0
  9
$DIMLIM
 70
0
  9
$DIMTFAC
 40
1.0
  9
$DIMGAP
 40
0.09
  9
$DIMDSEP
 70
46
  9
$AUNITS
 70
0
  9
$PDMODE
 70
3
  9
$PDSIZE
 40
0.3125
  9
$HANDSEED
  5
2A8
  9
$TILEMODE
 70
1
  9
$MEASUREMENT
 70
0
  9
$INSUNITS
 70
1
  0
ENDSEC
  0
SECTION
  2
CLASSES
  0
CLASS
  1
ACDBDICTIONARYWDFLT
  2
AcDbDictionaryWithDefault
  3
AutoCAD 2000
 90
0
 91
1
280
0
281
0
  0
CLASS
  1
ACDBPLACEHOLDER
  2
AcDbPlaceHolder
  3
AutoCAD 2000
 90
0
 91
1
280
0
281
0
  0
CLASS
  1
LAYOUT
  2
AcDbLayout
  3
AutoCAD 2000
 90
0
 91
0
280
0
281
0
  0
ENDSEC
  0
SECTION
  2
TABLES
  0
TABLE
  2
VPORT
  5
8
100
AcDbSymbolTable
 70
2
  0
VPORT
  5
1F4
100
AcDbSymbolTableRecord
100
AcDbViewportTableRecord
  2
*ACTIVE
 70
0
 10
0.0
 20
0.0
 11
1.0
 21
1.0
 12
11.0
 22
8.5
 13
0.0
 23
0.0
 14
1.0
 24
1.0
 15
0.0
 25
0.0
 16
0.0
 26
0.0
 36
1.0
 17
0.0
 27
0.0
 37
0.0
 40
17.0
 41
1.2941176471
 42
50.0
 43
0.0
 44
0.0
 50
0.0
 51
0.0
 71
0
 72
100
 73
1
 74
1
 75
0
 76
0
 77
0
 78
0
  0
ENDTAB
  0
TABLE
  2
LTYPE
  5
5
100
AcDbSymbolTable
 70
6
  0
LTYPE
  5
14
100
AcDbSymbolTableRecord
100
AcDbLinetypeTableRecord
  2
BYBLOCK
 70
0
  3

 72
65
 73
0
 40
0.0
  0
LTYPE
  5
15
100
AcDbSymbolTableRecord
100
AcDbLinetypeTableRecord
  2
BYLAYER
 70
0
  3

 72
65
 73
0
 40
0.0
  0
LTYPE
  5
16
100
AcDbSymbolTableRecord
100
AcDbLinetypeTableRecord
  2
CONTINUOUS
 70
64
  3
Solid line
 72
65
 73
0
 40
0.0
  0
LTYPE
  5
1F5
100
AcDbSymbolTableRecord
100
AcDbLinetypeTableRecord
  2
CENTER
 70
64
  3
____ _ ____ _ ____ _ ____ _ ____ _ ____ _ ____
 72
65
 73
4
 40
0.6
 49
0.375
 74
0
 49
-0.075
 74
0
 49
0.075
 74
0
 49
-0.075
 74
0
  0
LTYPE
  5
1F6
100
AcDbSymbolTableRecord
100
AcDbLinetypeTableRecord
  2
HIDDEN
 70
64
  3
- - - - - - - - - - - - - - - - - - - -
 72
65
 73
2
 40
0.2
 49
0.1
 74
0
 49
-0.1
 74
0
  0
LTYPE
  5
1F7
100
AcDbSymbolTableRecord
100
AcDbLinetypeTableRecord
  2
PHANTOM
 70
64
  3
_____ _ _ _____ _ _ _____ _ _ _____
 72
65
 73
6
 40
0.8
 49
0.45
 74
0
 49
-0.05
 74
0
 49
0.1
 74
0
 49
-0.05
 74
0
 49
0.1
 74
0
 49
-0.05
 74
0
  0
LTYPE
  5
1F8
100
AcDbSymbolTableRecord
100
AcDbLinetypeTableRecord
  2
DOT
 70
64
  3
. . . . . . . . . . . . . . . . . . . .
 72
65
 73
2
 40
0.2
 49
0.1
 74
0
 49
-0.1
 74
0
  0
LTYPE
  5
1F9
100
AcDbSymbolTableRecord
100
AcDbLinetypeTableRecord
  2
DASHED
 70
64
  3
- - - - - - - - - - - - - - - - - - - -
 72
65
 73
2
 40
0.2
 49
0.1
 74
0
 49
-0.1
 74
0
  0
ENDTAB
  0
TABLE
  2
LAYER
  5
2
100
AcDbSymbolTable
 70
36
  0
LAYER
  5
10
100
AcDbSymbolTableRecord
100
AcDbLayerTableRecord
  2
0
 70
0
 62
7
  6
CONTINUOUS
370
-3
390
F
  0
LAYER
  5
1FA
100
AcDbSymbolTableRecord
100
AcDbLayerTableRecord
  2
DEFAULT_1
 70
0
 62
7
  6
CENTER
370
-3
390
F
  0
LAYER
  5
1FB
100
AcDbSymbolTableRecord
100
AcDbLayerTableRecord
  2
DEFAULT_2
 70
0
 62
8
  6
HIDDEN
370
-3
390
F
  0
LAYER
  5
1FC
100
AcDbSymbolTableRecord
100
AcDbLayerTableRecord
  2
DEFAULT_3
 70
0
 62
7
  6
PHANTOM
370
-3
390
F
  0
LAYER
  5
1FD
100
AcDbSymbolTableRecord
100
AcDbLayerTableRecord
  2
01_ALL_DTM_PLN
 70
0
 62
7
  6
CONTINUOUS
370
-3
390
F
  0
LAYER
  5
1FE
100
AcDbSymbolTableRecord
100
AcDbLayerTableRecord
  2
01__ASM_ALL_DTM_PLN
 70
0
 62
7
  6
CONTINUOUS
370
-3
390
F
  0
LAYER
  5
1FF
100
AcDbSymbolTableRecord
100
AcDbLayerTableRecord
  2
01__ASM_DEF_DTM_PLN
 70
0
 62
7
  6
CONTINUOUS
370
-3
390
F
  0
LAYER
  5
200
100
AcDbSymbolTableRecord
100
AcDbLayerTableRecord
  2
01___PRT_ALL_DTM_PLN
 70
0
 62
7
  6
CONTINUOUS
370
-3
390
F
  0
LAYER
  5
201
100
AcDbSymbolTableRecord
100
AcDbLayerTableRecord
  2
01___PRT_DEF_DTM_PLN
 70
0
 62
7
  6
CONTINUOUS
370
-3
390
F
  0
LAYER
  5
202
100
AcDbSymbolTableRecord
100
AcDbLayerTableRecord
  2
02_ALL_AXES
 70
0
 62
7
  6
CONTINUOUS
370
-3
390
F
  0
LAYER
  5
203
100
AcDbSymbolTableRecord
100
AcDbLayerTableRecord
  2
02__ASM_ALL_AXES
 70
0
 62
7
  6
CONTINUOUS
370
-3
390
F
  0
LAYER
  5
204
100
AcDbSymbolTableRecord
100
AcDbLayerTableRecord
  2
02___PRT_ALL_AXES
 70
0
 62
7
  6
CONTINUOUS
370
-3
390
F
  0
LAYER
  5
205
100
AcDbSymbolTableRecord
100
AcDbLayerTableRecord
  2
03_ALL_CURVES
 70
0
 62
7
  6
CONTINUOUS
370
-3
390
F
  0
LAYER
  5
206
100
AcDbSymbolTableRecord
100
AcDbLayerTableRecord
  2
03__ASM_ALL_CURVES
 70
0
 62
7
  6
CONTINUOUS
370
-3
390
F
  0
LAYER
  5
207
100
AcDbSymbolTableRecord
100
AcDbLayerTableRecord
  2
03___PRT_ALL_CURVES
 70
0
 62
7
  6
CONTINUOUS
370
-3
390
F
  0
LAYER
  5
208
100
AcDbSymbolTableRecord
100
AcDbLayerTableRecord
  2
04_ALL_DTM_PNT
 70
0
 62
7
  6
CONTINUOUS
370
-3
390
F
  0
LAYER
  5
209
100
AcDbSymbolTableRecord
100
AcDbLayerTableRecord
  2
04__ASM_ALL_DTM_PNT
 70
0
 62
7
  6
CONTINUOUS
370
-3
390
F
  0
LAYER
  5
20A
100
AcDbSymbolTableRecord
100
AcDbLayerTableRecord
  2
04___PRT_ALL_DTM_PNT
 70
0
 62
7
  6
CONTINUOUS
370
-3
390
F
  0
LAYER
  5
20B
100
AcDbSymbolTableRecord
100
AcDbLayerTableRecord
  2
05_ALL_DTM_CSYS
 70
0
 62
7
  6
CONTINUOUS
370
-3
390
F
  0
LAYER
  5
20C
100
AcDbSymbolTableRecord
100
AcDbLayerTableRecord
  2
05__ASM_ALL_DTM_CSYS
 70
0
 62
7
  6
CONTINUOUS
370
-3
390
F
  0
LAYER
  5
20D
100
AcDbSymbolTableRecord
100
AcDbLayerTableRecord
  2
05__ASM_DEF_DTM_CSYS
 70
0
 62
7
  6
CONTINUOUS
370
-3
390
F
  0
LAYER
  5
20E
100
AcDbSymbolTableRecord
100
AcDbLayerTableRecord
  2
05___PRT_ALL_DTM_CSYS
 70
0
 62
7
  6
CONTINUOUS
370
-3
390
F
  0
LAYER
  5
20F
100
AcDbSymbolTableRecord
100
AcDbLayerTableRecord
  2
05___PRT_DEF_DTM_CSYS
 70
0
 62
7
  6
CONTINUOUS
370
-3
390
F
  0
LAYER
  5
210
100
AcDbSymbolTableRecord
100
AcDbLayerTableRecord
  2
06_ALL_SURFS
 70
0
 62
7
  6
CONTINUOUS
370
-3
390
F
  0
LAYER
  5
211
100
AcDbSymbolTableRecord
100
AcDbLayerTableRecord
  2
06__ASM_ALL_SURFS
 70
0
 62
7
  6
CONTINUOUS
370
-3
390
F
  0
LAYER
  5
212
100
AcDbSymbolTableRecord
100
AcDbLayerTableRecord
  2
06___PRT_ALL_SURFS
 70
0
 62
7
  6
CONTINUOUS
370
-3
390
F
  0
LAYER
  5
213
100
AcDbSymbolTableRecord
100
AcDbLayerTableRecord
  2
07__ASM_ALL_SKELETONS
 70
0
 62
7
  6
CONTINUOUS
370
-3
390
F
  0
ENDTAB
  0
TABLE
  2
STYLE
  5
3
100
AcDbSymbolTable
 70
1
  0
STYLE
  5
11
100
AcDbSymbolTableRecord
100
AcDbTextStyleTableRecord
  2
STANDARD
 70
0
 40
0.0
 41
0.8
 50
0.0
 71
0
 42
0.2
  3
txt
  4

  0
STYLE
  5
214
100
AcDbSymbolTableRecord
100
AcDbTextStyleTableRecord
  2
TEXTSTYLE_1
 70
0
 40
0.0
 41
0.8
 50
0.0
 71
0
 42
0.2
  3
gdt
  4

  0
ENDTAB
  0
TABLE
  2
VIEW
  5
6
100
AcDbSymbolTable
 70
0
  0
ENDTAB
  0
TABLE
  2
UCS
  5
7
100
AcDbSymbolTable
 70
0
  0
ENDTAB
  0
TABLE
  2
APPID
  5
9
100
AcDbSymbolTable
 70
1
  0
APPID
  5
215
100
AcDbSymbolTableRecord
100
AcDbRegAppTableRecord
  2
ACAD
 70
0
  0
ENDTAB
  0
TABLE
  2
BLOCK_RECORD
  5
1
100
AcDbSymbolTable
 70
0
  0
BLOCK_RECORD
  5
216
100
AcDbSymbolTableRecord
100
AcDbBlockTableRecord
  2
*Model_Space
  0
BLOCK_RECORD
  5
217
100
AcDbSymbolTableRecord
100
AcDbBlockTableRecord
  2
*Paper_Space
  0
ENDTAB
  0
TABLE
  2
DIMSTYLE
  5
A
100
AcDbSymbolTable
 70
1
100
AcDbDimStyleTable
 71
0
  0
DIMSTYLE
105
218
100
AcDbSymbolTableRecord
100
AcDbDimStyleTableRecord
  2
STANDARD
 70
0
  3

  4

 40
1.0
 41
0.1875
 42
0.0625
 43
0.38
 44
0.125
 45
0.0
 46
0.0
 47
0.0001
 48
0.0001
140
0.15625
141
0.09
142
0.0
143
25.4
144
1.0
145
0.0
146
1.0
147
0.09
 71
0.0
 72
0.0
 73
1
 74
1
 75
0
 76
0
 77
0
 78
4
 79
1
170
0
171
3
172
0
173
0
174
0
175
0
176
0
177
0
178
0
270
2
179
4
271
4
272
4
273
2
274
2
275
0
280
0
281
0
282
0
283
1
284
4
285
0
286
0
287
3
288
0
340
11
278
46
  0
ENDTAB
  0
ENDSEC
  0
SECTION
  2
BLOCKS
  0
BLOCK
  5
20
100
AcDbEntity
  8
0
100
AcDbBlockBegin
  2
*Model_Space
 70
0
 10
0.0
 20
0.0
 30
0.0
  3
*Model_Space
  1

  0
ENDBLK
  5
21
100
AcDbEntity
  8
0
100
AcDbBlockEnd
  0
BLOCK
  5
1C
100
AcDbEntity
  8
0
100
AcDbBlockBegin
  2
*Paper_Space
 70
0
 10
0.0
 20
0.0
 30
0.0
  3
*Paper_Space
  1

  0
ENDBLK
  5
1D
100
AcDbEntity
  8
0
100
AcDbBlockEnd
  0
ENDSEC
  0
SECTION
  2
ENTITIES
  0
MTEXT
  5
219
100
AcDbEntity
  8
0
100
AcDbMText
 62
7
  6
CONTINUOUS
  7
STANDARD
 71
1
 72
1
 10
15.9560215477
 20
0.9479130325
 30
0.0
 11
1.0
 21
0.0
 31
0.0
 44
0.9
  1
SCALE: 1:0.333
 40
0.3
 41
3.36
  0
LINE
  5
21A
100
AcDbEntity
  8
0
100
AcDbLine
 62
7
  6
CONTINUOUS
 10
0.0
 20
0.0
 11
0.0
 21
17.0
  0
LINE
  5
21B
100
AcDbEntity
  8
0
100
AcDbLine
 62
7
  6
CONTINUOUS
 10
0.0
 20
0.0
 11
22.0
 21
0.0
  0
LINE
  5
21C
100
AcDbEntity
  8
0
100
AcDbLine
 62
7
  6
CONTINUOUS
 10
0.0
 20
17.0
 11
22.0
 21
17.0
  0
LINE
  5
21D
100
AcDbEntity
  8
0
100
AcDbLine
 62
7
  6
CONTINUOUS
 10
22.0
 20
0.0
 11
22.0
 21
17.0
  0
LINE
  5
21E
100
AcDbEntity
  8
0
100
AcDbLine
 62
7
  6
CONTINUOUS
 10
5.6303672762
 20
5.5467865634
 11
5.6303672762
 21
5.5234532301
  0
LINE
  5
21F
100
AcDbEntity
  8
0
100
AcDbLine
 62
7
  6
CONTINUOUS
 10
5.663984877
 20
5.5177373359
 11
5.6704922817
 21
5.5020270713
  0
LINE
  5
220
100
AcDbEntity
  8
0
100
AcDbLine
 62
7
  6
CONTINUOUS
 10
5.7569089373
 20
5.5020270713
 11
5.763416342
 21
5.5177373359
  0
LINE
  5
221
100
AcDbEntity
  8
0
100
AcDbLine
 62
7
  6
CONTINUOUS
 10
5.8306515437
 20
5.5177373359
 11
5.8371589484
 21
5.5020270713
  0
LINE
  5
222
100
AcDbEntity
  8
0
100
AcDbLine
 62
7
  6
CONTINUOUS
 10
5.9235756039
 20
5.5020270713
 11
5.9300830086
 21
5.5177373359
  0
LINE
  5
223
100
AcDbEntity
  8
0
100
AcDbLine
 62
7
  6
CONTINUOUS
 10
5.9973182104
 20
5.5177373359
 11
6.0038256151
 21
5.5020270713
  0
LINE
  5
224
100
AcDbEntity
  8
0
100
AcDbLine
 62
7
  6
CONTINUOUS
 10
6.0902422706
 20
5.5020270713
 11
6.0967496753
 21
5.5177373359
  0
LINE
  5
225
100
AcDbEntity
  8
0
100
AcDbLine
 62
7
  6
CONTINUOUS
 10
5.6833239419
 20
5.4934532301
 11
5.7440772771
 21
5.4934532301
  0
LINE
  5
226
100
AcDbEntity
  8
0
100
AcDbLine
 62
7
  6
CONTINUOUS
 10
5.8499906086
 20
5.4934532301
 11
5.9107439438
 21
5.4934532301
  0
LINE
  5
227
100
AcDbEntity
  8
0
100
AcDbLine
 62
7
  6
CONTINUOUS
 10
6.0166572752
 20
5.4934532301
 11
6.0774106104
 21
5.4934532301
  0
LINE
  5
228
100
AcDbEntity
  8
0
100
AcDbLine
 62
7
  6
CONTINUOUS
 10
6.1833239419
 20
5.4934532301
 11
6.2440772771
 21
5.4934532301
  0
LINE
  5
229
100
AcDbEntity
  8
0
100
AcDbLine
 62
7
  6
CONTINUOUS
 10
6.3499906086
 20
5.4934532301
 11
6.4107439438
 21
5.4934532301
  0
LINE
  5
22A
100
AcDbEntity
  8
0
100
AcDbLine
 62
7
  6
CONTINUOUS
 10
6.5166572752
 20
5.4934532301
 11
6.5774106104
 21
5.4934532301
  0
LINE
  5
22B
100
AcDbEntity
  8
0
100
AcDbLine
 62
7
  6
CONTINUOUS
 10
5.6303672762
 20
5.5234532301
 11
5.6554304369
 21
5.5234532301
  0
LINE
  5
22C
100
AcDbEntity
  8
0
100
AcDbLine
 62
7
  6
CONTINUOUS
 10
5.7719707821
 20
5.5234532301
 11
5.8220971036
 21
5.5234532301
  0
LINE
  5
22D
100
AcDbEntity
  8
0
100
AcDbLine
 62
7
  6
CONTINUOUS
 10
5.9386374487
 20
5.5234532301
 11
5.9887637703
 21
5.5234532301
  0
LINE
  5
22E
100
AcDbEntity
  8
0
100
AcDbLine
 62
7
  6
CONTINUOUS
 10
6.1053041154
 20
5.5234532301
 11
6.1554304369
 21
5.5234532301
  0
LINE
  5
22F
100
AcDbEntity
  8
0
100
AcDbLine
 62
7
  6
CONTINUOUS
 10
6.2719707821
 20
5.5234532301
 11
6.3220971036
 21
5.5234532301
  0
LINE
  5
230
100
AcDbEntity
  8
0
100
AcDbLine
 62
7
  6
CONTINUOUS
 10
6.4386374487
 20
5.5234532301
 11
6.4887637703
 21
5.5234532301
  0
LINE
  5
231
100
AcDbEntity
  8
0
100
AcDbLine
 62
7
  6
CONTINUOUS
 10
6.6053041154
 20
5.5234532301
 11
6.6303672762
 21
5.5234532301
  0
LINE
  5
232
100
AcDbEntity
  8
0
100
AcDbLine
 62
7
  6
CONTINUOUS
 10
6.6303672762
 20
5.5467865634
 11
5.6303672762
 21
5.5467865634
  0
LINE
  5
233
100
AcDbEntity
  8
0
100
AcDbLine
 62
7
  6
CONTINUOUS
 10
6.163984877
 20
5.5177373359
 11
6.1704922817
 21
5.5020270713
  0
LINE
  5
234
100
AcDbEntity
  8
0
100
AcDbLine
 62
7
  6
CONTINUOUS
 10
6.2569089373
 20
5.5020270713
 11
6.263416342
 21
5.5177373359
  0
LINE
  5
235
100
AcDbEntity
  8
0
100
AcDbLine
 62
7
  6
CONTINUOUS
 10
6.3306515437
 20
5.5177373359
 11
6.3371589484
 21
5.5020270713
  0
LINE
  5
236
100
AcDbEntity
  8
0
100
AcDbLine
 62
7
  6
CONTINUOUS
 10
6.4235756039
 20
5.5020270713
 11
6.4300830086
 21
5.5177373359
  0
LINE
  5
237
100
AcDbEntity
  8
0
100
AcDbLine
 62
7
  6
CONTINUOUS
 10
6.4973182104
 20
5.5177373359
 11
6.5038256151
 21
5.5020270713
  0
LINE
  5
238
100
AcDbEntity
  8
0
100
AcDbLine
 62
7
  6
CONTINUOUS
 10
6.5902422706
 20
5.5020270713
 11
6.5967496753
 21
5.5177373359
  0
LINE
  5
239
100
AcDbEntity
  8
0
100
AcDbLine
 62
7
  6
CONTINUOUS
 10
6.6303672762
 20
5.5234532301
 11
6.6303672762
 21
5.5467865634
  0
LINE
  5
23A
100
AcDbEntity
  8
0
100
AcDbLine
 62
7
  6
CONTINUOUS
 10
6.5708720839
 20
9.6000477814
 11
5.5708720839
 21
9.6000477814
  0
LINE
  5
23B
100
AcDbEntity
  8
0
100
AcDbLine
 62
7
  6
CONTINUOUS
 10
5.5708720839
 20
15.6000477814
 11
5.5708720839
 21
9.6000477814
  0
LINE
  5
23C
100
AcDbEntity
  8
0
100
AcDbLine
 62
7
  6
CONTINUOUS
 10
6.5708720839
 20
15.6000477814
 11
6.5708720839
 21
9.6000477814
  0
LINE
  5
23D
100
AcDbEntity
  8
0
100
AcDbLine
 62
7
  6
CONTINUOUS
 10
5.5708720839
 20
15.6000477814
 11
6.5708720839
 21
15.6000477814
  0
LINE
  5
23E
100
AcDbEntity
  8
0
100
AcDbLine
 62
7
  6
CONTINUOUS
 10
12.5603552569
 20
5.4339580378
 11
12.5603552569
 21
5.4872913711
  0
LINE
  5
23F
100
AcDbEntity
  8
0
100
AcDbLine
 62
7
  6
CONTINUOUS
 10
12.5603552569
 20
5.4339580378
 11
18.5603552569
 21
5.4339580378
  0
LINE
  5
240
100
AcDbEntity
  8
0
100
AcDbLine
 62
7
  6
CONTINUOUS
 10
18.5603552569
 20
5.4639580378
 11
12.5603552569
 21
5.4639580378
  0
LINE
  5
241
100
AcDbEntity
  8
0
100
AcDbLine
 62
7
  6
CONTINUOUS
 10
18.5603552569
 20
5.4872913711
 11
12.5603552569
 21
5.4872913711
  0
LINE
  5
242
100
AcDbEntity
  8
0
100
AcDbLine
 62
7
  6
CONTINUOUS
 10
18.5603552569
 20
5.4339580378
 11
18.5603552569
 21
5.4872913711
  0
LINE
  5
243
100
AcDbEntity
  8
0
100
AcDbLine
 62
7
  6
CONTINUOUS
 10
14.3206492709
 20
10.1593432405
 11
14.331435276
 21
10.1495775834
  0
LINE
  5
244
100
AcDbEntity
  8
0
100
AcDbLine
 62
7
  6
CONTINUOUS
 10
14.3458693982
 20
10.1442479982
 11
14.4018269255
 21
10.1442479982
  0
LINE
  5
245
100
AcDbEntity
  8
0
100
AcDbLine
 62
7
  6
CONTINUOUS
 10
14.4993795639
 20
10.1442479982
 11
14.5553370912
 21
10.1442479982
  0
LINE
  5
246
100
AcDbEntity
  8
0
100
AcDbLine
 62
7
  6
CONTINUOUS
 10
14.6528897295
 20
10.1442479982
 11
14.7088472569
 21
10.1442479982
  0
LINE
  5
247
100
AcDbEntity
  8
0
100
AcDbLine
 62
7
  6
CONTINUOUS
 10
14.8063998952
 20
10.1442479982
 11
14.8623574225
 21
10.1442479982
  0
LINE
  5
248
100
AcDbEntity
  8
0
100
AcDbLine
 62
7
  6
CONTINUOUS
 10
14.9599100609
 20
10.1442479982
 11
15.0158675882
 21
10.1442479982
  0
LINE
  5
249
100
AcDbEntity
  8
0
100
AcDbLine
 62
7
  6
CONTINUOUS
 10
15.1134202265
 20
10.1442479982
 11
15.1693777539
 21
10.1442479982
  0
LINE
  5
24A
100
AcDbEntity
  8
0
100
AcDbLine
 62
7
  6
CONTINUOUS
 10
14.287941823
 20
10.1628962973
 11
14.3110265228
 21
10.1628962973
  0
LINE
  5
24B
100
AcDbEntity
  8
0
100
AcDbLine
 62
7
  6
CONTINUOUS
 10
14.4183672889
 20
10.1628962973
 11
14.4645366885
 21
10.1628962973
  0
LINE
  5
24C
100
AcDbEntity
  8
0
100
AcDbLine
 62
7
  6
CONTINUOUS
 10
14.5718774546
 20
10.1628962973
 11
14.6180468541
 21
10.1628962973
  0
LINE
  5
24D
100
AcDbEntity
  8
0
100
AcDbLine
 62
7
  6
CONTINUOUS
 10
14.7253876203
 20
10.1628962973
 11
14.7715570198
 21
10.1628962973
  0
LINE
  5
24E
100
AcDbEntity
  8
0
100
AcDbLine
 62
7
  6
CONTINUOUS
 10
14.8788977859
 20
10.1628962973
 11
14.9250671855
 21
10.1628962973
  0
LINE
  5
24F
100
AcDbEntity
  8
0
100
AcDbLine
 62
7
  6
CONTINUOUS
 10
15.0324079516
 20
10.1628962973
 11
15.0785773511
 21
10.1628962973
  0
LINE
  5
250
100
AcDbEntity
  8
0
100
AcDbLine
 62
7
  6
CONTINUOUS
 10
15.1859181173
 20
10.1628962973
 11
15.209002817
 21
10.1628962973
  0
LINE
  5
251
100
AcDbEntity
  8
0
100
AcDbLine
 62
7
  6
CONTINUOUS
 10
15.2018851735
 20
10.1774005298
 11
14.2808241795
 21
10.1774005298
  0
LINE
  5
252
100
AcDbEntity
  8
0
100
AcDbLine
 62
7
  6
CONTINUOUS
 10
14.4741594366
 20
10.1593432405
 11
14.4849454417
 21
10.1495775834
  0
LINE
  5
253
100
AcDbEntity
  8
0
100
AcDbLine
 62
7
  6
CONTINUOUS
 10
14.6276696023
 20
10.1593432405
 11
14.6384556073
 21
10.1495775834
  0
LINE
  5
254
100
AcDbEntity
  8
0
100
AcDbLine
 62
7
  6
CONTINUOUS
 10
14.7811797679
 20
10.1593432405
 11
14.791965773
 21
10.1495775834
  0
LINE
  5
255
100
AcDbEntity
  8
0
100
AcDbLine
 62
7
  6
CONTINUOUS
 10
14.9346899336
 20
10.1593432405
 11
14.9454759387
 21
10.1495775834
  0
LINE
  5
256
100
AcDbEntity
  8
0
100
AcDbLine
 62
7
  6
CONTINUOUS
 10
14.2808241795
 20
10.1774005298
 11
14.287941823
 21
10.1628962973
  0
LINE
  5
257
100
AcDbEntity
  8
0
100
AcDbLine
 62
7
  6
CONTINUOUS
 10
15.0882000993
 20
10.1593432405
 11
15.0989861043
 21
10.1495775834
  0
LINE
  5
258
100
AcDbEntity
  8
0
100
AcDbLine
 62
7
  6
CONTINUOUS
 10
15.209002817
 20
10.1628962973
 11
15.2018851735
 21
10.1774005298
  0
LINE
  5
259
100
AcDbEntity
  8
0
100
AcDbLine
 62
7
  6
CONTINUOUS
 10
14.4110302867
 20
10.1495775834
 11
14.4122317148
 21
10.1593432405
  0
LINE
  5
25A
100
AcDbEntity
  8
0
100
AcDbLine
 62
7
  6
CONTINUOUS
 10
14.5645404523
 20
10.1495775834
 11
14.5657418805
 21
10.1593432405
  0
LINE
  5
25B
100
AcDbEntity
  8
0
100
AcDbLine
 62
7
  6
CONTINUOUS
 10
14.4108526315
 20
10.1487830808
 11
14.4110302867
 21
10.1495775834
  0
LINE
  5
25C
100
AcDbEntity
  8
0
100
AcDbLine
 62
7
  6
CONTINUOUS
 10
14.4122317148
 20
10.1593432405
 11
14.4123514973
 21
10.1598724895
  0
LINE
  5
25D
100
AcDbEntity
  8
0
100
AcDbLine
 62
7
  6
CONTINUOUS
 10
14.718050618
 20
10.1495775834
 11
14.7192520462
 21
10.1593432405
  0
LINE
  5
25E
100
AcDbEntity
  8
0
100
AcDbLine
 62
7
  6
CONTINUOUS
 10
14.5643627972
 20
10.1487830808
 11
14.5645404523
 21
10.1495775834
  0
LINE
  5
25F
100
AcDbEntity
  8
0
100
AcDbLine
 62
7
  6
CONTINUOUS
 10
14.5657418805
 20
10.1593432405
 11
14.565861663
 21
10.1598724895
  0
LINE
  5
260
100
AcDbEntity
  8
0
100
AcDbLine
 62
7
  6
CONTINUOUS
 10
15.7332221199
 20
14.8773619876
 11
14.2808241795
 21
10.1774005298
  0
LINE
  5
261
100
AcDbEntity
  8
0
100
AcDbLine
 62
7
  6
CONTINUOUS
 10
14.8715607837
 20
10.1495775834
 11
14.8727622118
 21
10.1593432405
  0
LINE
  5
262
100
AcDbEntity
  8
0
100
AcDbLine
 62
7
  6
CONTINUOUS
 10
15.0250709493
 20
10.1495775834
 11
15.0262723775
 21
10.1593432405
  0
LINE
  5
263
100
AcDbEntity
  8
0
100
AcDbLine
 62
7
  6
CONTINUOUS
 10
14.7178729628
 20
10.1487830808
 11
14.718050618
 21
10.1495775834
  0
LINE
  5
264
100
AcDbEntity
  8
0
100
AcDbLine
 62
7
  6
CONTINUOUS
 10
14.7192520462
 20
10.1593432405
 11
14.7193718287
 21
10.1598724895
  0
LINE
  5
265
100
AcDbEntity
  8
0
100
AcDbLine
 62
7
  6
CONTINUOUS
 10
14.4108599669
 20
10.148780812
 11
14.415035167
 21
10.1622917646
  0
LINE
  5
266
100
AcDbEntity
  8
0
100
AcDbLine
 62
7
  6
CONTINUOUS
 10
14.5643701325
 20
10.148780812
 11
14.5685453327
 21
10.1622917646
  0
LINE
  5
267
100
AcDbEntity
  8
0
100
AcDbLine
 62
7
  6
CONTINUOUS
 10
15.178581115
 20
10.1495775834
 11
15.1797825432
 21
10.1593432405
  0
LINE
  5
268
100
AcDbEntity
  8
0
100
AcDbLine
 62
7
  6
CONTINUOUS
 10
14.8713831285
 20
10.1487830808
 11
14.8715607837
 21
10.1495775834
  0
LINE
  5
269
100
AcDbEntity
  8
0
100
AcDbLine
 62
7
  6
CONTINUOUS
 10
14.8727622118
 20
10.1593432405
 11
14.8728819943
 21
10.1598724895
  0
LINE
  5
26A
100
AcDbEntity
  8
0
100
AcDbLine
 62
7
  6
CONTINUOUS
 10
14.7178802982
 20
10.148780812
 11
14.7220554983
 21
10.1622917646
  0
LINE
  5
26B
100
AcDbEntity
  8
0
100
AcDbLine
 62
7
  6
CONTINUOUS
 10
15.0248932942
 20
10.1487830808
 11
15.0250709493
 21
10.1495775834
  0
LINE
  5
26C
100
AcDbEntity
  8
0
100
AcDbLine
 62
7
  6
CONTINUOUS
 10
15.0262723775
 20
10.1593432405
 11
15.02639216
 21
10.1598724895
  0
LINE
  5
26D
100
AcDbEntity
  8
0
100
AcDbLine
 62
7
  6
CONTINUOUS
 10
14.8713904639
 20
10.148780812
 11
14.875565664
 21
10.1622917646
  0
LINE
  5
26E
100
AcDbEntity
  8
0
100
AcDbLine
 62
7
  6
CONTINUOUS
 10
15.1784034599
 20
10.1487830808
 11
15.178581115
 21
10.1495775834
  0
LINE
  5
26F
100
AcDbEntity
  8
0
100
AcDbLine
 62
7
  6
CONTINUOUS
 10
15.1797825432
 20
10.1593432405
 11
15.1799023257
 21
10.1598724895
  0
LINE
  5
270
100
AcDbEntity
  8
0
100
AcDbLine
 62
7
  6
CONTINUOUS
 10
15.0249006295
 20
10.148780812
 11
15.0290758297
 21
10.1622917646
  0
LINE
  5
271
100
AcDbEntity
  8
0
100
AcDbLine
 62
7
  6
CONTINUOUS
 10
15.1784107952
 20
10.148780812
 11
15.1825859953
 21
10.1622917646
  0
LINE
  5
272
100
AcDbEntity
  8
0
100
AcDbLine
 62
7
  6
CONTINUOUS
 10
16.6542831139
 20
14.8773619876
 11
15.2018851735
 21
10.1774005298
  0
LINE
  5
273
100
AcDbEntity
  8
0
100
AcDbLine
 62
7
  6
CONTINUOUS
 10
16.6614007575
 20
14.862857755
 11
15.209002817
 21
10.1628962973
  0
LINE
  5
274
100
AcDbEntity
  8
0
100
AcDbLine
 62
7
  6
CONTINUOUS
 10
16.6614007575
 20
14.862857755
 11
16.6542831139
 21
14.8773619876
  0
LINE
  5
275
100
AcDbEntity
  8
0
100
AcDbLine
 62
7
  6
CONTINUOUS
 10
15.7332221199
 20
14.8773619876
 11
16.6542831139
 21
14.8773619876
  0
ARC
  5
276
100
AcDbEntity
  8
0
100
AcDbCircle
 62
7
  6
CONTINUOUS
 10
5.8499906086
 20
5.507342119
 40
0.0138888889
100
AcDbArc
 50
202.5
 51
270.0
  0
ARC
  5
277
100
AcDbEntity
  8
0
100
AcDbCircle
 62
7
  6
CONTINUOUS
 10
5.9107439438
 20
5.507342119
 40
0.0138888889
100
AcDbArc
 50
270.0
 51
337.5
  0
ARC
  5
278
100
AcDbEntity
  8
0
100
AcDbCircle
 62
7
  6
CONTINUOUS
 10
6.0166572752
 20
5.507342119
 40
0.0138888889
100
AcDbArc
 50
202.5
 51
270.0
  0
ARC
  5
279
100
AcDbEntity
  8
0
100
AcDbCircle
 62
7
  6
CONTINUOUS
 10
6.0774106104
 20
5.507342119
 40
0.0138888889
100
AcDbArc
 50
270.0
 51
337.5
  0
ARC
  5
27A
100
AcDbEntity
  8
0
100
AcDbCircle
 62
7
  6
CONTINUOUS
 10
6.1833239419
 20
5.507342119
 40
0.0138888889
100
AcDbArc
 50
202.5
 51
270.0
  0
ARC
  5
27B
100
AcDbEntity
  8
0
100
AcDbCircle
 62
7
  6
CONTINUOUS
 10
6.2440772771
 20
5.507342119
 40
0.0138888889
100
AcDbArc
 50
270.0
 51
337.5
  0
ARC
  5
27C
100
AcDbEntity
  8
0
100
AcDbCircle
 62
7
  6
CONTINUOUS
 10
5.7440772771
 20
5.507342119
 40
0.0138888889
100
AcDbArc
 50
270.0
 51
337.5
  0
ARC
  5
27D
100
AcDbEntity
  8
0
100
AcDbCircle
 62
7
  6
CONTINUOUS
 10
5.6833239419
 20
5.507342119
 40
0.0138888889
100
AcDbArc
 50
202.5
 51
270.0
  0
ARC
  5
27E
100
AcDbEntity
  8
0
100
AcDbCircle
 62
7
  6
CONTINUOUS
 10
6.5774106104
 20
5.507342119
 40
0.0138888889
100
AcDbArc
 50
270.0
 51
337.5
  0
ARC
  5
27F
100
AcDbEntity
  8
0
100
AcDbCircle
 62
7
  6
CONTINUOUS
 10
6.5166572752
 20
5.507342119
 40
0.0138888889
100
AcDbArc
 50
202.5
 51
270.0
  0
ARC
  5
280
100
AcDbEntity
  8
0
100
AcDbCircle
 62
7
  6
CONTINUOUS
 10
6.4107439438
 20
5.507342119
 40
0.0138888889
100
AcDbArc
 50
270.0
 51
337.5
  0
ARC
  5
281
100
AcDbEntity
  8
0
100
AcDbCircle
 62
7
  6
CONTINUOUS
 10
6.3499906086
 20
5.507342119
 40
0.0138888889
100
AcDbArc
 50
202.5
 51
270.0
  0
ARC
  5
282
100
AcDbEntity
  8
0
100
AcDbCircle
 62
7
  6
CONTINUOUS
 10
5.7719707821
 20
5.5141939708
 40
0.0092592593
100
AcDbArc
 50
90.0
 51
157.5
  0
ARC
  5
283
100
AcDbEntity
  8
0
100
AcDbCircle
 62
7
  6
CONTINUOUS
 10
5.6554304369
 20
5.5141939708
 40
0.0092592593
100
AcDbArc
 50
22.5
 51
90.0
  0
ARC
  5
284
100
AcDbEntity
  8
0
100
AcDbCircle
 62
7
  6
CONTINUOUS
 10
5.9386374487
 20
5.5141939708
 40
0.0092592593
100
AcDbArc
 50
90.0
 51
157.5
  0
ARC
  5
285
100
AcDbEntity
  8
0
100
AcDbCircle
 62
7
  6
CONTINUOUS
 10
5.8220971036
 20
5.5141939708
 40
0.0092592593
100
AcDbArc
 50
22.5
 51
90.0
  0
ARC
  5
286
100
AcDbEntity
  8
0
100
AcDbCircle
 62
7
  6
CONTINUOUS
 10
6.1053041154
 20
5.5141939708
 40
0.0092592593
100
AcDbArc
 50
90.0
 51
157.5
  0
ARC
  5
287
100
AcDbEntity
  8
0
100
AcDbCircle
 62
7
  6
CONTINUOUS
 10
5.9887637703
 20
5.5141939708
 40
0.0092592593
100
AcDbArc
 50
22.5
 51
90.0
  0
ARC
  5
288
100
AcDbEntity
  8
0
100
AcDbCircle
 62
7
  6
CONTINUOUS
 10
6.2719707821
 20
5.5141939708
 40
0.0092592593
100
AcDbArc
 50
90.0
 51
157.5
  0
ARC
  5
289
100
AcDbEntity
  8
0
100
AcDbCircle
 62
7
  6
CONTINUOUS
 10
6.1554304369
 20
5.5141939708
 40
0.0092592593
100
AcDbArc
 50
22.5
 51
90.0
  0
ARC
  5
28A
100
AcDbEntity
  8
0
100
AcDbCircle
 62
7
  6
CONTINUOUS
 10
6.4386374487
 20
5.5141939708
 40
0.0092592593
100
AcDbArc
 50
90.0
 51
157.5
  0
ARC
  5
28B
100
AcDbEntity
  8
0
100
AcDbCircle
 62
7
  6
CONTINUOUS
 10
6.3220971036
 20
5.5141939708
 40
0.0092592593
100
AcDbArc
 50
22.5
 51
90.0
  0
ARC
  5
28C
100
AcDbEntity
  8
0
100
AcDbCircle
 62
7
  6
CONTINUOUS
 10
6.6053041154
 20
5.5141939708
 40
0.0092592593
100
AcDbArc
 50
90.0
 51
157.5
  0
ARC
  5
28D
100
AcDbEntity
  8
0
100
AcDbCircle
 62
7
  6
CONTINUOUS
 10
6.4887637703
 20
5.5141939708
 40
0.0092592593
100
AcDbArc
 50
22.5
 51
90.0
  0
SPLINE
  5
28E
100
AcDbEntity
  8
0
100
AcDbSpline
 62
7
  6
CONTINUOUS
 70
0
 71
3
 72
11
 73
7
 74
0
 42
0.0000001
 43
0.0000001
 44
0.0000000001
 40
0.0
 40
0.0
 40
0.0
 40
0.0
 40
0.2024261553
 40
0.4302053648
 40
0.6966241457
 40
1.0
 40
1.0
 40
1.0
 40
1.0
 10
14.4123460126
 20
10.1598741883
 30
0.0
 10
14.4124895219
 20
10.1603353292
 30
0.0
 10
14.4130447374
 20
10.1612478597
 30
0.0
 10
14.4144444948
 20
10.1622063373
 30
0.0
 10
14.4162790029
 20
10.1627798199
 30
0.0
 10
14.4176434843
 20
10.1628962973
 30
0.0
 10
14.4183672889
 20
10.1628962973
 30
0.0
  0
SPLINE
  5
28F
100
AcDbEntity
  8
0
100
AcDbSpline
 62
7
  6
CONTINUOUS
 70
0
 71
3
 72
11
 73
7
 74
0
 42
0.0000001
 43
0.0000001
 44
0.0000000001
 40
0.0
 40
0.0
 40
0.0
 40
0.0
 40
0.2024261553
 40
0.4302053648
 40
0.6966241457
 40
1.0
 40
1.0
 40
1.0
 40
1.0
 10
14.5658561783
 20
10.1598741883
 30
0.0
 10
14.5659996876
 20
10.1603353292
 30
0.0
 10
14.5665549031
 20
10.1612478597
 30
0.0
 10
14.5679546604
 20
10.1622063373
 30
0.0
 10
14.5697891685
 20
10.1627798199
 30
0.0
 10
14.57115365
 20
10.1628962973
 30
0.0
 10
14.5718774546
 20
10.1628962973
 30
0.0
  0
SPLINE
  5
290
100
AcDbEntity
  8
0
100
AcDbSpline
 62
7
  6
CONTINUOUS
 70
0
 71
3
 72
11
 73
7
 74
0
 42
0.0000001
 43
0.0000001
 44
0.0000000001
 40
0.0
 40
0.0
 40
0.0
 40
0.0
 40
0.2024261553
 40
0.4302053648
 40
0.6966241457
 40
1.0
 40
1.0
 40
1.0
 40
1.0
 10
14.719366344
 20
10.1598741883
 30
0.0
 10
14.7195098533
 20
10.1603353292
 30
0.0
 10
14.7200650687
 20
10.1612478597
 30
0.0
 10
14.7214648261
 20
10.1622063373
 30
0.0
 10
14.7232993342
 20
10.1627798199
 30
0.0
 10
14.7246638157
 20
10.1628962973
 30
0.0
 10
14.7253876203
 20
10.1628962973
 30
0.0
  0
SPLINE
  5
291
100
AcDbEntity
  8
0
100
AcDbSpline
 62
7
  6
CONTINUOUS
 70
0
 71
3
 72
11
 73
7
 74
0
 42
0.0000001
 43
0.0000001
 44
0.0000000001
 40
0.0
 40
0.0
 40
0.0
 40
0.0
 40
0.2024261553
 40
0.4302053648
 40
0.6966241457
 40
1.0
 40
1.0
 40
1.0
 40
1.0
 10
14.8728765096
 20
10.1598741883
 30
0.0
 10
14.8730200189
 20
10.1603353292
 30
0.0
 10
14.8735752344
 20
10.1612478597
 30
0.0
 10
14.8749749918
 20
10.1622063373
 30
0.0
 10
14.8768094999
 20
10.1627798199
 30
0.0
 10
14.8781739813
 20
10.1628962973
 30
0.0
 10
14.8788977859
 20
10.1628962973
 30
0.0
  0
SPLINE
  5
292
100
AcDbEntity
  8
0
100
AcDbSpline
 62
7
  6
CONTINUOUS
 70
0
 71
3
 72
11
 73
7
 74
0
 42
0.0000001
 43
0.0000001
 44
0.0000000001
 40
0.0
 40
0.0
 40
0.0
 40
0.0
 40
0.2024261553
 40
0.4302053648
 40
0.6966241457
 40
1.0
 40
1.0
 40
1.0
 40
1.0
 10
15.0263866753
 20
10.1598741883
 30
0.0
 10
15.0265301846
 20
10.1603353292
 30
0.0
 10
15.0270854001
 20
10.1612478597
 30
0.0
 10
15.0284851574
 20
10.1622063373
 30
0.0
 10
15.0303196655
 20
10.1627798199
 30
0.0
 10
15.031684147
 20
10.1628962973
 30
0.0
 10
15.0324079516
 20
10.1628962973
 30
0.0
  0
SPLINE
  5
293
100
AcDbEntity
  8
0
100
AcDbSpline
 62
7
  6
CONTINUOUS
 70
0
 71
3
 72
11
 73
7
 74
0
 42
0.0000001
 43
0.0000001
 44
0.0000000001
 40
0.0
 40
0.0
 40
0.0
 40
0.0
 40
0.2024261553
 40
0.4302053648
 40
0.6966241457
 40
1.0
 40
1.0
 40
1.0
 40
1.0
 10
15.179896841
 20
10.1598741883
 30
0.0
 10
15.1800403503
 20
10.1603353292
 30
0.0
 10
15.1805955657
 20
10.1612478597
 30
0.0
 10
15.1819953231
 20
10.1622063373
 30
0.0
 10
15.1838298312
 20
10.1627798199
 30
0.0
 10
15.1851943127
 20
10.1628962973
 30
0.0
 10
15.1859181173
 20
10.1628962973
 30
0.0
  0
SPLINE
  5
294
100
AcDbEntity
  8
0
100
AcDbSpline
 62
7
  6
CONTINUOUS
 70
0
 71
3
 72
11
 73
7
 74
0
 42
0.0000001
 43
0.0000001
 44
0.0000000001
 40
0.0
 40
0.0
 40
0.0
 40
0.0
 40
0.3033873661
 40
0.5698243201
 40
0.7975918146
 40
1.0
 40
1.0
 40
1.0
 40
1.0
 10
14.4018269255
 20
10.1442479982
 30
0.0
 10
14.4029126747
 20
10.1442479982
 30
0.0
 10
14.404959495
 20
10.1444228065
 30
0.0
 10
14.4077113336
 20
10.1452830199
 30
0.0
 10
14.4098108989
 20
10.1467207736
 30
0.0
 10
14.4106436403
 20
10.1480894932
 30
0.0
 10
14.410858858
 20
10.1487811523
 30
0.0
  0
SPLINE
  5
295
100
AcDbEntity
  8
0
100
AcDbSpline
 62
7
  6
CONTINUOUS
 70
0
 71
3
 72
11
 73
7
 74
0
 42
0.0000001
 43
0.0000001
 44
0.0000000001
 40
0.0
 40
0.0
 40
0.0
 40
0.0
 40
0.2358842677
 40
0.4908534498
 40
0.7506227291
 40
1.0
 40
1.0
 40
1.0
 40
1.0
 10
14.331435276
 20
10.1495775834
 30
0.0
 10
14.332349426
 20
10.1487499113
 30
0.0
 10
14.3344607652
 20
10.147254358
 30
0.0
 10
14.3380329604
 20
10.1455879817
 30
0.0
 10
14.3419004426
 20
10.1445204782
 30
0.0
 10
14.3445656874
 20
10.1442479982
 30
0.0
 10
14.3458693982
 20
10.1442479982
 30
0.0
  0
SPLINE
  5
296
100
AcDbEntity
  8
0
100
AcDbSpline
 62
7
  6
CONTINUOUS
 70
0
 71
3
 72
11
 73
7
 74
0
 42
0.0000001
 43
0.0000001
 44
0.0000000001
 40
0.0
 40
0.0
 40
0.0
 40
0.0
 40
0.3033873661
 40
0.5698243201
 40
0.7975918146
 40
1.0
 40
1.0
 40
1.0
 40
1.0
 10
15.1693777539
 20
10.1442479982
 30
0.0
 10
15.170463503
 20
10.1442479982
 30
0.0
 10
15.1725103233
 20
10.1444228065
 30
0.0
 10
15.1752621619
 20
10.1452830199
 30
0.0
 10
15.1773617272
 20
10.1467207736
 30
0.0
 10
15.1781944686
 20
10.1480894932
 30
0.0
 10
15.1784096863
 20
10.1487811523
 30
0.0
  0
SPLINE
  5
297
100
AcDbEntity
  8
0
100
AcDbSpline
 62
7
  6
CONTINUOUS
 70
0
 71
3
 72
11
 73
7
 74
0
 42
0.0000001
 43
0.0000001
 44
0.0000000001
 40
0.0
 40
0.0
 40
0.0
 40
0.0
 40
0.2358842677
 40
0.4908534498
 40
0.7506227291
 40
1.0
 40
1.0
 40
1.0
 40
1.0
 10
15.0989861043
 20
10.1495775834
 30
0.0
 10
15.0999002543
 20
10.1487499113
 30
0.0
 10
15.1020115936
 20
10.147254358
 30
0.0
 10
15.1055837887
 20
10.1455879817
 30
0.0
 10
15.1094512709
 20
10.1445204782
 30
0.0
 10
15.1121165157
 20
10.1442479982
 30
0.0
 10
15.1134202265
 20
10.1442479982
 30
0.0
  0
SPLINE
  5
298
100
AcDbEntity
  8
0
100
AcDbSpline
 62
7
  6
CONTINUOUS
 70
0
 71
3
 72
11
 73
7
 74
0
 42
0.0000001
 43
0.0000001
 44
0.0000000001
 40
0.0
 40
0.0
 40
0.0
 40
0.0
 40
0.3033873661
 40
0.5698243201
 40
0.7975918146
 40
1.0
 40
1.0
 40
1.0
 40
1.0
 10
15.0158675882
 20
10.1442479982
 30
0.0
 10
15.0169533373
 20
10.1442479982
 30
0.0
 10
15.0190001577
 20
10.1444228065
 30
0.0
 10
15.0217519963
 20
10.1452830199
 30
0.0
 10
15.0238515615
 20
10.1467207736
 30
0.0
 10
15.024684303
 20
10.1480894932
 30
0.0
 10
15.0248995207
 20
10.1487811523
 30
0.0
  0
SPLINE
  5
299
100
AcDbEntity
  8
0
100
AcDbSpline
 62
7
  6
CONTINUOUS
 70
0
 71
3
 72
11
 73
7
 74
0
 42
0.0000001
 43
0.0000001
 44
0.0000000001
 40
0.0
 40
0.0
 40
0.0
 40
0.0
 40
0.2358842677
 40
0.4908534498
 40
0.7506227291
 40
1.0
 40
1.0
 40
1.0
 40
1.0
 10
14.9454759387
 20
10.1495775834
 30
0.0
 10
14.9463900887
 20
10.1487499113
 30
0.0
 10
14.9485014279
 20
10.147254358
 30
0.0
 10
14.952073623
 20
10.1455879817
 30
0.0
 10
14.9559411052
 20
10.1445204782
 30
0.0
 10
14.9586063501
 20
10.1442479982
 30
0.0
 10
14.9599100609
 20
10.1442479982
 30
0.0
  0
SPLINE
  5
29A
100
AcDbEntity
  8
0
100
AcDbSpline
 62
7
  6
CONTINUOUS
 70
0
 71
3
 72
11
 73
7
 74
0
 42
0.0000001
 43
0.0000001
 44
0.0000000001
 40
0.0
 40
0.0
 40
0.0
 40
0.0
 40
0.3033873661
 40
0.5698243201
 40
0.7975918146
 40
1.0
 40
1.0
 40
1.0
 40
1.0
 10
14.8623574225
 20
10.1442479982
 30
0.0
 10
14.8634431717
 20
10.1442479982
 30
0.0
 10
14.865489992
 20
10.1444228065
 30
0.0
 10
14.8682418306
 20
10.1452830199
 30
0.0
 10
14.8703413959
 20
10.1467207736
 30
0.0
 10
14.8711741373
 20
10.1480894932
 30
0.0
 10
14.871389355
 20
10.1487811523
 30
0.0
  0
SPLINE
  5
29B
100
AcDbEntity
  8
0
100
AcDbSpline
 62
7
  6
CONTINUOUS
 70
0
 71
3
 72
11
 73
7
 74
0
 42
0.0000001
 43
0.0000001
 44
0.0000000001
 40
0.0
 40
0.0
 40
0.0
 40
0.0
 40
0.2358842677
 40
0.4908534498
 40
0.7506227291
 40
1.0
 40
1.0
 40
1.0
 40
1.0
 10
14.791965773
 20
10.1495775834
 30
0.0
 10
14.792879923
 20
10.1487499113
 30
0.0
 10
14.7949912622
 20
10.147254358
 30
0.0
 10
14.7985634574
 20
10.1455879817
 30
0.0
 10
14.8024309396
 20
10.1445204782
 30
0.0
 10
14.8050961844
 20
10.1442479982
 30
0.0
 10
14.8063998952
 20
10.1442479982
 30
0.0
  0
SPLINE
  5
29C
100
AcDbEntity
  8
0
100
AcDbSpline
 62
7
  6
CONTINUOUS
 70
0
 71
3
 72
11
 73
7
 74
0
 42
0.0000001
 43
0.0000001
 44
0.0000000001
 40
0.0
 40
0.0
 40
0.0
 40
0.0
 40
0.3033873661
 40
0.5698243201
 40
0.7975918146
 40
1.0
 40
1.0
 40
1.0
 40
1.0
 10
14.7088472569
 20
10.1442479982
 30
0.0
 10
14.709933006
 20
10.1442479982
 30
0.0
 10
14.7119798263
 20
10.1444228065
 30
0.0
 10
14.7147316649
 20
10.1452830199
 30
0.0
 10
14.7168312302
 20
10.1467207736
 30
0.0
 10
14.7176639716
 20
10.1480894932
 30
0.0
 10
14.7178791893
 20
10.1487811523
 30
0.0
  0
SPLINE
  5
29D
100
AcDbEntity
  8
0
100
AcDbSpline
 62
7
  6
CONTINUOUS
 70
0
 71
3
 72
11
 73
7
 74
0
 42
0.0000001
 43
0.0000001
 44
0.0000000001
 40
0.0
 40
0.0
 40
0.0
 40
0.0
 40
0.2358842677
 40
0.4908534498
 40
0.7506227291
 40
1.0
 40
1.0
 40
1.0
 40
1.0
 10
14.6384556073
 20
10.1495775834
 30
0.0
 10
14.6393697573
 20
10.1487499113
 30
0.0
 10
14.6414810966
 20
10.147254358
 30
0.0
 10
14.6450532917
 20
10.1455879817
 30
0.0
 10
14.6489207739
 20
10.1445204782
 30
0.0
 10
14.6515860187
 20
10.1442479982
 30
0.0
 10
14.6528897295
 20
10.1442479982
 30
0.0
  0
SPLINE
  5
29E
100
AcDbEntity
  8
0
100
AcDbSpline
 62
7
  6
CONTINUOUS
 70
0
 71
3
 72
11
 73
7
 74
0
 42
0.0000001
 43
0.0000001
 44
0.0000000001
 40
0.0
 40
0.0
 40
0.0
 40
0.0
 40
0.3033873661
 40
0.5698243201
 40
0.7975918146
 40
1.0
 40
1.0
 40
1.0
 40
1.0
 10
14.5553370912
 20
10.1442479982
 30
0.0
 10
14.5564228403
 20
10.1442479982
 30
0.0
 10
14.5584696607
 20
10.1444228065
 30
0.0
 10
14.5612214993
 20
10.1452830199
 30
0.0
 10
14.5633210645
 20
10.1467207736
 30
0.0
 10
14.564153806
 20
10.1480894932
 30
0.0
 10
14.5643690237
 20
10.1487811523
 30
0.0
  0
SPLINE
  5
29F
100
AcDbEntity
  8
0
100
AcDbSpline
 62
7
  6
CONTINUOUS
 70
0
 71
3
 72
11
 73
7
 74
0
 42
0.0000001
 43
0.0000001
 44
0.0000000001
 40
0.0
 40
0.0
 40
0.0
 40
0.0
 40
0.2358842677
 40
0.4908534498
 40
0.7506227291
 40
1.0
 40
1.0
 40
1.0
 40
1.0
 10
14.4849454417
 20
10.1495775834
 30
0.0
 10
14.4858595917
 20
10.1487499113
 30
0.0
 10
14.4879709309
 20
10.147254358
 30
0.0
 10
14.491543126
 20
10.1455879817
 30
0.0
 10
14.4954106082
 20
10.1445204782
 30
0.0
 10
14.498075853
 20
10.1442479982
 30
0.0
 10
14.4993795639
 20
10.1442479982
 30
0.0
  0
SPLINE
  5
2A0
100
AcDbEntity
  8
0
100
AcDbSpline
 62
7
  6
CONTINUOUS
 70
0
 71
3
 72
10
 73
6
 74
0
 42
0.0000001
 43
0.0000001
 44
0.0000000001
 40
0.0
 40
0.0
 40
0.0
 40
0.0
 40
0.5082355702
 40
0.7636779409
 40
1.0
 40
1.0
 40
1.0
 40
1.0
 10
14.3110265228
 20
10.1628962973
 30
0.0
 10
14.3127944541
 20
10.1628962973
 30
0.0
 10
14.3154717409
 20
10.1623649668
 30
0.0
 10
14.3186313565
 20
10.1608927767
 30
0.0
 10
14.3200398762
 20
10.1598949869
 30
0.0
 10
14.3206492709
 20
10.1593432405
 30
0.0
  0
SPLINE
  5
2A1
100
AcDbEntity
  8
0
100
AcDbSpline
 62
7
  6
CONTINUOUS
 70
0
 71
3
 72
10
 73
6
 74
0
 42
0.0000001
 43
0.0000001
 44
0.0000000001
 40
0.0
 40
0.0
 40
0.0
 40
0.0
 40
0.5082355702
 40
0.7636779409
 40
1.0
 40
1.0
 40
1.0
 40
1.0
 10
14.4645366885
 20
10.1628962973
 30
0.0
 10
14.4663046197
 20
10.1628962973
 30
0.0
 10
14.4689819066
 20
10.1623649668
 30
0.0
 10
14.4721415221
 20
10.1608927767
 30
0.0
 10
14.4735500419
 20
10.1598949869
 30
0.0
 10
14.4741594366
 20
10.1593432405
 30
0.0
  0
SPLINE
  5
2A2
100
AcDbEntity
  8
0
100
AcDbSpline
 62
7
  6
CONTINUOUS
 70
0
 71
3
 72
10
 73
6
 74
0
 42
0.0000001
 43
0.0000001
 44
0.0000000001
 40
0.0
 40
0.0
 40
0.0
 40
0.0
 40
0.5082355702
 40
0.7636779409
 40
1.0
 40
1.0
 40
1.0
 40
1.0
 10
14.6180468541
 20
10.1628962973
 30
0.0
 10
14.6198147854
 20
10.1628962973
 30
0.0
 10
14.6224920723
 20
10.1623649668
 30
0.0
 10
14.6256516878
 20
10.1608927767
 30
0.0
 10
14.6270602076
 20
10.1598949869
 30
0.0
 10
14.6276696023
 20
10.1593432405
 30
0.0
  0
SPLINE
  5
2A3
100
AcDbEntity
  8
0
100
AcDbSpline
 62
7
  6
CONTINUOUS
 70
0
 71
3
 72
10
 73
6
 74
0
 42
0.0000001
 43
0.0000001
 44
0.0000000001
 40
0.0
 40
0.0
 40
0.0
 40
0.0
 40
0.5082355702
 40
0.7636779409
 40
1.0
 40
1.0
 40
1.0
 40
1.0
 10
14.7715570198
 20
10.1628962973
 30
0.0
 10
14.7733249511
 20
10.1628962973
 30
0.0
 10
14.776002238
 20
10.1623649668
 30
0.0
 10
14.7791618535
 20
10.1608927767
 30
0.0
 10
14.7805703732
 20
10.1598949869
 30
0.0
 10
14.7811797679
 20
10.1593432405
 30
0.0
  0
SPLINE
  5
2A4
100
AcDbEntity
  8
0
100
AcDbSpline
 62
7
  6
CONTINUOUS
 70
0
 71
3
 72
10
 73
6
 74
0
 42
0.0000001
 43
0.0000001
 44
0.0000000001
 40
0.0
 40
0.0
 40
0.0
 40
0.0
 40
0.5082355702
 40
0.7636779409
 40
1.0
 40
1.0
 40
1.0
 40
1.0
 10
14.9250671855
 20
10.1628962973
 30
0.0
 10
14.9268351167
 20
10.1628962973
 30
0.0
 10
14.9295124036
 20
10.1623649668
 30
0.0
 10
14.9326720191
 20
10.1608927767
 30
0.0
 10
14.9340805389
 20
10.1598949869
 30
0.0
 10
14.9346899336
 20
10.1593432405
 30
0.0
  0
SPLINE
  5
2A5
100
AcDbEntity
  8
0
100
AcDbSpline
 62
7
  6
CONTINUOUS
 70
0
 71
3
 72
10
 73
6
 74
0
 42
0.0000001
 43
0.0000001
 44
0.0000000001
 40
0.0
 40
0.0
 40
0.0
 40
0.0
 40
0.5082355702
 40
0.7636779409
 40
1.0
 40
1.0
 40
1.0
 40
1.0
 10
15.0785773511
 20
10.1628962973
 30
0.0
 10
15.0803452824
 20
10.1628962973
 30
0.0
 10
15.0830225693
 20
10.1623649668
 30
0.0
 10
15.0861821848
 20
10.1608927767
 30
0.0
 10
15.0875907046
 20
10.1598949869
 30
0.0
 10
15.0882000993
 20
10.1593432405
 30
0.0
  0
ENDSEC
  0
SECTION
  2
OBJECTS
  0
DICTIONARY
  5
C
100
AcDbDictionary
280
0
281
1
  3
ACAD_GROUP
350
D
  3
ACAD_MLINESTYLE
350
17
  3
ACAD_LAYOUT
350
1A
  3
ACAD_PLOTSETTINGS
350
19
  3
ACAD_PLOTSTYLENAME
350
E
  0
DICTIONARY
  5
D
102
{ACAD_REACTORS
330
C
102
}
100
AcDbDictionary
280
0
281
1
  0
ACDBDICTIONARYWDFLT
  5
E
102
{ACAD_REACTORS
330
C
102
}
100
AcDbDictionary
281
1
  3
Normal
350
F
100
AcDbDictionaryWithDefault
340
F
  0
DICTIONARY
  5
17
102
{ACAD_REACTORS
330
C
102
}
100
AcDbDictionary
280
0
281
1
  3
Standard
350
18
  0
DICTIONARY
  5
19
102
{ACAD_REACTORS
330
C
102
}
100
AcDbDictionary
281
1
  0
DICTIONARY
  5
1A
102
{ACAD_REACTORS
330
C
102
}
100
AcDbDictionary
281
1
  3
Model
350
2A6
  3
Layout1
350
2A7
  0
ACDBPLACEHOLDER
  5
F
102
{ACAD_REACTORS
330
E
102
}
  0
MLINESTYLE
  5
18
102
{ACAD_REACTORS
330
17
102
}
100
AcDbMlineStyle
  2
STANDARD
 70
0
  3

 62
256
 51
90.0
 52
90.0
 71
2
 49
0.5
 62
256
  6
BYLAYER
 49
-0.5
 62
256
  6
BYLAYER
  0
LAYOUT
  5
2A6
102
{ACAD_REACTORS
330
1A
102
}
100
AcDbPlotSettings
  1

  2
none_device
  4
ANSI_C_(22.00_x_17.00_Inches)
  6

 40
0.0
 41
0.0
 42
0.0
 43
0.0
 44
558.8
 45
431.8
 46
0.0
 47
0.0
 48
0.0
 49
0.0
140
0.0
141
0.0
142
1.0
143
1.0
 70
1024
 72
0
 73
0
 74
0
  7

 75
0
147
1.0
148
0.0
149
0.0
100
AcDbLayout
  1
Model
 70
0
 71
0
 10
0.0
 20
0.0
 11
22.0
 21
17.0
 12
0.0
 22
0.0
 32
0.0
 14
0.0
 24
0.0
 34
0.0
 15
0.0
 25
0.0
 35
0.0
146
0.0
 13
0.0
 23
0.0
 33
0.0
 16
1.0
 26
0.0
 36
0.0
 17
0.0
 27
1.0
 37
0.0
 76
0
330
216
345
0
346
0
  0
LAYOUT
  5
2A7
102
{ACAD_REACTORS
330
1A
102
}
100
AcDbPlotSettings
  1

  2
none_device
  4
ANSI_C_(22.00_x_17.00_Inches)
  6

 40
0.0
 41
0.0
 42
0.0
 43
0.0
 44
558.8
 45
431.8
 46
0.0
 47
0.0
 48
0.0
 49
0.0
140
0.0
141
0.0
142
1.0
143
1.0
 70
0
 72
0
 73
0
 74
0
  7

 75
0
147
1.0
148
0.0
149
0.0
100
AcDbLayout
  1
Layout1
 70
0
 71
1
 10
0.0
 20
0.0
 11
22.0
 21
17.0
 12
0.0
 22
0.0
 32
0.0
 14
0.0
 24
0.0
 34
0.0
 15
0.0
 25
0.0
 35
0.0
146
0.0
 13
0.0
 23
0.0
 33
0.0
 16
1.0
 26
0.0
 36
0.0
 17
0.0
 27
1.0
 37
0.0
 76
0
330
217
345
0
346
0
  0
ENDSEC
  0
EOF