999
DXF file: _cgs_temp_output.dxf
999
Pro/ENGINEER 2016360 by Parametric Technology Corporation
  0
SECTION
  2
HEADER
  9
$ACADVER
  1
AC1021
  9
$DWGCODEPAGE
  3
ANSI_1252
  9
$EXTMAX
 10
22.0
 20
17.0
 30
0.0
  9
$EXTMIN
 10
0.0
 20
0.0
 30
0.0
  9
$LIMMIN
 10
0.0
 20
0.0
  9
$LIMMAX
 10
22.0
 20
17.0
  9
$VIEWCTR
 10
11.0
 20
8.5
  9
$VIEWSIZE
 40
17.0
  9
$CLAYER
  8
0
  9
$LTSCALE
 40
1.21
  9
$CELTYPE
  6
BYLAYER
  9
$DIMSCALE
 40
1.0
  9
$DIMASZ
 40
0.1875
  9
$DIMEXO
 40
0.0625
  9
$DIMDLI
 40
0.836
  9
$DIMEXE
 40
0.125
  9
$DIMCEN
 40
0.198
  9
$DIMLFAC
 40
1.0
  9
$DIMBLK
  1
_CLOSED
  9
$DIMALT
 70
0
  9
$DIMALTF
 40
25.4
  9
$DIMTXT
 40
0.15625
  9
$DIMTOL
 70
0
  9
$DIMLIM
 70
0
  9
$DIMTFAC
 40
1.0
  9
$DIMGAP
 40
0.09
  9
$DIMDSEP
 70
46
  9
$AUNITS
 70
0
  9
$PDMODE
 70
3
  9
$PDSIZE
 40
0.3125
  9
$HANDSEED
  5
2AE
  9
$TILEMODE
 70
1
  9
$MEASUREMENT
 70
0
  9
$INSUNITS
 70
1
  0
ENDSEC
  0
SECTION
  2
CLASSES
  0
CLASS
  1
ACDBDICTIONARYWDFLT
  2
AcDbDictionaryWithDefault
  3
AutoCAD 2000
 90
0
 91
1
280
0
281
0
  0
CLASS
  1
ACDBPLACEHOLDER
  2
AcDbPlaceHolder
  3
AutoCAD 2000
 90
0
 91
1
280
0
281
0
  0
CLASS
  1
LAYOUT
  2
AcDbLayout
  3
AutoCAD 2000
 90
0
 91
0
280
0
281
0
  0
ENDSEC
  0
SECTION
  2
TABLES
  0
TABLE
  2
VPORT
  5
8
100
AcDbSymbolTable
 70
2
  0
VPORT
  5
1F4
100
AcDbSymbolTableRecord
100
AcDbViewportTableRecord
  2
*ACTIVE
 70
0
 10
0.0
 20
0.0
 11
1.0
 21
1.0
 12
11.0
 22
8.5
 13
0.0
 23
0.0
 14
1.0
 24
1.0
 15
0.0
 25
0.0
 16
0.0
 26
0.0
 36
1.0
 17
0.0
 27
0.0
 37
0.0
 40
17.0
 41
1.2941176471
 42
50.0
 43
0.0
 44
0.0
 50
0.0
 51
0.0
 71
0
 72
100
 73
1
 74
1
 75
0
 76
0
 77
0
 78
0
  0
ENDTAB
  0
TABLE
  2
LTYPE
  5
5
100
AcDbSymbolTable
 70
6
  0
LTYPE
  5
14
100
AcDbSymbolTableRecord
100
AcDbLinetypeTableRecord
  2
BYBLOCK
 70
0
  3

 72
65
 73
0
 40
0.0
  0
LTYPE
  5
15
100
AcDbSymbolTableRecord
100
AcDbLinetypeTableRecord
  2
BYLAYER
 70
0
  3

 72
65
 73
0
 40
0.0
  0
LTYPE
  5
16
100
AcDbSymbolTableRecord
100
AcDbLinetypeTableRecord
  2
CONTINUOUS
 70
64
  3
Solid line
 72
65
 73
0
 40
0.0
  0
LTYPE
  5
1F5
100
AcDbSymbolTableRecord
100
AcDbLinetypeTableRecord
  2
CENTER
 70
64
  3
____ _ ____ _ ____ _ ____ _ ____ _ ____ _ ____
 72
65
 73
4
 40
0.6
 49
0.375
 74
0
 49
-0.075
 74
0
 49
0.075
 74
0
 49
-0.075
 74
0
  0
LTYPE
  5
1F6
100
AcDbSymbolTableRecord
100
AcDbLinetypeTableRecord
  2
HIDDEN
 70
64
  3
- - - - - - - - - - - - - - - - - - - -
 72
65
 73
2
 40
0.2
 49
0.1
 74
0
 49
-0.1
 74
0
  0
LTYPE
  5
1F7
100
AcDbSymbolTableRecord
100
AcDbLinetypeTableRecord
  2
PHANTOM
 70
64
  3
_____ _ _ _____ _ _ _____ _ _ _____
 72
65
 73
6
 40
0.8
 49
0.45
 74
0
 49
-0.05
 74
0
 49
0.1
 74
0
 49
-0.05
 74
0
 49
0.1
 74
0
 49
-0.05
 74
0
  0
LTYPE
  5
1F8
100
AcDbSymbolTableRecord
100
AcDbLinetypeTableRecord
  2
DOT
 70
64
  3
. . . . . . . . . . . . . . . . . . . .
 72
65
 73
2
 40
0.2
 49
0.1
 74
0
 49
-0.1
 74
0
  0
LTYPE
  5
1F9
100
AcDbSymbolTableRecord
100
AcDbLinetypeTableRecord
  2
DASHED
 70
64
  3
- - - - - - - - - - - - - - - - - - - -
 72
65
 73
2
 40
0.2
 49
0.1
 74
0
 49
-0.1
 74
0
  0
ENDTAB
  0
TABLE
  2
LAYER
  5
2
100
AcDbSymbolTable
 70
36
  0
LAYER
  5
10
100
AcDbSymbolTableRecord
100
AcDbLayerTableRecord
  2
0
 70
0
 62
7
  6
CONTINUOUS
370
-3
390
F
  0
LAYER
  5
1FA
100
AcDbSymbolTableRecord
100
AcDbLayerTableRecord
  2
DEFAULT_1
 70
0
 62
7
  6
CENTER
370
-3
390
F
  0
LAYER
  5
1FB
100
AcDbSymbolTableRecord
100
AcDbLayerTableRecord
  2
DEFAULT_2
 70
0
 62
8
  6
HIDDEN
370
-3
390
F
  0
LAYER
  5
1FC
100
AcDbSymbolTableRecord
100
AcDbLayerTableRecord
  2
DEFAULT_3
 70
0
 62
7
  6
PHANTOM
370
-3
390
F
  0
LAYER
  5
1FD
100
AcDbSymbolTableRecord
100
AcDbLayerTableRecord
  2
01_ALL_DTM_PLN
 70
0
 62
7
  6
CONTINUOUS
370
-3
390
F
  0
LAYER
  5
1FE
100
AcDbSymbolTableRecord
100
AcDbLayerTableRecord
  2
01__ASM_ALL_DTM_PLN
 70
0
 62
7
  6
CONTINUOUS
370
-3
390
F
  0
LAYER
  5
1FF
100
AcDbSymbolTableRecord
100
AcDbLayerTableRecord
  2
01__ASM_DEF_DTM_PLN
 70
0
 62
7
  6
CONTINUOUS
370
-3
390
F
  0
LAYER
  5
200
100
AcDbSymbolTableRecord
100
AcDbLayerTableRecord
  2
01___PRT_ALL_DTM_PLN
 70
0
 62
7
  6
CONTINUOUS
370
-3
390
F
  0
LAYER
  5
201
100
AcDbSymbolTableRecord
100
AcDbLayerTableRecord
  2
01___PRT_DEF_DTM_PLN
 70
0
 62
7
  6
CONTINUOUS
370
-3
390
F
  0
LAYER
  5
202
100
AcDbSymbolTableRecord
100
AcDbLayerTableRecord
  2
02_ALL_AXES
 70
0
 62
7
  6
CONTINUOUS
370
-3
390
F
  0
LAYER
  5
203
100
AcDbSymbolTableRecord
100
AcDbLayerTableRecord
  2
02__ASM_ALL_AXES
 70
0
 62
7
  6
CONTINUOUS
370
-3
390
F
  0
LAYER
  5
204
100
AcDbSymbolTableRecord
100
AcDbLayerTableRecord
  2
02___PRT_ALL_AXES
 70
0
 62
7
  6
CONTINUOUS
370
-3
390
F
  0
LAYER
  5
205
100
AcDbSymbolTableRecord
100
AcDbLayerTableRecord
  2
03_ALL_CURVES
 70
0
 62
7
  6
CONTINUOUS
370
-3
390
F
  0
LAYER
  5
206
100
AcDbSymbolTableRecord
100
AcDbLayerTableRecord
  2
03__ASM_ALL_CURVES
 70
0
 62
7
  6
CONTINUOUS
370
-3
390
F
  0
LAYER
  5
207
100
AcDbSymbolTableRecord
100
AcDbLayerTableRecord
  2
03___PRT_ALL_CURVES
 70
0
 62
7
  6
CONTINUOUS
370
-3
390
F
  0
LAYER
  5
208
100
AcDbSymbolTableRecord
100
AcDbLayerTableRecord
  2
04_ALL_DTM_PNT
 70
0
 62
7
  6
CONTINUOUS
370
-3
390
F
  0
LAYER
  5
209
100
AcDbSymbolTableRecord
100
AcDbLayerTableRecord
  2
04__ASM_ALL_DTM_PNT
 70
0
 62
7
  6
CONTINUOUS
370
-3
390
F
  0
LAYER
  5
20A
100
AcDbSymbolTableRecord
100
AcDbLayerTableRecord
  2
04___PRT_ALL_DTM_PNT
 70
0
 62
7
  6
CONTINUOUS
370
-3
390
F
  0
LAYER
  5
20B
100
AcDbSymbolTableRecord
100
AcDbLayerTableRecord
  2
05_ALL_DTM_CSYS
 70
0
 62
7
  6
CONTINUOUS
370
-3
390
F
  0
LAYER
  5
20C
100
AcDbSymbolTableRecord
100
AcDbLayerTableRecord
  2
05__ASM_ALL_DTM_CSYS
 70
0
 62
7
  6
CONTINUOUS
370
-3
390
F
  0
LAYER
  5
20D
100
AcDbSymbolTableRecord
100
AcDbLayerTableRecord
  2
05__ASM_DEF_DTM_CSYS
 70
0
 62
7
  6
CONTINUOUS
370
-3
390
F
  0
LAYER
  5
20E
100
AcDbSymbolTableRecord
100
AcDbLayerTableRecord
  2
05___PRT_ALL_DTM_CSYS
 70
0
 62
7
  6
CONTINUOUS
370
-3
390
F
  0
LAYER
  5
20F
100
AcDbSymbolTableRecord
100
AcDbLayerTableRecord
  2
05___PRT_DEF_DTM_CSYS
 70
0
 62
7
  6
CONTINUOUS
370
-3
390
F
  0
LAYER
  5
210
100
AcDbSymbolTableRecord
100
AcDbLayerTableRecord
  2
06_ALL_SURFS
 70
0
 62
7
  6
CONTINUOUS
370
-3
390
F
  0
LAYER
  5
211
100
AcDbSymbolTableRecord
100
AcDbLayerTableRecord
  2
06__ASM_ALL_SURFS
 70
0
 62
7
  6
CONTINUOUS
370
-3
390
F
  0
LAYER
  5
212
100
AcDbSymbolTableRecord
100
AcDbLayerTableRecord
  2
06___PRT_ALL_SURFS
 70
0
 62
7
  6
CONTINUOUS
370
-3
390
F
  0
LAYER
  5
213
100
AcDbSymbolTableRecord
100
AcDbLayerTableRecord
  2
07__ASM_ALL_SKELETONS
 70
0
 62
7
  6
CONTINUOUS
370
-3
390
F
  0
ENDTAB
  0
TABLE
  2
STYLE
  5
3
100
AcDbSymbolTable
 70
1
  0
STYLE
  5
11
100
AcDbSymbolTableRecord
100
AcDbTextStyleTableRecord
  2
STANDARD
 70
0
 40
0.0
 41
0.8
 50
0.0
 71
0
 42
0.2
  3
txt
  4

  0
STYLE
  5
214
100
AcDbSymbolTableRecord
100
AcDbTextStyleTableRecord
  2
TEXTSTYLE_1
 70
0
 40
0.0
 41
0.8
 50
0.0
 71
0
 42
0.2
  3
gdt
  4

  0
ENDTAB
  0
TABLE
  2
VIEW
  5
6
100
AcDbSymbolTable
 70
0
  0
ENDTAB
  0
TABLE
  2
UCS
  5
7
100
AcDbSymbolTable
 70
0
  0
ENDTAB
  0
TABLE
  2
APPID
  5
9
100
AcDbSymbolTable
 70
1
  0
APPID
  5
215
100
AcDbSymbolTableRecord
100
AcDbRegAppTableRecord
  2
ACAD
 70
0
  0
ENDTAB
  0
TABLE
  2
BLOCK_RECORD
  5
1
100
AcDbSymbolTable
 70
0
  0
BLOCK_RECORD
  5
216
100
AcDbSymbolTableRecord
100
AcDbBlockTableRecord
  2
*Model_Space
  0
BLOCK_RECORD
  5
217
100
AcDbSymbolTableRecord
100
AcDbBlockTableRecord
  2
*Paper_Space
  0
ENDTAB
  0
TABLE
  2
DIMSTYLE
  5
A
100
AcDbSymbolTable
 70
1
100
AcDbDimStyleTable
 71
0
  0
DIMSTYLE
105
218
100
AcDbSymbolTableRecord
100
AcDbDimStyleTableRecord
  2
STANDARD
 70
0
  3

  4

 40
1.0
 41
0.1875
 42
0.0625
 43
0.38
 44
0.125
 45
0.0
 46
0.0
 47
0.0001
 48
0.0001
140
0.15625
141
0.09
142
0.0
143
25.4
144
1.0
145
0.0
146
1.0
147
0.09
 71
0.0
 72
0.0
 73
1
 74
1
 75
0
 76
0
 77
0
 78
4
 79
1
170
0
171
3
172
0
173
0
174
0
175
0
176
0
177
0
178
0
270
2
179
4
271
4
272
4
273
2
274
2
275
0
280
0
281
0
282
0
283
1
284
4
285
0
286
0
287
3
288
0
340
11
278
46
  0
ENDTAB
  0
ENDSEC
  0
SECTION
  2
BLOCKS
  0
BLOCK
  5
20
100
AcDbEntity
  8
0
100
AcDbBlockBegin
  2
*Model_Space
 70
0
 10
0.0
 20
0.0
 30
0.0
  3
*Model_Space
  1

  0
ENDBLK
  5
21
100
AcDbEntity
  8
0
100
AcDbBlockEnd
  0
BLOCK
  5
1C
100
AcDbEntity
  8
0
100
AcDbBlockBegin
  2
*Paper_Space
 70
0
 10
0.0
 20
0.0
 30
0.0
  3
*Paper_Space
  1

  0
ENDBLK
  5
1D
100
AcDbEntity
  8
0
100
AcDbBlockEnd
  0
ENDSEC
  0
SECTION
  2
ENTITIES
  0
MTEXT
  5
219
100
AcDbEntity
  8
0
100
AcDbMText
 62
7
  6
CONTINUOUS
  7
STANDARD
 71
1
 72
1
 10
15.9560215477
 20
0.9479130325
 30
0.0
 11
1.0
 21
0.0
 31
0.0
 44
0.9
  1
SCALE: 1:1.000
 40
0.3
 41
3.36
  0
LINE
  5
21A
100
AcDbEntity
  8
0
100
AcDbLine
 62
7
  6
CONTINUOUS
 10
0.0
 20
0.0
 11
0.0
 21
17.0
  0
LINE
  5
21B
100
AcDbEntity
  8
0
100
AcDbLine
 62
7
  6
CONTINUOUS
 10
0.0
 20
0.0
 11
22.0
 21
0.0
  0
LINE
  5
21C
100
AcDbEntity
  8
0
100
AcDbLine
 62
7
  6
CONTINUOUS
 10
0.0
 20
17.0
 11
22.0
 21
17.0
  0
LINE
  5
21D
100
AcDbEntity
  8
0
100
AcDbLine
 62
7
  6
CONTINUOUS
 10
22.0
 20
0.0
 11
22.0
 21
17.0
  0
LINE
  5
21E
100
AcDbEntity
  8
0
100
AcDbLine
 62
7
  6
CONTINUOUS
 10
3.5053672762
 20
5.7401198968
 11
3.5053672762
 21
5.5501198968
  0
LINE
  5
21F
100
AcDbEntity
  8
0
100
AcDbLine
 62
7
  6
CONTINUOUS
 10
3.6818596808
 20
5.5201114525
 11
3.7543383099
 21
5.3451325631
  0
LINE
  5
220
100
AcDbEntity
  8
0
100
AcDbLine
 62
7
  6
CONTINUOUS
 10
4.1313962425
 20
5.3451325631
 11
4.2038748716
 21
5.5201114525
  0
LINE
  5
221
100
AcDbEntity
  8
0
100
AcDbLine
 62
7
  6
CONTINUOUS
 10
4.5568596808
 20
5.5201114525
 11
4.6293383099
 21
5.3451325631
  0
LINE
  5
222
100
AcDbEntity
  8
0
100
AcDbLine
 62
7
  6
CONTINUOUS
 10
5.0063962425
 20
5.3451325631
 11
5.0788748716
 21
5.5201114525
  0
LINE
  5
223
100
AcDbEntity
  8
0
100
AcDbLine
 62
7
  6
CONTINUOUS
 10
5.4318596808
 20
5.5201114525
 11
5.5043383099
 21
5.3451325631
  0
LINE
  5
224
100
AcDbEntity
  8
0
100
AcDbLine
 62
7
  6
CONTINUOUS
 10
5.8813962425
 20
5.3451325631
 11
5.9538748716
 21
5.5201114525
  0
LINE
  5
225
100
AcDbEntity
  8
0
100
AcDbLine
 62
7
  6
CONTINUOUS
 10
3.8217045258
 20
5.3001198968
 11
4.0640300266
 21
5.3001198968
  0
LINE
  5
226
100
AcDbEntity
  8
0
100
AcDbLine
 62
7
  6
CONTINUOUS
 10
4.6967045258
 20
5.3001198968
 11
4.9390300266
 21
5.3001198968
  0
LINE
  5
227
100
AcDbEntity
  8
0
100
AcDbLine
 62
7
  6
CONTINUOUS
 10
5.5717045258
 20
5.3001198968
 11
5.8140300266
 21
5.3001198968
  0
LINE
  5
228
100
AcDbEntity
  8
0
100
AcDbLine
 62
7
  6
CONTINUOUS
 10
6.4467045258
 20
5.3001198968
 11
6.6890300266
 21
5.3001198968
  0
LINE
  5
229
100
AcDbEntity
  8
0
100
AcDbLine
 62
7
  6
CONTINUOUS
 10
7.3217045258
 20
5.3001198968
 11
7.5640300266
 21
5.3001198968
  0
LINE
  5
22A
100
AcDbEntity
  8
0
100
AcDbLine
 62
7
  6
CONTINUOUS
 10
8.1967045258
 20
5.3001198968
 11
8.4390300266
 21
5.3001198968
  0
LINE
  5
22B
100
AcDbEntity
  8
0
100
AcDbLine
 62
7
  6
CONTINUOUS
 10
3.5053672762
 20
5.5501198968
 11
3.6369488702
 21
5.5501198968
  0
LINE
  5
22C
100
AcDbEntity
  8
0
100
AcDbLine
 62
7
  6
CONTINUOUS
 10
4.2487856822
 20
5.5501198968
 11
4.5119488702
 21
5.5501198968
  0
LINE
  5
22D
100
AcDbEntity
  8
0
100
AcDbLine
 62
7
  6
CONTINUOUS
 10
5.1237856822
 20
5.5501198968
 11
5.3869488702
 21
5.5501198968
  0
LINE
  5
22E
100
AcDbEntity
  8
0
100
AcDbLine
 62
7
  6
CONTINUOUS
 10
5.9987856822
 20
5.5501198968
 11
6.2619488702
 21
5.5501198968
  0
LINE
  5
22F
100
AcDbEntity
  8
0
100
AcDbLine
 62
7
  6
CONTINUOUS
 10
6.8737856822
 20
5.5501198968
 11
7.1369488702
 21
5.5501198968
  0
LINE
  5
230
100
AcDbEntity
  8
0
100
AcDbLine
 62
7
  6
CONTINUOUS
 10
7.7487856822
 20
5.5501198968
 11
8.0119488702
 21
5.5501198968
  0
LINE
  5
231
100
AcDbEntity
  8
0
100
AcDbLine
 62
7
  6
CONTINUOUS
 10
8.6237856822
 20
5.5501198968
 11
8.7553672762
 21
5.5501198968
  0
LINE
  5
232
100
AcDbEntity
  8
0
100
AcDbLine
 62
7
  6
CONTINUOUS
 10
6.3068596808
 20
5.5201114525
 11
6.3793383099
 21
5.3451325631
  0
LINE
  5
233
100
AcDbEntity
  8
0
100
AcDbLine
 62
7
  6
CONTINUOUS
 10
8.7553672762
 20
5.7401198968
 11
3.5053672762
 21
5.7401198968
  0
LINE
  5
234
100
AcDbEntity
  8
0
100
AcDbLine
 62
7
  6
CONTINUOUS
 10
6.7563962425
 20
5.3451325631
 11
6.8288748716
 21
5.5201114525
  0
LINE
  5
235
100
AcDbEntity
  8
0
100
AcDbLine
 62
7
  6
CONTINUOUS
 10
7.1818596808
 20
5.5201114525
 11
7.2543383099
 21
5.3451325631
  0
LINE
  5
236
100
AcDbEntity
  8
0
100
AcDbLine
 62
7
  6
CONTINUOUS
 10
7.6313962425
 20
5.3451325631
 11
7.7038748716
 21
5.5201114525
  0
LINE
  5
237
100
AcDbEntity
  8
0
100
AcDbLine
 62
7
  6
CONTINUOUS
 10
8.0568596808
 20
5.5201114525
 11
8.1293383099
 21
5.3451325631
  0
LINE
  5
238
100
AcDbEntity
  8
0
100
AcDbLine
 62
7
  6
CONTINUOUS
 10
8.5063962425
 20
5.3451325631
 11
8.5788748716
 21
5.5201114525
  0
LINE
  5
239
100
AcDbEntity
  8
0
100
AcDbLine
 62
7
  6
CONTINUOUS
 10
8.7553672762
 20
5.5501198968
 11
8.7553672762
 21
5.7401198968
  0
LINE
  5
23A
100
AcDbEntity
  8
0
100
AcDbLine
 62
7
  6
CONTINUOUS
 10
8.6958720839
 20
9.6000477814
 11
3.4458720839
 21
9.6000477814
  0
LINE
  5
23B
100
AcDbEntity
  8
0
100
AcDbLine
 62
7
  6
CONTINUOUS
 10
3.4458720839
 20
15.6000477814
 11
3.4458720839
 21
9.6000477814
  0
LINE
  5
23C
100
AcDbEntity
  8
0
100
AcDbLine
 62
7
  6
CONTINUOUS
 10
8.6958720839
 20
15.6000477814
 11
8.6958720839
 21
9.6000477814
  0
LINE
  5
23D
100
AcDbEntity
  8
0
100
AcDbLine
 62
7
  6
CONTINUOUS
 10
3.4458720839
 20
15.6000477814
 11
8.6958720839
 21
15.6000477814
  0
LINE
  5
23E
100
AcDbEntity
  8
0
100
AcDbLine
 62
7
  6
CONTINUOUS
 10
12.5603552569
 20
5.2406247044
 11
12.5603552569
 21
5.6806247044
  0
LINE
  5
23F
100
AcDbEntity
  8
0
100
AcDbLine
 62
7
  6
CONTINUOUS
 10
12.5603552569
 20
5.2406247044
 11
18.5603552569
 21
5.2406247044
  0
LINE
  5
240
100
AcDbEntity
  8
0
100
AcDbLine
 62
7
  6
CONTINUOUS
 10
18.5603552569
 20
5.4906247044
 11
12.5603552569
 21
5.4906247044
  0
LINE
  5
241
100
AcDbEntity
  8
0
100
AcDbLine
 62
7
  6
CONTINUOUS
 10
18.5603552569
 20
5.6806247044
 11
12.5603552569
 21
5.6806247044
  0
LINE
  5
242
100
AcDbEntity
  8
0
100
AcDbLine
 62
7
  6
CONTINUOUS
 10
18.5603552569
 20
5.2406247044
 11
18.5603552569
 21
5.6806247044
  0
LINE
  5
243
100
AcDbEntity
  8
0
100
AcDbLine
 62
7
  6
CONTINUOUS
 10
12.2981494117
 20
10.297578457
 11
12.3561073663
 21
10.1794725631
  0
LINE
  5
244
100
AcDbEntity
  8
0
100
AcDbLine
 62
7
  6
CONTINUOUS
 10
12.5278214678
 20
10.160819015
 11
12.647954593
 21
10.0520503931
  0
LINE
  5
245
100
AcDbEntity
  8
0
100
AcDbLine
 62
7
  6
CONTINUOUS
 10
13.3337498375
 20
10.160819015
 11
13.4538829627
 21
10.0520503931
  0
LINE
  5
246
100
AcDbEntity
  8
0
100
AcDbLine
 62
7
  6
CONTINUOUS
 10
12.7237337345
 20
10.024070071
 11
12.9469303012
 21
10.024070071
  0
LINE
  5
247
100
AcDbEntity
  8
0
100
AcDbLine
 62
7
  6
CONTINUOUS
 10
13.5296621043
 20
10.024070071
 11
13.7528586709
 21
10.024070071
  0
LINE
  5
248
100
AcDbEntity
  8
0
100
AcDbLine
 62
7
  6
CONTINUOUS
 10
14.3355904741
 20
10.024070071
 11
14.5587870407
 21
10.024070071
  0
LINE
  5
249
100
AcDbEntity
  8
0
100
AcDbLine
 62
7
  6
CONTINUOUS
 10
15.1415188438
 20
10.024070071
 11
15.3647154104
 21
10.024070071
  0
LINE
  5
24A
100
AcDbEntity
  8
0
100
AcDbLine
 62
7
  6
CONTINUOUS
 10
15.9474472136
 20
10.024070071
 11
16.1706437802
 21
10.024070071
  0
LINE
  5
24B
100
AcDbEntity
  8
0
100
AcDbLine
 62
7
  6
CONTINUOUS
 10
16.7533755833
 20
10.024070071
 11
16.9765721499
 21
10.024070071
  0
LINE
  5
24C
100
AcDbEntity
  8
0
100
AcDbLine
 62
7
  6
CONTINUOUS
 10
14.1396782073
 20
10.160819015
 11
14.2598113325
 21
10.0520503931
  0
LINE
  5
24D
100
AcDbEntity
  8
0
100
AcDbLine
 62
7
  6
CONTINUOUS
 10
12.9952479472
 20
10.0520503931
 11
13.0086292983
 21
10.160819015
  0
LINE
  5
24E
100
AcDbEntity
  8
0
100
AcDbLine
 62
7
  6
CONTINUOUS
 10
13.7505473521
 20
14.9975399148
 11
12.2981494117
 21
10.297578457
  0
LINE
  5
24F
100
AcDbEntity
  8
0
100
AcDbLine
 62
7
  6
CONTINUOUS
 10
12.3561073663
 20
10.1794725631
 11
12.4773020401
 21
10.1794725631
  0
LINE
  5
250
100
AcDbEntity
  8
0
100
AcDbLine
 62
7
  6
CONTINUOUS
 10
13.0408410623
 20
10.1794725631
 11
13.2832304098
 21
10.1794725631
  0
LINE
  5
251
100
AcDbEntity
  8
0
100
AcDbLine
 62
7
  6
CONTINUOUS
 10
13.8467694321
 20
10.1794725631
 11
14.0891587796
 21
10.1794725631
  0
LINE
  5
252
100
AcDbEntity
  8
0
100
AcDbLine
 62
7
  6
CONTINUOUS
 10
14.6526978018
 20
10.1794725631
 11
14.8950871493
 21
10.1794725631
  0
LINE
  5
253
100
AcDbEntity
  8
0
100
AcDbLine
 62
7
  6
CONTINUOUS
 10
15.4586261716
 20
10.1794725631
 11
15.7010155191
 21
10.1794725631
  0
LINE
  5
254
100
AcDbEntity
  8
0
100
AcDbLine
 62
7
  6
CONTINUOUS
 10
16.2645545413
 20
10.1794725631
 11
16.5069438888
 21
10.1794725631
  0
LINE
  5
255
100
AcDbEntity
  8
0
100
AcDbLine
 62
7
  6
CONTINUOUS
 10
17.0704829111
 20
10.1794725631
 11
17.1916775848
 21
10.1794725631
  0
LINE
  5
256
100
AcDbEntity
  8
0
100
AcDbLine
 62
7
  6
CONTINUOUS
 10
17.1337196302
 20
10.297578457
 11
12.2981494117
 21
10.297578457
  0
LINE
  5
257
100
AcDbEntity
  8
0
100
AcDbLine
 62
7
  6
CONTINUOUS
 10
12.9943424709
 20
10.0478708296
 11
12.9952479472
 21
10.0520503931
  0
LINE
  5
258
100
AcDbEntity
  8
0
100
AcDbLine
 62
7
  6
CONTINUOUS
 10
13.0086292983
 20
10.160819015
 11
13.0092348901
 21
10.1636047911
  0
LINE
  5
259
100
AcDbEntity
  8
0
100
AcDbLine
 62
7
  6
CONTINUOUS
 10
14.945606577
 20
10.160819015
 11
15.0657397022
 21
10.0520503931
  0
LINE
  5
25A
100
AcDbEntity
  8
0
100
AcDbLine
 62
7
  6
CONTINUOUS
 10
12.9956116923
 20
10.0519379874
 11
13.0348270643
 21
10.1788389775
  0
LINE
  5
25B
100
AcDbEntity
  8
0
100
AcDbLine
 62
7
  6
CONTINUOUS
 10
13.8011763169
 20
10.0520503931
 11
13.8145576681
 21
10.160819015
  0
LINE
  5
25C
100
AcDbEntity
  8
0
100
AcDbLine
 62
7
  6
CONTINUOUS
 10
15.7515349468
 20
10.160819015
 11
15.871668072
 21
10.0520503931
  0
LINE
  5
25D
100
AcDbEntity
  8
0
100
AcDbLine
 62
7
  6
CONTINUOUS
 10
13.8002708407
 20
10.0478708296
 11
13.8011763169
 21
10.0520503931
  0
LINE
  5
25E
100
AcDbEntity
  8
0
100
AcDbLine
 62
7
  6
CONTINUOUS
 10
13.8145576681
 20
10.160819015
 11
13.8151632599
 21
10.1636047911
  0
LINE
  5
25F
100
AcDbEntity
  8
0
100
AcDbLine
 62
7
  6
CONTINUOUS
 10
13.8015400621
 20
10.0519379874
 11
13.840755434
 21
10.1788389775
  0
LINE
  5
260
100
AcDbEntity
  8
0
100
AcDbLine
 62
7
  6
CONTINUOUS
 10
16.5574633166
 20
10.160819015
 11
16.6775964417
 21
10.0520503931
  0
LINE
  5
261
100
AcDbEntity
  8
0
100
AcDbLine
 62
7
  6
CONTINUOUS
 10
14.6071046867
 20
10.0520503931
 11
14.6204860378
 21
10.160819015
  0
LINE
  5
262
100
AcDbEntity
  8
0
100
AcDbLine
 62
7
  6
CONTINUOUS
 10
14.6061992104
 20
10.0478708296
 11
14.6071046867
 21
10.0520503931
  0
LINE
  5
263
100
AcDbEntity
  8
0
100
AcDbLine
 62
7
  6
CONTINUOUS
 10
14.6204860378
 20
10.160819015
 11
14.6210916296
 21
10.1636047911
  0
LINE
  5
264
100
AcDbEntity
  8
0
100
AcDbLine
 62
7
  6
CONTINUOUS
 10
14.6074684318
 20
10.0519379874
 11
14.6466838038
 21
10.1788389775
  0
LINE
  5
265
100
AcDbEntity
  8
0
100
AcDbLine
 62
7
  6
CONTINUOUS
 10
15.4130330564
 20
10.0520503931
 11
15.4264144076
 21
10.160819015
  0
LINE
  5
266
100
AcDbEntity
  8
0
100
AcDbLine
 62
7
  6
CONTINUOUS
 10
15.4121275802
 20
10.0478708296
 11
15.4130330564
 21
10.0520503931
  0
LINE
  5
267
100
AcDbEntity
  8
0
100
AcDbLine
 62
7
  6
CONTINUOUS
 10
15.4264144076
 20
10.160819015
 11
15.4270199994
 21
10.1636047911
  0
LINE
  5
268
100
AcDbEntity
  8
0
100
AcDbLine
 62
7
  6
CONTINUOUS
 10
17.1916775848
 20
10.1794725631
 11
17.1337196302
 21
10.297578457
  0
LINE
  5
269
100
AcDbEntity
  8
0
100
AcDbLine
 62
7
  6
CONTINUOUS
 10
15.4133968016
 20
10.0519379874
 11
15.4526121735
 21
10.1788389775
  0
LINE
  5
26A
100
AcDbEntity
  8
0
100
AcDbLine
 62
7
  6
CONTINUOUS
 10
16.2189614262
 20
10.0520503931
 11
16.2323427773
 21
10.160819015
  0
LINE
  5
26B
100
AcDbEntity
  8
0
100
AcDbLine
 62
7
  6
CONTINUOUS
 10
16.2180559499
 20
10.0478708296
 11
16.2189614262
 21
10.0520503931
  0
LINE
  5
26C
100
AcDbEntity
  8
0
100
AcDbLine
 62
7
  6
CONTINUOUS
 10
16.2323427773
 20
10.160819015
 11
16.2329483691
 21
10.1636047911
  0
LINE
  5
26D
100
AcDbEntity
  8
0
100
AcDbLine
 62
7
  6
CONTINUOUS
 10
16.2193251713
 20
10.0519379874
 11
16.2585405433
 21
10.1788389775
  0
LINE
  5
26E
100
AcDbEntity
  8
0
100
AcDbLine
 62
7
  6
CONTINUOUS
 10
17.0248897959
 20
10.0520503931
 11
17.0382711471
 21
10.160819015
  0
LINE
  5
26F
100
AcDbEntity
  8
0
100
AcDbLine
 62
7
  6
CONTINUOUS
 10
17.0239843197
 20
10.0478708296
 11
17.0248897959
 21
10.0520503931
  0
LINE
  5
270
100
AcDbEntity
  8
0
100
AcDbLine
 62
7
  6
CONTINUOUS
 10
17.0382711471
 20
10.160819015
 11
17.0388767389
 21
10.1636047911
  0
LINE
  5
271
100
AcDbEntity
  8
0
100
AcDbLine
 62
7
  6
CONTINUOUS
 10
17.0252535411
 20
10.0519379874
 11
17.064468913
 21
10.1788389775
  0
LINE
  5
272
100
AcDbEntity
  8
0
100
AcDbLine
 62
7
  6
CONTINUOUS
 10
18.5861175706
 20
14.9975399148
 11
17.1337196302
 21
10.297578457
  0
LINE
  5
273
100
AcDbEntity
  8
0
100
AcDbLine
 62
7
  6
CONTINUOUS
 10
18.6440755253
 20
14.8794340208
 11
17.1916775848
 21
10.1794725631
  0
LINE
  5
274
100
AcDbEntity
  8
0
100
AcDbLine
 62
7
  6
CONTINUOUS
 10
13.7505473521
 20
14.9975399148
 11
18.5861175706
 21
14.9975399148
  0
LINE
  5
275
100
AcDbEntity
  8
0
100
AcDbLine
 62
7
  6
CONTINUOUS
 10
18.6440755253
 20
14.8794340208
 11
18.5861175706
 21
14.9975399148
  0
ARC
  5
276
100
AcDbEntity
  8
0
100
AcDbCircle
 62
7
  6
CONTINUOUS
 10
4.6967045258
 20
5.3730365634
 40
0.0729166667
100
AcDbArc
 50
202.5
 51
270.0
  0
ARC
  5
277
100
AcDbEntity
  8
0
100
AcDbCircle
 62
7
  6
CONTINUOUS
 10
4.9390300266
 20
5.3730365634
 40
0.0729166667
100
AcDbArc
 50
270.0
 51
337.5
  0
ARC
  5
278
100
AcDbEntity
  8
0
100
AcDbCircle
 62
7
  6
CONTINUOUS
 10
5.5717045258
 20
5.3730365634
 40
0.0729166667
100
AcDbArc
 50
202.5
 51
270.0
  0
ARC
  5
279
100
AcDbEntity
  8
0
100
AcDbCircle
 62
7
  6
CONTINUOUS
 10
5.8140300266
 20
5.3730365634
 40
0.0729166667
100
AcDbArc
 50
270.0
 51
337.5
  0
ARC
  5
27A
100
AcDbEntity
  8
0
100
AcDbCircle
 62
7
  6
CONTINUOUS
 10
6.4467045258
 20
5.3730365634
 40
0.0729166667
100
AcDbArc
 50
202.5
 51
270.0
  0
ARC
  5
27B
100
AcDbEntity
  8
0
100
AcDbCircle
 62
7
  6
CONTINUOUS
 10
6.6890300266
 20
5.3730365634
 40
0.0729166667
100
AcDbArc
 50
270.0
 51
337.5
  0
ARC
  5
27C
100
AcDbEntity
  8
0
100
AcDbCircle
 62
7
  6
CONTINUOUS
 10
4.0640300266
 20
5.3730365634
 40
0.0729166667
100
AcDbArc
 50
270.0
 51
337.5
  0
ARC
  5
27D
100
AcDbEntity
  8
0
100
AcDbCircle
 62
7
  6
CONTINUOUS
 10
3.8217045258
 20
5.3730365634
 40
0.0729166667
100
AcDbArc
 50
202.5
 51
270.0
  0
ARC
  5
27E
100
AcDbEntity
  8
0
100
AcDbCircle
 62
7
  6
CONTINUOUS
 10
8.4390300266
 20
5.3730365634
 40
0.0729166667
100
AcDbArc
 50
270.0
 51
337.5
  0
ARC
  5
27F
100
AcDbEntity
  8
0
100
AcDbCircle
 62
7
  6
CONTINUOUS
 10
8.1967045258
 20
5.3730365634
 40
0.0729166667
100
AcDbArc
 50
202.5
 51
270.0
  0
ARC
  5
280
100
AcDbEntity
  8
0
100
AcDbCircle
 62
7
  6
CONTINUOUS
 10
7.5640300266
 20
5.3730365634
 40
0.0729166667
100
AcDbArc
 50
270.0
 51
337.5
  0
ARC
  5
281
100
AcDbEntity
  8
0
100
AcDbCircle
 62
7
  6
CONTINUOUS
 10
7.3217045258
 20
5.3730365634
 40
0.0729166667
100
AcDbArc
 50
202.5
 51
270.0
  0
ARC
  5
282
100
AcDbEntity
  8
0
100
AcDbCircle
 62
7
  6
CONTINUOUS
 10
4.2487856822
 20
5.5015087856
 40
0.0486111111
100
AcDbArc
 50
90.0
 51
157.5
  0
ARC
  5
283
100
AcDbEntity
  8
0
100
AcDbCircle
 62
7
  6
CONTINUOUS
 10
3.6369488702
 20
5.5015087856
 40
0.0486111111
100
AcDbArc
 50
22.5
 51
90.0
  0
ARC
  5
284
100
AcDbEntity
  8
0
100
AcDbCircle
 62
7
  6
CONTINUOUS
 10
5.1237856822
 20
5.5015087856
 40
0.0486111111
100
AcDbArc
 50
90.0
 51
157.5
  0
ARC
  5
285
100
AcDbEntity
  8
0
100
AcDbCircle
 62
7
  6
CONTINUOUS
 10
4.5119488702
 20
5.5015087856
 40
0.0486111111
100
AcDbArc
 50
22.5
 51
90.0
  0
ARC
  5
286
100
AcDbEntity
  8
0
100
AcDbCircle
 62
7
  6
CONTINUOUS
 10
5.9987856822
 20
5.5015087856
 40
0.0486111111
100
AcDbArc
 50
90.0
 51
157.5
  0
ARC
  5
287
100
AcDbEntity
  8
0
100
AcDbCircle
 62
7
  6
CONTINUOUS
 10
5.3869488702
 20
5.5015087856
 40
0.0486111111
100
AcDbArc
 50
22.5
 51
90.0
  0
ARC
  5
288
100
AcDbEntity
  8
0
100
AcDbCircle
 62
7
  6
CONTINUOUS
 10
6.8737856822
 20
5.5015087856
 40
0.0486111111
100
AcDbArc
 50
90.0
 51
157.5
  0
ARC
  5
289
100
AcDbEntity
  8
0
100
AcDbCircle
 62
7
  6
CONTINUOUS
 10
6.2619488702
 20
5.5015087856
 40
0.0486111111
100
AcDbArc
 50
22.5
 51
90.0
  0
ARC
  5
28A
100
AcDbEntity
  8
0
100
AcDbCircle
 62
7
  6
CONTINUOUS
 10
7.7487856822
 20
5.5015087856
 40
0.0486111111
100
AcDbArc
 50
90.0
 51
157.5
  0
ARC
  5
28B
100
AcDbEntity
  8
0
100
AcDbCircle
 62
7
  6
CONTINUOUS
 10
7.1369488702
 20
5.5015087856
 40
0.0486111111
100
AcDbArc
 50
22.5
 51
90.0
  0
ARC
  5
28C
100
AcDbEntity
  8
0
100
AcDbCircle
 62
7
  6
CONTINUOUS
 10
8.6237856822
 20
5.5015087856
 40
0.0486111111
100
AcDbArc
 50
90.0
 51
157.5
  0
ARC
  5
28D
100
AcDbEntity
  8
0
100
AcDbCircle
 62
7
  6
CONTINUOUS
 10
8.0119488702
 20
5.5015087856
 40
0.0486111111
100
AcDbArc
 50
22.5
 51
90.0
  0
SPLINE
  5
28E
100
AcDbEntity
  8
0
100
AcDbSpline
 62
7
  6
CONTINUOUS
 70
0
 71
3
 72
11
 73
7
 74
0
 42
0.0000001
 43
0.0000001
 44
0.0000000001
 40
0.0
 40
0.0
 40
0.0
 40
0.0
 40
0.2342331506
 40
0.4753754195
 40
0.729158182
 40
1.0
 40
1.0
 40
1.0
 40
1.0
 10
13.0092269591
 20
10.1636072436
 30
0.0
 10
13.0095621954
 20
10.1646898576
 30
0.0
 10
13.0104805714
 20
10.1668206693
 30
0.0
 10
13.012531201
 20
10.1697196306
 30
0.0
 10
13.015222645
 20
10.1722945513
 30
0.0
 10
13.0173339552
 20
10.1737251891
 30
0.0
 10
13.0184680679
 20
10.1743817659
 30
0.0
  0
SPLINE
  5
28F
100
AcDbEntity
  8
0
100
AcDbSpline
 62
7
  6
CONTINUOUS
 70
0
 71
3
 72
11
 73
7
 74
0
 42
0.0000001
 43
0.0000001
 44
0.0000000001
 40
0.0
 40
0.0
 40
0.0
 40
0.0
 40
0.2218805983
 40
0.4632338885
 40
0.7235691527
 40
1.0
 40
1.0
 40
1.0
 40
1.0
 10
13.0184680679
 20
10.1743817659
 30
0.0
 10
13.0199519815
 20
10.1752408543
 30
0.0
 10
13.0232190716
 20
10.1767497959
 30
0.0
 10
13.0286009516
 20
10.1783247672
 30
0.0
 10
13.034553203
 20
10.179270622
 30
0.0
 10
13.0387048558
 20
10.1794725631
 30
0.0
 10
13.0408410623
 20
10.1794725631
 30
0.0
  0
SPLINE
  5
290
100
AcDbEntity
  8
0
100
AcDbSpline
 62
7
  6
CONTINUOUS
 70
0
 71
3
 72
11
 73
7
 74
0
 42
0.0000001
 43
0.0000001
 44
0.0000000001
 40
0.0
 40
0.0
 40
0.0
 40
0.0
 40
0.2342331506
 40
0.4753754195
 40
0.729158182
 40
1.0
 40
1.0
 40
1.0
 40
1.0
 10
13.8151553288
 20
10.1636072436
 30
0.0
 10
13.8154905651
 20
10.1646898576
 30
0.0
 10
13.8164089412
 20
10.1668206693
 30
0.0
 10
13.8184595708
 20
10.1697196306
 30
0.0
 10
13.8211510148
 20
10.1722945513
 30
0.0
 10
13.823262325
 20
10.1737251891
 30
0.0
 10
13.8243964376
 20
10.1743817659
 30
0.0
  0
SPLINE
  5
291
100
AcDbEntity
  8
0
100
AcDbSpline
 62
7
  6
CONTINUOUS
 70
0
 71
3
 72
11
 73
7
 74
0
 42
0.0000001
 43
0.0000001
 44
0.0000000001
 40
0.0
 40
0.0
 40
0.0
 40
0.0
 40
0.2218805983
 40
0.4632338885
 40
0.7235691527
 40
1.0
 40
1.0
 40
1.0
 40
1.0
 10
13.8243964376
 20
10.1743817659
 30
0.0
 10
13.8258803512
 20
10.1752408543
 30
0.0
 10
13.8291474414
 20
10.1767497959
 30
0.0
 10
13.8345293214
 20
10.1783247672
 30
0.0
 10
13.8404815727
 20
10.179270622
 30
0.0
 10
13.8446332256
 20
10.1794725631
 30
0.0
 10
13.8467694321
 20
10.1794725631
 30
0.0
  0
SPLINE
  5
292
100
AcDbEntity
  8
0
100
AcDbSpline
 62
7
  6
CONTINUOUS
 70
0
 71
3
 72
11
 73
7
 74
0
 42
0.0000001
 43
0.0000001
 44
0.0000000001
 40
0.0
 40
0.0
 40
0.0
 40
0.0
 40
0.2342331506
 40
0.4753754195
 40
0.729158182
 40
1.0
 40
1.0
 40
1.0
 40
1.0
 10
14.6210836986
 20
10.1636072436
 30
0.0
 10
14.6214189349
 20
10.1646898576
 30
0.0
 10
14.6223373109
 20
10.1668206693
 30
0.0
 10
14.6243879405
 20
10.1697196306
 30
0.0
 10
14.6270793845
 20
10.1722945513
 30
0.0
 10
14.6291906947
 20
10.1737251891
 30
0.0
 10
14.6303248074
 20
10.1743817659
 30
0.0
  0
SPLINE
  5
293
100
AcDbEntity
  8
0
100
AcDbSpline
 62
7
  6
CONTINUOUS
 70
0
 71
3
 72
11
 73
7
 74
0
 42
0.0000001
 43
0.0000001
 44
0.0000000001
 40
0.0
 40
0.0
 40
0.0
 40
0.0
 40
0.2218805983
 40
0.4632338885
 40
0.7235691527
 40
1.0
 40
1.0
 40
1.0
 40
1.0
 10
14.6303248074
 20
10.1743817659
 30
0.0
 10
14.631808721
 20
10.1752408543
 30
0.0
 10
14.6350758111
 20
10.1767497959
 30
0.0
 10
14.6404576911
 20
10.1783247672
 30
0.0
 10
14.6464099425
 20
10.179270622
 30
0.0
 10
14.6505615953
 20
10.1794725631
 30
0.0
 10
14.6526978018
 20
10.1794725631
 30
0.0
  0
SPLINE
  5
294
100
AcDbEntity
  8
0
100
AcDbSpline
 62
7
  6
CONTINUOUS
 70
0
 71
3
 72
11
 73
7
 74
0
 42
0.0000001
 43
0.0000001
 44
0.0000000001
 40
0.0
 40
0.0
 40
0.0
 40
0.0
 40
0.2342331506
 40
0.4753754195
 40
0.729158182
 40
1.0
 40
1.0
 40
1.0
 40
1.0
 10
15.4270120683
 20
10.1636072436
 30
0.0
 10
15.4273473046
 20
10.1646898576
 30
0.0
 10
15.4282656807
 20
10.1668206693
 30
0.0
 10
15.4303163103
 20
10.1697196306
 30
0.0
 10
15.4330077543
 20
10.1722945513
 30
0.0
 10
15.4351190645
 20
10.1737251891
 30
0.0
 10
15.4362531771
 20
10.1743817659
 30
0.0
  0
SPLINE
  5
295
100
AcDbEntity
  8
0
100
AcDbSpline
 62
7
  6
CONTINUOUS
 70
0
 71
3
 72
11
 73
7
 74
0
 42
0.0000001
 43
0.0000001
 44
0.0000000001
 40
0.0
 40
0.0
 40
0.0
 40
0.0
 40
0.2218805983
 40
0.4632338885
 40
0.7235691527
 40
1.0
 40
1.0
 40
1.0
 40
1.0
 10
15.4362531771
 20
10.1743817659
 30
0.0
 10
15.4377370907
 20
10.1752408543
 30
0.0
 10
15.4410041809
 20
10.1767497959
 30
0.0
 10
15.4463860609
 20
10.1783247672
 30
0.0
 10
15.4523383122
 20
10.179270622
 30
0.0
 10
15.4564899651
 20
10.1794725631
 30
0.0
 10
15.4586261716
 20
10.1794725631
 30
0.0
  0
SPLINE
  5
296
100
AcDbEntity
  8
0
100
AcDbSpline
 62
7
  6
CONTINUOUS
 70
0
 71
3
 72
11
 73
7
 74
0
 42
0.0000001
 43
0.0000001
 44
0.0000000001
 40
0.0
 40
0.0
 40
0.0
 40
0.0
 40
0.2342331506
 40
0.4753754195
 40
0.729158182
 40
1.0
 40
1.0
 40
1.0
 40
1.0
 10
16.2329404381
 20
10.1636072436
 30
0.0
 10
16.2332756744
 20
10.1646898576
 30
0.0
 10
16.2341940504
 20
10.1668206693
 30
0.0
 10
16.23624468
 20
10.1697196306
 30
0.0
 10
16.238936124
 20
10.1722945513
 30
0.0
 10
16.2410474342
 20
10.1737251891
 30
0.0
 10
16.2421815469
 20
10.1743817659
 30
0.0
  0
SPLINE
  5
297
100
AcDbEntity
  8
0
100
AcDbSpline
 62
7
  6
CONTINUOUS
 70
0
 71
3
 72
11
 73
7
 74
0
 42
0.0000001
 43
0.0000001
 44
0.0000000001
 40
0.0
 40
0.0
 40
0.0
 40
0.0
 40
0.2218805983
 40
0.4632338885
 40
0.7235691527
 40
1.0
 40
1.0
 40
1.0
 40
1.0
 10
16.2421815469
 20
10.1743817659
 30
0.0
 10
16.2436654605
 20
10.1752408543
 30
0.0
 10
16.2469325506
 20
10.1767497959
 30
0.0
 10
16.2523144306
 20
10.1783247672
 30
0.0
 10
16.258266682
 20
10.179270622
 30
0.0
 10
16.2624183348
 20
10.1794725631
 30
0.0
 10
16.2645545413
 20
10.1794725631
 30
0.0
  0
SPLINE
  5
298
100
AcDbEntity
  8
0
100
AcDbSpline
 62
7
  6
CONTINUOUS
 70
0
 71
3
 72
11
 73
7
 74
0
 42
0.0000001
 43
0.0000001
 44
0.0000000001
 40
0.0
 40
0.0
 40
0.0
 40
0.0
 40
0.2342331506
 40
0.4753754195
 40
0.729158182
 40
1.0
 40
1.0
 40
1.0
 40
1.0
 10
17.0388688079
 20
10.1636072436
 30
0.0
 10
17.0392040441
 20
10.1646898576
 30
0.0
 10
17.0401224202
 20
10.1668206693
 30
0.0
 10
17.0421730498
 20
10.1697196306
 30
0.0
 10
17.0448644938
 20
10.1722945513
 30
0.0
 10
17.046975804
 20
10.1737251891
 30
0.0
 10
17.0481099167
 20
10.1743817659
 30
0.0
  0
SPLINE
  5
299
100
AcDbEntity
  8
0
100
AcDbSpline
 62
7
  6
CONTINUOUS
 70
0
 71
3
 72
11
 73
7
 74
0
 42
0.0000001
 43
0.0000001
 44
0.0000000001
 40
0.0
 40
0.0
 40
0.0
 40
0.0
 40
0.2218805983
 40
0.4632338885
 40
0.7235691527
 40
1.0
 40
1.0
 40
1.0
 40
1.0
 10
17.0481099167
 20
10.1743817659
 30
0.0
 10
17.0495938302
 20
10.1752408543
 30
0.0
 10
17.0528609204
 20
10.1767497959
 30
0.0
 10
17.0582428004
 20
10.1783247672
 30
0.0
 10
17.0641950517
 20
10.179270622
 30
0.0
 10
17.0683467046
 20
10.1794725631
 30
0.0
 10
17.0704829111
 20
10.1794725631
 30
0.0
  0
SPLINE
  5
29A
100
AcDbEntity
  8
0
100
AcDbSpline
 62
7
  6
CONTINUOUS
 70
0
 71
3
 72
15
 73
11
 74
0
 42
0.0000001
 43
0.0000001
 44
0.0000000001
 40
0.0
 40
0.0
 40
0.0
 40
0.0
 40
0.15562104
 40
0.3031466628
 40
0.4410973901
 40
0.5690293197
 40
0.6872672708
 40
0.7969839974
 40
0.9002651082
 40
1.0
 40
1.0
 40
1.0
 40
1.0
 10
12.9469303012
 20
10.024070071
 30
0.0
 10
12.9498635187
 20
10.024070071
 30
0.0
 10
12.9555815541
 20
10.024325134
 30
0.0
 10
12.9638251878
 20
10.0255134014
 30
0.0
 10
12.9713810206
 20
10.0274943087
 30
0.0
 10
12.9781100774
 20
10.0302294567
 30
0.0
 10
12.9838962313
 20
10.0336817704
 30
0.0
 10
12.9886366261
 20
10.0378042288
 30
0.0
 10
12.9922241629
 20
10.0425381162
 30
0.0
 10
12.9937954209
 20
10.0460723176
 30
0.0
 10
12.9943514683
 20
10.0478680474
 30
0.0
  0
SPLINE
  5
29B
100
AcDbEntity
  8
0
100
AcDbSpline
 62
7
  6
CONTINUOUS
 70
0
 71
3
 72
15
 73
11
 74
0
 42
0.0000001
 43
0.0000001
 44
0.0000000001
 40
0.0
 40
0.0
 40
0.0
 40
0.0
 40
0.1148028576
 40
0.2360619217
 40
0.3619925251
 40
0.4908819752
 40
0.6209773401
 40
0.7504742788
 40
0.8775139886
 40
1.0
 40
1.0
 40
1.0
 40
1.0
 10
12.647954593
 20
10.0520503931
 30
0.0
 10
12.6502928436
 20
10.0499333392
 30
0.0
 10
12.6553627153
 20
10.0458641549
 30
0.0
 10
12.6637161698
 20
10.0404397108
 30
0.0
 10
12.6728819006
 20
10.0356382928
 30
0.0
 10
12.6826517963
 20
10.0315560705
 30
0.0
 10
12.6928245404
 20
10.0282836002
 30
0.0
 10
12.7031861703
 20
10.0258836592
 30
0.0
 10
12.7135092863
 20
10.0244198972
 30
0.0
 10
12.7203683803
 20
10.024070071
 30
0.0
 10
12.7237337345
 20
10.024070071
 30
0.0
  0
SPLINE
  5
29C
100
AcDbEntity
  8
0
100
AcDbSpline
 62
7
  6
CONTINUOUS
 70
0
 71
3
 72
15
 73
11
 74
0
 42
0.0000001
 43
0.0000001
 44
0.0000000001
 40
0.0
 40
0.0
 40
0.0
 40
0.0
 40
0.15562104
 40
0.3031466628
 40
0.4410973901
 40
0.5690293197
 40
0.6872672708
 40
0.7969839974
 40
0.9002651082
 40
1.0
 40
1.0
 40
1.0
 40
1.0
 10
16.9765721499
 20
10.024070071
 30
0.0
 10
16.9795053674
 20
10.024070071
 30
0.0
 10
16.9852234029
 20
10.024325134
 30
0.0
 10
16.9934670366
 20
10.0255134014
 30
0.0
 10
17.0010228694
 20
10.0274943087
 30
0.0
 10
17.0077519262
 20
10.0302294567
 30
0.0
 10
17.01353808
 20
10.0336817704
 30
0.0
 10
17.0182784749
 20
10.0378042288
 30
0.0
 10
17.0218660117
 20
10.0425381162
 30
0.0
 10
17.0234372696
 20
10.0460723176
 30
0.0
 10
17.0239933171
 20
10.0478680474
 30
0.0
  0
SPLINE
  5
29D
100
AcDbEntity
  8
0
100
AcDbSpline
 62
7
  6
CONTINUOUS
 70
0
 71
3
 72
15
 73
11
 74
0
 42
0.0000001
 43
0.0000001
 44
0.0000000001
 40
0.0
 40
0.0
 40
0.0
 40
0.0
 40
0.1148028576
 40
0.2360619217
 40
0.3619925251
 40
0.4908819752
 40
0.6209773401
 40
0.7504742788
 40
0.8775139886
 40
1.0
 40
1.0
 40
1.0
 40
1.0
 10
16.6775964417
 20
10.0520503931
 30
0.0
 10
16.6799346924
 20
10.0499333392
 30
0.0
 10
16.685004564
 20
10.0458641549
 30
0.0
 10
16.6933580186
 20
10.0404397108
 30
0.0
 10
16.7025237493
 20
10.0356382928
 30
0.0
 10
16.7122936451
 20
10.0315560705
 30
0.0
 10
16.7224663892
 20
10.0282836002
 30
0.0
 10
16.7328280191
 20
10.0258836592
 30
0.0
 10
16.7431511351
 20
10.0244198972
 30
0.0
 10
16.7500102291
 20
10.024070071
 30
0.0
 10
16.7533755833
 20
10.024070071
 30
0.0
  0
SPLINE
  5
29E
100
AcDbEntity
  8
0
100
AcDbSpline
 62
7
  6
CONTINUOUS
 70
0
 71
3
 72
15
 73
11
 74
0
 42
0.0000001
 43
0.0000001
 44
0.0000000001
 40
0.0
 40
0.0
 40
0.0
 40
0.0
 40
0.15562104
 40
0.3031466628
 40
0.4410973901
 40
0.5690293197
 40
0.6872672708
 40
0.7969839974
 40
0.9002651082
 40
1.0
 40
1.0
 40
1.0
 40
1.0
 10
16.1706437802
 20
10.024070071
 30
0.0
 10
16.1735769977
 20
10.024070071
 30
0.0
 10
16.1792950331
 20
10.024325134
 30
0.0
 10
16.1875386668
 20
10.0255134014
 30
0.0
 10
16.1950944996
 20
10.0274943087
 30
0.0
 10
16.2018235564
 20
10.0302294567
 30
0.0
 10
16.2076097103
 20
10.0336817704
 30
0.0
 10
16.2123501051
 20
10.0378042288
 30
0.0
 10
16.2159376419
 20
10.0425381162
 30
0.0
 10
16.2175088999
 20
10.0460723176
 30
0.0
 10
16.2180649473
 20
10.0478680474
 30
0.0
  0
SPLINE
  5
29F
100
AcDbEntity
  8
0
100
AcDbSpline
 62
7
  6
CONTINUOUS
 70
0
 71
3
 72
15
 73
11
 74
0
 42
0.0000001
 43
0.0000001
 44
0.0000000001
 40
0.0
 40
0.0
 40
0.0
 40
0.0
 40
0.1148028576
 40
0.2360619217
 40
0.3619925251
 40
0.4908819752
 40
0.6209773401
 40
0.7504742788
 40
0.8775139886
 40
1.0
 40
1.0
 40
1.0
 40
1.0
 10
15.871668072
 20
10.0520503931
 30
0.0
 10
15.8740063227
 20
10.0499333392
 30
0.0
 10
15.8790761943
 20
10.0458641549
 30
0.0
 10
15.8874296488
 20
10.0404397108
 30
0.0
 10
15.8965953796
 20
10.0356382928
 30
0.0
 10
15.9063652753
 20
10.0315560705
 30
0.0
 10
15.9165380194
 20
10.0282836002
 30
0.0
 10
15.9268996493
 20
10.0258836592
 30
0.0
 10
15.9372227653
 20
10.0244198972
 30
0.0
 10
15.9440818593
 20
10.024070071
 30
0.0
 10
15.9474472136
 20
10.024070071
 30
0.0
  0
SPLINE
  5
2A0
100
AcDbEntity
  8
0
100
AcDbSpline
 62
7
  6
CONTINUOUS
 70
0
 71
3
 72
15
 73
11
 74
0
 42
0.0000001
 43
0.0000001
 44
0.0000000001
 40
0.0
 40
0.0
 40
0.0
 40
0.0
 40
0.15562104
 40
0.3031466628
 40
0.4410973901
 40
0.5690293197
 40
0.6872672708
 40
0.7969839974
 40
0.9002651082
 40
1.0
 40
1.0
 40
1.0
 40
1.0
 10
15.3647154104
 20
10.024070071
 30
0.0
 10
15.3676486279
 20
10.024070071
 30
0.0
 10
15.3733666634
 20
10.024325134
 30
0.0
 10
15.381610297
 20
10.0255134014
 30
0.0
 10
15.3891661299
 20
10.0274943087
 30
0.0
 10
15.3958951867
 20
10.0302294567
 30
0.0
 10
15.4016813405
 20
10.0336817704
 30
0.0
 10
15.4064217353
 20
10.0378042288
 30
0.0
 10
15.4100092722
 20
10.0425381162
 30
0.0
 10
15.4115805301
 20
10.0460723176
 30
0.0
 10
15.4121365776
 20
10.0478680474
 30
0.0
  0
SPLINE
  5
2A1
100
AcDbEntity
  8
0
100
AcDbSpline
 62
7
  6
CONTINUOUS
 70
0
 71
3
 72
15
 73
11
 74
0
 42
0.0000001
 43
0.0000001
 44
0.0000000001
 40
0.0
 40
0.0
 40
0.0
 40
0.0
 40
0.1148028576
 40
0.2360619217
 40
0.3619925251
 40
0.4908819752
 40
0.6209773401
 40
0.7504742788
 40
0.8775139886
 40
1.0
 40
1.0
 40
1.0
 40
1.0
 10
15.0657397022
 20
10.0520503931
 30
0.0
 10
15.0680779529
 20
10.0499333392
 30
0.0
 10
15.0731478245
 20
10.0458641549
 30
0.0
 10
15.0815012791
 20
10.0404397108
 30
0.0
 10
15.0906670098
 20
10.0356382928
 30
0.0
 10
15.1004369056
 20
10.0315560705
 30
0.0
 10
15.1106096496
 20
10.0282836002
 30
0.0
 10
15.1209712796
 20
10.0258836592
 30
0.0
 10
15.1312943956
 20
10.0244198972
 30
0.0
 10
15.1381534896
 20
10.024070071
 30
0.0
 10
15.1415188438
 20
10.024070071
 30
0.0
  0
SPLINE
  5
2A2
100
AcDbEntity
  8
0
100
AcDbSpline
 62
7
  6
CONTINUOUS
 70
0
 71
3
 72
15
 73
11
 74
0
 42
0.0000001
 43
0.0000001
 44
0.0000000001
 40
0.0
 40
0.0
 40
0.0
 40
0.0
 40
0.15562104
 40
0.3031466628
 40
0.4410973901
 40
0.5690293197
 40
0.6872672708
 40
0.7969839974
 40
0.9002651082
 40
1.0
 40
1.0
 40
1.0
 40
1.0
 10
14.5587870407
 20
10.024070071
 30
0.0
 10
14.5617202582
 20
10.024070071
 30
0.0
 10
14.5674382936
 20
10.024325134
 30
0.0
 10
14.5756819273
 20
10.0255134014
 30
0.0
 10
14.5832377601
 20
10.0274943087
 30
0.0
 10
14.5899668169
 20
10.0302294567
 30
0.0
 10
14.5957529708
 20
10.0336817704
 30
0.0
 10
14.6004933656
 20
10.0378042288
 30
0.0
 10
14.6040809024
 20
10.0425381162
 30
0.0
 10
14.6056521604
 20
10.0460723176
 30
0.0
 10
14.6062082078
 20
10.0478680474
 30
0.0
  0
SPLINE
  5
2A3
100
AcDbEntity
  8
0
100
AcDbSpline
 62
7
  6
CONTINUOUS
 70
0
 71
3
 72
15
 73
11
 74
0
 42
0.0000001
 43
0.0000001
 44
0.0000000001
 40
0.0
 40
0.0
 40
0.0
 40
0.0
 40
0.1148028576
 40
0.2360619217
 40
0.3619925251
 40
0.4908819752
 40
0.6209773401
 40
0.7504742788
 40
0.8775139886
 40
1.0
 40
1.0
 40
1.0
 40
1.0
 10
14.2598113325
 20
10.0520503931
 30
0.0
 10
14.2621495832
 20
10.0499333392
 30
0.0
 10
14.2672194548
 20
10.0458641549
 30
0.0
 10
14.2755729093
 20
10.0404397108
 30
0.0
 10
14.2847386401
 20
10.0356382928
 30
0.0
 10
14.2945085358
 20
10.0315560705
 30
0.0
 10
14.3046812799
 20
10.0282836002
 30
0.0
 10
14.3150429098
 20
10.0258836592
 30
0.0
 10
14.3253660258
 20
10.0244198972
 30
0.0
 10
14.3322251198
 20
10.024070071
 30
0.0
 10
14.3355904741
 20
10.024070071
 30
0.0
  0
SPLINE
  5
2A4
100
AcDbEntity
  8
0
100
AcDbSpline
 62
7
  6
CONTINUOUS
 70
0
 71
3
 72
15
 73
11
 74
0
 42
0.0000001
 43
0.0000001
 44
0.0000000001
 40
0.0
 40
0.0
 40
0.0
 40
0.0
 40
0.15562104
 40
0.3031466628
 40
0.4410973901
 40
0.5690293197
 40
0.6872672708
 40
0.7969839974
 40
0.9002651082
 40
1.0
 40
1.0
 40
1.0
 40
1.0
 10
13.7528586709
 20
10.024070071
 30
0.0
 10
13.7557918884
 20
10.024070071
 30
0.0
 10
13.7615099239
 20
10.024325134
 30
0.0
 10
13.7697535575
 20
10.0255134014
 30
0.0
 10
13.7773093904
 20
10.0274943087
 30
0.0
 10
13.7840384472
 20
10.0302294567
 30
0.0
 10
13.789824601
 20
10.0336817704
 30
0.0
 10
13.7945649958
 20
10.0378042288
 30
0.0
 10
13.7981525327
 20
10.0425381162
 30
0.0
 10
13.7997237906
 20
10.0460723176
 30
0.0
 10
13.8002798381
 20
10.0478680474
 30
0.0
  0
SPLINE
  5
2A5
100
AcDbEntity
  8
0
100
AcDbSpline
 62
7
  6
CONTINUOUS
 70
0
 71
3
 72
15
 73
11
 74
0
 42
0.0000001
 43
0.0000001
 44
0.0000000001
 40
0.0
 40
0.0
 40
0.0
 40
0.0
 40
0.1148028576
 40
0.2360619217
 40
0.3619925251
 40
0.4908819752
 40
0.6209773401
 40
0.7504742788
 40
0.8775139886
 40
1.0
 40
1.0
 40
1.0
 40
1.0
 10
13.4538829627
 20
10.0520503931
 30
0.0
 10
13.4562212134
 20
10.0499333392
 30
0.0
 10
13.461291085
 20
10.0458641549
 30
0.0
 10
13.4696445396
 20
10.0404397108
 30
0.0
 10
13.4788102703
 20
10.0356382928
 30
0.0
 10
13.4885801661
 20
10.0315560705
 30
0.0
 10
13.4987529101
 20
10.0282836002
 30
0.0
 10
13.50911454
 20
10.0258836592
 30
0.0
 10
13.519437656
 20
10.0244198972
 30
0.0
 10
13.52629675
 20
10.024070071
 30
0.0
 10
13.5296621043
 20
10.024070071
 30
0.0
  0
SPLINE
  5
2A6
100
AcDbEntity
  8
0
100
AcDbSpline
 62
7
  6
CONTINUOUS
 70
0
 71
3
 72
15
 73
11
 74
0
 42
0.0000001
 43
0.0000001
 44
0.0000000001
 40
0.0
 40
0.0
 40
0.0
 40
0.0
 40
0.1224869293
 40
0.2495284806
 40
0.379026167
 40
0.509119593
 40
0.6380044254
 40
0.7639326096
 40
0.8851946623
 40
1.0
 40
1.0
 40
1.0
 40
1.0
 10
12.4773020401
 20
10.1794725631
 30
0.0
 10
12.4795456263
 20
10.1794725631
 30
0.0
 10
12.4841184052
 20
10.1792393278
 30
0.0
 10
12.4910005463
 20
10.1782634824
 30
0.0
 10
12.4979083072
 20
10.176663498
 30
0.0
 10
12.504690027
 20
10.1744818673
 30
0.0
 10
12.5112031671
 20
10.1717605165
 30
0.0
 10
12.51731357
 20
10.1685595647
 30
0.0
 10
12.5228825699
 20
10.1649432206
 30
0.0
 10
12.5262626004
 20
10.1622304147
 30
0.0
 10
12.5278214678
 20
10.160819015
 30
0.0
  0
SPLINE
  5
2A7
100
AcDbEntity
  8
0
100
AcDbSpline
 62
7
  6
CONTINUOUS
 70
0
 71
3
 72
15
 73
11
 74
0
 42
0.0000001
 43
0.0000001
 44
0.0000000001
 40
0.0
 40
0.0
 40
0.0
 40
0.0
 40
0.1224869293
 40
0.2495284806
 40
0.379026167
 40
0.509119593
 40
0.6380044254
 40
0.7639326096
 40
0.8851946623
 40
1.0
 40
1.0
 40
1.0
 40
1.0
 10
13.2832304098
 20
10.1794725631
 30
0.0
 10
13.285473996
 20
10.1794725631
 30
0.0
 10
13.2900467749
 20
10.1792393278
 30
0.0
 10
13.296928916
 20
10.1782634824
 30
0.0
 10
13.3038366769
 20
10.176663498
 30
0.0
 10
13.3106183967
 20
10.1744818673
 30
0.0
 10
13.3171315368
 20
10.1717605165
 30
0.0
 10
13.3232419397
 20
10.1685595647
 30
0.0
 10
13.3288109397
 20
10.1649432206
 30
0.0
 10
13.3321909702
 20
10.1622304147
 30
0.0
 10
13.3337498375
 20
10.160819015
 30
0.0
  0
SPLINE
  5
2A8
100
AcDbEntity
  8
0
100
AcDbSpline
 62
7
  6
CONTINUOUS
 70
0
 71
3
 72
15
 73
11
 74
0
 42
0.0000001
 43
0.0000001
 44
0.0000000001
 40
0.0
 40
0.0
 40
0.0
 40
0.0
 40
0.1224869293
 40
0.2495284806
 40
0.379026167
 40
0.509119593
 40
0.6380044254
 40
0.7639326096
 40
0.8851946623
 40
1.0
 40
1.0
 40
1.0
 40
1.0
 10
14.0891587796
 20
10.1794725631
 30
0.0
 10
14.0914023658
 20
10.1794725631
 30
0.0
 10
14.0959751447
 20
10.1792393278
 30
0.0
 10
14.1028572858
 20
10.1782634824
 30
0.0
 10
14.1097650467
 20
10.176663498
 30
0.0
 10
14.1165467665
 20
10.1744818673
 30
0.0
 10
14.1230599066
 20
10.1717605165
 30
0.0
 10
14.1291703095
 20
10.1685595647
 30
0.0
 10
14.1347393094
 20
10.1649432206
 30
0.0
 10
14.1381193399
 20
10.1622304147
 30
0.0
 10
14.1396782073
 20
10.160819015
 30
0.0
  0
SPLINE
  5
2A9
100
AcDbEntity
  8
0
100
AcDbSpline
 62
7
  6
CONTINUOUS
 70
0
 71
3
 72
15
 73
11
 74
0
 42
0.0000001
 43
0.0000001
 44
0.0000000001
 40
0.0
 40
0.0
 40
0.0
 40
0.0
 40
0.1224869293
 40
0.2495284806
 40
0.379026167
 40
0.509119593
 40
0.6380044254
 40
0.7639326096
 40
0.8851946623
 40
1.0
 40
1.0
 40
1.0
 40
1.0
 10
14.8950871493
 20
10.1794725631
 30
0.0
 10
14.8973307356
 20
10.1794725631
 30
0.0
 10
14.9019035144
 20
10.1792393278
 30
0.0
 10
14.9087856555
 20
10.1782634824
 30
0.0
 10
14.9156934164
 20
10.176663498
 30
0.0
 10
14.9224751362
 20
10.1744818673
 30
0.0
 10
14.9289882763
 20
10.1717605165
 30
0.0
 10
14.9350986792
 20
10.1685595647
 30
0.0
 10
14.9406676792
 20
10.1649432206
 30
0.0
 10
14.9440477097
 20
10.1622304147
 30
0.0
 10
14.945606577
 20
10.160819015
 30
0.0
  0
SPLINE
  5
2AA
100
AcDbEntity
  8
0
100
AcDbSpline
 62
7
  6
CONTINUOUS
 70
0
 71
3
 72
15
 73
11
 74
0
 42
0.0000001
 43
0.0000001
 44
0.0000000001
 40
0.0
 40
0.0
 40
0.0
 40
0.0
 40
0.1224869293
 40
0.2495284806
 40
0.379026167
 40
0.509119593
 40
0.6380044254
 40
0.7639326096
 40
0.8851946623
 40
1.0
 40
1.0
 40
1.0
 40
1.0
 10
15.7010155191
 20
10.1794725631
 30
0.0
 10
15.7032591053
 20
10.1794725631
 30
0.0
 10
15.7078318842
 20
10.1792393278
 30
0.0
 10
15.7147140253
 20
10.1782634824
 30
0.0
 10
15.7216217862
 20
10.176663498
 30
0.0
 10
15.728403506
 20
10.1744818673
 30
0.0
 10
15.7349166461
 20
10.1717605165
 30
0.0
 10
15.741027049
 20
10.1685595647
 30
0.0
 10
15.7465960489
 20
10.1649432206
 30
0.0
 10
15.7499760794
 20
10.1622304147
 30
0.0
 10
15.7515349468
 20
10.160819015
 30
0.0
  0
SPLINE
  5
2AB
100
AcDbEntity
  8
0
100
AcDbSpline
 62
7
  6
CONTINUOUS
 70
0
 71
3
 72
15
 73
11
 74
0
 42
0.0000001
 43
0.0000001
 44
0.0000000001
 40
0.0
 40
0.0
 40
0.0
 40
0.0
 40
0.1224869293
 40
0.2495284806
 40
0.379026167
 40
0.509119593
 40
0.6380044254
 40
0.7639326096
 40
0.8851946623
 40
1.0
 40
1.0
 40
1.0
 40
1.0
 10
16.5069438888
 20
10.1794725631
 30
0.0
 10
16.5091874751
 20
10.1794725631
 30
0.0
 10
16.5137602539
 20
10.1792393278
 30
0.0
 10
16.520642395
 20
10.1782634824
 30
0.0
 10
16.5275501559
 20
10.176663498
 30
0.0
 10
16.5343318757
 20
10.1744818673
 30
0.0
 10
16.5408450158
 20
10.1717605165
 30
0.0
 10
16.5469554187
 20
10.1685595647
 30
0.0
 10
16.5525244187
 20
10.1649432206
 30
0.0
 10
16.5559044492
 20
10.1622304147
 30
0.0
 10
16.5574633166
 20
10.160819015
 30
0.0
  0
ENDSEC
  0
SECTION
  2
OBJECTS
  0
DICTIONARY
  5
C
100
AcDbDictionary
280
0
281
1
  3
ACAD_GROUP
350
D
  3
ACAD_MLINESTYLE
350
17
  3
ACAD_LAYOUT
350
1A
  3
ACAD_PLOTSETTINGS
350
19
  3
ACAD_PLOTSTYLENAME
350
E
  0
DICTIONARY
  5
D
102
{ACAD_REACTORS
330
C
102
}
100
AcDbDictionary
280
0
281
1
  0
ACDBDICTIONARYWDFLT
  5
E
102
{ACAD_REACTORS
330
C
102
}
100
AcDbDictionary
281
1
  3
Normal
350
F
100
AcDbDictionaryWithDefault
340
F
  0
DICTIONARY
  5
17
102
{ACAD_REACTORS
330
C
102
}
100
AcDbDictionary
280
0
281
1
  3
Standard
350
18
  0
DICTIONARY
  5
19
102
{ACAD_REACTORS
330
C
102
}
100
AcDbDictionary
281
1
  0
DICTIONARY
  5
1A
102
{ACAD_REACTORS
330
C
102
}
100
AcDbDictionary
281
1
  3
Model
350
2AC
  3
Layout1
350
2AD
  0
ACDBPLACEHOLDER
  5
F
102
{ACAD_REACTORS
330
E
102
}
  0
MLINESTYLE
  5
18
102
{ACAD_REACTORS
330
17
102
}
100
AcDbMlineStyle
  2
STANDARD
 70
0
  3

 62
256
 51
90.0
 52
90.0
 71
2
 49
0.5
 62
256
  6
BYLAYER
 49
-0.5
 62
256
  6
BYLAYER
  0
LAYOUT
  5
2AC
102
{ACAD_REACTORS
330
1A
102
}
100
AcDbPlotSettings
  1

  2
none_device
  4
ANSI_C_(22.00_x_17.00_Inches)
  6

 40
0.0
 41
0.0
 42
0.0
 43
0.0
 44
558.8
 45
431.8
 46
0.0
 47
0.0
 48
0.0
 49
0.0
140
0.0
141
0.0
142
1.0
143
1.0
 70
1024
 72
0
 73
0
 74
0
  7

 75
0
147
1.0
148
0.0
149
0.0
100
AcDbLayout
  1
Model
 70
0
 71
0
 10
0.0
 20
0.0
 11
22.0
 21
17.0
 12
0.0
 22
0.0
 32
0.0
 14
0.0
 24
0.0
 34
0.0
 15
0.0
 25
0.0
 35
0.0
146
0.0
 13
0.0
 23
0.0
 33
0.0
 16
1.0
 26
0.0
 36
0.0
 17
0.0
 27
1.0
 37
0.0
 76
0
330
216
345
0
346
0
  0
LAYOUT
  5
2AD
102
{ACAD_REACTORS
330
1A
102
}
100
AcDbPlotSettings
  1

  2
none_device
  4
ANSI_C_(22.00_x_17.00_Inches)
  6

 40
0.0
 41
0.0
 42
0.0
 43
0.0
 44
558.8
 45
431.8
 46
0.0
 47
0.0
 48
0.0
 49
0.0
140
0.0
141
0.0
142
1.0
143
1.0
 70
0
 72
0
 73
0
 74
0
  7

 75
0
147
1.0
148
0.0
149
0.0
100
AcDbLayout
  1
Layout1
 70
0
 71
1
 10
0.0
 20
0.0
 11
22.0
 21
17.0
 12
0.0
 22
0.0
 32
0.0
 14
0.0
 24
0.0
 34
0.0
 15
0.0
 25
0.0
 35
0.0
146
0.0
 13
0.0
 23
0.0
 33
0.0
 16
1.0
 26
0.0
 36
0.0
 17
0.0
 27
1.0
 37
0.0
 76
0
330
217
345
0
346
0
  0
ENDSEC
  0
EOF