999
DXF file: _cgs_temp_output.dxf
999
Pro/ENGINEER 2016360 by Parametric Technology Corporation
  0
SECTION
  2
HEADER
  9
$ACADVER
  1
AC1021
  9
$DWGCODEPAGE
  3
ANSI_1252
  9
$EXTMAX
 10
22.0
 20
17.0
 30
0.0
  9
$EXTMIN
 10
0.0
 20
0.0
 30
0.0
  9
$LIMMIN
 10
0.0
 20
0.0
  9
$LIMMAX
 10
22.0
 20
17.0
  9
$VIEWCTR
 10
11.0
 20
8.5
  9
$VIEWSIZE
 40
17.0
  9
$CLAYER
  8
0
  9
$LTSCALE
 40
1.21
  9
$CELTYPE
  6
BYLAYER
  9
$DIMSCALE
 40
1.0
  9
$DIMASZ
 40
0.1875
  9
$DIMEXO
 40
0.0625
  9
$DIMDLI
 40
0.836
  9
$DIMEXE
 40
0.125
  9
$DIMCEN
 40
0.198
  9
$DIMLFAC
 40
1.0
  9
$DIMBLK
  1
_CLOSED
  9
$DIMALT
 70
0
  9
$DIMALTF
 40
25.4
  9
$DIMTXT
 40
0.15625
  9
$DIMTOL
 70
0
  9
$DIMLIM
 70
0
  9
$DIMTFAC
 40
1.0
  9
$DIMGAP
 40
0.09
  9
$DIMDSEP
 70
46
  9
$AUNITS
 70
0
  9
$PDMODE
 70
3
  9
$PDSIZE
 40
0.3125
  9
$HANDSEED
  5
2AE
  9
$TILEMODE
 70
1
  9
$MEASUREMENT
 70
0
  9
$INSUNITS
 70
1
  0
ENDSEC
  0
SECTION
  2
CLASSES
  0
CLASS
  1
ACDBDICTIONARYWDFLT
  2
AcDbDictionaryWithDefault
  3
AutoCAD 2000
 90
0
 91
1
280
0
281
0
  0
CLASS
  1
ACDBPLACEHOLDER
  2
AcDbPlaceHolder
  3
AutoCAD 2000
 90
0
 91
1
280
0
281
0
  0
CLASS
  1
LAYOUT
  2
AcDbLayout
  3
AutoCAD 2000
 90
0
 91
0
280
0
281
0
  0
ENDSEC
  0
SECTION
  2
TABLES
  0
TABLE
  2
VPORT
  5
8
100
AcDbSymbolTable
 70
2
  0
VPORT
  5
1F4
100
AcDbSymbolTableRecord
100
AcDbViewportTableRecord
  2
*ACTIVE
 70
0
 10
0.0
 20
0.0
 11
1.0
 21
1.0
 12
11.0
 22
8.5
 13
0.0
 23
0.0
 14
1.0
 24
1.0
 15
0.0
 25
0.0
 16
0.0
 26
0.0
 36
1.0
 17
0.0
 27
0.0
 37
0.0
 40
17.0
 41
1.2941176471
 42
50.0
 43
0.0
 44
0.0
 50
0.0
 51
0.0
 71
0
 72
100
 73
1
 74
1
 75
0
 76
0
 77
0
 78
0
  0
ENDTAB
  0
TABLE
  2
LTYPE
  5
5
100
AcDbSymbolTable
 70
6
  0
LTYPE
  5
14
100
AcDbSymbolTableRecord
100
AcDbLinetypeTableRecord
  2
BYBLOCK
 70
0
  3

 72
65
 73
0
 40
0.0
  0
LTYPE
  5
15
100
AcDbSymbolTableRecord
100
AcDbLinetypeTableRecord
  2
BYLAYER
 70
0
  3

 72
65
 73
0
 40
0.0
  0
LTYPE
  5
16
100
AcDbSymbolTableRecord
100
AcDbLinetypeTableRecord
  2
CONTINUOUS
 70
64
  3
Solid line
 72
65
 73
0
 40
0.0
  0
LTYPE
  5
1F5
100
AcDbSymbolTableRecord
100
AcDbLinetypeTableRecord
  2
CENTER
 70
64
  3
____ _ ____ _ ____ _ ____ _ ____ _ ____ _ ____
 72
65
 73
4
 40
0.6
 49
0.375
 74
0
 49
-0.075
 74
0
 49
0.075
 74
0
 49
-0.075
 74
0
  0
LTYPE
  5
1F6
100
AcDbSymbolTableRecord
100
AcDbLinetypeTableRecord
  2
HIDDEN
 70
64
  3
- - - - - - - - - - - - - - - - - - - -
 72
65
 73
2
 40
0.2
 49
0.1
 74
0
 49
-0.1
 74
0
  0
LTYPE
  5
1F7
100
AcDbSymbolTableRecord
100
AcDbLinetypeTableRecord
  2
PHANTOM
 70
64
  3
_____ _ _ _____ _ _ _____ _ _ _____
 72
65
 73
6
 40
0.8
 49
0.45
 74
0
 49
-0.05
 74
0
 49
0.1
 74
0
 49
-0.05
 74
0
 49
0.1
 74
0
 49
-0.05
 74
0
  0
LTYPE
  5
1F8
100
AcDbSymbolTableRecord
100
AcDbLinetypeTableRecord
  2
DOT
 70
64
  3
. . . . . . . . . . . . . . . . . . . .
 72
65
 73
2
 40
0.2
 49
0.1
 74
0
 49
-0.1
 74
0
  0
LTYPE
  5
1F9
100
AcDbSymbolTableRecord
100
AcDbLinetypeTableRecord
  2
DASHED
 70
64
  3
- - - - - - - - - - - - - - - - - - - -
 72
65
 73
2
 40
0.2
 49
0.1
 74
0
 49
-0.1
 74
0
  0
ENDTAB
  0
TABLE
  2
LAYER
  5
2
100
AcDbSymbolTable
 70
36
  0
LAYER
  5
10
100
AcDbSymbolTableRecord
100
AcDbLayerTableRecord
  2
0
 70
0
 62
7
  6
CONTINUOUS
370
-3
390
F
  0
LAYER
  5
1FA
100
AcDbSymbolTableRecord
100
AcDbLayerTableRecord
  2
DEFAULT_1
 70
0
 62
7
  6
CENTER
370
-3
390
F
  0
LAYER
  5
1FB
100
AcDbSymbolTableRecord
100
AcDbLayerTableRecord
  2
DEFAULT_2
 70
0
 62
8
  6
HIDDEN
370
-3
390
F
  0
LAYER
  5
1FC
100
AcDbSymbolTableRecord
100
AcDbLayerTableRecord
  2
DEFAULT_3
 70
0
 62
7
  6
PHANTOM
370
-3
390
F
  0
LAYER
  5
1FD
100
AcDbSymbolTableRecord
100
AcDbLayerTableRecord
  2
01_ALL_DTM_PLN
 70
0
 62
7
  6
CONTINUOUS
370
-3
390
F
  0
LAYER
  5
1FE
100
AcDbSymbolTableRecord
100
AcDbLayerTableRecord
  2
01__ASM_ALL_DTM_PLN
 70
0
 62
7
  6
CONTINUOUS
370
-3
390
F
  0
LAYER
  5
1FF
100
AcDbSymbolTableRecord
100
AcDbLayerTableRecord
  2
01__ASM_DEF_DTM_PLN
 70
0
 62
7
  6
CONTINUOUS
370
-3
390
F
  0
LAYER
  5
200
100
AcDbSymbolTableRecord
100
AcDbLayerTableRecord
  2
01___PRT_ALL_DTM_PLN
 70
0
 62
7
  6
CONTINUOUS
370
-3
390
F
  0
LAYER
  5
201
100
AcDbSymbolTableRecord
100
AcDbLayerTableRecord
  2
01___PRT_DEF_DTM_PLN
 70
0
 62
7
  6
CONTINUOUS
370
-3
390
F
  0
LAYER
  5
202
100
AcDbSymbolTableRecord
100
AcDbLayerTableRecord
  2
02_ALL_AXES
 70
0
 62
7
  6
CONTINUOUS
370
-3
390
F
  0
LAYER
  5
203
100
AcDbSymbolTableRecord
100
AcDbLayerTableRecord
  2
02__ASM_ALL_AXES
 70
0
 62
7
  6
CONTINUOUS
370
-3
390
F
  0
LAYER
  5
204
100
AcDbSymbolTableRecord
100
AcDbLayerTableRecord
  2
02___PRT_ALL_AXES
 70
0
 62
7
  6
CONTINUOUS
370
-3
390
F
  0
LAYER
  5
205
100
AcDbSymbolTableRecord
100
AcDbLayerTableRecord
  2
03_ALL_CURVES
 70
0
 62
7
  6
CONTINUOUS
370
-3
390
F
  0
LAYER
  5
206
100
AcDbSymbolTableRecord
100
AcDbLayerTableRecord
  2
03__ASM_ALL_CURVES
 70
0
 62
7
  6
CONTINUOUS
370
-3
390
F
  0
LAYER
  5
207
100
AcDbSymbolTableRecord
100
AcDbLayerTableRecord
  2
03___PRT_ALL_CURVES
 70
0
 62
7
  6
CONTINUOUS
370
-3
390
F
  0
LAYER
  5
208
100
AcDbSymbolTableRecord
100
AcDbLayerTableRecord
  2
04_ALL_DTM_PNT
 70
0
 62
7
  6
CONTINUOUS
370
-3
390
F
  0
LAYER
  5
209
100
AcDbSymbolTableRecord
100
AcDbLayerTableRecord
  2
04__ASM_ALL_DTM_PNT
 70
0
 62
7
  6
CONTINUOUS
370
-3
390
F
  0
LAYER
  5
20A
100
AcDbSymbolTableRecord
100
AcDbLayerTableRecord
  2
04___PRT_ALL_DTM_PNT
 70
0
 62
7
  6
CONTINUOUS
370
-3
390
F
  0
LAYER
  5
20B
100
AcDbSymbolTableRecord
100
AcDbLayerTableRecord
  2
05_ALL_DTM_CSYS
 70
0
 62
7
  6
CONTINUOUS
370
-3
390
F
  0
LAYER
  5
20C
100
AcDbSymbolTableRecord
100
AcDbLayerTableRecord
  2
05__ASM_ALL_DTM_CSYS
 70
0
 62
7
  6
CONTINUOUS
370
-3
390
F
  0
LAYER
  5
20D
100
AcDbSymbolTableRecord
100
AcDbLayerTableRecord
  2
05__ASM_DEF_DTM_CSYS
 70
0
 62
7
  6
CONTINUOUS
370
-3
390
F
  0
LAYER
  5
20E
100
AcDbSymbolTableRecord
100
AcDbLayerTableRecord
  2
05___PRT_ALL_DTM_CSYS
 70
0
 62
7
  6
CONTINUOUS
370
-3
390
F
  0
LAYER
  5
20F
100
AcDbSymbolTableRecord
100
AcDbLayerTableRecord
  2
05___PRT_DEF_DTM_CSYS
 70
0
 62
7
  6
CONTINUOUS
370
-3
390
F
  0
LAYER
  5
210
100
AcDbSymbolTableRecord
100
AcDbLayerTableRecord
  2
06_ALL_SURFS
 70
0
 62
7
  6
CONTINUOUS
370
-3
390
F
  0
LAYER
  5
211
100
AcDbSymbolTableRecord
100
AcDbLayerTableRecord
  2
06__ASM_ALL_SURFS
 70
0
 62
7
  6
CONTINUOUS
370
-3
390
F
  0
LAYER
  5
212
100
AcDbSymbolTableRecord
100
AcDbLayerTableRecord
  2
06___PRT_ALL_SURFS
 70
0
 62
7
  6
CONTINUOUS
370
-3
390
F
  0
LAYER
  5
213
100
AcDbSymbolTableRecord
100
AcDbLayerTableRecord
  2
07__ASM_ALL_SKELETONS
 70
0
 62
7
  6
CONTINUOUS
370
-3
390
F
  0
ENDTAB
  0
TABLE
  2
STYLE
  5
3
100
AcDbSymbolTable
 70
1
  0
STYLE
  5
11
100
AcDbSymbolTableRecord
100
AcDbTextStyleTableRecord
  2
STANDARD
 70
0
 40
0.0
 41
0.8
 50
0.0
 71
0
 42
0.2
  3
txt
  4

  0
STYLE
  5
214
100
AcDbSymbolTableRecord
100
AcDbTextStyleTableRecord
  2
TEXTSTYLE_1
 70
0
 40
0.0
 41
0.8
 50
0.0
 71
0
 42
0.2
  3
gdt
  4

  0
ENDTAB
  0
TABLE
  2
VIEW
  5
6
100
AcDbSymbolTable
 70
0
  0
ENDTAB
  0
TABLE
  2
UCS
  5
7
100
AcDbSymbolTable
 70
0
  0
ENDTAB
  0
TABLE
  2
APPID
  5
9
100
AcDbSymbolTable
 70
1
  0
APPID
  5
215
100
AcDbSymbolTableRecord
100
AcDbRegAppTableRecord
  2
ACAD
 70
0
  0
ENDTAB
  0
TABLE
  2
BLOCK_RECORD
  5
1
100
AcDbSymbolTable
 70
0
  0
BLOCK_RECORD
  5
216
100
AcDbSymbolTableRecord
100
AcDbBlockTableRecord
  2
*Model_Space
  0
BLOCK_RECORD
  5
217
100
AcDbSymbolTableRecord
100
AcDbBlockTableRecord
  2
*Paper_Space
  0
ENDTAB
  0
TABLE
  2
DIMSTYLE
  5
A
100
AcDbSymbolTable
 70
1
100
AcDbDimStyleTable
 71
0
  0
DIMSTYLE
105
218
100
AcDbSymbolTableRecord
100
AcDbDimStyleTableRecord
  2
STANDARD
 70
0
  3

  4

 40
1.0
 41
0.1875
 42
0.0625
 43
0.38
 44
0.125
 45
0.0
 46
0.0
 47
0.0001
 48
0.0001
140
0.15625
141
0.09
142
0.0
143
25.4
144
1.0
145
0.0
146
1.0
147
0.09
 71
0.0
 72
0.0
 73
1
 74
1
 75
0
 76
0
 77
0
 78
4
 79
1
170
0
171
3
172
0
173
0
174
0
175
0
176
0
177
0
178
0
270
2
179
4
271
4
272
4
273
2
274
2
275
0
280
0
281
0
282
0
283
1
284
4
285
0
286
0
287
3
288
0
340
11
278
46
  0
ENDTAB
  0
ENDSEC
  0
SECTION
  2
BLOCKS
  0
BLOCK
  5
20
100
AcDbEntity
  8
0
100
AcDbBlockBegin
  2
*Model_Space
 70
0
 10
0.0
 20
0.0
 30
0.0
  3
*Model_Space
  1

  0
ENDBLK
  5
21
100
AcDbEntity
  8
0
100
AcDbBlockEnd
  0
BLOCK
  5
1C
100
AcDbEntity
  8
0
100
AcDbBlockBegin
  2
*Paper_Space
 70
0
 10
0.0
 20
0.0
 30
0.0
  3
*Paper_Space
  1

  0
ENDBLK
  5
1D
100
AcDbEntity
  8
0
100
AcDbBlockEnd
  0
ENDSEC
  0
SECTION
  2
ENTITIES
  0
MTEXT
  5
219
100
AcDbEntity
  8
0
100
AcDbMText
 62
7
  6
CONTINUOUS
  7
STANDARD
 71
1
 72
1
 10
15.9560215477
 20
0.9479130325
 30
0.0
 11
1.0
 21
0.0
 31
0.0
 44
0.9
  1
SCALE: 1:3.000
 40
0.3
 41
3.36
  0
LINE
  5
21A
100
AcDbEntity
  8
0
100
AcDbLine
 62
7
  6
CONTINUOUS
 10
0.0
 20
0.0
 11
0.0
 21
17.0
  0
LINE
  5
21B
100
AcDbEntity
  8
0
100
AcDbLine
 62
7
  6
CONTINUOUS
 10
0.0
 20
0.0
 11
22.0
 21
0.0
  0
LINE
  5
21C
100
AcDbEntity
  8
0
100
AcDbLine
 62
7
  6
CONTINUOUS
 10
0.0
 20
17.0
 11
22.0
 21
17.0
  0
LINE
  5
21D
100
AcDbEntity
  8
0
100
AcDbLine
 62
7
  6
CONTINUOUS
 10
22.0
 20
0.0
 11
22.0
 21
17.0
  0
LINE
  5
21E
100
AcDbEntity
  8
0
100
AcDbLine
 62
7
  6
CONTINUOUS
 10
4.3303672762
 20
5.6551198968
 11
4.3303672762
 21
5.5351198968
  0
LINE
  5
21F
100
AcDbEntity
  8
0
100
AcDbLine
 62
7
  6
CONTINUOUS
 10
4.4513906393
 20
5.5145426778
 11
4.4922142658
 21
5.4159857251
  0
LINE
  5
220
100
AcDbEntity
  8
0
100
AcDbLine
 62
7
  6
CONTINUOUS
 10
4.7685202865
 20
5.4159857251
 11
4.809343913
 21
5.5145426778
  0
LINE
  5
221
100
AcDbEntity
  8
0
100
AcDbLine
 62
7
  6
CONTINUOUS
 10
5.0513906393
 20
5.5145426778
 11
5.0922142658
 21
5.4159857251
  0
LINE
  5
222
100
AcDbEntity
  8
0
100
AcDbLine
 62
7
  6
CONTINUOUS
 10
5.3685202865
 20
5.4159857251
 11
5.409343913
 21
5.5145426778
  0
LINE
  5
223
100
AcDbEntity
  8
0
100
AcDbLine
 62
7
  6
CONTINUOUS
 10
5.6513906393
 20
5.5145426778
 11
5.6922142658
 21
5.4159857251
  0
LINE
  5
224
100
AcDbEntity
  8
0
100
AcDbLine
 62
7
  6
CONTINUOUS
 10
5.9685202865
 20
5.4159857251
 11
6.009343913
 21
5.5145426778
  0
LINE
  5
225
100
AcDbEntity
  8
0
100
AcDbLine
 62
7
  6
CONTINUOUS
 10
4.5384082424
 20
5.3851198968
 11
4.7223263099
 21
5.3851198968
  0
LINE
  5
226
100
AcDbEntity
  8
0
100
AcDbLine
 62
7
  6
CONTINUOUS
 10
5.1384082424
 20
5.3851198968
 11
5.3223263099
 21
5.3851198968
  0
LINE
  5
227
100
AcDbEntity
  8
0
100
AcDbLine
 62
7
  6
CONTINUOUS
 10
5.7384082424
 20
5.3851198968
 11
5.9223263099
 21
5.3851198968
  0
LINE
  5
228
100
AcDbEntity
  8
0
100
AcDbLine
 62
7
  6
CONTINUOUS
 10
6.3384082424
 20
5.3851198968
 11
6.5223263099
 21
5.3851198968
  0
LINE
  5
229
100
AcDbEntity
  8
0
100
AcDbLine
 62
7
  6
CONTINUOUS
 10
6.9384082424
 20
5.3851198968
 11
7.1223263099
 21
5.3851198968
  0
LINE
  5
22A
100
AcDbEntity
  8
0
100
AcDbLine
 62
7
  6
CONTINUOUS
 10
7.5384082424
 20
5.3851198968
 11
7.7223263099
 21
5.3851198968
  0
LINE
  5
22B
100
AcDbEntity
  8
0
100
AcDbLine
 62
7
  6
CONTINUOUS
 10
4.3303672762
 20
5.5351198968
 11
4.4205946549
 21
5.5351198968
  0
LINE
  5
22C
100
AcDbEntity
  8
0
100
AcDbLine
 62
7
  6
CONTINUOUS
 10
4.8401398974
 20
5.5351198968
 11
5.0205946549
 21
5.5351198968
  0
LINE
  5
22D
100
AcDbEntity
  8
0
100
AcDbLine
 62
7
  6
CONTINUOUS
 10
5.4401398974
 20
5.5351198968
 11
5.6205946549
 21
5.5351198968
  0
LINE
  5
22E
100
AcDbEntity
  8
0
100
AcDbLine
 62
7
  6
CONTINUOUS
 10
6.0401398974
 20
5.5351198968
 11
6.2205946549
 21
5.5351198968
  0
LINE
  5
22F
100
AcDbEntity
  8
0
100
AcDbLine
 62
7
  6
CONTINUOUS
 10
6.6401398974
 20
5.5351198968
 11
6.8205946549
 21
5.5351198968
  0
LINE
  5
230
100
AcDbEntity
  8
0
100
AcDbLine
 62
7
  6
CONTINUOUS
 10
7.2401398974
 20
5.5351198968
 11
7.4205946549
 21
5.5351198968
  0
LINE
  5
231
100
AcDbEntity
  8
0
100
AcDbLine
 62
7
  6
CONTINUOUS
 10
7.8401398974
 20
5.5351198968
 11
7.9303672762
 21
5.5351198968
  0
LINE
  5
232
100
AcDbEntity
  8
0
100
AcDbLine
 62
7
  6
CONTINUOUS
 10
7.9303672762
 20
5.6551198968
 11
4.3303672762
 21
5.6551198968
  0
LINE
  5
233
100
AcDbEntity
  8
0
100
AcDbLine
 62
7
  6
CONTINUOUS
 10
6.2513906393
 20
5.5145426778
 11
6.2922142658
 21
5.4159857251
  0
LINE
  5
234
100
AcDbEntity
  8
0
100
AcDbLine
 62
7
  6
CONTINUOUS
 10
6.5685202865
 20
5.4159857251
 11
6.609343913
 21
5.5145426778
  0
LINE
  5
235
100
AcDbEntity
  8
0
100
AcDbLine
 62
7
  6
CONTINUOUS
 10
6.8513906393
 20
5.5145426778
 11
6.8922142658
 21
5.4159857251
  0
LINE
  5
236
100
AcDbEntity
  8
0
100
AcDbLine
 62
7
  6
CONTINUOUS
 10
7.1685202865
 20
5.4159857251
 11
7.209343913
 21
5.5145426778
  0
LINE
  5
237
100
AcDbEntity
  8
0
100
AcDbLine
 62
7
  6
CONTINUOUS
 10
7.4513906393
 20
5.5145426778
 11
7.4922142658
 21
5.4159857251
  0
LINE
  5
238
100
AcDbEntity
  8
0
100
AcDbLine
 62
7
  6
CONTINUOUS
 10
7.7685202865
 20
5.4159857251
 11
7.809343913
 21
5.5145426778
  0
LINE
  5
239
100
AcDbEntity
  8
0
100
AcDbLine
 62
7
  6
CONTINUOUS
 10
7.9303672762
 20
5.5351198968
 11
7.9303672762
 21
5.6551198968
  0
LINE
  5
23A
100
AcDbEntity
  8
0
100
AcDbLine
 62
7
  6
CONTINUOUS
 10
4.2708720839
 20
13.0650477814
 11
4.2708720839
 21
12.1350477814
  0
LINE
  5
23B
100
AcDbEntity
  8
0
100
AcDbLine
 62
7
  6
CONTINUOUS
 10
7.8708720839
 20
12.1350477814
 11
4.2708720839
 21
12.1350477814
  0
LINE
  5
23C
100
AcDbEntity
  8
0
100
AcDbLine
 62
7
  6
CONTINUOUS
 10
4.2708720839
 20
13.0650477814
 11
7.8708720839
 21
13.0650477814
  0
LINE
  5
23D
100
AcDbEntity
  8
0
100
AcDbLine
 62
7
  6
CONTINUOUS
 10
7.8708720839
 20
13.0650477814
 11
7.8708720839
 21
12.1350477814
  0
LINE
  5
23E
100
AcDbEntity
  8
0
100
AcDbLine
 62
7
  6
CONTINUOUS
 10
15.0953552569
 20
5.3256247044
 11
15.0953552569
 21
5.5956247044
  0
LINE
  5
23F
100
AcDbEntity
  8
0
100
AcDbLine
 62
7
  6
CONTINUOUS
 10
15.0953552569
 20
5.3256247044
 11
16.0253552569
 21
5.3256247044
  0
LINE
  5
240
100
AcDbEntity
  8
0
100
AcDbLine
 62
7
  6
CONTINUOUS
 10
16.0253552569
 20
5.4756247044
 11
15.0953552569
 21
5.4756247044
  0
LINE
  5
241
100
AcDbEntity
  8
0
100
AcDbLine
 62
7
  6
CONTINUOUS
 10
16.0253552569
 20
5.5956247044
 11
15.0953552569
 21
5.5956247044
  0
LINE
  5
242
100
AcDbEntity
  8
0
100
AcDbLine
 62
7
  6
CONTINUOUS
 10
16.0253552569
 20
5.3256247044
 11
16.0253552569
 21
5.5956247044
  0
LINE
  5
243
100
AcDbEntity
  8
0
100
AcDbLine
 62
7
  6
CONTINUOUS
 10
13.6823393269
 20
12.2304753256
 11
13.7189443509
 21
12.1558821295
  0
LINE
  5
244
100
AcDbEntity
  8
0
100
AcDbLine
 62
7
  6
CONTINUOUS
 10
13.9074610077
 20
12.9589693516
 11
13.6823393269
 21
12.2304753256
  0
LINE
  5
245
100
AcDbEntity
  8
0
100
AcDbLine
 62
7
  6
CONTINUOUS
 10
13.8366911633
 20
12.1430911251
 11
13.9043562101
 21
12.0818271408
  0
LINE
  5
246
100
AcDbEntity
  8
0
100
AcDbLine
 62
7
  6
CONTINUOUS
 10
14.1588509082
 20
12.0818271408
 11
14.1663879614
 21
12.1430911251
  0
LINE
  5
247
100
AcDbEntity
  8
0
100
AcDbLine
 62
7
  6
CONTINUOUS
 10
14.1582420642
 20
12.0789574346
 11
14.1588509082
 21
12.0818271408
  0
LINE
  5
248
100
AcDbEntity
  8
0
100
AcDbLine
 62
7
  6
CONTINUOUS
 10
14.1663879614
 20
12.1430911251
 11
14.1668009094
 21
12.1450020865
  0
LINE
  5
249
100
AcDbEntity
  8
0
100
AcDbLine
 62
7
  6
CONTINUOUS
 10
14.1591003335
 20
12.0817500626
 11
14.1817919101
 21
12.1551800314
  0
LINE
  5
24A
100
AcDbEntity
  8
0
100
AcDbLine
 62
7
  6
CONTINUOUS
 10
14.3893277597
 20
12.1430911251
 11
14.4569928065
 21
12.0818271408
  0
LINE
  5
24B
100
AcDbEntity
  8
0
100
AcDbLine
 62
7
  6
CONTINUOUS
 10
14.7114875046
 20
12.0818271408
 11
14.7190245578
 21
12.1430911251
  0
LINE
  5
24C
100
AcDbEntity
  8
0
100
AcDbLine
 62
7
  6
CONTINUOUS
 10
14.7108786606
 20
12.0789574346
 11
14.7114875046
 21
12.0818271408
  0
LINE
  5
24D
100
AcDbEntity
  8
0
100
AcDbLine
 62
7
  6
CONTINUOUS
 10
14.7190245578
 20
12.1430911251
 11
14.7194375058
 21
12.1450020865
  0
LINE
  5
24E
100
AcDbEntity
  8
0
100
AcDbLine
 62
7
  6
CONTINUOUS
 10
14.7117369299
 20
12.0817500626
 11
14.7344285065
 21
12.1551800314
  0
LINE
  5
24F
100
AcDbEntity
  8
0
100
AcDbLine
 62
7
  6
CONTINUOUS
 10
14.9419643561
 20
12.1430911251
 11
15.0096294029
 21
12.0818271408
  0
LINE
  5
250
100
AcDbEntity
  8
0
100
AcDbLine
 62
7
  6
CONTINUOUS
 10
13.95631905
 20
12.0626406342
 11
14.1257188081
 21
12.0626406342
  0
LINE
  5
251
100
AcDbEntity
  8
0
100
AcDbLine
 62
7
  6
CONTINUOUS
 10
14.5089556464
 20
12.0626406342
 11
14.6783554045
 21
12.0626406342
  0
LINE
  5
252
100
AcDbEntity
  8
0
100
AcDbLine
 62
7
  6
CONTINUOUS
 10
15.0615922429
 20
12.0626406342
 11
15.2309920009
 21
12.0626406342
  0
LINE
  5
253
100
AcDbEntity
  8
0
100
AcDbLine
 62
7
  6
CONTINUOUS
 10
15.6142288393
 20
12.0626406342
 11
15.7836285973
 21
12.0626406342
  0
LINE
  5
254
100
AcDbEntity
  8
0
100
AcDbLine
 62
7
  6
CONTINUOUS
 10
16.1668654357
 20
12.0626406342
 11
16.3362651937
 21
12.0626406342
  0
LINE
  5
255
100
AcDbEntity
  8
0
100
AcDbLine
 62
7
  6
CONTINUOUS
 10
16.7195020321
 20
12.0626406342
 11
16.8889017901
 21
12.0626406342
  0
LINE
  5
256
100
AcDbEntity
  8
0
100
AcDbLine
 62
7
  6
CONTINUOUS
 10
13.7189443509
 20
12.1558821295
 11
13.80204927
 21
12.1558821295
  0
LINE
  5
257
100
AcDbEntity
  8
0
100
AcDbLine
 62
7
  6
CONTINUOUS
 10
14.1884760281
 20
12.1558821295
 11
14.3546858664
 21
12.1558821295
  0
LINE
  5
258
100
AcDbEntity
  8
0
100
AcDbLine
 62
7
  6
CONTINUOUS
 10
14.7411126245
 20
12.1558821295
 11
14.9073224628
 21
12.1558821295
  0
LINE
  5
259
100
AcDbEntity
  8
0
100
AcDbLine
 62
7
  6
CONTINUOUS
 10
15.2937492209
 20
12.1558821295
 11
15.4599590592
 21
12.1558821295
  0
LINE
  5
25A
100
AcDbEntity
  8
0
100
AcDbLine
 62
7
  6
CONTINUOUS
 10
15.8463858173
 20
12.1558821295
 11
16.0125956556
 21
12.1558821295
  0
LINE
  5
25B
100
AcDbEntity
  8
0
100
AcDbLine
 62
7
  6
CONTINUOUS
 10
16.3990224137
 20
12.1558821295
 11
16.565232252
 21
12.1558821295
  0
LINE
  5
25C
100
AcDbEntity
  8
0
100
AcDbLine
 62
7
  6
CONTINUOUS
 10
16.9516590101
 20
12.1558821295
 11
17.0347639293
 21
12.1558821295
  0
LINE
  5
25D
100
AcDbEntity
  8
0
100
AcDbLine
 62
7
  6
CONTINUOUS
 10
16.9981589053
 20
12.2304753256
 11
13.6823393269
 21
12.2304753256
  0
LINE
  5
25E
100
AcDbEntity
  8
0
100
AcDbLine
 62
7
  6
CONTINUOUS
 10
15.4946009525
 20
12.1430911251
 11
15.5622659993
 21
12.0818271408
  0
LINE
  5
25F
100
AcDbEntity
  8
0
100
AcDbLine
 62
7
  6
CONTINUOUS
 10
15.264124101
 20
12.0818271408
 11
15.2716611542
 21
12.1430911251
  0
LINE
  5
260
100
AcDbEntity
  8
0
100
AcDbLine
 62
7
  6
CONTINUOUS
 10
15.263515257
 20
12.0789574346
 11
15.264124101
 21
12.0818271408
  0
LINE
  5
261
100
AcDbEntity
  8
0
100
AcDbLine
 62
7
  6
CONTINUOUS
 10
15.2716611542
 20
12.1430911251
 11
15.2720741022
 21
12.1450020865
  0
LINE
  5
262
100
AcDbEntity
  8
0
100
AcDbLine
 62
7
  6
CONTINUOUS
 10
15.2643735263
 20
12.0817500626
 11
15.2870651029
 21
12.1551800314
  0
LINE
  5
263
100
AcDbEntity
  8
0
100
AcDbLine
 62
7
  6
CONTINUOUS
 10
16.0472375489
 20
12.1430911251
 11
16.1149025957
 21
12.0818271408
  0
LINE
  5
264
100
AcDbEntity
  8
0
100
AcDbLine
 62
7
  6
CONTINUOUS
 10
15.8167606974
 20
12.0818271408
 11
15.8242977506
 21
12.1430911251
  0
LINE
  5
265
100
AcDbEntity
  8
0
100
AcDbLine
 62
7
  6
CONTINUOUS
 10
15.8161518534
 20
12.0789574346
 11
15.8167606974
 21
12.0818271408
  0
LINE
  5
266
100
AcDbEntity
  8
0
100
AcDbLine
 62
7
  6
CONTINUOUS
 10
15.8242977506
 20
12.1430911251
 11
15.8247106986
 21
12.1450020865
  0
LINE
  5
267
100
AcDbEntity
  8
0
100
AcDbLine
 62
7
  6
CONTINUOUS
 10
15.8170101227
 20
12.0817500626
 11
15.8397016993
 21
12.1551800314
  0
LINE
  5
268
100
AcDbEntity
  8
0
100
AcDbLine
 62
7
  6
CONTINUOUS
 10
13.9074610077
 20
12.9589693516
 11
17.2232805861
 21
12.9589693516
  0
LINE
  5
269
100
AcDbEntity
  8
0
100
AcDbLine
 62
7
  6
CONTINUOUS
 10
16.5998741453
 20
12.1430911251
 11
16.6675391921
 21
12.0818271408
  0
LINE
  5
26A
100
AcDbEntity
  8
0
100
AcDbLine
 62
7
  6
CONTINUOUS
 10
16.3693972938
 20
12.0818271408
 11
16.376934347
 21
12.1430911251
  0
LINE
  5
26B
100
AcDbEntity
  8
0
100
AcDbLine
 62
7
  6
CONTINUOUS
 10
16.3687884498
 20
12.0789574346
 11
16.3693972938
 21
12.0818271408
  0
LINE
  5
26C
100
AcDbEntity
  8
0
100
AcDbLine
 62
7
  6
CONTINUOUS
 10
16.376934347
 20
12.1430911251
 11
16.377347295
 21
12.1450020865
  0
LINE
  5
26D
100
AcDbEntity
  8
0
100
AcDbLine
 62
7
  6
CONTINUOUS
 10
16.3696467191
 20
12.0817500626
 11
16.3923382957
 21
12.1551800314
  0
LINE
  5
26E
100
AcDbEntity
  8
0
100
AcDbLine
 62
7
  6
CONTINUOUS
 10
17.0347639293
 20
12.1558821295
 11
16.9981589053
 21
12.2304753256
  0
LINE
  5
26F
100
AcDbEntity
  8
0
100
AcDbLine
 62
7
  6
CONTINUOUS
 10
16.9220338902
 20
12.0818271408
 11
16.9295709434
 21
12.1430911251
  0
LINE
  5
270
100
AcDbEntity
  8
0
100
AcDbLine
 62
7
  6
CONTINUOUS
 10
16.9214250462
 20
12.0789574346
 11
16.9220338902
 21
12.0818271408
  0
LINE
  5
271
100
AcDbEntity
  8
0
100
AcDbLine
 62
7
  6
CONTINUOUS
 10
16.9295709434
 20
12.1430911251
 11
16.9299838914
 21
12.1450020865
  0
LINE
  5
272
100
AcDbEntity
  8
0
100
AcDbLine
 62
7
  6
CONTINUOUS
 10
16.9222833155
 20
12.0817500626
 11
16.9449748921
 21
12.1551800314
  0
LINE
  5
273
100
AcDbEntity
  8
0
100
AcDbLine
 62
7
  6
CONTINUOUS
 10
17.2232805861
 20
12.9589693516
 11
16.9981589053
 21
12.2304753256
  0
LINE
  5
274
100
AcDbEntity
  8
0
100
AcDbLine
 62
7
  6
CONTINUOUS
 10
17.2598856101
 20
12.8843761554
 11
17.0347639293
 21
12.1558821295
  0
LINE
  5
275
100
AcDbEntity
  8
0
100
AcDbLine
 62
7
  6
CONTINUOUS
 10
17.2598856101
 20
12.8843761554
 11
17.2232805861
 21
12.9589693516
  0
ARC
  5
276
100
AcDbEntity
  8
0
100
AcDbCircle
 62
7
  6
CONTINUOUS
 10
5.1384082424
 20
5.4351198968
 40
0.05
100
AcDbArc
 50
202.5
 51
270.0
  0
ARC
  5
277
100
AcDbEntity
  8
0
100
AcDbCircle
 62
7
  6
CONTINUOUS
 10
5.3223263099
 20
5.4351198968
 40
0.05
100
AcDbArc
 50
270.0
 51
337.5
  0
ARC
  5
278
100
AcDbEntity
  8
0
100
AcDbCircle
 62
7
  6
CONTINUOUS
 10
5.7384082424
 20
5.4351198968
 40
0.05
100
AcDbArc
 50
202.5
 51
270.0
  0
ARC
  5
279
100
AcDbEntity
  8
0
100
AcDbCircle
 62
7
  6
CONTINUOUS
 10
5.9223263099
 20
5.4351198968
 40
0.05
100
AcDbArc
 50
270.0
 51
337.5
  0
ARC
  5
27A
100
AcDbEntity
  8
0
100
AcDbCircle
 62
7
  6
CONTINUOUS
 10
6.3384082424
 20
5.4351198968
 40
0.05
100
AcDbArc
 50
202.5
 51
270.0
  0
ARC
  5
27B
100
AcDbEntity
  8
0
100
AcDbCircle
 62
7
  6
CONTINUOUS
 10
6.5223263099
 20
5.4351198968
 40
0.05
100
AcDbArc
 50
270.0
 51
337.5
  0
ARC
  5
27C
100
AcDbEntity
  8
0
100
AcDbCircle
 62
7
  6
CONTINUOUS
 10
4.7223263099
 20
5.4351198968
 40
0.05
100
AcDbArc
 50
270.0
 51
337.5
  0
ARC
  5
27D
100
AcDbEntity
  8
0
100
AcDbCircle
 62
7
  6
CONTINUOUS
 10
4.5384082424
 20
5.4351198968
 40
0.05
100
AcDbArc
 50
202.5
 51
270.0
  0
ARC
  5
27E
100
AcDbEntity
  8
0
100
AcDbCircle
 62
7
  6
CONTINUOUS
 10
7.7223263099
 20
5.4351198968
 40
0.05
100
AcDbArc
 50
270.0
 51
337.5
  0
ARC
  5
27F
100
AcDbEntity
  8
0
100
AcDbCircle
 62
7
  6
CONTINUOUS
 10
7.5384082424
 20
5.4351198968
 40
0.05
100
AcDbArc
 50
202.5
 51
270.0
  0
ARC
  5
280
100
AcDbEntity
  8
0
100
AcDbCircle
 62
7
  6
CONTINUOUS
 10
7.1223263099
 20
5.4351198968
 40
0.05
100
AcDbArc
 50
270.0
 51
337.5
  0
ARC
  5
281
100
AcDbEntity
  8
0
100
AcDbCircle
 62
7
  6
CONTINUOUS
 10
6.9384082424
 20
5.4351198968
 40
0.05
100
AcDbArc
 50
202.5
 51
270.0
  0
ARC
  5
282
100
AcDbEntity
  8
0
100
AcDbCircle
 62
7
  6
CONTINUOUS
 10
4.8401398974
 20
5.5017865634
 40
0.0333333333
100
AcDbArc
 50
90.0
 51
157.5
  0
ARC
  5
283
100
AcDbEntity
  8
0
100
AcDbCircle
 62
7
  6
CONTINUOUS
 10
4.4205946549
 20
5.5017865634
 40
0.0333333333
100
AcDbArc
 50
22.5
 51
90.0
  0
ARC
  5
284
100
AcDbEntity
  8
0
100
AcDbCircle
 62
7
  6
CONTINUOUS
 10
5.4401398974
 20
5.5017865634
 40
0.0333333333
100
AcDbArc
 50
90.0
 51
157.5
  0
ARC
  5
285
100
AcDbEntity
  8
0
100
AcDbCircle
 62
7
  6
CONTINUOUS
 10
5.0205946549
 20
5.5017865634
 40
0.0333333333
100
AcDbArc
 50
22.5
 51
90.0
  0
ARC
  5
286
100
AcDbEntity
  8
0
100
AcDbCircle
 62
7
  6
CONTINUOUS
 10
6.0401398974
 20
5.5017865634
 40
0.0333333333
100
AcDbArc
 50
90.0
 51
157.5
  0
ARC
  5
287
100
AcDbEntity
  8
0
100
AcDbCircle
 62
7
  6
CONTINUOUS
 10
5.6205946549
 20
5.5017865634
 40
0.0333333333
100
AcDbArc
 50
22.5
 51
90.0
  0
ARC
  5
288
100
AcDbEntity
  8
0
100
AcDbCircle
 62
7
  6
CONTINUOUS
 10
6.6401398974
 20
5.5017865634
 40
0.0333333333
100
AcDbArc
 50
90.0
 51
157.5
  0
ARC
  5
289
100
AcDbEntity
  8
0
100
AcDbCircle
 62
7
  6
CONTINUOUS
 10
6.2205946549
 20
5.5017865634
 40
0.0333333333
100
AcDbArc
 50
22.5
 51
90.0
  0
ARC
  5
28A
100
AcDbEntity
  8
0
100
AcDbCircle
 62
7
  6
CONTINUOUS
 10
7.2401398974
 20
5.5017865634
 40
0.0333333333
100
AcDbArc
 50
90.0
 51
157.5
  0
ARC
  5
28B
100
AcDbEntity
  8
0
100
AcDbCircle
 62
7
  6
CONTINUOUS
 10
6.8205946549
 20
5.5017865634
 40
0.0333333333
100
AcDbArc
 50
22.5
 51
90.0
  0
ARC
  5
28C
100
AcDbEntity
  8
0
100
AcDbCircle
 62
7
  6
CONTINUOUS
 10
7.8401398974
 20
5.5017865634
 40
0.0333333333
100
AcDbArc
 50
90.0
 51
157.5
  0
ARC
  5
28D
100
AcDbEntity
  8
0
100
AcDbCircle
 62
7
  6
CONTINUOUS
 10
7.4205946549
 20
5.5017865634
 40
0.0333333333
100
AcDbArc
 50
22.5
 51
90.0
  0
SPLINE
  5
28E
100
AcDbEntity
  8
0
100
AcDbSpline
 62
7
  6
CONTINUOUS
 70
0
 71
3
 72
9
 73
5
 74
0
 42
0.0000001
 43
0.0000001
 44
0.0000000001
 40
0.0
 40
0.0
 40
0.0
 40
0.0
 40
0.4953328355
 40
1.0
 40
1.0
 40
1.0
 40
1.0
 10
14.166797774
 20
12.1450030561
 30
0.0
 10
14.1669782119
 20
12.1455857814
 30
0.0
 10
14.167441857
 20
12.1467336146
 30
0.0
 10
14.1680869135
 20
12.1477896753
 30
0.0
 10
14.1684509675
 20
12.1482934099
 30
0.0
  0
SPLINE
  5
28F
100
AcDbEntity
  8
0
100
AcDbSpline
 62
7
  6
CONTINUOUS
 70
0
 71
3
 72
14
 73
10
 74
0
 42
0.0000001
 43
0.0000001
 44
0.0000000001
 40
0.0
 40
0.0
 40
0.0
 40
0.0
 40
0.100872107
 40
0.207298132
 40
0.3205378006
 40
0.4413691574
 40
0.7063105186
 40
0.8500854316
 40
1.0
 40
1.0
 40
1.0
 40
1.0
 10
14.1684509675
 20
12.1482934099
 30
0.0
 10
14.1688873667
 20
12.1488972473
 30
0.0
 10
14.1699014258
 20
12.1500565062
 30
0.0
 10
14.1717361775
 20
12.1515663465
 30
0.0
 10
14.173895221
 20
12.1528715874
 30
0.0
 10
14.1772734764
 20
12.1543645986
 30
0.0
 10
14.1810984226
 20
12.1553210751
 30
0.0
 10
14.1851980813
 20
12.1558020048
 30
0.0
 10
14.1873687819
 20
12.1558821295
 30
0.0
 10
14.1884760281
 20
12.1558821295
 30
0.0
  0
SPLINE
  5
290
100
AcDbEntity
  8
0
100
AcDbSpline
 62
7
  6
CONTINUOUS
 70
0
 71
3
 72
9
 73
5
 74
0
 42
0.0000001
 43
0.0000001
 44
0.0000000001
 40
0.0
 40
0.0
 40
0.0
 40
0.0
 40
0.4953328355
 40
1.0
 40
1.0
 40
1.0
 40
1.0
 10
14.7194343704
 20
12.1450030561
 30
0.0
 10
14.7196148083
 20
12.1455857814
 30
0.0
 10
14.7200784534
 20
12.1467336146
 30
0.0
 10
14.7207235099
 20
12.1477896753
 30
0.0
 10
14.7210875639
 20
12.1482934099
 30
0.0
  0
SPLINE
  5
291
100
AcDbEntity
  8
0
100
AcDbSpline
 62
7
  6
CONTINUOUS
 70
0
 71
3
 72
14
 73
10
 74
0
 42
0.0000001
 43
0.0000001
 44
0.0000000001
 40
0.0
 40
0.0
 40
0.0
 40
0.0
 40
0.100872107
 40
0.207298132
 40
0.3205378006
 40
0.4413691574
 40
0.7063105186
 40
0.8500854316
 40
1.0
 40
1.0
 40
1.0
 40
1.0
 10
14.7210875639
 20
12.1482934099
 30
0.0
 10
14.7215239631
 20
12.1488972473
 30
0.0
 10
14.7225380222
 20
12.1500565062
 30
0.0
 10
14.7243727739
 20
12.1515663465
 30
0.0
 10
14.7265318174
 20
12.1528715874
 30
0.0
 10
14.7299100728
 20
12.1543645986
 30
0.0
 10
14.733735019
 20
12.1553210751
 30
0.0
 10
14.7378346777
 20
12.1558020048
 30
0.0
 10
14.7400053783
 20
12.1558821295
 30
0.0
 10
14.7411126245
 20
12.1558821295
 30
0.0
  0
SPLINE
  5
292
100
AcDbEntity
  8
0
100
AcDbSpline
 62
7
  6
CONTINUOUS
 70
0
 71
3
 72
9
 73
5
 74
0
 42
0.0000001
 43
0.0000001
 44
0.0000000001
 40
0.0
 40
0.0
 40
0.0
 40
0.0
 40
0.4953328355
 40
1.0
 40
1.0
 40
1.0
 40
1.0
 10
15.2720709668
 20
12.1450030561
 30
0.0
 10
15.2722514047
 20
12.1455857814
 30
0.0
 10
15.2727150498
 20
12.1467336146
 30
0.0
 10
15.2733601063
 20
12.1477896753
 30
0.0
 10
15.2737241603
 20
12.1482934099
 30
0.0
  0
SPLINE
  5
293
100
AcDbEntity
  8
0
100
AcDbSpline
 62
7
  6
CONTINUOUS
 70
0
 71
3
 72
14
 73
10
 74
0
 42
0.0000001
 43
0.0000001
 44
0.0000000001
 40
0.0
 40
0.0
 40
0.0
 40
0.0
 40
0.100872107
 40
0.207298132
 40
0.3205378006
 40
0.4413691574
 40
0.7063105186
 40
0.8500854316
 40
1.0
 40
1.0
 40
1.0
 40
1.0
 10
15.2737241603
 20
12.1482934099
 30
0.0
 10
15.2741605595
 20
12.1488972473
 30
0.0
 10
15.2751746186
 20
12.1500565062
 30
0.0
 10
15.2770093703
 20
12.1515663465
 30
0.0
 10
15.2791684138
 20
12.1528715874
 30
0.0
 10
15.2825466692
 20
12.1543645986
 30
0.0
 10
15.2863716154
 20
12.1553210751
 30
0.0
 10
15.2904712741
 20
12.1558020048
 30
0.0
 10
15.2926419747
 20
12.1558821295
 30
0.0
 10
15.2937492209
 20
12.1558821295
 30
0.0
  0
SPLINE
  5
294
100
AcDbEntity
  8
0
100
AcDbSpline
 62
7
  6
CONTINUOUS
 70
0
 71
3
 72
9
 73
5
 74
0
 42
0.0000001
 43
0.0000001
 44
0.0000000001
 40
0.0
 40
0.0
 40
0.0
 40
0.0
 40
0.4953328355
 40
1.0
 40
1.0
 40
1.0
 40
1.0
 10
15.8247075632
 20
12.1450030561
 30
0.0
 10
15.8248880011
 20
12.1455857814
 30
0.0
 10
15.8253516462
 20
12.1467336146
 30
0.0
 10
15.8259967027
 20
12.1477896753
 30
0.0
 10
15.8263607567
 20
12.1482934099
 30
0.0
  0
SPLINE
  5
295
100
AcDbEntity
  8
0
100
AcDbSpline
 62
7
  6
CONTINUOUS
 70
0
 71
3
 72
14
 73
10
 74
0
 42
0.0000001
 43
0.0000001
 44
0.0000000001
 40
0.0
 40
0.0
 40
0.0
 40
0.0
 40
0.100872107
 40
0.207298132
 40
0.3205378006
 40
0.4413691574
 40
0.7063105186
 40
0.8500854316
 40
1.0
 40
1.0
 40
1.0
 40
1.0
 10
15.8263607567
 20
12.1482934099
 30
0.0
 10
15.8267971559
 20
12.1488972473
 30
0.0
 10
15.827811215
 20
12.1500565062
 30
0.0
 10
15.8296459667
 20
12.1515663465
 30
0.0
 10
15.8318050102
 20
12.1528715874
 30
0.0
 10
15.8351832656
 20
12.1543645986
 30
0.0
 10
15.8390082118
 20
12.1553210751
 30
0.0
 10
15.8431078705
 20
12.1558020048
 30
0.0
 10
15.8452785711
 20
12.1558821295
 30
0.0
 10
15.8463858173
 20
12.1558821295
 30
0.0
  0
SPLINE
  5
296
100
AcDbEntity
  8
0
100
AcDbSpline
 62
7
  6
CONTINUOUS
 70
0
 71
3
 72
9
 73
5
 74
0
 42
0.0000001
 43
0.0000001
 44
0.0000000001
 40
0.0
 40
0.0
 40
0.0
 40
0.0
 40
0.4953328355
 40
1.0
 40
1.0
 40
1.0
 40
1.0
 10
16.3773441596
 20
12.1450030561
 30
0.0
 10
16.3775245975
 20
12.1455857814
 30
0.0
 10
16.3779882426
 20
12.1467336146
 30
0.0
 10
16.3786332991
 20
12.1477896753
 30
0.0
 10
16.3789973531
 20
12.1482934099
 30
0.0
  0
SPLINE
  5
297
100
AcDbEntity
  8
0
100
AcDbSpline
 62
7
  6
CONTINUOUS
 70
0
 71
3
 72
14
 73
10
 74
0
 42
0.0000001
 43
0.0000001
 44
0.0000000001
 40
0.0
 40
0.0
 40
0.0
 40
0.0
 40
0.100872107
 40
0.207298132
 40
0.3205378006
 40
0.4413691574
 40
0.7063105186
 40
0.8500854316
 40
1.0
 40
1.0
 40
1.0
 40
1.0
 10
16.3789973531
 20
12.1482934099
 30
0.0
 10
16.3794337523
 20
12.1488972473
 30
0.0
 10
16.3804478114
 20
12.1500565062
 30
0.0
 10
16.3822825631
 20
12.1515663465
 30
0.0
 10
16.3844416066
 20
12.1528715874
 30
0.0
 10
16.387819862
 20
12.1543645986
 30
0.0
 10
16.3916448082
 20
12.1553210751
 30
0.0
 10
16.3957444669
 20
12.1558020048
 30
0.0
 10
16.3979151675
 20
12.1558821295
 30
0.0
 10
16.3990224137
 20
12.1558821295
 30
0.0
  0
SPLINE
  5
298
100
AcDbEntity
  8
0
100
AcDbSpline
 62
7
  6
CONTINUOUS
 70
0
 71
3
 72
9
 73
5
 74
0
 42
0.0000001
 43
0.0000001
 44
0.0000000001
 40
0.0
 40
0.0
 40
0.0
 40
0.0
 40
0.4953328355
 40
1.0
 40
1.0
 40
1.0
 40
1.0
 10
16.929980756
 20
12.1450030561
 30
0.0
 10
16.9301611939
 20
12.1455857814
 30
0.0
 10
16.930624839
 20
12.1467336146
 30
0.0
 10
16.9312698955
 20
12.1477896753
 30
0.0
 10
16.9316339495
 20
12.1482934099
 30
0.0
  0
SPLINE
  5
299
100
AcDbEntity
  8
0
100
AcDbSpline
 62
7
  6
CONTINUOUS
 70
0
 71
3
 72
14
 73
10
 74
0
 42
0.0000001
 43
0.0000001
 44
0.0000000001
 40
0.0
 40
0.0
 40
0.0
 40
0.0
 40
0.100872107
 40
0.207298132
 40
0.3205378006
 40
0.4413691574
 40
0.7063105186
 40
0.8500854316
 40
1.0
 40
1.0
 40
1.0
 40
1.0
 10
16.9316339495
 20
12.1482934099
 30
0.0
 10
16.9320703487
 20
12.1488972473
 30
0.0
 10
16.9330844078
 20
12.1500565062
 30
0.0
 10
16.9349191595
 20
12.1515663465
 30
0.0
 10
16.937078203
 20
12.1528715874
 30
0.0
 10
16.9404564584
 20
12.1543645986
 30
0.0
 10
16.9442814046
 20
12.1553210751
 30
0.0
 10
16.9483810633
 20
12.1558020048
 30
0.0
 10
16.9505517639
 20
12.1558821295
 30
0.0
 10
16.9516590101
 20
12.1558821295
 30
0.0
  0
SPLINE
  5
29A
100
AcDbEntity
  8
0
100
AcDbSpline
 62
7
  6
CONTINUOUS
 70
0
 71
3
 72
20
 73
16
 74
0
 42
0.0000001
 43
0.0000001
 44
0.0000000001
 40
0.0
 40
0.0
 40
0.0
 40
0.0
 40
0.1556555714
 40
0.303029019
 40
0.3731921497
 40
0.4408922152
 40
0.568757237
 40
0.6290753226
 40
0.6870820028
 40
0.74293094
 40
0.7968520512
 40
0.8491468191
 40
0.9001682372
 40
0.9503158321
 40
1.0
 40
1.0
 40
1.0
 40
1.0
 10
14.1257188081
 20
12.0626406342
 30
0.0
 10
14.1277318585
 20
12.0626406342
 30
0.0
 10
14.1316534971
 20
12.0628144987
 30
0.0
 10
14.1364399687
 20
12.0635054719
 30
0.0
 10
14.1400340105
 20
12.0643463508
 30
0.0
 10
14.1433279272
 20
12.0653307962
 30
0.0
 10
14.1464056433
 20
12.0665825756
 30
0.0
 10
14.149198478
 20
12.0681173967
 30
0.0
 10
14.1510792064
 20
12.0693622079
 30
0.0
 10
14.1527770194
 20
12.0707182872
 30
0.0
 10
14.1542838684
 20
12.0721800991
 30
0.0
 10
14.1555932431
 20
12.0737408645
 30
0.0
 10
14.1566986192
 20
12.0753943024
 30
0.0
 10
14.157592872
 20
12.0771328859
 30
0.0
 10
14.1580471587
 20
12.0783451328
 30
0.0
 10
14.1582369742
 20
12.0789590079
 30
0.0
  0
SPLINE
  5
29B
100
AcDbEntity
  8
0
100
AcDbSpline
 62
7
  6
CONTINUOUS
 70
0
 71
3
 72
15
 73
11
 74
0
 42
0.0000001
 43
0.0000001
 44
0.0000000001
 40
0.0
 40
0.0
 40
0.0
 40
0.0
 40
0.114872968
 40
0.2360780555
 40
0.3619573917
 40
0.4908828251
 40
0.6210130375
 40
0.7504589534
 40
0.8774378062
 40
1.0
 40
1.0
 40
1.0
 40
1.0
 10
13.9043562101
 20
12.0818271408
 30
0.0
 10
13.9059605662
 20
12.0803745556
 30
0.0
 10
13.9094364849
 20
12.0775829684
 30
0.0
 10
13.9151652811
 20
12.0738656116
 30
0.0
 10
13.9214485169
 20
12.0705725294
 30
0.0
 10
13.9281489256
 20
12.0677747723
 30
0.0
 10
13.9351243643
 20
12.0655290275
 30
0.0
 10
13.9422283862
 20
12.0638850231
 30
0.0
 10
13.9493061432
 20
12.0628792298
 30
0.0
 10
13.9540099361
 20
12.0626406342
 30
0.0
 10
13.95631905
 20
12.0626406342
 30
0.0
  0
SPLINE
  5
29C
100
AcDbEntity
  8
0
100
AcDbSpline
 62
7
  6
CONTINUOUS
 70
0
 71
3
 72
20
 73
16
 74
0
 42
0.0000001
 43
0.0000001
 44
0.0000000001
 40
0.0
 40
0.0
 40
0.0
 40
0.0
 40
0.1556555714
 40
0.303029019
 40
0.3731921497
 40
0.4408922152
 40
0.568757237
 40
0.6290753226
 40
0.6870820028
 40
0.74293094
 40
0.7968520512
 40
0.8491468191
 40
0.9001682372
 40
0.9503158321
 40
1.0
 40
1.0
 40
1.0
 40
1.0
 10
16.8889017901
 20
12.0626406342
 30
0.0
 10
16.8909148405
 20
12.0626406342
 30
0.0
 10
16.8948364791
 20
12.0628144987
 30
0.0
 10
16.8996229507
 20
12.0635054719
 30
0.0
 10
16.9032169925
 20
12.0643463508
 30
0.0
 10
16.9065109092
 20
12.0653307962
 30
0.0
 10
16.9095886253
 20
12.0665825756
 30
0.0
 10
16.91238146
 20
12.0681173967
 30
0.0
 10
16.9142621884
 20
12.0693622079
 30
0.0
 10
16.9159600014
 20
12.0707182872
 30
0.0
 10
16.9174668504
 20
12.0721800991
 30
0.0
 10
16.9187762251
 20
12.0737408645
 30
0.0
 10
16.9198816012
 20
12.0753943024
 30
0.0
 10
16.9207758541
 20
12.0771328859
 30
0.0
 10
16.9212301407
 20
12.0783451328
 30
0.0
 10
16.9214199562
 20
12.0789590079
 30
0.0
  0
SPLINE
  5
29D
100
AcDbEntity
  8
0
100
AcDbSpline
 62
7
  6
CONTINUOUS
 70
0
 71
3
 72
15
 73
11
 74
0
 42
0.0000001
 43
0.0000001
 44
0.0000000001
 40
0.0
 40
0.0
 40
0.0
 40
0.0
 40
0.114872968
 40
0.2360780555
 40
0.3619573917
 40
0.4908828251
 40
0.6210130375
 40
0.7504589534
 40
0.8774378062
 40
1.0
 40
1.0
 40
1.0
 40
1.0
 10
16.6675391921
 20
12.0818271408
 30
0.0
 10
16.6691435482
 20
12.0803745556
 30
0.0
 10
16.6726194669
 20
12.0775829684
 30
0.0
 10
16.6783482631
 20
12.0738656116
 30
0.0
 10
16.6846314989
 20
12.0705725294
 30
0.0
 10
16.6913319076
 20
12.0677747723
 30
0.0
 10
16.6983073463
 20
12.0655290275
 30
0.0
 10
16.7054113682
 20
12.0638850231
 30
0.0
 10
16.7124891252
 20
12.0628792298
 30
0.0
 10
16.7171929181
 20
12.0626406342
 30
0.0
 10
16.7195020321
 20
12.0626406342
 30
0.0
  0
SPLINE
  5
29E
100
AcDbEntity
  8
0
100
AcDbSpline
 62
7
  6
CONTINUOUS
 70
0
 71
3
 72
20
 73
16
 74
0
 42
0.0000001
 43
0.0000001
 44
0.0000000001
 40
0.0
 40
0.0
 40
0.0
 40
0.0
 40
0.1556555714
 40
0.303029019
 40
0.3731921497
 40
0.4408922152
 40
0.568757237
 40
0.6290753226
 40
0.6870820028
 40
0.74293094
 40
0.7968520512
 40
0.8491468191
 40
0.9001682372
 40
0.9503158321
 40
1.0
 40
1.0
 40
1.0
 40
1.0
 10
16.3362651937
 20
12.0626406342
 30
0.0
 10
16.3382782441
 20
12.0626406342
 30
0.0
 10
16.3421998827
 20
12.0628144987
 30
0.0
 10
16.3469863543
 20
12.0635054719
 30
0.0
 10
16.3505803961
 20
12.0643463508
 30
0.0
 10
16.3538743128
 20
12.0653307962
 30
0.0
 10
16.3569520289
 20
12.0665825756
 30
0.0
 10
16.3597448636
 20
12.0681173967
 30
0.0
 10
16.361625592
 20
12.0693622079
 30
0.0
 10
16.363323405
 20
12.0707182872
 30
0.0
 10
16.364830254
 20
12.0721800991
 30
0.0
 10
16.3661396287
 20
12.0737408645
 30
0.0
 10
16.3672450048
 20
12.0753943024
 30
0.0
 10
16.3681392577
 20
12.0771328859
 30
0.0
 10
16.3685935443
 20
12.0783451328
 30
0.0
 10
16.3687833598
 20
12.0789590079
 30
0.0
  0
SPLINE
  5
29F
100
AcDbEntity
  8
0
100
AcDbSpline
 62
7
  6
CONTINUOUS
 70
0
 71
3
 72
15
 73
11
 74
0
 42
0.0000001
 43
0.0000001
 44
0.0000000001
 40
0.0
 40
0.0
 40
0.0
 40
0.0
 40
0.114872968
 40
0.2360780555
 40
0.3619573917
 40
0.4908828251
 40
0.6210130375
 40
0.7504589534
 40
0.8774378062
 40
1.0
 40
1.0
 40
1.0
 40
1.0
 10
16.1149025957
 20
12.0818271408
 30
0.0
 10
16.1165069518
 20
12.0803745556
 30
0.0
 10
16.1199828705
 20
12.0775829684
 30
0.0
 10
16.1257116667
 20
12.0738656116
 30
0.0
 10
16.1319949025
 20
12.0705725294
 30
0.0
 10
16.1386953112
 20
12.0677747723
 30
0.0
 10
16.1456707499
 20
12.0655290275
 30
0.0
 10
16.1527747718
 20
12.0638850231
 30
0.0
 10
16.1598525288
 20
12.0628792298
 30
0.0
 10
16.1645563217
 20
12.0626406342
 30
0.0
 10
16.1668654357
 20
12.0626406342
 30
0.0
  0
SPLINE
  5
2A0
100
AcDbEntity
  8
0
100
AcDbSpline
 62
7
  6
CONTINUOUS
 70
0
 71
3
 72
20
 73
16
 74
0
 42
0.0000001
 43
0.0000001
 44
0.0000000001
 40
0.0
 40
0.0
 40
0.0
 40
0.0
 40
0.1556555714
 40
0.303029019
 40
0.3731921497
 40
0.4408922152
 40
0.568757237
 40
0.6290753226
 40
0.6870820028
 40
0.74293094
 40
0.7968520512
 40
0.8491468191
 40
0.9001682372
 40
0.9503158321
 40
1.0
 40
1.0
 40
1.0
 40
1.0
 10
15.7836285973
 20
12.0626406342
 30
0.0
 10
15.7856416477
 20
12.0626406342
 30
0.0
 10
15.7895632863
 20
12.0628144987
 30
0.0
 10
15.7943497579
 20
12.0635054719
 30
0.0
 10
15.7979437997
 20
12.0643463508
 30
0.0
 10
15.8012377164
 20
12.0653307962
 30
0.0
 10
15.8043154325
 20
12.0665825756
 30
0.0
 10
15.8071082672
 20
12.0681173967
 30
0.0
 10
15.8089889956
 20
12.0693622079
 30
0.0
 10
15.8106868086
 20
12.0707182872
 30
0.0
 10
15.8121936576
 20
12.0721800991
 30
0.0
 10
15.8135030323
 20
12.0737408645
 30
0.0
 10
15.8146084084
 20
12.0753943024
 30
0.0
 10
15.8155026613
 20
12.0771328859
 30
0.0
 10
15.8159569479
 20
12.0783451328
 30
0.0
 10
15.8161467634
 20
12.0789590079
 30
0.0
  0
SPLINE
  5
2A1
100
AcDbEntity
  8
0
100
AcDbSpline
 62
7
  6
CONTINUOUS
 70
0
 71
3
 72
15
 73
11
 74
0
 42
0.0000001
 43
0.0000001
 44
0.0000000001
 40
0.0
 40
0.0
 40
0.0
 40
0.0
 40
0.114872968
 40
0.2360780555
 40
0.3619573917
 40
0.4908828251
 40
0.6210130375
 40
0.7504589534
 40
0.8774378062
 40
1.0
 40
1.0
 40
1.0
 40
1.0
 10
15.5622659993
 20
12.0818271408
 30
0.0
 10
15.5638703554
 20
12.0803745556
 30
0.0
 10
15.5673462741
 20
12.0775829684
 30
0.0
 10
15.5730750703
 20
12.0738656116
 30
0.0
 10
15.5793583061
 20
12.0705725294
 30
0.0
 10
15.5860587148
 20
12.0677747723
 30
0.0
 10
15.5930341535
 20
12.0655290275
 30
0.0
 10
15.6001381754
 20
12.0638850231
 30
0.0
 10
15.6072159324
 20
12.0628792298
 30
0.0
 10
15.6119197253
 20
12.0626406342
 30
0.0
 10
15.6142288393
 20
12.0626406342
 30
0.0
  0
SPLINE
  5
2A2
100
AcDbEntity
  8
0
100
AcDbSpline
 62
7
  6
CONTINUOUS
 70
0
 71
3
 72
20
 73
16
 74
0
 42
0.0000001
 43
0.0000001
 44
0.0000000001
 40
0.0
 40
0.0
 40
0.0
 40
0.0
 40
0.1556555714
 40
0.303029019
 40
0.3731921497
 40
0.4408922152
 40
0.568757237
 40
0.6290753226
 40
0.6870820028
 40
0.74293094
 40
0.7968520512
 40
0.8491468191
 40
0.9001682372
 40
0.9503158321
 40
1.0
 40
1.0
 40
1.0
 40
1.0
 10
15.2309920009
 20
12.0626406342
 30
0.0
 10
15.2330050513
 20
12.0626406342
 30
0.0
 10
15.2369266899
 20
12.0628144987
 30
0.0
 10
15.2417131615
 20
12.0635054719
 30
0.0
 10
15.2453072033
 20
12.0643463508
 30
0.0
 10
15.24860112
 20
12.0653307962
 30
0.0
 10
15.2516788361
 20
12.0665825756
 30
0.0
 10
15.2544716708
 20
12.0681173967
 30
0.0
 10
15.2563523992
 20
12.0693622079
 30
0.0
 10
15.2580502122
 20
12.0707182872
 30
0.0
 10
15.2595570612
 20
12.0721800991
 30
0.0
 10
15.2608664359
 20
12.0737408645
 30
0.0
 10
15.261971812
 20
12.0753943024
 30
0.0
 10
15.2628660648
 20
12.0771328859
 30
0.0
 10
15.2633203515
 20
12.0783451328
 30
0.0
 10
15.263510167
 20
12.0789590079
 30
0.0
  0
SPLINE
  5
2A3
100
AcDbEntity
  8
0
100
AcDbSpline
 62
7
  6
CONTINUOUS
 70
0
 71
3
 72
15
 73
11
 74
0
 42
0.0000001
 43
0.0000001
 44
0.0000000001
 40
0.0
 40
0.0
 40
0.0
 40
0.0
 40
0.114872968
 40
0.2360780555
 40
0.3619573917
 40
0.4908828251
 40
0.6210130375
 40
0.7504589534
 40
0.8774378062
 40
1.0
 40
1.0
 40
1.0
 40
1.0
 10
15.0096294029
 20
12.0818271408
 30
0.0
 10
15.011233759
 20
12.0803745556
 30
0.0
 10
15.0147096777
 20
12.0775829684
 30
0.0
 10
15.0204384739
 20
12.0738656116
 30
0.0
 10
15.0267217097
 20
12.0705725294
 30
0.0
 10
15.0334221184
 20
12.0677747723
 30
0.0
 10
15.0403975571
 20
12.0655290275
 30
0.0
 10
15.047501579
 20
12.0638850231
 30
0.0
 10
15.054579336
 20
12.0628792298
 30
0.0
 10
15.0592831289
 20
12.0626406342
 30
0.0
 10
15.0615922429
 20
12.0626406342
 30
0.0
  0
SPLINE
  5
2A4
100
AcDbEntity
  8
0
100
AcDbSpline
 62
7
  6
CONTINUOUS
 70
0
 71
3
 72
20
 73
16
 74
0
 42
0.0000001
 43
0.0000001
 44
0.0000000001
 40
0.0
 40
0.0
 40
0.0
 40
0.0
 40
0.1556555714
 40
0.303029019
 40
0.3731921497
 40
0.4408922152
 40
0.568757237
 40
0.6290753226
 40
0.6870820028
 40
0.74293094
 40
0.7968520512
 40
0.8491468191
 40
0.9001682372
 40
0.9503158321
 40
1.0
 40
1.0
 40
1.0
 40
1.0
 10
14.6783554045
 20
12.0626406342
 30
0.0
 10
14.6803684549
 20
12.0626406342
 30
0.0
 10
14.6842900935
 20
12.0628144987
 30
0.0
 10
14.6890765651
 20
12.0635054719
 30
0.0
 10
14.6926706069
 20
12.0643463508
 30
0.0
 10
14.6959645236
 20
12.0653307962
 30
0.0
 10
14.6990422397
 20
12.0665825756
 30
0.0
 10
14.7018350744
 20
12.0681173967
 30
0.0
 10
14.7037158028
 20
12.0693622079
 30
0.0
 10
14.7054136158
 20
12.0707182872
 30
0.0
 10
14.7069204648
 20
12.0721800991
 30
0.0
 10
14.7082298395
 20
12.0737408645
 30
0.0
 10
14.7093352156
 20
12.0753943024
 30
0.0
 10
14.7102294684
 20
12.0771328859
 30
0.0
 10
14.7106837551
 20
12.0783451328
 30
0.0
 10
14.7108735706
 20
12.0789590079
 30
0.0
  0
SPLINE
  5
2A5
100
AcDbEntity
  8
0
100
AcDbSpline
 62
7
  6
CONTINUOUS
 70
0
 71
3
 72
15
 73
11
 74
0
 42
0.0000001
 43
0.0000001
 44
0.0000000001
 40
0.0
 40
0.0
 40
0.0
 40
0.0
 40
0.114872968
 40
0.2360780555
 40
0.3619573917
 40
0.4908828251
 40
0.6210130375
 40
0.7504589534
 40
0.8774378062
 40
1.0
 40
1.0
 40
1.0
 40
1.0
 10
14.4569928065
 20
12.0818271408
 30
0.0
 10
14.4585971626
 20
12.0803745556
 30
0.0
 10
14.4620730813
 20
12.0775829684
 30
0.0
 10
14.4678018775
 20
12.0738656116
 30
0.0
 10
14.4740851133
 20
12.0705725294
 30
0.0
 10
14.480785522
 20
12.0677747723
 30
0.0
 10
14.4877609607
 20
12.0655290275
 30
0.0
 10
14.4948649826
 20
12.0638850231
 30
0.0
 10
14.5019427396
 20
12.0628792298
 30
0.0
 10
14.5066465325
 20
12.0626406342
 30
0.0
 10
14.5089556464
 20
12.0626406342
 30
0.0
  0
SPLINE
  5
2A6
100
AcDbEntity
  8
0
100
AcDbSpline
 62
7
  6
CONTINUOUS
 70
0
 71
3
 72
15
 73
11
 74
0
 42
0.0000001
 43
0.0000001
 44
0.0000000001
 40
0.0
 40
0.0
 40
0.0
 40
0.0
 40
0.122485457
 40
0.2495248582
 40
0.3790232522
 40
0.5091197714
 40
0.6380079051
 40
0.7639369752
 40
0.8851964775
 40
1.0
 40
1.0
 40
1.0
 40
1.0
 10
13.80204927
 20
12.1558821295
 30
0.0
 10
13.8035877107
 20
12.1558821295
 30
0.0
 10
13.8067232861
 20
12.1557222195
 30
0.0
 10
13.8114424325
 20
12.1550530659
 30
0.0
 10
13.8161792009
 20
12.1539559242
 30
0.0
 10
13.820829617
 20
12.1524599457
 30
0.0
 10
13.8252958422
 20
12.1505938096
 30
0.0
 10
13.8294858545
 20
12.1483988713
 30
0.0
 10
13.8333045681
 20
12.1459191243
 30
0.0
 10
13.8356222425
 20
12.1440589267
 30
0.0
 10
13.8366911633
 20
12.1430911251
 30
0.0
  0
SPLINE
  5
2A7
100
AcDbEntity
  8
0
100
AcDbSpline
 62
7
  6
CONTINUOUS
 70
0
 71
3
 72
15
 73
11
 74
0
 42
0.0000001
 43
0.0000001
 44
0.0000000001
 40
0.0
 40
0.0
 40
0.0
 40
0.0
 40
0.122485457
 40
0.2495248582
 40
0.3790232522
 40
0.5091197714
 40
0.6380079051
 40
0.7639369752
 40
0.8851964775
 40
1.0
 40
1.0
 40
1.0
 40
1.0
 10
14.3546858664
 20
12.1558821295
 30
0.0
 10
14.3562243071
 20
12.1558821295
 30
0.0
 10
14.3593598825
 20
12.1557222195
 30
0.0
 10
14.3640790289
 20
12.1550530659
 30
0.0
 10
14.3688157973
 20
12.1539559242
 30
0.0
 10
14.3734662134
 20
12.1524599457
 30
0.0
 10
14.3779324386
 20
12.1505938096
 30
0.0
 10
14.3821224509
 20
12.1483988713
 30
0.0
 10
14.3859411645
 20
12.1459191243
 30
0.0
 10
14.3882588389
 20
12.1440589267
 30
0.0
 10
14.3893277597
 20
12.1430911251
 30
0.0
  0
SPLINE
  5
2A8
100
AcDbEntity
  8
0
100
AcDbSpline
 62
7
  6
CONTINUOUS
 70
0
 71
3
 72
15
 73
11
 74
0
 42
0.0000001
 43
0.0000001
 44
0.0000000001
 40
0.0
 40
0.0
 40
0.0
 40
0.0
 40
0.122485457
 40
0.2495248582
 40
0.3790232522
 40
0.5091197714
 40
0.6380079051
 40
0.7639369752
 40
0.8851964775
 40
1.0
 40
1.0
 40
1.0
 40
1.0
 10
14.9073224628
 20
12.1558821295
 30
0.0
 10
14.9088609035
 20
12.1558821295
 30
0.0
 10
14.9119964789
 20
12.1557222195
 30
0.0
 10
14.9167156253
 20
12.1550530659
 30
0.0
 10
14.9214523937
 20
12.1539559242
 30
0.0
 10
14.9261028098
 20
12.1524599457
 30
0.0
 10
14.930569035
 20
12.1505938096
 30
0.0
 10
14.9347590474
 20
12.1483988713
 30
0.0
 10
14.9385777609
 20
12.1459191243
 30
0.0
 10
14.9408954353
 20
12.1440589267
 30
0.0
 10
14.9419643561
 20
12.1430911251
 30
0.0
  0
SPLINE
  5
2A9
100
AcDbEntity
  8
0
100
AcDbSpline
 62
7
  6
CONTINUOUS
 70
0
 71
3
 72
15
 73
11
 74
0
 42
0.0000001
 43
0.0000001
 44
0.0000000001
 40
0.0
 40
0.0
 40
0.0
 40
0.0
 40
0.122485457
 40
0.2495248582
 40
0.3790232522
 40
0.5091197714
 40
0.6380079051
 40
0.7639369752
 40
0.8851964775
 40
1.0
 40
1.0
 40
1.0
 40
1.0
 10
15.4599590592
 20
12.1558821295
 30
0.0
 10
15.4614974999
 20
12.1558821295
 30
0.0
 10
15.4646330753
 20
12.1557222195
 30
0.0
 10
15.4693522217
 20
12.1550530659
 30
0.0
 10
15.4740889901
 20
12.1539559242
 30
0.0
 10
15.4787394062
 20
12.1524599457
 30
0.0
 10
15.4832056314
 20
12.1505938096
 30
0.0
 10
15.4873956438
 20
12.1483988713
 30
0.0
 10
15.4912143573
 20
12.1459191243
 30
0.0
 10
15.4935320317
 20
12.1440589267
 30
0.0
 10
15.4946009525
 20
12.1430911251
 30
0.0
  0
SPLINE
  5
2AA
100
AcDbEntity
  8
0
100
AcDbSpline
 62
7
  6
CONTINUOUS
 70
0
 71
3
 72
15
 73
11
 74
0
 42
0.0000001
 43
0.0000001
 44
0.0000000001
 40
0.0
 40
0.0
 40
0.0
 40
0.0
 40
0.122485457
 40
0.2495248582
 40
0.3790232522
 40
0.5091197714
 40
0.6380079051
 40
0.7639369752
 40
0.8851964775
 40
1.0
 40
1.0
 40
1.0
 40
1.0
 10
16.0125956556
 20
12.1558821295
 30
0.0
 10
16.0141340963
 20
12.1558821295
 30
0.0
 10
16.0172696717
 20
12.1557222195
 30
0.0
 10
16.0219888181
 20
12.1550530659
 30
0.0
 10
16.0267255865
 20
12.1539559242
 30
0.0
 10
16.0313760026
 20
12.1524599457
 30
0.0
 10
16.0358422278
 20
12.1505938096
 30
0.0
 10
16.0400322402
 20
12.1483988713
 30
0.0
 10
16.0438509537
 20
12.1459191243
 30
0.0
 10
16.0461686281
 20
12.1440589267
 30
0.0
 10
16.0472375489
 20
12.1430911251
 30
0.0
  0
SPLINE
  5
2AB
100
AcDbEntity
  8
0
100
AcDbSpline
 62
7
  6
CONTINUOUS
 70
0
 71
3
 72
15
 73
11
 74
0
 42
0.0000001
 43
0.0000001
 44
0.0000000001
 40
0.0
 40
0.0
 40
0.0
 40
0.0
 40
0.122485457
 40
0.2495248582
 40
0.3790232522
 40
0.5091197714
 40
0.6380079051
 40
0.7639369752
 40
0.8851964775
 40
1.0
 40
1.0
 40
1.0
 40
1.0
 10
16.565232252
 20
12.1558821295
 30
0.0
 10
16.5667706927
 20
12.1558821295
 30
0.0
 10
16.5699062681
 20
12.1557222195
 30
0.0
 10
16.5746254145
 20
12.1550530659
 30
0.0
 10
16.5793621829
 20
12.1539559242
 30
0.0
 10
16.584012599
 20
12.1524599457
 30
0.0
 10
16.5884788242
 20
12.1505938096
 30
0.0
 10
16.5926688366
 20
12.1483988713
 30
0.0
 10
16.5964875501
 20
12.1459191243
 30
0.0
 10
16.5988052245
 20
12.1440589267
 30
0.0
 10
16.5998741453
 20
12.1430911251
 30
0.0
  0
ENDSEC
  0
SECTION
  2
OBJECTS
  0
DICTIONARY
  5
C
100
AcDbDictionary
280
0
281
1
  3
ACAD_GROUP
350
D
  3
ACAD_MLINESTYLE
350
17
  3
ACAD_LAYOUT
350
1A
  3
ACAD_PLOTSETTINGS
350
19
  3
ACAD_PLOTSTYLENAME
350
E
  0
DICTIONARY
  5
D
102
{ACAD_REACTORS
330
C
102
}
100
AcDbDictionary
280
0
281
1
  0
ACDBDICTIONARYWDFLT
  5
E
102
{ACAD_REACTORS
330
C
102
}
100
AcDbDictionary
281
1
  3
Normal
350
F
100
AcDbDictionaryWithDefault
340
F
  0
DICTIONARY
  5
17
102
{ACAD_REACTORS
330
C
102
}
100
AcDbDictionary
280
0
281
1
  3
Standard
350
18
  0
DICTIONARY
  5
19
102
{ACAD_REACTORS
330
C
102
}
100
AcDbDictionary
281
1
  0
DICTIONARY
  5
1A
102
{ACAD_REACTORS
330
C
102
}
100
AcDbDictionary
281
1
  3
Model
350
2AC
  3
Layout1
350
2AD
  0
ACDBPLACEHOLDER
  5
F
102
{ACAD_REACTORS
330
E
102
}
  0
MLINESTYLE
  5
18
102
{ACAD_REACTORS
330
17
102
}
100
AcDbMlineStyle
  2
STANDARD
 70
0
  3

 62
256
 51
90.0
 52
90.0
 71
2
 49
0.5
 62
256
  6
BYLAYER
 49
-0.5
 62
256
  6
BYLAYER
  0
LAYOUT
  5
2AC
102
{ACAD_REACTORS
330
1A
102
}
100
AcDbPlotSettings
  1

  2
none_device
  4
ANSI_C_(22.00_x_17.00_Inches)
  6

 40
0.0
 41
0.0
 42
0.0
 43
0.0
 44
558.8
 45
431.8
 46
0.0
 47
0.0
 48
0.0
 49
0.0
140
0.0
141
0.0
142
1.0
143
1.0
 70
1024
 72
0
 73
0
 74
0
  7

 75
0
147
1.0
148
0.0
149
0.0
100
AcDbLayout
  1
Model
 70
0
 71
0
 10
0.0
 20
0.0
 11
22.0
 21
17.0
 12
0.0
 22
0.0
 32
0.0
 14
0.0
 24
0.0
 34
0.0
 15
0.0
 25
0.0
 35
0.0
146
0.0
 13
0.0
 23
0.0
 33
0.0
 16
1.0
 26
0.0
 36
0.0
 17
0.0
 27
1.0
 37
0.0
 76
0
330
216
345
0
346
0
  0
LAYOUT
  5
2AD
102
{ACAD_REACTORS
330
1A
102
}
100
AcDbPlotSettings
  1

  2
none_device
  4
ANSI_C_(22.00_x_17.00_Inches)
  6

 40
0.0
 41
0.0
 42
0.0
 43
0.0
 44
558.8
 45
431.8
 46
0.0
 47
0.0
 48
0.0
 49
0.0
140
0.0
141
0.0
142
1.0
143
1.0
 70
0
 72
0
 73
0
 74
0
  7

 75
0
147
1.0
148
0.0
149
0.0
100
AcDbLayout
  1
Layout1
 70
0
 71
1
 10
0.0
 20
0.0
 11
22.0
 21
17.0
 12
0.0
 22
0.0
 32
0.0
 14
0.0
 24
0.0
 34
0.0
 15
0.0
 25
0.0
 35
0.0
146
0.0
 13
0.0
 23
0.0
 33
0.0
 16
1.0
 26
0.0
 36
0.0
 17
0.0
 27
1.0
 37
0.0
 76
0
330
217
345
0
346
0
  0
ENDSEC
  0
EOF