999
DXF file: _cgs_temp_output.dxf
999
Pro/ENGINEER 2015110 by Parametric Technology Corporation
  0
SECTION
  2
HEADER
  9
$ACADVER
  1
AC1021
  9
$DWGCODEPAGE
  3
ANSI_1252
  9
$EXTMAX
 10
22.0
 20
17.0
 30
0.0
  9
$EXTMIN
 10
0.0
 20
0.0
 30
0.0
  9
$LIMMIN
 10
0.0
 20
0.0
  9
$LIMMAX
 10
22.0
 20
17.0
  9
$VIEWCTR
 10
11.0
 20
8.5
  9
$VIEWSIZE
 40
17.0
  9
$CLAYER
  8
0
  9
$LTSCALE
 40
1.21
  9
$CELTYPE
  6
BYLAYER
  9
$DIMSCALE
 40
1.0
  9
$DIMASZ
 40
0.1875
  9
$DIMEXO
 40
0.0625
  9
$DIMDLI
 40
0.836
  9
$DIMEXE
 40
0.125
  9
$DIMCEN
 40
0.198
  9
$DIMLFAC
 40
1.0
  9
$DIMBLK
  1
_CLOSED
  9
$DIMALT
 70
0
  9
$DIMALTF
 40
25.4
  9
$DIMTXT
 40
0.15625
  9
$DIMTOL
 70
0
  9
$DIMLIM
 70
0
  9
$DIMTFAC
 40
1.0
  9
$DIMGAP
 40
0.09
  9
$DIMDSEP
 70
46
  9
$AUNITS
 70
0
  9
$PDMODE
 70
3
  9
$PDSIZE
 40
0.3125
  9
$HANDSEED
  5
358
  9
$TILEMODE
 70
1
  9
$MEASUREMENT
 70
0
  9
$INSUNITS
 70
1
  0
ENDSEC
  0
SECTION
  2
CLASSES
  0
CLASS
  1
ACDBDICTIONARYWDFLT
  2
AcDbDictionaryWithDefault
  3
AutoCAD 2000
 90
0
 91
1
280
0
281
0
  0
CLASS
  1
ACDBPLACEHOLDER
  2
AcDbPlaceHolder
  3
AutoCAD 2000
 90
0
 91
1
280
0
281
0
  0
CLASS
  1
LAYOUT
  2
AcDbLayout
  3
AutoCAD 2000
 90
0
 91
0
280
0
281
0
  0
ENDSEC
  0
SECTION
  2
TABLES
  0
TABLE
  2
VPORT
  5
8
100
AcDbSymbolTable
 70
2
  0
VPORT
  5
1F4
100
AcDbSymbolTableRecord
100
AcDbViewportTableRecord
  2
*ACTIVE
 70
0
 10
0.0
 20
0.0
 11
1.0
 21
1.0
 12
11.0
 22
8.5
 13
0.0
 23
0.0
 14
1.0
 24
1.0
 15
0.0
 25
0.0
 16
0.0
 26
0.0
 36
1.0
 17
0.0
 27
0.0
 37
0.0
 40
17.0
 41
1.2941176471
 42
50.0
 43
0.0
 44
0.0
 50
0.0
 51
0.0
 71
0
 72
100
 73
1
 74
1
 75
0
 76
0
 77
0
 78
0
  0
ENDTAB
  0
TABLE
  2
LTYPE
  5
5
100
AcDbSymbolTable
 70
6
  0
LTYPE
  5
14
100
AcDbSymbolTableRecord
100
AcDbLinetypeTableRecord
  2
BYBLOCK
 70
0
  3

 72
65
 73
0
 40
0.0
  0
LTYPE
  5
15
100
AcDbSymbolTableRecord
100
AcDbLinetypeTableRecord
  2
BYLAYER
 70
0
  3

 72
65
 73
0
 40
0.0
  0
LTYPE
  5
16
100
AcDbSymbolTableRecord
100
AcDbLinetypeTableRecord
  2
CONTINUOUS
 70
64
  3
Solid line
 72
65
 73
0
 40
0.0
  0
LTYPE
  5
1F5
100
AcDbSymbolTableRecord
100
AcDbLinetypeTableRecord
  2
CENTER
 70
64
  3
____ _ ____ _ ____ _ ____ _ ____ _ ____ _ ____
 72
65
 73
4
 40
0.6
 49
0.375
 74
0
 49
-0.075
 74
0
 49
0.075
 74
0
 49
-0.075
 74
0
  0
LTYPE
  5
1F6
100
AcDbSymbolTableRecord
100
AcDbLinetypeTableRecord
  2
HIDDEN
 70
64
  3
- - - - - - - - - - - - - - - - - - - -
 72
65
 73
2
 40
0.2
 49
0.1
 74
0
 49
-0.1
 74
0
  0
LTYPE
  5
1F7
100
AcDbSymbolTableRecord
100
AcDbLinetypeTableRecord
  2
PHANTOM
 70
64
  3
_____ _ _ _____ _ _ _____ _ _ _____
 72
65
 73
6
 40
0.8
 49
0.45
 74
0
 49
-0.05
 74
0
 49
0.1
 74
0
 49
-0.05
 74
0
 49
0.1
 74
0
 49
-0.05
 74
0
  0
LTYPE
  5
1F8
100
AcDbSymbolTableRecord
100
AcDbLinetypeTableRecord
  2
DOT
 70
64
  3
. . . . . . . . . . . . . . . . . . . .
 72
65
 73
2
 40
0.2
 49
0.1
 74
0
 49
-0.1
 74
0
  0
LTYPE
  5
1F9
100
AcDbSymbolTableRecord
100
AcDbLinetypeTableRecord
  2
DASHED
 70
64
  3
- - - - - - - - - - - - - - - - - - - -
 72
65
 73
2
 40
0.2
 49
0.1
 74
0
 49
-0.1
 74
0
  0
ENDTAB
  0
TABLE
  2
LAYER
  5
2
100
AcDbSymbolTable
 70
36
  0
LAYER
  5
10
100
AcDbSymbolTableRecord
100
AcDbLayerTableRecord
  2
0
 70
0
 62
7
  6
CONTINUOUS
370
-3
390
F
  0
LAYER
  5
1FA
100
AcDbSymbolTableRecord
100
AcDbLayerTableRecord
  2
DEFAULT_1
 70
0
 62
7
  6
CENTER
370
-3
390
F
  0
LAYER
  5
1FB
100
AcDbSymbolTableRecord
100
AcDbLayerTableRecord
  2
DEFAULT_2
 70
0
 62
8
  6
HIDDEN
370
-3
390
F
  0
LAYER
  5
1FC
100
AcDbSymbolTableRecord
100
AcDbLayerTableRecord
  2
DEFAULT_3
 70
0
 62
7
  6
PHANTOM
370
-3
390
F
  0
LAYER
  5
1FD
100
AcDbSymbolTableRecord
100
AcDbLayerTableRecord
  2
01_ALL_DTM_PLN
 70
0
 62
7
  6
CONTINUOUS
370
-3
390
F
  0
LAYER
  5
1FE
100
AcDbSymbolTableRecord
100
AcDbLayerTableRecord
  2
01__ASM_ALL_DTM_PLN
 70
0
 62
7
  6
CONTINUOUS
370
-3
390
F
  0
LAYER
  5
1FF
100
AcDbSymbolTableRecord
100
AcDbLayerTableRecord
  2
01__ASM_DEF_DTM_PLN
 70
0
 62
7
  6
CONTINUOUS
370
-3
390
F
  0
LAYER
  5
200
100
AcDbSymbolTableRecord
100
AcDbLayerTableRecord
  2
01___PRT_ALL_DTM_PLN
 70
0
 62
7
  6
CONTINUOUS
370
-3
390
F
  0
LAYER
  5
201
100
AcDbSymbolTableRecord
100
AcDbLayerTableRecord
  2
01___PRT_DEF_DTM_PLN
 70
0
 62
7
  6
CONTINUOUS
370
-3
390
F
  0
LAYER
  5
202
100
AcDbSymbolTableRecord
100
AcDbLayerTableRecord
  2
02_ALL_AXES
 70
0
 62
7
  6
CONTINUOUS
370
-3
390
F
  0
LAYER
  5
203
100
AcDbSymbolTableRecord
100
AcDbLayerTableRecord
  2
02__ASM_ALL_AXES
 70
0
 62
7
  6
CONTINUOUS
370
-3
390
F
  0
LAYER
  5
204
100
AcDbSymbolTableRecord
100
AcDbLayerTableRecord
  2
02___PRT_ALL_AXES
 70
0
 62
7
  6
CONTINUOUS
370
-3
390
F
  0
LAYER
  5
205
100
AcDbSymbolTableRecord
100
AcDbLayerTableRecord
  2
03_ALL_CURVES
 70
0
 62
7
  6
CONTINUOUS
370
-3
390
F
  0
LAYER
  5
206
100
AcDbSymbolTableRecord
100
AcDbLayerTableRecord
  2
03__ASM_ALL_CURVES
 70
0
 62
7
  6
CONTINUOUS
370
-3
390
F
  0
LAYER
  5
207
100
AcDbSymbolTableRecord
100
AcDbLayerTableRecord
  2
03___PRT_ALL_CURVES
 70
0
 62
7
  6
CONTINUOUS
370
-3
390
F
  0
LAYER
  5
208
100
AcDbSymbolTableRecord
100
AcDbLayerTableRecord
  2
04_ALL_DTM_PNT
 70
0
 62
7
  6
CONTINUOUS
370
-3
390
F
  0
LAYER
  5
209
100
AcDbSymbolTableRecord
100
AcDbLayerTableRecord
  2
04__ASM_ALL_DTM_PNT
 70
0
 62
7
  6
CONTINUOUS
370
-3
390
F
  0
LAYER
  5
20A
100
AcDbSymbolTableRecord
100
AcDbLayerTableRecord
  2
04___PRT_ALL_DTM_PNT
 70
0
 62
7
  6
CONTINUOUS
370
-3
390
F
  0
LAYER
  5
20B
100
AcDbSymbolTableRecord
100
AcDbLayerTableRecord
  2
05_ALL_DTM_CSYS
 70
0
 62
7
  6
CONTINUOUS
370
-3
390
F
  0
LAYER
  5
20C
100
AcDbSymbolTableRecord
100
AcDbLayerTableRecord
  2
05__ASM_ALL_DTM_CSYS
 70
0
 62
7
  6
CONTINUOUS
370
-3
390
F
  0
LAYER
  5
20D
100
AcDbSymbolTableRecord
100
AcDbLayerTableRecord
  2
05__ASM_DEF_DTM_CSYS
 70
0
 62
7
  6
CONTINUOUS
370
-3
390
F
  0
LAYER
  5
20E
100
AcDbSymbolTableRecord
100
AcDbLayerTableRecord
  2
05___PRT_ALL_DTM_CSYS
 70
0
 62
7
  6
CONTINUOUS
370
-3
390
F
  0
LAYER
  5
20F
100
AcDbSymbolTableRecord
100
AcDbLayerTableRecord
  2
05___PRT_DEF_DTM_CSYS
 70
0
 62
7
  6
CONTINUOUS
370
-3
390
F
  0
LAYER
  5
210
100
AcDbSymbolTableRecord
100
AcDbLayerTableRecord
  2
06_ALL_SURFS
 70
0
 62
7
  6
CONTINUOUS
370
-3
390
F
  0
LAYER
  5
211
100
AcDbSymbolTableRecord
100
AcDbLayerTableRecord
  2
06__ASM_ALL_SURFS
 70
0
 62
7
  6
CONTINUOUS
370
-3
390
F
  0
LAYER
  5
212
100
AcDbSymbolTableRecord
100
AcDbLayerTableRecord
  2
06___PRT_ALL_SURFS
 70
0
 62
7
  6
CONTINUOUS
370
-3
390
F
  0
LAYER
  5
213
100
AcDbSymbolTableRecord
100
AcDbLayerTableRecord
  2
07__ASM_ALL_SKELETONS
 70
0
 62
7
  6
CONTINUOUS
370
-3
390
F
  0
ENDTAB
  0
TABLE
  2
STYLE
  5
3
100
AcDbSymbolTable
 70
1
  0
STYLE
  5
11
100
AcDbSymbolTableRecord
100
AcDbTextStyleTableRecord
  2
STANDARD
 70
0
 40
0.0
 41
0.8
 50
0.0
 71
0
 42
0.2
  3
txt
  4

  0
STYLE
  5
214
100
AcDbSymbolTableRecord
100
AcDbTextStyleTableRecord
  2
TEXTSTYLE_1
 70
0
 40
0.0
 41
0.8
 50
0.0
 71
0
 42
0.2
  3
gdt
  4

  0
ENDTAB
  0
TABLE
  2
VIEW
  5
6
100
AcDbSymbolTable
 70
0
  0
ENDTAB
  0
TABLE
  2
UCS
  5
7
100
AcDbSymbolTable
 70
0
  0
ENDTAB
  0
TABLE
  2
APPID
  5
9
100
AcDbSymbolTable
 70
1
  0
APPID
  5
215
100
AcDbSymbolTableRecord
100
AcDbRegAppTableRecord
  2
ACAD
 70
0
  0
ENDTAB
  0
TABLE
  2
BLOCK_RECORD
  5
1
100
AcDbSymbolTable
 70
0
  0
BLOCK_RECORD
  5
216
100
AcDbSymbolTableRecord
100
AcDbBlockTableRecord
  2
*Model_Space
  0
BLOCK_RECORD
  5
217
100
AcDbSymbolTableRecord
100
AcDbBlockTableRecord
  2
*Paper_Space
  0
ENDTAB
  0
TABLE
  2
DIMSTYLE
  5
A
100
AcDbSymbolTable
 70
1
100
AcDbDimStyleTable
 71
0
  0
DIMSTYLE
105
218
100
AcDbSymbolTableRecord
100
AcDbDimStyleTableRecord
  2
STANDARD
 70
0
  3

  4

 40
1.0
 41
0.1875
 42
0.0625
 43
0.38
 44
0.125
 45
0.0
 46
0.0
 47
0.0001
 48
0.0001
140
0.15625
141
0.09
142
0.0
143
25.4
144
1.0
145
0.0
146
1.0
147
0.09
 71
0.0
 72
0.0
 73
1
 74
1
 75
0
 76
0
 77
0
 78
4
170
0
171
2
172
0
173
0
174
0
175
0
176
0
177
0
178
0
270
2
271
4
272
4
273
2
274
2
275
0
280
0
281
0
282
0
283
1
284
4
285
0
286
0
287
3
288
0
340
11
278
46
  0
ENDTAB
  0
ENDSEC
  0
SECTION
  2
BLOCKS
  0
BLOCK
  5
20
100
AcDbEntity
  8
0
100
AcDbBlockBegin
  2
*Model_Space
 70
0
 10
0.0
 20
0.0
 30
0.0
  3
*Model_Space
  1

  0
ENDBLK
  5
21
100
AcDbEntity
  8
0
100
AcDbBlockEnd
  0
BLOCK
  5
1C
100
AcDbEntity
  8
0
100
AcDbBlockBegin
  2
*Paper_Space
 70
0
 10
0.0
 20
0.0
 30
0.0
  3
*Paper_Space
  1

  0
ENDBLK
  5
1D
100
AcDbEntity
  8
0
100
AcDbBlockEnd
  0
ENDSEC
  0
SECTION
  2
ENTITIES
  0
MTEXT
  5
219
100
AcDbEntity
  8
0
100
AcDbMText
 62
7
  6
CONTINUOUS
  7
STANDARD
 71
1
 72
1
 10
15.9560215477
 20
0.9479130325
 30
0.0
 11
1.0
 21
0.0
 31
0.0
 44
0.9
  1
SCALE: 1:1.000
 40
0.3
 41
3.36
  0
LINE
  5
21A
100
AcDbEntity
  8
0
100
AcDbLine
 62
7
  6
CONTINUOUS
 10
0.0
 20
0.0
 11
0.0
 21
17.0
  0
LINE
  5
21B
100
AcDbEntity
  8
0
100
AcDbLine
 62
7
  6
CONTINUOUS
 10
0.0
 20
0.0
 11
22.0
 21
0.0
  0
LINE
  5
21C
100
AcDbEntity
  8
0
100
AcDbLine
 62
7
  6
CONTINUOUS
 10
0.0
 20
17.0
 11
22.0
 21
17.0
  0
LINE
  5
21D
100
AcDbEntity
  8
0
100
AcDbLine
 62
7
  6
CONTINUOUS
 10
22.0
 20
0.0
 11
22.0
 21
17.0
  0
LINE
  5
21E
100
AcDbEntity
  8
0
100
AcDbLine
 62
7
  6
CONTINUOUS
 10
5.8154066462
 20
5.7653878341
 11
5.8154066462
 21
5.7444261605
  0
LINE
  5
21F
100
AcDbEntity
  8
0
100
AcDbLine
 62
7
  6
CONTINUOUS
 10
5.9338958081
 20
5.2644818653
 11
6.3268387442
 21
5.2644818653
  0
LINE
  5
220
100
AcDbEntity
  8
0
100
AcDbLine
 62
7
  6
CONTINUOUS
 10
5.8980817282
 20
5.4350855399
 11
6.3626528241
 21
5.4350855399
  0
LINE
  5
221
100
AcDbEntity
  8
0
100
AcDbLine
 62
7
  6
CONTINUOUS
 10
6.4453279061
 20
5.7444261605
 11
6.4453279061
 21
5.7653878341
  0
LINE
  5
222
100
AcDbEntity
  8
0
100
AcDbLine
 62
7
  6
CONTINUOUS
 10
6.3858327138
 20
10.6315438444
 11
5.7559114539
 21
10.6315438444
  0
LINE
  5
223
100
AcDbEntity
  8
0
100
AcDbLine
 62
7
  6
CONTINUOUS
 10
5.7559114539
 20
10.6315438444
 11
5.7559114539
 21
14.5685517184
  0
LINE
  5
224
100
AcDbEntity
  8
0
100
AcDbLine
 62
7
  6
CONTINUOUS
 10
6.3858327138
 20
10.6315438444
 11
6.3858327138
 21
14.5685517184
  0
LINE
  5
225
100
AcDbEntity
  8
0
100
AcDbLine
 62
7
  6
CONTINUOUS
 10
5.7559114539
 20
14.5685517184
 11
6.3858327138
 21
14.5685517184
  0
LINE
  5
226
100
AcDbEntity
  8
0
100
AcDbLine
 62
7
  6
CONTINUOUS
 10
13.5918513199
 20
5.3755903476
 11
13.5918513199
 21
5.7167976484
  0
LINE
  5
227
100
AcDbEntity
  8
0
100
AcDbLine
 62
7
  6
CONTINUOUS
 10
13.6793049854
 20
5.3378114338
 11
13.7012480482
 21
5.2427655868
  0
LINE
  5
228
100
AcDbEntity
  8
0
100
AcDbLine
 62
7
  6
CONTINUOUS
 10
13.8761553791
 20
5.2427655868
 11
13.8980984419
 21
5.3378114338
  0
LINE
  5
229
100
AcDbEntity
  8
0
100
AcDbLine
 62
7
  6
CONTINUOUS
 10
14.0730057728
 20
5.3378114338
 11
14.0949488356
 21
5.2427655868
  0
LINE
  5
22A
100
AcDbEntity
  8
0
100
AcDbLine
 62
7
  6
CONTINUOUS
 10
14.2698561665
 20
5.2427655868
 11
14.2917992293
 21
5.3378114338
  0
LINE
  5
22B
100
AcDbEntity
  8
0
100
AcDbLine
 62
7
  6
CONTINUOUS
 10
14.4667065602
 20
5.3378114338
 11
14.488649623
 21
5.2427655868
  0
LINE
  5
22C
100
AcDbEntity
  8
0
100
AcDbLine
 62
7
  6
CONTINUOUS
 10
14.6635569539
 20
5.2427655868
 11
14.6855000167
 21
5.3378114338
  0
LINE
  5
22D
100
AcDbEntity
  8
0
100
AcDbLine
 62
7
  6
CONTINUOUS
 10
14.8604073476
 20
5.3378114338
 11
14.8823504104
 21
5.2427655868
  0
LINE
  5
22E
100
AcDbEntity
  8
0
100
AcDbLine
 62
7
  6
CONTINUOUS
 10
15.0572577413
 20
5.2427655868
 11
15.0792008041
 21
5.3378114338
  0
LINE
  5
22F
100
AcDbEntity
  8
0
100
AcDbLine
 62
7
  6
CONTINUOUS
 10
13.748742652
 20
5.204986673
 11
13.8286607753
 21
5.204986673
  0
LINE
  5
230
100
AcDbEntity
  8
0
100
AcDbLine
 62
7
  6
CONTINUOUS
 10
14.1424434394
 20
5.204986673
 11
14.2223615627
 21
5.204986673
  0
LINE
  5
231
100
AcDbEntity
  8
0
100
AcDbLine
 62
7
  6
CONTINUOUS
 10
14.5361442268
 20
5.204986673
 11
14.6160623501
 21
5.204986673
  0
LINE
  5
232
100
AcDbEntity
  8
0
100
AcDbLine
 62
7
  6
CONTINUOUS
 10
14.9298450142
 20
5.204986673
 11
15.0097631375
 21
5.204986673
  0
LINE
  5
233
100
AcDbEntity
  8
0
100
AcDbLine
 62
7
  6
CONTINUOUS
 10
15.3235458016
 20
5.204986673
 11
15.4034639249
 21
5.204986673
  0
LINE
  5
234
100
AcDbEntity
  8
0
100
AcDbLine
 62
7
  6
CONTINUOUS
 10
15.717246589
 20
5.204986673
 11
15.7971647123
 21
5.204986673
  0
LINE
  5
235
100
AcDbEntity
  8
0
100
AcDbLine
 62
7
  6
CONTINUOUS
 10
16.1109473764
 20
5.204986673
 11
16.1908654997
 21
5.204986673
  0
LINE
  5
236
100
AcDbEntity
  8
0
100
AcDbLine
 62
7
  6
CONTINUOUS
 10
16.5046481638
 20
5.204986673
 11
16.5845662871
 21
5.204986673
  0
LINE
  5
237
100
AcDbEntity
  8
0
100
AcDbLine
 62
7
  6
CONTINUOUS
 10
16.8983489512
 20
5.204986673
 11
16.9782670745
 21
5.204986673
  0
LINE
  5
238
100
AcDbEntity
  8
0
100
AcDbLine
 62
7
  6
CONTINUOUS
 10
17.2920497386
 20
5.204986673
 11
17.3719678619
 21
5.204986673
  0
LINE
  5
239
100
AcDbEntity
  8
0
100
AcDbLine
 62
7
  6
CONTINUOUS
 10
15.254108135
 20
5.3378114338
 11
15.2760511978
 21
5.2427655868
  0
LINE
  5
23A
100
AcDbEntity
  8
0
100
AcDbLine
 62
7
  6
CONTINUOUS
 10
15.4509585287
 20
5.2427655868
 11
15.4729015915
 21
5.3378114338
  0
LINE
  5
23B
100
AcDbEntity
  8
0
100
AcDbLine
 62
7
  6
CONTINUOUS
 10
13.5918513199
 20
5.3755903476
 11
13.6318103816
 21
5.3755903476
  0
LINE
  5
23C
100
AcDbEntity
  8
0
100
AcDbLine
 62
7
  6
CONTINUOUS
 10
13.9455930457
 20
5.3755903476
 11
14.025511169
 21
5.3755903476
  0
LINE
  5
23D
100
AcDbEntity
  8
0
100
AcDbLine
 62
7
  6
CONTINUOUS
 10
14.3392938331
 20
5.3755903476
 11
14.4192119564
 21
5.3755903476
  0
LINE
  5
23E
100
AcDbEntity
  8
0
100
AcDbLine
 62
7
  6
CONTINUOUS
 10
14.7329946205
 20
5.3755903476
 11
14.8129127438
 21
5.3755903476
  0
LINE
  5
23F
100
AcDbEntity
  8
0
100
AcDbLine
 62
7
  6
CONTINUOUS
 10
15.1266954079
 20
5.3755903476
 11
15.2066135312
 21
5.3755903476
  0
LINE
  5
240
100
AcDbEntity
  8
0
100
AcDbLine
 62
7
  6
CONTINUOUS
 10
15.5203961953
 20
5.3755903476
 11
15.6003143186
 21
5.3755903476
  0
LINE
  5
241
100
AcDbEntity
  8
0
100
AcDbLine
 62
7
  6
CONTINUOUS
 10
15.9140969827
 20
5.3755903476
 11
15.994015106
 21
5.3755903476
  0
LINE
  5
242
100
AcDbEntity
  8
0
100
AcDbLine
 62
7
  6
CONTINUOUS
 10
16.3077977701
 20
5.3755903476
 11
16.3877158934
 21
5.3755903476
  0
LINE
  5
243
100
AcDbEntity
  8
0
100
AcDbLine
 62
7
  6
CONTINUOUS
 10
16.7014985575
 20
5.3755903476
 11
16.7814166808
 21
5.3755903476
  0
LINE
  5
244
100
AcDbEntity
  8
0
100
AcDbLine
 62
7
  6
CONTINUOUS
 10
17.0951993449
 20
5.3755903476
 11
17.1751174682
 21
5.3755903476
  0
LINE
  5
245
100
AcDbEntity
  8
0
100
AcDbLine
 62
7
  6
CONTINUOUS
 10
17.4889001323
 20
5.3755903476
 11
17.5288591939
 21
5.3755903476
  0
LINE
  5
246
100
AcDbEntity
  8
0
100
AcDbLine
 62
7
  6
CONTINUOUS
 10
15.6478089224
 20
5.3378114338
 11
15.6697519852
 21
5.2427655868
  0
LINE
  5
247
100
AcDbEntity
  8
0
100
AcDbLine
 62
7
  6
CONTINUOUS
 10
17.5288591939
 20
5.7167976967
 11
13.5918513199
 21
5.7167976967
  0
LINE
  5
248
100
AcDbEntity
  8
0
100
AcDbLine
 62
7
  6
CONTINUOUS
 10
15.8446593161
 20
5.2427655868
 11
15.8666023789
 21
5.3378114338
  0
LINE
  5
249
100
AcDbEntity
  8
0
100
AcDbLine
 62
7
  6
CONTINUOUS
 10
16.0415097098
 20
5.3378114338
 11
16.0634527726
 21
5.2427655868
  0
LINE
  5
24A
100
AcDbEntity
  8
0
100
AcDbLine
 62
7
  6
CONTINUOUS
 10
16.2383601035
 20
5.2427655868
 11
16.2603031663
 21
5.3378114338
  0
LINE
  5
24B
100
AcDbEntity
  8
0
100
AcDbLine
 62
7
  6
CONTINUOUS
 10
16.4352104972
 20
5.3378114338
 11
16.45715356
 21
5.2427655868
  0
LINE
  5
24C
100
AcDbEntity
  8
0
100
AcDbLine
 62
7
  6
CONTINUOUS
 10
16.6320608909
 20
5.2427655868
 11
16.6540039537
 21
5.3378114338
  0
LINE
  5
24D
100
AcDbEntity
  8
0
100
AcDbLine
 62
7
  6
CONTINUOUS
 10
16.8289112846
 20
5.3378114338
 11
16.8508543474
 21
5.2427655868
  0
LINE
  5
24E
100
AcDbEntity
  8
0
100
AcDbLine
 62
7
  6
CONTINUOUS
 10
17.0257616783
 20
5.2427655868
 11
17.0477047411
 21
5.3378114338
  0
LINE
  5
24F
100
AcDbEntity
  8
0
100
AcDbLine
 62
7
  6
CONTINUOUS
 10
17.222612072
 20
5.3378114338
 11
17.2445551348
 21
5.2427655868
  0
LINE
  5
250
100
AcDbEntity
  8
0
100
AcDbLine
 62
7
  6
CONTINUOUS
 10
17.5288591939
 20
5.3755903476
 11
17.5288591939
 21
5.7167976484
  0
LINE
  5
251
100
AcDbEntity
  8
0
100
AcDbLine
 62
7
  6
CONTINUOUS
 10
17.4194624657
 20
5.2427655868
 11
17.4414055285
 21
5.3378114338
  0
LINE
  5
252
100
AcDbEntity
  8
0
100
AcDbLine
 62
7
  6
CONTINUOUS
 10
14.9644869223
 20
10.8636273058
 11
14.9686960605
 21
10.8622112639
  0
LWPOLYLINE
  5
253
100
AcDbEntity
  8
0
100
AcDbPolyline
 62
7
  6
CONTINUOUS
 90
4
 70
0
 10
15.3386488847
 20
10.8620314855
 10
15.3426765851
 20
10.8626973474
 10
15.3482928371
 20
10.8662198921
 10
15.3523024308
 20
10.871516043
  0
LINE
  5
254
100
AcDbEntity
  8
0
100
AcDbLine
 62
7
  6
CONTINUOUS
 10
14.9714489743
 20
10.8620313548
 11
15.3386478791
 21
10.8620313548
  0
LINE
  5
255
100
AcDbEntity
  8
0
100
AcDbLine
 62
7
  6
CONTINUOUS
 10
14.8659484444
 20
10.8636273058
 11
15.2938467598
 21
10.8636273058
  0
LINE
  5
256
100
AcDbEntity
  8
0
100
AcDbLine
 62
7
  6
CONTINUOUS
 10
14.9686960605
 20
10.8622112639
 11
14.9715020496
 21
10.8620316426
  0
LINE
  5
257
100
AcDbEntity
  8
0
100
AcDbLine
 62
7
  6
CONTINUOUS
 10
15.3941505288
 20
11.170427776
 11
15.4339495812
 21
11.170427776
  0
LINE
  5
258
100
AcDbEntity
  8
0
100
AcDbLine
 62
7
  6
CONTINUOUS
 10
14.6890436229
 20
11.0689465044
 11
14.6954378109
 21
11.0559165191
  0
LWPOLYLINE
  5
259
100
AcDbEntity
  8
0
100
AcDbPolyline
 62
7
  6
CONTINUOUS
 90
4
 70
0
 10
15.4339505869
 20
11.1704279066
 10
15.4379782873
 20
11.1710937685
 10
15.4435945392
 20
11.1746163132
 10
15.4476041329
 20
11.1799124641
  0
LWPOLYLINE
  5
25A
100
AcDbEntity
  8
0
100
AcDbPolyline
 62
7
  6
CONTINUOUS
 90
4
 70
0
 10
15.529252289
 20
11.4788243277
 10
15.5332799894
 20
11.4794901897
 10
15.5388962414
 20
11.4830127343
 10
15.542905835
 20
11.4883088852
  0
LINE
  5
25B
100
AcDbEntity
  8
0
100
AcDbLine
 62
7
  6
CONTINUOUS
 10
15.489452231
 20
11.4788241971
 11
15.5292512834
 21
11.4788241971
  0
LWPOLYLINE
  5
25C
100
AcDbEntity
  8
0
100
AcDbPolyline
 62
7
  6
CONTINUOUS
 90
4
 70
0
 10
15.6245539911
 20
11.7872207488
 10
15.6285816915
 20
11.7878866108
 10
15.6341979435
 20
11.7914091555
 10
15.6382075371
 20
11.7967053063
  0
LINE
  5
25D
100
AcDbEntity
  8
0
100
AcDbLine
 62
7
  6
CONTINUOUS
 10
15.5847539331
 20
11.7872206182
 11
15.6245529855
 21
11.7872206182
  0
LINE
  5
25E
100
AcDbEntity
  8
0
100
AcDbLine
 62
7
  6
CONTINUOUS
 10
15.2756337126
 20
11.0559165191
 11
15.2692395246
 21
11.0689465044
  0
LWPOLYLINE
  5
25F
100
AcDbEntity
  8
0
100
AcDbPolyline
 62
7
  6
CONTINUOUS
 90
4
 70
0
 10
15.7198556933
 20
12.0956171699
 10
15.7238833936
 20
12.0962830319
 10
15.7294996456
 20
12.0998055766
 10
15.7335092393
 20
12.1051017274
  0
LINE
  5
260
100
AcDbEntity
  8
0
100
AcDbLine
 62
7
  6
CONTINUOUS
 10
15.6800556352
 20
12.0956170393
 11
15.7198546876
 21
12.0956170393
  0
LINE
  5
261
100
AcDbEntity
  8
0
100
AcDbLine
 62
7
  6
CONTINUOUS
 10
14.6888342425
 20
11.0707456681
 11
15.6418512638
 21
14.1547098792
  0
LINE
  5
262
100
AcDbEntity
  8
0
100
AcDbLine
 62
7
  6
CONTINUOUS
 10
15.3825612183
 20
10.9983427531
 11
15.3825599873
 21
10.9983575334
  0
LWPOLYLINE
  5
263
100
AcDbEntity
  8
0
100
AcDbPolyline
 62
7
  6
CONTINUOUS
 90
3
 70
0
 10
15.3825612183
 20
10.9983427531
 10
15.3807138922
 20
11.0219395631
 10
15.3786805485
 20
11.0504636969
  0
LINE
  5
264
100
AcDbEntity
  8
0
100
AcDbLine
 62
7
  6
CONTINUOUS
 10
15.3786805485
 20
11.0504636969
 11
15.3771429633
 21
11.0744095946
  0
LINE
  5
265
100
AcDbEntity
  8
0
100
AcDbLine
 62
7
  6
CONTINUOUS
 10
15.3828833637
 20
10.9912826577
 11
15.3825596401
 21
10.9983575042
  0
LINE
  5
266
100
AcDbEntity
  8
0
100
AcDbLine
 62
7
  6
CONTINUOUS
 10
15.3771422943
 20
11.0744203363
 11
15.3769242366
 21
11.0807094853
  0
LWPOLYLINE
  5
267
100
AcDbEntity
  8
0
100
AcDbPolyline
 62
7
  6
CONTINUOUS
 90
4
 70
0
 10
15.8151573954
 20
12.404013591
 10
15.8191850958
 20
12.404679453
 10
15.8248013478
 20
12.4082019977
 10
15.8288109414
 20
12.4134981485
  0
LINE
  5
268
100
AcDbEntity
  8
0
100
AcDbLine
 62
7
  6
CONTINUOUS
 10
15.7753573373
 20
12.4040134604
 11
15.8151563897
 21
12.4040134604
  0
LINE
  5
269
100
AcDbEntity
  8
0
100
AcDbLine
 62
7
  6
CONTINUOUS
 10
15.4778629204
 20
11.3067391743
 11
15.4778616894
 21
11.3067539545
  0
LWPOLYLINE
  5
26A
100
AcDbEntity
  8
0
100
AcDbPolyline
 62
7
  6
CONTINUOUS
 90
3
 70
0
 10
15.4778629204
 20
11.3067391743
 10
15.4760155944
 20
11.3303359842
 10
15.4739822507
 20
11.358860118
  0
LINE
  5
26B
100
AcDbEntity
  8
0
100
AcDbLine
 62
7
  6
CONTINUOUS
 10
15.4739822507
 20
11.358860118
 11
15.4724446655
 21
11.3828060158
  0
LINE
  5
26C
100
AcDbEntity
  8
0
100
AcDbLine
 62
7
  6
CONTINUOUS
 10
15.4781850658
 20
11.2996790788
 11
15.4778613423
 21
11.3067539253
  0
LINE
  5
26D
100
AcDbEntity
  8
0
100
AcDbLine
 62
7
  6
CONTINUOUS
 10
15.4724439964
 20
11.3828167574
 11
15.4722259387
 21
11.3891059064
  0
LWPOLYLINE
  5
26E
100
AcDbEntity
  8
0
100
AcDbPolyline
 62
7
  6
CONTINUOUS
 90
5
 70
0
 10
15.3769242366
 20
11.0807094853
 10
15.3773118579
 20
11.094241465
 10
15.3787466799
 20
11.1091088988
 10
15.381107317
 20
11.1239783841
 10
15.3841372973
 20
11.1375002227
  0
LINE
  5
26F
100
AcDbEntity
  8
0
100
AcDbLine
 62
7
  6
CONTINUOUS
 10
15.3003510227
 20
10.8668907855
 11
15.3004528123
 21
10.8684731091
  0
LINE
  5
270
100
AcDbEntity
  8
0
100
AcDbLine
 62
7
  6
CONTINUOUS
 10
15.5731646225
 20
11.6151355954
 11
15.5731633916
 21
11.6151503756
  0
LWPOLYLINE
  5
271
100
AcDbEntity
  8
0
100
AcDbPolyline
 62
7
  6
CONTINUOUS
 90
3
 70
0
 10
15.5731646225
 20
11.6151355954
 10
15.5713172965
 20
11.6387324053
 10
15.5692839528
 20
11.6672565391
  0
LINE
  5
272
100
AcDbEntity
  8
0
100
AcDbLine
 62
7
  6
CONTINUOUS
 10
15.5692839528
 20
11.6672565391
 11
15.5677463676
 21
11.6912024369
  0
LINE
  5
273
100
AcDbEntity
  8
0
100
AcDbLine
 62
7
  6
CONTINUOUS
 10
15.5734867679
 20
11.6080754999
 11
15.5731630444
 21
11.6151503464
  0
LINE
  5
274
100
AcDbEntity
  8
0
100
AcDbLine
 62
7
  6
CONTINUOUS
 10
15.5677456985
 20
11.6912131785
 11
15.5675276409
 21
11.6975023275
  0
LWPOLYLINE
  5
275
100
AcDbEntity
  8
0
100
AcDbPolyline
 62
7
  6
CONTINUOUS
 90
5
 70
0
 10
15.4722259387
 20
11.3891059064
 10
15.4726135601
 20
11.4026378862
 10
15.474048382
 20
11.4175053199
 10
15.4764090192
 20
11.4323748053
 10
15.4794389994
 20
11.4458966438
  0
LWPOLYLINE
  5
276
100
AcDbEntity
  8
0
100
AcDbPolyline
 62
7
  6
CONTINUOUS
 90
5
 70
0
 10
15.5675276409
 20
11.6975023275
 10
15.5679152622
 20
11.7110343073
 10
15.5693500841
 20
11.725901741
 10
15.5717107213
 20
11.7407712264
 10
15.5747407015
 20
11.7542930649
  0
LWPOLYLINE
  5
277
100
AcDbEntity
  8
0
100
AcDbPolyline
 62
7
  6
CONTINUOUS
 90
3
 70
0
 10
16.1713794428
 20
13.6837320372
 10
16.1736284398
 20
13.6881359667
 10
16.1744510003
 20
13.6893627026
  0
LWPOLYLINE
  5
278
100
AcDbEntity
  8
0
100
AcDbPolyline
 62
7
  6
CONTINUOUS
 90
4
 70
0
 10
15.9104590975
 20
12.7124100122
 10
15.9144867979
 20
12.7130758741
 10
15.9201030499
 20
12.7165984188
 10
15.9241126435
 20
12.7218945696
  0
LINE
  5
279
100
AcDbEntity
  8
0
100
AcDbLine
 62
7
  6
CONTINUOUS
 10
15.6684663247
 20
11.9235320165
 11
15.6684650937
 21
11.9235467967
  0
LWPOLYLINE
  5
27A
100
AcDbEntity
  8
0
100
AcDbPolyline
 62
7
  6
CONTINUOUS
 90
3
 70
0
 10
15.6684663247
 20
11.9235320165
 10
15.6666189986
 20
11.9471288264
 10
15.6645856549
 20
11.9756529603
  0
LINE
  5
27B
100
AcDbEntity
  8
0
100
AcDbLine
 62
7
  6
CONTINUOUS
 10
15.6645856549
 20
11.9756529603
 11
15.6630480697
 21
11.999598858
  0
LINE
  5
27C
100
AcDbEntity
  8
0
100
AcDbLine
 62
7
  6
CONTINUOUS
 10
15.6687884701
 20
11.9164719211
 11
15.6684647465
 21
11.9235467675
  0
LINE
  5
27D
100
AcDbEntity
  8
0
100
AcDbLine
 62
7
  6
CONTINUOUS
 10
15.6630474007
 20
11.9996095996
 11
15.662829343
 21
12.0058987486
  0
LWPOLYLINE
  5
27E
100
AcDbEntity
  8
0
100
AcDbPolyline
 62
7
  6
CONTINUOUS
 90
5
 70
0
 10
15.662829343
 20
12.0058987486
 10
15.6632169643
 20
12.0194307284
 10
15.6646517863
 20
12.0342981622
 10
15.6670124234
 20
12.0491676475
 10
15.6700424037
 20
12.0626894861
  0
LWPOLYLINE
  5
27F
100
AcDbEntity
  8
0
100
AcDbPolyline
 62
7
  6
CONTINUOUS
 90
4
 70
0
 10
15.3784299205
 20
10.952504074
 10
15.3809270815
 20
10.9650812728
 10
15.382462424
 20
10.9784218717
 10
15.3828833637
 20
10.9912826577
  0
LWPOLYLINE
  5
280
100
AcDbEntity
  8
0
100
AcDbPolyline
 62
7
  6
CONTINUOUS
 90
4
 70
0
 10
15.4737316226
 20
11.2609004951
 10
15.4762287836
 20
11.2734776939
 10
15.4777641262
 20
11.2868182928
 10
15.4781850658
 20
11.2996790788
  0
LINE
  5
281
100
AcDbEntity
  8
0
100
AcDbLine
 62
7
  6
CONTINUOUS
 10
16.1687722879
 20
13.6769524989
 11
16.1713794428
 21
13.6837320372
  0
LINE
  5
282
100
AcDbEntity
  8
0
100
AcDbLine
 62
7
  6
CONTINUOUS
 10
16.0734705858
 20
13.3685560778
 11
16.0760777407
 21
13.3753356161
  0
LINE
  5
283
100
AcDbEntity
  8
0
100
AcDbLine
 62
7
  6
CONTINUOUS
 10
16.2100177499
 20
13.647083833
 11
16.2133800884
 21
13.6542968391
  0
LINE
  5
284
100
AcDbEntity
  8
0
100
AcDbLine
 62
7
  6
CONTINUOUS
 10
16.1147160478
 20
13.3386874119
 11
16.1180783863
 21
13.345900418
  0
LWPOLYLINE
  5
285
100
AcDbEntity
  8
0
100
AcDbPolyline
 62
7
  6
CONTINUOUS
 90
3
 70
0
 10
16.0760777407
 20
13.3753356161
 10
16.0783267377
 20
13.3797395456
 10
16.0791492981
 20
13.3809662815
  0
LWPOLYLINE
  5
286
100
AcDbEntity
  8
0
100
AcDbPolyline
 62
7
  6
CONTINUOUS
 90
3
 70
0
 10
15.9807760386
 20
13.066939195
 10
15.9830250356
 20
13.0713431244
 10
15.983847596
 20
13.0725698604
  0
LWPOLYLINE
  5
287
100
AcDbEntity
  8
0
100
AcDbPolyline
 62
7
  6
CONTINUOUS
 90
3
 70
0
 10
15.8854743364
 20
12.7585427738
 10
15.8877233335
 20
12.7629467033
 10
15.8885458939
 20
12.7641734392
  0
LINE
  5
288
100
AcDbEntity
  8
0
100
AcDbLine
 62
7
  6
CONTINUOUS
 10
15.8706590395
 20
12.7124098815
 11
15.9104580919
 21
12.7124098815
  0
LINE
  5
289
100
AcDbEntity
  8
0
100
AcDbLine
 62
7
  6
CONTINUOUS
 10
15.7637680268
 20
12.2319284376
 11
15.7637667958
 21
12.2319432178
  0
LWPOLYLINE
  5
28A
100
AcDbEntity
  8
0
100
AcDbPolyline
 62
7
  6
CONTINUOUS
 90
3
 70
0
 10
15.7637680268
 20
12.2319284376
 10
15.7619207008
 20
12.2555252475
 10
15.759887357
 20
12.2840493814
  0
LINE
  5
28B
100
AcDbEntity
  8
0
100
AcDbLine
 62
7
  6
CONTINUOUS
 10
15.759887357
 20
12.2840493814
 11
15.7583497718
 21
12.3079952791
  0
LINE
  5
28C
100
AcDbEntity
  8
0
100
AcDbLine
 62
7
  6
CONTINUOUS
 10
15.7640901722
 20
12.2248683422
 11
15.7637664487
 21
12.2319431887
  0
LINE
  5
28D
100
AcDbEntity
  8
0
100
AcDbLine
 62
7
  6
CONTINUOUS
 10
15.7583491028
 20
12.3080060207
 11
15.7581310451
 21
12.3142951698
  0
LWPOLYLINE
  5
28E
100
AcDbEntity
  8
0
100
AcDbPolyline
 62
7
  6
CONTINUOUS
 90
5
 70
0
 10
15.7581310451
 20
12.3142951698
 10
15.7585186664
 20
12.3278271495
 10
15.7599534884
 20
12.3426945833
 10
15.7623141256
 20
12.3575640686
 10
15.7653441058
 20
12.3710859072
  0
LWPOLYLINE
  5
28F
100
AcDbEntity
  8
0
100
AcDbPolyline
 62
7
  6
CONTINUOUS
 90
5
 70
0
 10
15.8534327472
 20
12.6226915909
 10
15.8538203686
 20
12.6362235706
 10
15.8552551905
 20
12.6510910044
 10
15.8576158277
 20
12.6659604898
 10
15.8606458079
 20
12.6794823283
  0
LWPOLYLINE
  5
290
100
AcDbEntity
  8
0
100
AcDbPolyline
 62
7
  6
CONTINUOUS
 90
4
 70
0
 10
15.5690333247
 20
11.5692969163
 10
15.5715304858
 20
11.581874115
 10
15.5730658283
 20
11.5952147139
 10
15.5734867679
 20
11.6080754999
  0
LWPOLYLINE
  5
291
100
AcDbEntity
  8
0
100
AcDbPolyline
 62
7
  6
CONTINUOUS
 90
4
 70
0
 10
15.6643350269
 20
11.8776933374
 10
15.6668321879
 20
11.8902705361
 10
15.6683675304
 20
11.9036111351
 10
15.6687884701
 20
11.9164719211
  0
LWPOLYLINE
  5
292
100
AcDbEntity
  8
0
100
AcDbPolyline
 62
7
  6
CONTINUOUS
 90
4
 70
0
 10
15.759636729
 20
12.1860897585
 10
15.76213389
 20
12.1986669572
 10
15.7636692325
 20
12.2120075562
 10
15.7640901722
 20
12.2248683422
  0
LWPOLYLINE
  5
293
100
AcDbEntity
  8
0
100
AcDbPolyline
 62
7
  6
CONTINUOUS
 90
4
 70
0
 10
15.8549384311
 20
12.4944861796
 10
15.8574355921
 20
12.5070633783
 10
15.8589709347
 20
12.5204039773
 10
15.8593918743
 20
12.5332647633
  0
LINE
  5
294
100
AcDbEntity
  8
0
100
AcDbLine
 62
7
  6
CONTINUOUS
 10
15.3767251834
 20
10.9463322403
 11
15.3784299205
 21
10.952504074
  0
LINE
  5
295
100
AcDbEntity
  8
0
100
AcDbLine
 62
7
  6
CONTINUOUS
 10
15.4720268855
 20
11.2547286614
 11
15.4737316226
 21
11.2609004951
  0
LINE
  5
296
100
AcDbEntity
  8
0
100
AcDbLine
 62
7
  6
CONTINUOUS
 10
15.5673285876
 20
11.5631250825
 11
15.5690333247
 21
11.5692969163
  0
LINE
  5
297
100
AcDbEntity
  8
0
100
AcDbLine
 62
7
  6
CONTINUOUS
 10
15.6626302897
 20
11.8715215036
 11
15.6643350269
 21
11.8776933374
  0
LINE
  5
298
100
AcDbEntity
  8
0
100
AcDbLine
 62
7
  6
CONTINUOUS
 10
15.7579319919
 20
12.1799179247
 11
15.759636729
 21
12.1860897585
  0
LINE
  5
299
100
AcDbEntity
  8
0
100
AcDbLine
 62
7
  6
CONTINUOUS
 10
15.853233694
 20
12.4883143459
 11
15.8549384311
 21
12.4944861796
  0
LINE
  5
29A
100
AcDbEntity
  8
0
100
AcDbLine
 62
7
  6
CONTINUOUS
 10
15.3841372973
 20
11.1375002227
 11
15.3859774202
 21
11.1439799089
  0
LINE
  5
29B
100
AcDbEntity
  8
0
100
AcDbLine
 62
7
  6
CONTINUOUS
 10
15.4794389994
 20
11.4458966438
 11
15.4812791223
 21
11.4523763301
  0
LINE
  5
29C
100
AcDbEntity
  8
0
100
AcDbLine
 62
7
  6
CONTINUOUS
 10
15.5747407015
 20
11.7542930649
 11
15.5765808244
 21
11.7607727512
  0
LINE
  5
29D
100
AcDbEntity
  8
0
100
AcDbLine
 62
7
  6
CONTINUOUS
 10
15.6700424037
 20
12.0626894861
 11
15.6718825266
 21
12.0691691723
  0
LINE
  5
29E
100
AcDbEntity
  8
0
100
AcDbLine
 62
7
  6
CONTINUOUS
 10
15.7653441058
 20
12.3710859072
 11
15.7671842287
 21
12.3775655934
  0
LINE
  5
29F
100
AcDbEntity
  8
0
100
AcDbLine
 62
7
  6
CONTINUOUS
 10
15.8606458079
 20
12.6794823283
 11
15.8624859308
 21
12.6859620145
  0
LINE
  5
2A0
100
AcDbEntity
  8
0
100
AcDbLine
 62
7
  6
CONTINUOUS
 10
15.95594751
 20
12.9878787494
 11
15.957787633
 21
12.9943584356
  0
LINE
  5
2A1
100
AcDbEntity
  8
0
100
AcDbLine
 62
7
  6
CONTINUOUS
 10
16.0512492122
 20
13.2962751705
 11
16.0530893351
 21
13.3027548567
  0
LINE
  5
2A2
100
AcDbEntity
  8
0
100
AcDbLine
 62
7
  6
CONTINUOUS
 10
16.1465509143
 20
13.6046715916
 11
16.1483910372
 21
13.6111512779
  0
LINE
  5
2A3
100
AcDbEntity
  8
0
100
AcDbLine
 62
7
  6
CONTINUOUS
 10
16.2418526164
 20
13.9130680127
 11
16.2436927393
 21
13.919547699
  0
LINE
  5
2A4
100
AcDbEntity
  8
0
100
AcDbLine
 62
7
  6
CONTINUOUS
 10
15.3008057732
 20
10.868364036
 11
15.310023293
 21
10.8981919412
  0
LINE
  5
2A5
100
AcDbEntity
  8
0
100
AcDbLine
 62
7
  6
CONTINUOUS
 10
15.3859795085
 20
11.1439863446
 11
15.4053249952
 21
11.2065883623
  0
LINE
  5
2A6
100
AcDbEntity
  8
0
100
AcDbLine
 62
7
  6
CONTINUOUS
 10
15.4812812107
 20
11.4523827657
 11
15.5006266973
 21
11.5149847834
  0
LINE
  5
2A7
100
AcDbEntity
  8
0
100
AcDbLine
 62
7
  6
CONTINUOUS
 10
15.5765829128
 20
11.7607791868
 11
15.5959283994
 21
11.8233812045
  0
LINE
  5
2A8
100
AcDbEntity
  8
0
100
AcDbLine
 62
7
  6
CONTINUOUS
 10
15.6718846149
 20
12.0691756079
 11
15.6912301016
 21
12.1317776257
  0
LINE
  5
2A9
100
AcDbEntity
  8
0
100
AcDbLine
 62
7
  6
CONTINUOUS
 10
15.767186317
 20
12.3775720291
 11
15.7865318037
 21
12.4401740468
  0
LINE
  5
2AA
100
AcDbEntity
  8
0
100
AcDbLine
 62
7
  6
CONTINUOUS
 10
15.8624880192
 20
12.6859684502
 11
15.8818335058
 21
12.7485704679
  0
LINE
  5
2AB
100
AcDbEntity
  8
0
100
AcDbLine
 62
7
  6
CONTINUOUS
 10
15.9577897213
 20
12.9943648713
 11
15.9771352079
 21
13.056966889
  0
LINE
  5
2AC
100
AcDbEntity
  8
0
100
AcDbLine
 62
7
  6
CONTINUOUS
 10
16.0530914234
 20
13.3027612924
 11
16.0724369101
 21
13.3653633101
  0
LINE
  5
2AD
100
AcDbEntity
  8
0
100
AcDbLine
 62
7
  6
CONTINUOUS
 10
16.1483931256
 20
13.6111577135
 11
16.1677386122
 21
13.6737597312
  0
LINE
  5
2AE
100
AcDbEntity
  8
0
100
AcDbLine
 62
7
  6
CONTINUOUS
 10
16.2436948277
 20
13.9195541346
 11
16.2533675708
 21
13.9508551429
  0
LINE
  5
2AF
100
AcDbEntity
  8
0
100
AcDbLine
 62
7
  6
CONTINUOUS
 10
15.3573829688
 20
10.8837391893
 11
15.3767284552
 21
10.9463412064
  0
LINE
  5
2B0
100
AcDbEntity
  8
0
100
AcDbLine
 62
7
  6
CONTINUOUS
 10
15.4526846709
 20
11.1921356104
 11
15.4720301574
 21
11.2547376275
  0
LINE
  5
2B1
100
AcDbEntity
  8
0
100
AcDbLine
 62
7
  6
CONTINUOUS
 10
15.547986373
 20
11.5005320315
 11
15.5673318595
 21
11.5631340486
  0
LINE
  5
2B2
100
AcDbEntity
  8
0
100
AcDbLine
 62
7
  6
CONTINUOUS
 10
15.6432880752
 20
11.8089284527
 11
15.6626335616
 21
11.8715304697
  0
LINE
  5
2B3
100
AcDbEntity
  8
0
100
AcDbLine
 62
7
  6
CONTINUOUS
 10
15.7385897773
 20
12.1173248738
 11
15.7579352637
 21
12.1799268908
  0
LINE
  5
2B4
100
AcDbEntity
  8
0
100
AcDbLine
 62
7
  6
CONTINUOUS
 10
15.8338914794
 20
12.4257212949
 11
15.8532369659
 21
12.4883233119
  0
LINE
  5
2B5
100
AcDbEntity
  8
0
100
AcDbLine
 62
7
  6
CONTINUOUS
 10
15.9291931816
 20
12.734117716
 11
15.948538668
 21
12.7967197331
  0
LINE
  5
2B6
100
AcDbEntity
  8
0
100
AcDbLine
 62
7
  6
CONTINUOUS
 10
16.0244948837
 20
13.0425141371
 11
16.0438403701
 21
13.1051161542
  0
LINE
  5
2B7
100
AcDbEntity
  8
0
100
AcDbLine
 62
7
  6
CONTINUOUS
 10
16.1197965858
 20
13.3509105582
 11
16.1391420723
 21
13.4135125753
  0
LINE
  5
2B8
100
AcDbEntity
  8
0
100
AcDbLine
 62
7
  6
CONTINUOUS
 10
16.2150982879
 20
13.6593069793
 11
16.2344437744
 21
13.7219089964
  0
LINE
  5
2B9
100
AcDbEntity
  8
0
100
AcDbLine
 62
7
  6
CONTINUOUS
 10
16.1677394319
 20
13.6737627097
 11
16.1687722879
 21
13.6769524989
  0
LINE
  5
2BA
100
AcDbEntity
  8
0
100
AcDbLine
 62
7
  6
CONTINUOUS
 10
16.0724377298
 20
13.3653662886
 11
16.0734705858
 21
13.3685560778
  0
LINE
  5
2BB
100
AcDbEntity
  8
0
100
AcDbLine
 62
7
  6
CONTINUOUS
 10
15.9771360276
 20
13.0569698675
 11
15.9781688837
 21
13.0601596567
  0
LINE
  5
2BC
100
AcDbEntity
  8
0
100
AcDbLine
 62
7
  6
CONTINUOUS
 10
15.8818343255
 20
12.7485734464
 11
15.8828671815
 21
12.7517632356
  0
LINE
  5
2BD
100
AcDbEntity
  8
0
100
AcDbLine
 62
7
  6
CONTINUOUS
 10
15.7865326234
 20
12.4401770253
 11
15.7875654794
 21
12.4433668144
  0
LINE
  5
2BE
100
AcDbEntity
  8
0
100
AcDbLine
 62
7
  6
CONTINUOUS
 10
15.6912309213
 20
12.1317806042
 11
15.6922637773
 21
12.1349703933
  0
LINE
  5
2BF
100
AcDbEntity
  8
0
100
AcDbLine
 62
7
  6
CONTINUOUS
 10
15.5959292191
 20
11.823384183
 11
15.5969620752
 21
11.8265739722
  0
LINE
  5
2C0
100
AcDbEntity
  8
0
100
AcDbLine
 62
7
  6
CONTINUOUS
 10
15.500627517
 20
11.5149877619
 11
15.501660373
 21
11.5181775511
  0
LINE
  5
2C1
100
AcDbEntity
  8
0
100
AcDbLine
 62
7
  6
CONTINUOUS
 10
15.4053258149
 20
11.2065913408
 11
15.4063586709
 21
11.20978113
  0
LINE
  5
2C2
100
AcDbEntity
  8
0
100
AcDbLine
 62
7
  6
CONTINUOUS
 10
15.3100241127
 20
10.8981949197
 11
15.3110569688
 21
10.9013847089
  0
LINE
  5
2C3
100
AcDbEntity
  8
0
100
AcDbLine
 62
7
  6
CONTINUOUS
 10
16.2133800884
 20
13.6542968391
 11
16.2151018251
 21
13.6593198605
  0
LINE
  5
2C4
100
AcDbEntity
  8
0
100
AcDbLine
 62
7
  6
CONTINUOUS
 10
16.1180783863
 20
13.345900418
 11
16.119800123
 21
13.3509234394
  0
LINE
  5
2C5
100
AcDbEntity
  8
0
100
AcDbLine
 62
7
  6
CONTINUOUS
 10
16.0227766841
 20
13.0375039969
 11
16.0244984208
 21
13.0425270183
  0
LINE
  5
2C6
100
AcDbEntity
  8
0
100
AcDbLine
 62
7
  6
CONTINUOUS
 10
15.927474982
 20
12.7291075758
 11
15.9291967187
 21
12.7341305972
  0
LINE
  5
2C7
100
AcDbEntity
  8
0
100
AcDbLine
 62
7
  6
CONTINUOUS
 10
15.8321732799
 20
12.4207111546
 11
15.8338950166
 21
12.4257341761
  0
LINE
  5
2C8
100
AcDbEntity
  8
0
100
AcDbLine
 62
7
  6
CONTINUOUS
 10
15.7368715777
 20
12.1123147335
 11
15.7385933144
 21
12.117337755
  0
LINE
  5
2C9
100
AcDbEntity
  8
0
100
AcDbLine
 62
7
  6
CONTINUOUS
 10
15.9781688837
 20
13.0601596567
 11
15.9807760386
 21
13.066939195
  0
LINE
  5
2CA
100
AcDbEntity
  8
0
100
AcDbLine
 62
7
  6
CONTINUOUS
 10
15.8828671815
 20
12.7517632356
 11
15.8854743364
 21
12.7585427738
  0
LINE
  5
2CB
100
AcDbEntity
  8
0
100
AcDbLine
 62
7
  6
CONTINUOUS
 10
15.7875654794
 20
12.4433668144
 11
15.7901726343
 21
12.4501463527
  0
LINE
  5
2CC
100
AcDbEntity
  8
0
100
AcDbLine
 62
7
  6
CONTINUOUS
 10
15.6922637773
 20
12.1349703933
 11
15.6948709322
 21
12.1417499316
  0
LINE
  5
2CD
100
AcDbEntity
  8
0
100
AcDbLine
 62
7
  6
CONTINUOUS
 10
15.5969620752
 20
11.8265739722
 11
15.5995692301
 21
11.8333535105
  0
LINE
  5
2CE
100
AcDbEntity
  8
0
100
AcDbLine
 62
7
  6
CONTINUOUS
 10
16.0194143457
 20
13.0302909908
 11
16.0227766841
 21
13.0375039969
  0
LINE
  5
2CF
100
AcDbEntity
  8
0
100
AcDbLine
 62
7
  6
CONTINUOUS
 10
15.9241126435
 20
12.7218945696
 11
15.927474982
 21
12.7291075758
  0
LINE
  5
2D0
100
AcDbEntity
  8
0
100
AcDbLine
 62
7
  6
CONTINUOUS
 10
15.8288109414
 20
12.4134981485
 11
15.8321732799
 21
12.4207111546
  0
LWPOLYLINE
  5
2D1
100
AcDbEntity
  8
0
100
AcDbPolyline
 62
7
  6
CONTINUOUS
 90
3
 70
0
 10
15.7901726343
 20
12.4501463527
 10
15.7924216313
 20
12.4545502822
 10
15.7932441918
 20
12.4557770181
  0
LWPOLYLINE
  5
2D2
100
AcDbEntity
  8
0
100
AcDbPolyline
 62
7
  6
CONTINUOUS
 90
3
 70
0
 10
15.6948709322
 20
12.1417499316
 10
15.6971199292
 20
12.1461538611
 10
15.6979424896
 20
12.147380597
  0
LINE
  5
2D3
100
AcDbEntity
  8
0
100
AcDbLine
 62
7
  6
CONTINUOUS
 10
15.8590697289
 20
12.5403248587
 11
15.859068498
 21
12.5403396389
  0
LWPOLYLINE
  5
2D4
100
AcDbEntity
  8
0
100
AcDbPolyline
 62
7
  6
CONTINUOUS
 90
3
 70
0
 10
15.8590697289
 20
12.5403248587
 10
15.8572224029
 20
12.5639216687
 10
15.8551890592
 20
12.5924458025
  0
LINE
  5
2D5
100
AcDbEntity
  8
0
100
AcDbLine
 62
7
  6
CONTINUOUS
 10
15.8551890592
 20
12.5924458025
 11
15.853651474
 21
12.6163917002
  0
LINE
  5
2D6
100
AcDbEntity
  8
0
100
AcDbLine
 62
7
  6
CONTINUOUS
 10
15.9489531761
 20
12.9247881213
 11
15.9489525071
 21
12.924798863
  0
LINE
  5
2D7
100
AcDbEntity
  8
0
100
AcDbLine
 62
7
  6
CONTINUOUS
 10
15.8593918743
 20
12.5332647633
 11
15.8590681508
 21
12.5403396098
  0
LINE
  5
2D8
100
AcDbEntity
  8
0
100
AcDbLine
 62
7
  6
CONTINUOUS
 10
15.9546935764
 20
12.8416611844
 11
15.9543698529
 21
12.8487360309
  0
LINE
  5
2D9
100
AcDbEntity
  8
0
100
AcDbLine
 62
7
  6
CONTINUOUS
 10
15.8536508049
 20
12.6164024419
 11
15.8534327472
 21
12.6226915909
  0
LINE
  5
2DA
100
AcDbEntity
  8
0
100
AcDbLine
 62
7
  6
CONTINUOUS
 10
15.9489525071
 20
12.924798863
 11
15.9487344494
 21
12.931088012
  0
LWPOLYLINE
  5
2DB
100
AcDbEntity
  8
0
100
AcDbPolyline
 62
7
  6
CONTINUOUS
 90
5
 70
0
 10
15.9487344494
 20
12.931088012
 10
15.9491220707
 20
12.9446199917
 10
15.9505568926
 20
12.9594874255
 10
15.9529175298
 20
12.9743569109
 10
15.95594751
 20
12.9878787494
  0
LWPOLYLINE
  5
2DC
100
AcDbEntity
  8
0
100
AcDbPolyline
 62
7
  6
CONTINUOUS
 90
4
 70
0
 10
15.9502401333
 20
12.8028826007
 10
15.9527372943
 20
12.8154597995
 10
15.9542726368
 20
12.8288003984
 10
15.9546935764
 20
12.8416611844
  0
LWPOLYLINE
  5
2DD
100
AcDbEntity
  8
0
100
AcDbPolyline
 62
7
  6
CONTINUOUS
 90
4
 70
0
 10
16.0455418354
 20
13.1112790218
 10
16.0480389964
 20
13.1238562206
 10
16.0495743389
 20
13.1371968195
 10
16.0499952786
 20
13.1500576055
  0
LWPOLYLINE
  5
2DE
100
AcDbEntity
  8
0
100
AcDbPolyline
 62
7
  6
CONTINUOUS
 90
4
 70
0
 10
16.1408435375
 20
13.4196754429
 10
16.1433406985
 20
13.4322526417
 10
16.1448760411
 20
13.4455932406
 10
16.1452969807
 20
13.4584540266
  0
LINE
  5
2DF
100
AcDbEntity
  8
0
100
AcDbLine
 62
7
  6
CONTINUOUS
 10
15.9485353961
 20
12.796710767
 11
15.9502401333
 21
12.8028826007
  0
LINE
  5
2E0
100
AcDbEntity
  8
0
100
AcDbLine
 62
7
  6
CONTINUOUS
 10
16.0438370983
 20
13.1051071881
 11
16.0455418354
 21
13.1112790218
  0
LINE
  5
2E1
100
AcDbEntity
  8
0
100
AcDbLine
 62
7
  6
CONTINUOUS
 10
16.1391388004
 20
13.4135036092
 11
16.1408435375
 21
13.4196754429
  0
LINE
  5
2E2
100
AcDbEntity
  8
0
100
AcDbLine
 62
7
  6
CONTINUOUS
 10
16.2344405025
 20
13.7219000303
 11
16.2361452396
 21
13.728071864
  0
LINE
  5
2E3
100
AcDbEntity
  8
0
100
AcDbLine
 62
7
  6
CONTINUOUS
 10
15.6415698756
 20
11.8039183124
 11
15.6432916123
 21
11.8089413339
  0
LINE
  5
2E4
100
AcDbEntity
  8
0
100
AcDbLine
 62
7
  6
CONTINUOUS
 10
15.5462681735
 20
11.4955218913
 11
15.5479899102
 21
11.5005449127
  0
LINE
  5
2E5
100
AcDbEntity
  8
0
100
AcDbLine
 62
7
  6
CONTINUOUS
 10
15.4509664714
 20
11.1871254702
 11
15.4526882081
 21
11.1921484916
  0
LINE
  5
2E6
100
AcDbEntity
  8
0
100
AcDbLine
 62
7
  6
CONTINUOUS
 10
15.3556647692
 20
10.8787290491
 11
15.3573865059
 21
10.8837520705
  0
LINE
  5
2E7
100
AcDbEntity
  8
0
100
AcDbLine
 62
7
  6
CONTINUOUS
 10
15.501660373
 20
11.5181775511
 11
15.5042675279
 21
11.5249570894
  0
LINE
  5
2E8
100
AcDbEntity
  8
0
100
AcDbLine
 62
7
  6
CONTINUOUS
 10
15.4063586709
 20
11.20978113
 11
15.4089658258
 21
11.2165606683
  0
LINE
  5
2E9
100
AcDbEntity
  8
0
100
AcDbLine
 62
7
  6
CONTINUOUS
 10
15.3110569688
 20
10.9013847089
 11
15.3136641237
 21
10.9081642472
  0
LINE
  5
2EA
100
AcDbEntity
  8
0
100
AcDbLine
 62
7
  6
CONTINUOUS
 10
15.7335092393
 20
12.1051017274
 11
15.7368715777
 21
12.1123147335
  0
LINE
  5
2EB
100
AcDbEntity
  8
0
100
AcDbLine
 62
7
  6
CONTINUOUS
 10
15.6382075371
 20
11.7967053063
 11
15.6415698756
 21
11.8039183124
  0
LINE
  5
2EC
100
AcDbEntity
  8
0
100
AcDbLine
 62
7
  6
CONTINUOUS
 10
15.542905835
 20
11.4883088852
 11
15.5462681735
 21
11.4955218913
  0
LWPOLYLINE
  5
2ED
100
AcDbEntity
  8
0
100
AcDbPolyline
 62
7
  6
CONTINUOUS
 90
3
 70
0
 10
15.5995692301
 20
11.8333535105
 10
15.6018182271
 20
11.83775744
 10
15.6026407875
 20
11.8389841759
  0
LWPOLYLINE
  5
2EE
100
AcDbEntity
  8
0
100
AcDbPolyline
 62
7
  6
CONTINUOUS
 90
3
 70
0
 10
15.5042675279
 20
11.5249570894
 10
15.5065165249
 20
11.5293610189
 10
15.5073390854
 20
11.5305877548
  0
LWPOLYLINE
  5
2EF
100
AcDbEntity
  8
0
100
AcDbPolyline
 62
7
  6
CONTINUOUS
 90
4
 70
0
 10
16.0057607996
 20
13.0208064333
 10
16.0097885
 20
13.0214722952
 10
16.015404752
 20
13.0249948399
 10
16.0194143457
 20
13.0302909908
  0
LINE
  5
2F0
100
AcDbEntity
  8
0
100
AcDbLine
 62
7
  6
CONTINUOUS
 10
15.954371431
 20
12.8487212798
 11
15.9543702001
 21
12.84873606
  0
LWPOLYLINE
  5
2F1
100
AcDbEntity
  8
0
100
AcDbPolyline
 62
7
  6
CONTINUOUS
 90
3
 70
0
 10
15.954371431
 20
12.8487212798
 10
15.952524105
 20
12.8723180898
 10
15.9504907613
 20
12.9008422236
  0
LINE
  5
2F2
100
AcDbEntity
  8
0
100
AcDbLine
 62
7
  6
CONTINUOUS
 10
15.9504907613
 20
12.9008422236
 11
15.9489531761
 21
12.9247881213
  0
LINE
  5
2F3
100
AcDbEntity
  8
0
100
AcDbLine
 62
7
  6
CONTINUOUS
 10
16.0457924634
 20
13.2092386447
 11
16.0442548782
 21
13.2331845424
  0
LINE
  5
2F4
100
AcDbEntity
  8
0
100
AcDbLine
 62
7
  6
CONTINUOUS
 10
16.0499952786
 20
13.1500576055
 11
16.049671555
 21
13.157132452
  0
LINE
  5
2F5
100
AcDbEntity
  8
0
100
AcDbLine
 62
7
  6
CONTINUOUS
 10
16.0442542092
 20
13.2331952841
 11
16.0440361515
 21
13.2394844331
  0
LWPOLYLINE
  5
2F6
100
AcDbEntity
  8
0
100
AcDbPolyline
 62
7
  6
CONTINUOUS
 90
5
 70
0
 10
16.0440361515
 20
13.2394844331
 10
16.0444237728
 20
13.2530164128
 10
16.0458585948
 20
13.2678838466
 10
16.0482192319
 20
13.282753332
 10
16.0512492122
 20
13.2962751705
  0
LWPOLYLINE
  5
2F7
100
AcDbEntity
  8
0
100
AcDbPolyline
 62
7
  6
CONTINUOUS
 90
4
 70
0
 10
16.2361452396
 20
13.728071864
 10
16.2386424007
 20
13.7406490628
 10
16.2401777432
 20
13.7539896617
 10
16.2405986828
 20
13.7668504477
  0
LINE
  5
2F8
100
AcDbEntity
  8
0
100
AcDbLine
 62
7
  6
CONTINUOUS
 10
15.4476041329
 20
11.1799124641
 11
15.4509664714
 21
11.1871254702
  0
LINE
  5
2F9
100
AcDbEntity
  8
0
100
AcDbLine
 62
7
  6
CONTINUOUS
 10
15.3523024308
 20
10.871516043
 11
15.3556647692
 21
10.8787290491
  0
LWPOLYLINE
  5
2FA
100
AcDbEntity
  8
0
100
AcDbPolyline
 62
7
  6
CONTINUOUS
 90
3
 70
0
 10
15.4089658258
 20
11.2165606683
 10
15.4112148228
 20
11.2209645978
 10
15.4120373832
 20
11.2221913337
  0
LWPOLYLINE
  5
2FB
100
AcDbEntity
  8
0
100
AcDbPolyline
 62
7
  6
CONTINUOUS
 90
3
 70
0
 10
15.3136641237
 20
10.9081642472
 10
15.3159131207
 20
10.9125681767
 10
15.3167356811
 20
10.9137949126
  0
LINE
  5
2FC
100
AcDbEntity
  8
0
100
AcDbLine
 62
7
  6
CONTINUOUS
 10
15.9659607416
 20
13.0208063026
 11
16.005759794
 21
13.0208063026
  0
LINE
  5
2FD
100
AcDbEntity
  8
0
100
AcDbLine
 62
7
  6
CONTINUOUS
 10
16.0496731332
 20
13.1571177009
 11
16.0496719022
 21
13.1571324812
  0
LWPOLYLINE
  5
2FE
100
AcDbEntity
  8
0
100
AcDbPolyline
 62
7
  6
CONTINUOUS
 90
3
 70
0
 10
16.0496731332
 20
13.1571177009
 10
16.0478258071
 20
13.1807145109
 10
16.0457924634
 20
13.2092386447
  0
LINE
  5
2FF
100
AcDbEntity
  8
0
100
AcDbLine
 62
7
  6
CONTINUOUS
 10
16.1410941656
 20
13.5176350658
 11
16.1395565804
 21
13.5415809636
  0
LINE
  5
300
100
AcDbEntity
  8
0
100
AcDbLine
 62
7
  6
CONTINUOUS
 10
16.1452969807
 20
13.4584540266
 11
16.1449732572
 21
13.4655288731
  0
LINE
  5
301
100
AcDbEntity
  8
0
100
AcDbLine
 62
7
  6
CONTINUOUS
 10
16.1395559113
 20
13.5415917052
 11
16.1393378536
 21
13.5478808542
  0
LWPOLYLINE
  5
302
100
AcDbEntity
  8
0
100
AcDbPolyline
 62
7
  6
CONTINUOUS
 90
5
 70
0
 10
16.1393378536
 20
13.5478808542
 10
16.139725475
 20
13.5614128339
 10
16.1411602969
 20
13.5762802677
 10
16.1435209341
 20
13.5911497531
 10
16.1465509143
 20
13.6046715916
  0
LWPOLYLINE
  5
303
100
AcDbEntity
  8
0
100
AcDbPolyline
 62
7
  6
CONTINUOUS
 90
5
 70
0
 10
16.2346395558
 20
13.8562772753
 10
16.2350271771
 20
13.8698092551
 10
16.236461999
 20
13.8846766888
 10
16.2388226362
 20
13.8995461742
 10
16.2418526164
 20
13.9130680127
  0
LINE
  5
304
100
AcDbEntity
  8
0
100
AcDbLine
 62
7
  6
CONTINUOUS
 10
16.2534698336
 20
13.9524373202
 11
16.253368044
 21
13.9508549967
  0
LWPOLYLINE
  5
305
100
AcDbEntity
  8
0
100
AcDbPolyline
 62
7
  6
CONTINUOUS
 90
4
 70
0
 10
16.1010625018
 20
13.3292028544
 10
16.1050902022
 20
13.3298687163
 10
16.1107064541
 20
13.333391261
 10
16.1147160478
 20
13.3386874119
  0
LINE
  5
306
100
AcDbEntity
  8
0
100
AcDbLine
 62
7
  6
CONTINUOUS
 10
16.1449748353
 20
13.465514122
 11
16.1449736043
 21
13.4655289023
  0
LWPOLYLINE
  5
307
100
AcDbEntity
  8
0
100
AcDbPolyline
 62
7
  6
CONTINUOUS
 90
3
 70
0
 10
16.1449748353
 20
13.465514122
 10
16.1431275093
 20
13.489110932
 10
16.1410941656
 20
13.5176350658
  0
LWPOLYLINE
  5
308
100
AcDbEntity
  8
0
100
AcDbPolyline
 62
7
  6
CONTINUOUS
 90
3
 70
0
 10
16.2402765374
 20
13.7739105432
 10
16.2384292114
 20
13.7975073531
 10
16.2363958677
 20
13.8260314869
  0
LINE
  5
309
100
AcDbEntity
  8
0
100
AcDbLine
 62
7
  6
CONTINUOUS
 10
16.2363958677
 20
13.8260314869
 11
16.2348582825
 21
13.8499773847
  0
LINE
  5
30A
100
AcDbEntity
  8
0
100
AcDbLine
 62
7
  6
CONTINUOUS
 10
16.2405986828
 20
13.7668504477
 11
16.2402749593
 21
13.7739252942
  0
LINE
  5
30B
100
AcDbEntity
  8
0
100
AcDbLine
 62
7
  6
CONTINUOUS
 10
16.2348576134
 20
13.8499881263
 11
16.2346395558
 21
13.8562772753
  0
LINE
  5
30C
100
AcDbEntity
  8
0
100
AcDbLine
 62
7
  6
CONTINUOUS
 10
16.0612624437
 20
13.3292027237
 11
16.1010614961
 21
13.3292027237
  0
LINE
  5
30D
100
AcDbEntity
  8
0
100
AcDbLine
 62
7
  6
CONTINUOUS
 10
16.2402765374
 20
13.7739105432
 11
16.2402753065
 21
13.7739253234
  0
LWPOLYLINE
  5
30E
100
AcDbEntity
  8
0
100
AcDbPolyline
 62
7
  6
CONTINUOUS
 90
4
 70
0
 10
16.1963642039
 20
13.6375992755
 10
16.2003919043
 20
13.6382651374
 10
16.2060081563
 20
13.6417876821
 10
16.2100177499
 20
13.647083833
  0
LINE
  5
30F
100
AcDbEntity
  8
0
100
AcDbLine
 62
7
  6
CONTINUOUS
 10
16.1565641459
 20
13.6375991449
 11
16.1963631983
 21
13.6375991449
  0
LINE
  5
310
100
AcDbEntity
  8
0
100
AcDbLine
 62
7
  6
CONTINUOUS
 10
16.2286507339
 20
14.1398807303
 11
16.2222565459
 21
14.1529107155
  0
ARC
  5
311
100
AcDbEntity
  8
0
100
AcDbCircle
 62
7
  6
CONTINUOUS
 10
0.3585019007
 20
4.1931249002
 40
5.6692913386
100
AcDbArc
 50
12.7350602432
 51
15.5916436924
  0
ARC
  5
312
100
AcDbEntity
  8
0
100
AcDbCircle
 62
7
  6
CONTINUOUS
 10
0.3585019007
 20
4.1931249002
 40
5.6692913386
100
AcDbArc
 50
10.9763330997
 51
12.7144905882
  0
ARC
  5
313
100
AcDbEntity
  8
0
100
AcDbCircle
 62
7
  6
CONTINUOUS
 10
5.8215003962
 20
5.7653878341
 40
0.00609375
100
AcDbArc
 50
91.7848800684
 51
180.0
  0
ARC
  5
314
100
AcDbEntity
  8
0
100
AcDbCircle
 62
7
  6
CONTINUOUS
 10
5.8980817282
 20
5.4450855399
 40
0.01
100
AcDbArc
 50
192.7350602432
 51
270.0
  0
ARC
  5
315
100
AcDbEntity
  8
0
100
AcDbCircle
 62
7
  6
CONTINUOUS
 10
5.933895586
 20
5.2744830618
 40
0.01
100
AcDbArc
 50
190.9833052582
 51
270.0012723201
  0
ARC
  5
316
100
AcDbEntity
  8
0
100
AcDbCircle
 62
7
  6
CONTINUOUS
 10
5.917768851
 20
5.7444261605
 40
0.1023622047
100
AcDbArc
 50
180.0
 51
195.5916436924
  0
ARC
  5
317
100
AcDbEntity
  8
0
100
AcDbCircle
 62
7
  6
CONTINUOUS
 10
6.1303672762
 20
-4.1462269511
 40
9.92251984
100
AcDbArc
 50
88.2151199316
 51
91.7848800684
  0
ARC
  5
318
100
AcDbEntity
  8
0
100
AcDbCircle
 62
7
  6
CONTINUOUS
 10
6.3268390004
 20
5.2744832499
 40
0.01
100
AcDbArc
 50
269.9985325264
 51
349.0155993685
  0
ARC
  5
319
100
AcDbEntity
  8
0
100
AcDbCircle
 62
7
  6
CONTINUOUS
 10
6.3626528241
 20
5.4450855399
 40
0.01
100
AcDbArc
 50
270.0
 51
347.2649397568
  0
ARC
  5
31A
100
AcDbEntity
  8
0
100
AcDbCircle
 62
7
  6
CONTINUOUS
 10
6.3429657014
 20
5.7444261605
 40
0.1023622047
100
AcDbArc
 50
344.4083563076
 51
360.0
  0
ARC
  5
31B
100
AcDbEntity
  8
0
100
AcDbCircle
 62
7
  6
CONTINUOUS
 10
6.4392341561
 20
5.7653878341
 40
0.00609375
100
AcDbArc
 50
0.0
 51
88.2151199316
  0
ARC
  5
31C
100
AcDbEntity
  8
0
100
AcDbCircle
 62
7
  6
CONTINUOUS
 10
11.9022326516
 20
4.1931249002
 40
5.6692913386
100
AcDbArc
 50
164.4083563076
 51
167.2649397568
  0
ARC
  5
31D
100
AcDbEntity
  8
0
100
AcDbCircle
 62
7
  6
CONTINUOUS
 10
11.9022326516
 20
4.1931249002
 40
5.6692913386
100
AcDbArc
 50
167.28550941
 51
169.0236669003
  0
ARC
  5
31E
100
AcDbEntity
  8
0
100
AcDbCircle
 62
7
  6
CONTINUOUS
 10
13.748742652
 20
5.25373058
 40
0.048743907
100
AcDbArc
 50
193.0
 51
270.0
  0
ARC
  5
31F
100
AcDbEntity
  8
0
100
AcDbCircle
 62
7
  6
CONTINUOUS
 10
14.1424434394
 20
5.25373058
 40
0.048743907
100
AcDbArc
 50
193.0
 51
270.0
  0
ARC
  5
320
100
AcDbEntity
  8
0
100
AcDbCircle
 62
7
  6
CONTINUOUS
 10
13.8286607753
 20
5.25373058
 40
0.048743907
100
AcDbArc
 50
270.0
 51
347.0
  0
ARC
  5
321
100
AcDbEntity
  8
0
100
AcDbCircle
 62
7
  6
CONTINUOUS
 10
14.5361442268
 20
5.25373058
 40
0.048743907
100
AcDbArc
 50
193.0
 51
270.0
  0
ARC
  5
322
100
AcDbEntity
  8
0
100
AcDbCircle
 62
7
  6
CONTINUOUS
 10
14.2223615627
 20
5.25373058
 40
0.048743907
100
AcDbArc
 50
270.0
 51
347.0
  0
ARC
  5
323
100
AcDbEntity
  8
0
100
AcDbCircle
 62
7
  6
CONTINUOUS
 10
14.9298450142
 20
5.25373058
 40
0.048743907
100
AcDbArc
 50
193.0
 51
270.0
  0
ARC
  5
324
100
AcDbEntity
  8
0
100
AcDbCircle
 62
7
  6
CONTINUOUS
 10
14.6160623501
 20
5.25373058
 40
0.048743907
100
AcDbArc
 50
270.0
 51
347.0
  0
ARC
  5
325
100
AcDbEntity
  8
0
100
AcDbCircle
 62
7
  6
CONTINUOUS
 10
15.3235458016
 20
5.25373058
 40
0.048743907
100
AcDbArc
 50
193.0
 51
270.0
  0
ARC
  5
326
100
AcDbEntity
  8
0
100
AcDbCircle
 62
7
  6
CONTINUOUS
 10
15.0097631375
 20
5.25373058
 40
0.048743907
100
AcDbArc
 50
270.0
 51
347.0
  0
ARC
  5
327
100
AcDbEntity
  8
0
100
AcDbCircle
 62
7
  6
CONTINUOUS
 10
15.4034639249
 20
5.25373058
 40
0.048743907
100
AcDbArc
 50
270.0
 51
347.0
  0
ARC
  5
328
100
AcDbEntity
  8
0
100
AcDbCircle
 62
7
  6
CONTINUOUS
 10
13.6318103816
 20
5.3268464406
 40
0.048743907
100
AcDbArc
 50
13.0
 51
90.0
  0
ARC
  5
329
100
AcDbEntity
  8
0
100
AcDbCircle
 62
7
  6
CONTINUOUS
 10
14.025511169
 20
5.3268464406
 40
0.048743907
100
AcDbArc
 50
13.0
 51
90.0
  0
ARC
  5
32A
100
AcDbEntity
  8
0
100
AcDbCircle
 62
7
  6
CONTINUOUS
 10
13.9455930457
 20
5.3268464406
 40
0.048743907
100
AcDbArc
 50
90.0
 51
167.0
  0
ARC
  5
32B
100
AcDbEntity
  8
0
100
AcDbCircle
 62
7
  6
CONTINUOUS
 10
14.4192119564
 20
5.3268464406
 40
0.048743907
100
AcDbArc
 50
13.0
 51
90.0
  0
ARC
  5
32C
100
AcDbEntity
  8
0
100
AcDbCircle
 62
7
  6
CONTINUOUS
 10
14.3392938331
 20
5.3268464406
 40
0.048743907
100
AcDbArc
 50
90.0
 51
167.0
  0
ARC
  5
32D
100
AcDbEntity
  8
0
100
AcDbCircle
 62
7
  6
CONTINUOUS
 10
14.8129127438
 20
5.3268464406
 40
0.048743907
100
AcDbArc
 50
13.0
 51
90.0
  0
ARC
  5
32E
100
AcDbEntity
  8
0
100
AcDbCircle
 62
7
  6
CONTINUOUS
 10
14.7329946205
 20
5.3268464406
 40
0.048743907
100
AcDbArc
 50
90.0
 51
167.0
  0
ARC
  5
32F
100
AcDbEntity
  8
0
100
AcDbCircle
 62
7
  6
CONTINUOUS
 10
15.2066135312
 20
5.3268464406
 40
0.048743907
100
AcDbArc
 50
13.0
 51
90.0
  0
ARC
  5
330
100
AcDbEntity
  8
0
100
AcDbCircle
 62
7
  6
CONTINUOUS
 10
15.1266954079
 20
5.3268464406
 40
0.048743907
100
AcDbArc
 50
90.0
 51
167.0
  0
ARC
  5
331
100
AcDbEntity
  8
0
100
AcDbCircle
 62
7
  6
CONTINUOUS
 10
15.5203961953
 20
5.3268464406
 40
0.048743907
100
AcDbArc
 50
90.0
 51
167.0
  0
ARC
  5
332
100
AcDbEntity
  8
0
100
AcDbCircle
 62
7
  6
CONTINUOUS
 10
17.3719678619
 20
5.25373058
 40
0.048743907
100
AcDbArc
 50
270.0
 51
347.0
  0
ARC
  5
333
100
AcDbEntity
  8
0
100
AcDbCircle
 62
7
  6
CONTINUOUS
 10
16.9782670745
 20
5.25373058
 40
0.048743907
100
AcDbArc
 50
270.0
 51
347.0
  0
ARC
  5
334
100
AcDbEntity
  8
0
100
AcDbCircle
 62
7
  6
CONTINUOUS
 10
17.2920497386
 20
5.25373058
 40
0.048743907
100
AcDbArc
 50
193.0
 51
270.0
  0
ARC
  5
335
100
AcDbEntity
  8
0
100
AcDbCircle
 62
7
  6
CONTINUOUS
 10
16.5845662871
 20
5.25373058
 40
0.048743907
100
AcDbArc
 50
270.0
 51
347.0
  0
ARC
  5
336
100
AcDbEntity
  8
0
100
AcDbCircle
 62
7
  6
CONTINUOUS
 10
16.8983489512
 20
5.25373058
 40
0.048743907
100
AcDbArc
 50
193.0
 51
270.0
  0
ARC
  5
337
100
AcDbEntity
  8
0
100
AcDbCircle
 62
7
  6
CONTINUOUS
 10
16.1908654997
 20
5.25373058
 40
0.048743907
100
AcDbArc
 50
270.0
 51
347.0
  0
ARC
  5
338
100
AcDbEntity
  8
0
100
AcDbCircle
 62
7
  6
CONTINUOUS
 10
16.5046481638
 20
5.25373058
 40
0.048743907
100
AcDbArc
 50
193.0
 51
270.0
  0
ARC
  5
339
100
AcDbEntity
  8
0
100
AcDbCircle
 62
7
  6
CONTINUOUS
 10
15.7971647123
 20
5.25373058
 40
0.048743907
100
AcDbArc
 50
270.0
 51
347.0
  0
ARC
  5
33A
100
AcDbEntity
  8
0
100
AcDbCircle
 62
7
  6
CONTINUOUS
 10
15.717246589
 20
5.25373058
 40
0.048743907
100
AcDbArc
 50
193.0
 51
270.0
  0
ARC
  5
33B
100
AcDbEntity
  8
0
100
AcDbCircle
 62
7
  6
CONTINUOUS
 10
16.1109473764
 20
5.25373058
 40
0.048743907
100
AcDbArc
 50
193.0
 51
270.0
  0
ARC
  5
33C
100
AcDbEntity
  8
0
100
AcDbCircle
 62
7
  6
CONTINUOUS
 10
17.4889001323
 20
5.3268464406
 40
0.048743907
100
AcDbArc
 50
90.0
 51
167.0
  0
ARC
  5
33D
100
AcDbEntity
  8
0
100
AcDbCircle
 62
7
  6
CONTINUOUS
 10
17.0951993449
 20
5.3268464406
 40
0.048743907
100
AcDbArc
 50
90.0
 51
167.0
  0
ARC
  5
33E
100
AcDbEntity
  8
0
100
AcDbCircle
 62
7
  6
CONTINUOUS
 10
17.1751174682
 20
5.3268464406
 40
0.048743907
100
AcDbArc
 50
13.0
 51
90.0
  0
ARC
  5
33F
100
AcDbEntity
  8
0
100
AcDbCircle
 62
7
  6
CONTINUOUS
 10
16.7014985575
 20
5.3268464406
 40
0.048743907
100
AcDbArc
 50
90.0
 51
167.0
  0
ARC
  5
340
100
AcDbEntity
  8
0
100
AcDbCircle
 62
7
  6
CONTINUOUS
 10
16.7814166808
 20
5.3268464406
 40
0.048743907
100
AcDbArc
 50
13.0
 51
90.0
  0
ARC
  5
341
100
AcDbEntity
  8
0
100
AcDbCircle
 62
7
  6
CONTINUOUS
 10
16.3077977701
 20
5.3268464406
 40
0.048743907
100
AcDbArc
 50
90.0
 51
167.0
  0
ARC
  5
342
100
AcDbEntity
  8
0
100
AcDbCircle
 62
7
  6
CONTINUOUS
 10
16.3877158934
 20
5.3268464406
 40
0.048743907
100
AcDbArc
 50
13.0
 51
90.0
  0
ARC
  5
343
100
AcDbEntity
  8
0
100
AcDbCircle
 62
7
  6
CONTINUOUS
 10
15.9140969827
 20
5.3268464406
 40
0.048743907
100
AcDbArc
 50
90.0
 51
167.0
  0
ARC
  5
344
100
AcDbEntity
  8
0
100
AcDbCircle
 62
7
  6
CONTINUOUS
 10
15.994015106
 20
5.3268464406
 40
0.048743907
100
AcDbArc
 50
13.0
 51
90.0
  0
ARC
  5
345
100
AcDbEntity
  8
0
100
AcDbCircle
 62
7
  6
CONTINUOUS
 10
15.6003143186
 20
5.3268464406
 40
0.048743907
100
AcDbArc
 50
13.0
 51
90.0
  0
ARC
  5
346
100
AcDbEntity
  8
0
100
AcDbCircle
 62
7
  6
CONTINUOUS
 10
15.930300648
 20
0.5503703274
 40
13.6093038687
100
AcDbArc
 50
88.8014810026
 51
91.1985189974
  0
ARC
  5
347
100
AcDbEntity
  8
0
100
AcDbCircle
 62
7
  6
CONTINUOUS
 10
14.9772836267
 20
-2.5335938837
 40
13.6093038687
100
AcDbArc
 50
88.8014810026
 51
91.1985189974
  0
ARC
  5
348
100
AcDbEntity
  8
0
100
AcDbCircle
 62
7
  6
CONTINUOUS
 10
10.9683839966
 20
7.6570879986
 40
5.0413851049
100
AcDbArc
 50
39.5688151949
 51
42.1283049315
  0
ARC
  5
349
100
AcDbEntity
  8
0
100
AcDbCircle
 62
7
  6
CONTINUOUS
 10
18.4518934093
 20
14.295546822
 40
2.2250371567
100
AcDbArc
 50
184.4533509734
 51
188.8706304585
  0
ARC
  5
34A
100
AcDbEntity
  8
0
100
AcDbCircle
 62
7
  6
CONTINUOUS
 10
17.4988763881
 20
11.2115826109
 40
2.2250371567
100
AcDbArc
 50
184.4533509734
 51
188.8706304585
  0
ARC
  5
34B
100
AcDbEntity
  8
0
100
AcDbCircle
 62
7
  6
CONTINUOUS
 10
14.6907589321
 20
11.0701510189
 40
0.0020144073
100
AcDbArc
 50
162.8311776233
 51
174.1255283692
  0
SPLINE
  5
34C
100
AcDbEntity
  8
0
100
AcDbSpline
 62
7
  6
CONTINUOUS
 70
0
 71
3
 72
9
 73
5
 74
0
 42
0.0000001
 43
0.0000001
 44
0.0000000001
 40
0.0
 40
0.0
 40
0.0
 40
0.0
 40
0.2646919991
 40
1.0
 40
1.0
 40
1.0
 40
1.0
 10
16.2286507339
 20
14.1398807303
 30
0.0
 10
16.2293447361
 20
14.1384665026
 30
0.0
 10
16.231753788
 20
14.1330263448
 30
0.0
 10
16.2332368225
 20
14.1271417111
 30
0.0
 10
16.2335739
 20
14.1227784707
 30
0.0
  0
SPLINE
  5
34D
100
AcDbEntity
  8
0
100
AcDbSpline
 62
7
  6
CONTINUOUS
 70
0
 71
3
 72
9
 73
5
 74
0
 42
0.0000001
 43
0.0000001
 44
0.0000000001
 40
0.0
 40
0.0
 40
0.0
 40
0.0
 40
0.5392302491
 40
1.0
 40
1.0
 40
1.0
 40
1.0
 10
16.2149607027
 20
14.1566968134
 30
0.0
 10
16.2164825104
 20
14.1566651355
 30
0.0
 10
16.219270128
 20
14.1559290829
 30
0.0
 10
16.2216835499
 20
14.1540783586
 30
0.0
 10
16.2222565459
 20
14.1529107155
 30
0.0
  0
SPLINE
  5
34E
100
AcDbEntity
  8
0
100
AcDbSpline
 62
7
  6
CONTINUOUS
 70
0
 71
3
 72
9
 73
5
 74
0
 42
0.0000001
 43
0.0000001
 44
0.0000000001
 40
0.0
 40
0.0
 40
0.0
 40
0.0
 40
0.235848554
 40
1.0
 40
1.0
 40
1.0
 40
1.0
 10
14.6954378109
 20
11.0559165191
 30
0.0
 10
14.6961600102
 20
11.0544448316
 30
0.0
 10
14.6994807952
 20
11.0483321157
 30
0.0
 10
14.7037374542
 20
11.0427540039
 30
0.0
 10
14.7072997848
 20
11.0388142596
 30
0.0
  0
SPLINE
  5
34F
100
AcDbEntity
  8
0
100
AcDbSpline
 62
7
  6
CONTINUOUS
 70
0
 71
3
 72
9
 73
5
 74
0
 42
0.0000001
 43
0.0000001
 44
0.0000000001
 40
0.0
 40
0.0
 40
0.0
 40
0.0
 40
0.5734791007
 40
1.0
 40
1.0
 40
1.0
 40
1.0
 10
15.2938467598
 20
10.8636273058
 30
0.0
 10
15.2953058411
 20
10.8636273058
 30
0.0
 10
15.2979125411
 20
10.8639252804
 30
0.0
 10
15.3000309718
 20
10.8658538744
 30
0.0
 10
15.3003502252
 20
10.8668910317
 30
0.0
  0
SPLINE
  5
350
100
AcDbEntity
  8
0
100
AcDbSpline
 62
7
  6
CONTINUOUS
 70
0
 71
3
 72
9
 73
5
 74
0
 42
0.0000001
 43
0.0000001
 44
0.0000000001
 40
0.0
 40
0.0
 40
0.0
 40
0.0
 40
0.4797133092
 40
1.0
 40
1.0
 40
1.0
 40
1.0
 10
14.8545864421
 20
10.8684731091
 30
0.0
 10
14.8558701695
 20
10.866918216
 30
0.0
 10
14.8595646511
 20
10.8645678708
 30
0.0
 10
14.8637615598
 20
10.8636273058
 30
0.0
 10
14.8659484444
 20
10.8636273058
 30
0.0
  0
SPLINE
  5
351
100
AcDbEntity
  8
0
100
AcDbSpline
 62
7
  6
CONTINUOUS
 70
0
 71
3
 72
9
 73
5
 74
0
 42
0.0000001
 43
0.0000001
 44
0.0000000001
 40
0.0
 40
0.0
 40
0.0
 40
0.0
 40
0.4284348687
 40
1.0
 40
1.0
 40
1.0
 40
1.0
 10
15.6418513098
 20
14.1547098593
 30
0.0
 10
15.6420406726
 20
14.1553214051
 30
0.0
 10
15.643258671
 20
14.1564693818
 30
0.0
 10
15.6447867199
 20
14.1566786685
 30
0.0
 10
15.6456405934
 20
14.1566968134
 30
0.0
  0
SPLINE
  5
352
100
AcDbEntity
  8
0
100
AcDbSpline
 62
7
  6
CONTINUOUS
 70
0
 71
3
 72
9
 73
5
 74
0
 42
0.0000001
 43
0.0000001
 44
0.0000000001
 40
0.0
 40
0.0
 40
0.0
 40
0.0
 40
0.7311760781
 40
1.0
 40
1.0
 40
1.0
 40
1.0
 10
14.6887551034
 20
11.0703571922
 30
0.0
 10
14.6887188805
 20
11.0700056518
 30
0.0
 10
14.6887977637
 20
11.0695076009
 30
0.0
 10
14.6889863825
 20
11.069063148
 30
0.0
 10
14.6890436229
 20
11.0689465044
 30
0.0
  0
SPLINE
  5
353
100
AcDbEntity
  8
0
100
AcDbSpline
 62
7
  6
CONTINUOUS
 70
0
 71
3
 72
9
 73
5
 74
0
 42
0.0000001
 43
0.0000001
 44
0.0000000001
 40
0.0
 40
0.0
 40
0.0
 40
0.0
 40
0.5715651313
 40
1.0
 40
1.0
 40
1.0
 40
1.0
 10
14.6926235721
 20
11.0727326023
 30
0.0
 10
14.6917696986
 20
11.0727144574
 30
0.0
 10
14.6902416497
 20
11.0725051706
 30
0.0
 10
14.6890236513
 20
11.0713571939
 30
0.0
 10
14.6888342885
 20
11.0707456482
 30
0.0
  0
SPLINE
  5
354
100
AcDbEntity
  8
0
100
AcDbSpline
 62
7
  6
CONTINUOUS
 70
0
 71
3
 72
9
 73
5
 74
0
 42
0.0000001
 43
0.0000001
 44
0.0000000001
 40
0.0
 40
0.0
 40
0.0
 40
0.0
 40
0.4607697509
 40
1.0
 40
1.0
 40
1.0
 40
1.0
 10
15.2692395246
 20
11.0689465044
 30
0.0
 10
15.2686665286
 20
11.0701141475
 30
0.0
 10
15.2662531067
 20
11.0719648718
 30
0.0
 10
15.2634654891
 20
11.0727009243
 30
0.0
 10
15.2619436814
 20
11.0727326023
 30
0.0
  0
SPLINE
  5
355
100
AcDbEntity
  8
0
100
AcDbSpline
 62
7
  6
CONTINUOUS
 70
0
 71
3
 72
9
 73
5
 74
0
 42
0.0000001
 43
0.0000001
 44
0.0000000001
 40
0.0
 40
0.0
 40
0.0
 40
0.0
 40
0.2375084755
 40
1.0
 40
1.0
 40
1.0
 40
1.0
 10
15.2805568787
 20
11.0388142596
 30
0.0
 10
15.2804479742
 20
11.0402239552
 30
0.0
 10
15.2796647628
 20
11.0461341526
 30
0.0
 10
15.2776333968
 20
11.0518415913
 30
0.0
 10
15.2756337126
 20
11.0559165191
 30
0.0
  0
ENDSEC
  0
SECTION
  2
OBJECTS
  0
DICTIONARY
  5
C
100
AcDbDictionary
280
0
281
1
  3
ACAD_GROUP
350
D
  3
ACAD_MLINESTYLE
350
17
  3
ACAD_LAYOUT
350
1A
  3
ACAD_PLOTSETTINGS
350
19
  3
ACAD_PLOTSTYLENAME
350
E
  0
DICTIONARY
  5
D
102
{ACAD_REACTORS
330
C
102
}
100
AcDbDictionary
280
0
281
1
  0
ACDBDICTIONARYWDFLT
  5
E
102
{ACAD_REACTORS
330
C
102
}
100
AcDbDictionary
281
1
  3
Normal
350
F
100
AcDbDictionaryWithDefault
340
F
  0
DICTIONARY
  5
17
102
{ACAD_REACTORS
330
C
102
}
100
AcDbDictionary
280
0
281
1
  3
Standard
350
18
  0
DICTIONARY
  5
19
102
{ACAD_REACTORS
330
C
102
}
100
AcDbDictionary
281
1
  0
DICTIONARY
  5
1A
102
{ACAD_REACTORS
330
C
102
}
100
AcDbDictionary
281
1
  3
Model
350
356
  3
Layout1
350
357
  0
ACDBPLACEHOLDER
  5
F
102
{ACAD_REACTORS
330
E
102
}
  0
MLINESTYLE
  5
18
102
{ACAD_REACTORS
330
17
102
}
100
AcDbMlineStyle
  2
STANDARD
 70
0
  3

 62
256
 51
90.0
 52
90.0
 71
2
 49
0.5
 62
256
  6
BYLAYER
 49
-0.5
 62
256
  6
BYLAYER
  0
LAYOUT
  5
356
102
{ACAD_REACTORS
330
1A
102
}
100
AcDbPlotSettings
  1

  2
none_device
  4
ANSI_C_(22.00_x_17.00_Inches)
  6

 40
0.0
 41
0.0
 42
0.0
 43
0.0
 44
558.8
 45
431.8
 46
0.0
 47
0.0
 48
0.0
 49
0.0
140
0.0
141
0.0
142
1.0
143
1.0
 70
1024
 72
0
 73
0
 74
0
  7

 75
0
147
1.0
148
0.0
149
0.0
100
AcDbLayout
  1
Model
 70
0
 71
0
 10
0.0
 20
0.0
 11
22.0
 21
17.0
 12
0.0
 22
0.0
 32
0.0
 14
0.0
 24
0.0
 34
0.0
 15
0.0
 25
0.0
 35
0.0
146
0.0
 13
0.0
 23
0.0
 33
0.0
 16
1.0
 26
0.0
 36
0.0
 17
0.0
 27
1.0
 37
0.0
 76
0
330
216
345
0
346
0
  0
LAYOUT
  5
357
102
{ACAD_REACTORS
330
1A
102
}
100
AcDbPlotSettings
  1

  2
none_device
  4
ANSI_C_(22.00_x_17.00_Inches)
  6

 40
0.0
 41
0.0
 42
0.0
 43
0.0
 44
558.8
 45
431.8
 46
0.0
 47
0.0
 48
0.0
 49
0.0
140
0.0
141
0.0
142
1.0
143
1.0
 70
0
 72
0
 73
0
 74
0
  7

 75
0
147
1.0
148
0.0
149
0.0
100
AcDbLayout
  1
Layout1
 70
0
 71
1
 10
0.0
 20
0.0
 11
22.0
 21
17.0
 12
0.0
 22
0.0
 32
0.0
 14
0.0
 24
0.0
 34
0.0
 15
0.0
 25
0.0
 35
0.0
146
0.0
 13
0.0
 23
0.0
 33
0.0
 16
1.0
 26
0.0
 36
0.0
 17
0.0
 27
1.0
 37
0.0
 76
0
330
217
345
0
346
0
  0
ENDSEC
  0
EOF