999
DXF file: _cgs_temp_output.dxf
999
Pro/ENGINEER 2016360 by Parametric Technology Corporation
  0
SECTION
  2
HEADER
  9
$ACADVER
  1
AC1021
  9
$DWGCODEPAGE
  3
ANSI_1252
  9
$EXTMAX
 10
22.0
 20
17.0
 30
0.0
  9
$EXTMIN
 10
0.0
 20
0.0
 30
0.0
  9
$LIMMIN
 10
0.0
 20
0.0
  9
$LIMMAX
 10
22.0
 20
17.0
  9
$VIEWCTR
 10
11.0
 20
8.5
  9
$VIEWSIZE
 40
17.0
  9
$CLAYER
  8
0
  9
$LTSCALE
 40
1.21
  9
$CELTYPE
  6
BYLAYER
  9
$DIMSCALE
 40
1.0
  9
$DIMASZ
 40
0.1875
  9
$DIMEXO
 40
0.0625
  9
$DIMDLI
 40
0.836
  9
$DIMEXE
 40
0.125
  9
$DIMCEN
 40
0.198
  9
$DIMLFAC
 40
1.0
  9
$DIMBLK
  1
_CLOSED
  9
$DIMALT
 70
0
  9
$DIMALTF
 40
25.4
  9
$DIMTXT
 40
0.15625
  9
$DIMTOL
 70
0
  9
$DIMLIM
 70
0
  9
$DIMTFAC
 40
1.0
  9
$DIMGAP
 40
0.09
  9
$DIMDSEP
 70
46
  9
$AUNITS
 70
0
  9
$PDMODE
 70
3
  9
$PDSIZE
 40
0.3125
  9
$HANDSEED
  5
414
  9
$TILEMODE
 70
1
  9
$MEASUREMENT
 70
0
  9
$INSUNITS
 70
1
  0
ENDSEC
  0
SECTION
  2
CLASSES
  0
CLASS
  1
ACDBDICTIONARYWDFLT
  2
AcDbDictionaryWithDefault
  3
AutoCAD 2000
 90
0
 91
1
280
0
281
0
  0
CLASS
  1
ACDBPLACEHOLDER
  2
AcDbPlaceHolder
  3
AutoCAD 2000
 90
0
 91
1
280
0
281
0
  0
CLASS
  1
LAYOUT
  2
AcDbLayout
  3
AutoCAD 2000
 90
0
 91
0
280
0
281
0
  0
ENDSEC
  0
SECTION
  2
TABLES
  0
TABLE
  2
VPORT
  5
8
100
AcDbSymbolTable
 70
2
  0
VPORT
  5
1F4
100
AcDbSymbolTableRecord
100
AcDbViewportTableRecord
  2
*ACTIVE
 70
0
 10
0.0
 20
0.0
 11
1.0
 21
1.0
 12
11.0
 22
8.5
 13
0.0
 23
0.0
 14
1.0
 24
1.0
 15
0.0
 25
0.0
 16
0.0
 26
0.0
 36
1.0
 17
0.0
 27
0.0
 37
0.0
 40
17.0
 41
1.2941176471
 42
50.0
 43
0.0
 44
0.0
 50
0.0
 51
0.0
 71
0
 72
100
 73
1
 74
1
 75
0
 76
0
 77
0
 78
0
  0
ENDTAB
  0
TABLE
  2
LTYPE
  5
5
100
AcDbSymbolTable
 70
6
  0
LTYPE
  5
14
100
AcDbSymbolTableRecord
100
AcDbLinetypeTableRecord
  2
BYBLOCK
 70
0
  3

 72
65
 73
0
 40
0.0
  0
LTYPE
  5
15
100
AcDbSymbolTableRecord
100
AcDbLinetypeTableRecord
  2
BYLAYER
 70
0
  3

 72
65
 73
0
 40
0.0
  0
LTYPE
  5
16
100
AcDbSymbolTableRecord
100
AcDbLinetypeTableRecord
  2
CONTINUOUS
 70
64
  3
Solid line
 72
65
 73
0
 40
0.0
  0
LTYPE
  5
1F5
100
AcDbSymbolTableRecord
100
AcDbLinetypeTableRecord
  2
CENTER
 70
64
  3
____ _ ____ _ ____ _ ____ _ ____ _ ____ _ ____
 72
65
 73
4
 40
0.6
 49
0.375
 74
0
 49
-0.075
 74
0
 49
0.075
 74
0
 49
-0.075
 74
0
  0
LTYPE
  5
1F6
100
AcDbSymbolTableRecord
100
AcDbLinetypeTableRecord
  2
HIDDEN
 70
64
  3
- - - - - - - - - - - - - - - - - - - -
 72
65
 73
2
 40
0.2
 49
0.1
 74
0
 49
-0.1
 74
0
  0
LTYPE
  5
1F7
100
AcDbSymbolTableRecord
100
AcDbLinetypeTableRecord
  2
PHANTOM
 70
64
  3
_____ _ _ _____ _ _ _____ _ _ _____
 72
65
 73
6
 40
0.8
 49
0.45
 74
0
 49
-0.05
 74
0
 49
0.1
 74
0
 49
-0.05
 74
0
 49
0.1
 74
0
 49
-0.05
 74
0
  0
LTYPE
  5
1F8
100
AcDbSymbolTableRecord
100
AcDbLinetypeTableRecord
  2
DOT
 70
64
  3
. . . . . . . . . . . . . . . . . . . .
 72
65
 73
2
 40
0.2
 49
0.1
 74
0
 49
-0.1
 74
0
  0
LTYPE
  5
1F9
100
AcDbSymbolTableRecord
100
AcDbLinetypeTableRecord
  2
DASHED
 70
64
  3
- - - - - - - - - - - - - - - - - - - -
 72
65
 73
2
 40
0.2
 49
0.1
 74
0
 49
-0.1
 74
0
  0
ENDTAB
  0
TABLE
  2
LAYER
  5
2
100
AcDbSymbolTable
 70
36
  0
LAYER
  5
10
100
AcDbSymbolTableRecord
100
AcDbLayerTableRecord
  2
0
 70
0
 62
7
  6
CONTINUOUS
370
-3
390
F
  0
LAYER
  5
1FA
100
AcDbSymbolTableRecord
100
AcDbLayerTableRecord
  2
DEFAULT_1
 70
0
 62
7
  6
CENTER
370
-3
390
F
  0
LAYER
  5
1FB
100
AcDbSymbolTableRecord
100
AcDbLayerTableRecord
  2
DEFAULT_2
 70
0
 62
8
  6
HIDDEN
370
-3
390
F
  0
LAYER
  5
1FC
100
AcDbSymbolTableRecord
100
AcDbLayerTableRecord
  2
DEFAULT_3
 70
0
 62
7
  6
PHANTOM
370
-3
390
F
  0
LAYER
  5
1FD
100
AcDbSymbolTableRecord
100
AcDbLayerTableRecord
  2
01_ALL_DTM_PLN
 70
0
 62
7
  6
CONTINUOUS
370
-3
390
F
  0
LAYER
  5
1FE
100
AcDbSymbolTableRecord
100
AcDbLayerTableRecord
  2
01__ASM_ALL_DTM_PLN
 70
0
 62
7
  6
CONTINUOUS
370
-3
390
F
  0
LAYER
  5
1FF
100
AcDbSymbolTableRecord
100
AcDbLayerTableRecord
  2
01__ASM_DEF_DTM_PLN
 70
0
 62
7
  6
CONTINUOUS
370
-3
390
F
  0
LAYER
  5
200
100
AcDbSymbolTableRecord
100
AcDbLayerTableRecord
  2
01___PRT_ALL_DTM_PLN
 70
0
 62
7
  6
CONTINUOUS
370
-3
390
F
  0
LAYER
  5
201
100
AcDbSymbolTableRecord
100
AcDbLayerTableRecord
  2
01___PRT_DEF_DTM_PLN
 70
0
 62
7
  6
CONTINUOUS
370
-3
390
F
  0
LAYER
  5
202
100
AcDbSymbolTableRecord
100
AcDbLayerTableRecord
  2
02_ALL_AXES
 70
0
 62
7
  6
CONTINUOUS
370
-3
390
F
  0
LAYER
  5
203
100
AcDbSymbolTableRecord
100
AcDbLayerTableRecord
  2
02__ASM_ALL_AXES
 70
0
 62
7
  6
CONTINUOUS
370
-3
390
F
  0
LAYER
  5
204
100
AcDbSymbolTableRecord
100
AcDbLayerTableRecord
  2
02___PRT_ALL_AXES
 70
0
 62
7
  6
CONTINUOUS
370
-3
390
F
  0
LAYER
  5
205
100
AcDbSymbolTableRecord
100
AcDbLayerTableRecord
  2
03_ALL_CURVES
 70
0
 62
7
  6
CONTINUOUS
370
-3
390
F
  0
LAYER
  5
206
100
AcDbSymbolTableRecord
100
AcDbLayerTableRecord
  2
03__ASM_ALL_CURVES
 70
0
 62
7
  6
CONTINUOUS
370
-3
390
F
  0
LAYER
  5
207
100
AcDbSymbolTableRecord
100
AcDbLayerTableRecord
  2
03___PRT_ALL_CURVES
 70
0
 62
7
  6
CONTINUOUS
370
-3
390
F
  0
LAYER
  5
208
100
AcDbSymbolTableRecord
100
AcDbLayerTableRecord
  2
04_ALL_DTM_PNT
 70
0
 62
7
  6
CONTINUOUS
370
-3
390
F
  0
LAYER
  5
209
100
AcDbSymbolTableRecord
100
AcDbLayerTableRecord
  2
04__ASM_ALL_DTM_PNT
 70
0
 62
7
  6
CONTINUOUS
370
-3
390
F
  0
LAYER
  5
20A
100
AcDbSymbolTableRecord
100
AcDbLayerTableRecord
  2
04___PRT_ALL_DTM_PNT
 70
0
 62
7
  6
CONTINUOUS
370
-3
390
F
  0
LAYER
  5
20B
100
AcDbSymbolTableRecord
100
AcDbLayerTableRecord
  2
05_ALL_DTM_CSYS
 70
0
 62
7
  6
CONTINUOUS
370
-3
390
F
  0
LAYER
  5
20C
100
AcDbSymbolTableRecord
100
AcDbLayerTableRecord
  2
05__ASM_ALL_DTM_CSYS
 70
0
 62
7
  6
CONTINUOUS
370
-3
390
F
  0
LAYER
  5
20D
100
AcDbSymbolTableRecord
100
AcDbLayerTableRecord
  2
05__ASM_DEF_DTM_CSYS
 70
0
 62
7
  6
CONTINUOUS
370
-3
390
F
  0
LAYER
  5
20E
100
AcDbSymbolTableRecord
100
AcDbLayerTableRecord
  2
05___PRT_ALL_DTM_CSYS
 70
0
 62
7
  6
CONTINUOUS
370
-3
390
F
  0
LAYER
  5
20F
100
AcDbSymbolTableRecord
100
AcDbLayerTableRecord
  2
05___PRT_DEF_DTM_CSYS
 70
0
 62
7
  6
CONTINUOUS
370
-3
390
F
  0
LAYER
  5
210
100
AcDbSymbolTableRecord
100
AcDbLayerTableRecord
  2
06_ALL_SURFS
 70
0
 62
7
  6
CONTINUOUS
370
-3
390
F
  0
LAYER
  5
211
100
AcDbSymbolTableRecord
100
AcDbLayerTableRecord
  2
06__ASM_ALL_SURFS
 70
0
 62
7
  6
CONTINUOUS
370
-3
390
F
  0
LAYER
  5
212
100
AcDbSymbolTableRecord
100
AcDbLayerTableRecord
  2
06___PRT_ALL_SURFS
 70
0
 62
7
  6
CONTINUOUS
370
-3
390
F
  0
LAYER
  5
213
100
AcDbSymbolTableRecord
100
AcDbLayerTableRecord
  2
07__ASM_ALL_SKELETONS
 70
0
 62
7
  6
CONTINUOUS
370
-3
390
F
  0
LAYER
  5
214
100
AcDbSymbolTableRecord
100
AcDbLayerTableRecord
  2
ASSEMBLY_1
 70
0
 62
7
  6
CONTINUOUS
370
-3
390
F
  0
LAYER
  5
215
100
AcDbSymbolTableRecord
100
AcDbLayerTableRecord
  2
REXNORD-NORMAL_DUTY_ZEP_200-101
 70
0
 62
7
  6
CONTINUOUS
370
-3
390
F
  0
LAYER
  5
216
100
AcDbSymbolTableRecord
100
AcDbLayerTableRecord
  2
REXNORD-NORMAL_DUTY_ZEP_200-113
 70
0
 62
7
  6
CONTINUOUS
370
-3
390
F
  0
LAYER
  5
217
100
AcDbSymbolTableRecord
100
AcDbLayerTableRecord
  2
REXNORD-NORMAL_DUTY_ZEP_200-125
 70
0
 62
7
  6
CONTINUOUS
370
-3
390
F
  0
LAYER
  5
218
100
AcDbSymbolTableRecord
100
AcDbLayerTableRecord
  2
REXNORD-NORMAL_DUTY_ZEP_2000--7
 70
0
 62
7
  6
CONTINUOUS
370
-3
390
F
  0
LAYER
  5
219
100
AcDbSymbolTableRecord
100
AcDbLayerTableRecord
  2
REXNORD-NORMAL_DUTY_ZEP_2000-25
 70
0
 62
7
  6
CONTINUOUS
370
-3
390
F
  0
LAYER
  5
21A
100
AcDbSymbolTableRecord
100
AcDbLayerTableRecord
  2
REXNORD-NORMAL_DUTY_ZEP_2000-35
 70
0
 62
7
  6
CONTINUOUS
370
-3
390
F
  0
LAYER
  5
21B
100
AcDbSymbolTableRecord
100
AcDbLayerTableRecord
  2
REXNORD-NORMAL_DUTY_ZEP_2000-47
 70
0
 62
7
  6
CONTINUOUS
370
-3
390
F
  0
LAYER
  5
21C
100
AcDbSymbolTableRecord
100
AcDbLayerTableRecord
  2
REXNORD-NORMAL_DUTY_ZEP_2000-59
 70
0
 62
7
  6
CONTINUOUS
370
-3
390
F
  0
LAYER
  5
21D
100
AcDbSymbolTableRecord
100
AcDbLayerTableRecord
  2
REXNORD-NORMAL_DUTY_ZEP_2000-69
 70
0
 62
7
  6
CONTINUOUS
370
-3
390
F
  0
LAYER
  5
21E
100
AcDbSymbolTableRecord
100
AcDbLayerTableRecord
  2
REXNORD-NORMAL_DUTY_ZEP_2000-81
 70
0
 62
7
  6
CONTINUOUS
370
-3
390
F
  0
LAYER
  5
21F
100
AcDbSymbolTableRecord
100
AcDbLayerTableRecord
  2
REXNORD-NORMAL_DUTY_ZEP_2000-91
 70
0
 62
7
  6
CONTINUOUS
370
-3
390
F
  0
LAYER
  5
220
100
AcDbSymbolTableRecord
100
AcDbLayerTableRecord
  2
SHELL
 70
0
 62
7
  6
CONTINUOUS
370
-3
390
F
  0
LAYER
  5
221
100
AcDbSymbolTableRecord
100
AcDbLayerTableRecord
  2
SHELL_1
 70
0
 62
7
  6
CONTINUOUS
370
-3
390
F
  0
LAYER
  5
222
100
AcDbSymbolTableRecord
100
AcDbLayerTableRecord
  2
SHELL_10
 70
0
 62
7
  6
CONTINUOUS
370
-3
390
F
  0
LAYER
  5
223
100
AcDbSymbolTableRecord
100
AcDbLayerTableRecord
  2
SHELL_2
 70
0
 62
7
  6
CONTINUOUS
370
-3
390
F
  0
LAYER
  5
224
100
AcDbSymbolTableRecord
100
AcDbLayerTableRecord
  2
SHELL_3
 70
0
 62
7
  6
CONTINUOUS
370
-3
390
F
  0
LAYER
  5
225
100
AcDbSymbolTableRecord
100
AcDbLayerTableRecord
  2
SHELL_4
 70
0
 62
7
  6
CONTINUOUS
370
-3
390
F
  0
LAYER
  5
226
100
AcDbSymbolTableRecord
100
AcDbLayerTableRecord
  2
SHELL_5
 70
0
 62
7
  6
CONTINUOUS
370
-3
390
F
  0
LAYER
  5
227
100
AcDbSymbolTableRecord
100
AcDbLayerTableRecord
  2
SHELL_6
 70
0
 62
7
  6
CONTINUOUS
370
-3
390
F
  0
LAYER
  5
228
100
AcDbSymbolTableRecord
100
AcDbLayerTableRecord
  2
SHELL_7
 70
0
 62
7
  6
CONTINUOUS
370
-3
390
F
  0
LAYER
  5
229
100
AcDbSymbolTableRecord
100
AcDbLayerTableRecord
  2
SHELL_8
 70
0
 62
7
  6
CONTINUOUS
370
-3
390
F
  0
LAYER
  5
22A
100
AcDbSymbolTableRecord
100
AcDbLayerTableRecord
  2
SHELL_9
 70
0
 62
7
  6
CONTINUOUS
370
-3
390
F
  0
LAYER
  5
22B
100
AcDbSymbolTableRecord
100
AcDbLayerTableRecord
  2
___SHELL
 70
0
 62
7
  6
CONTINUOUS
370
-3
390
F
  0
ENDTAB
  0
TABLE
  2
STYLE
  5
3
100
AcDbSymbolTable
 70
1
  0
STYLE
  5
11
100
AcDbSymbolTableRecord
100
AcDbTextStyleTableRecord
  2
STANDARD
 70
0
 40
0.0
 41
0.8
 50
0.0
 71
0
 42
0.2
  3
txt
  4

  0
STYLE
  5
22C
100
AcDbSymbolTableRecord
100
AcDbTextStyleTableRecord
  2
TEXTSTYLE_1
 70
0
 40
0.0
 41
0.8
 50
0.0
 71
0
 42
0.2
  3
gdt
  4

  0
ENDTAB
  0
TABLE
  2
VIEW
  5
6
100
AcDbSymbolTable
 70
0
  0
ENDTAB
  0
TABLE
  2
UCS
  5
7
100
AcDbSymbolTable
 70
0
  0
ENDTAB
  0
TABLE
  2
APPID
  5
9
100
AcDbSymbolTable
 70
1
  0
APPID
  5
22D
100
AcDbSymbolTableRecord
100
AcDbRegAppTableRecord
  2
ACAD
 70
0
  0
ENDTAB
  0
TABLE
  2
BLOCK_RECORD
  5
1
100
AcDbSymbolTable
 70
0
  0
BLOCK_RECORD
  5
22E
100
AcDbSymbolTableRecord
100
AcDbBlockTableRecord
  2
*Model_Space
  0
BLOCK_RECORD
  5
22F
100
AcDbSymbolTableRecord
100
AcDbBlockTableRecord
  2
*Paper_Space
  0
ENDTAB
  0
TABLE
  2
DIMSTYLE
  5
A
100
AcDbSymbolTable
 70
1
100
AcDbDimStyleTable
 71
0
  0
DIMSTYLE
105
230
100
AcDbSymbolTableRecord
100
AcDbDimStyleTableRecord
  2
STANDARD
 70
0
  3

  4

 40
1.0
 41
0.1875
 42
0.0625
 43
0.38
 44
0.125
 45
0.0
 46
0.0
 47
0.0001
 48
0.0001
140
0.15625
141
0.09
142
0.0
143
25.4
144
1.0
145
0.0
146
1.0
147
0.09
 71
0.0
 72
0.0
 73
1
 74
1
 75
0
 76
0
 77
0
 78
4
 79
1
170
0
171
3
172
0
173
0
174
0
175
0
176
0
177
0
178
0
270
2
179
4
271
4
272
4
273
2
274
2
275
0
280
0
281
0
282
0
283
1
284
4
285
0
286
0
287
3
288
0
340
11
278
46
  0
ENDTAB
  0
ENDSEC
  0
SECTION
  2
BLOCKS
  0
BLOCK
  5
20
100
AcDbEntity
  8
0
100
AcDbBlockBegin
  2
*Model_Space
 70
0
 10
0.0
 20
0.0
 30
0.0
  3
*Model_Space
  1

  0
ENDBLK
  5
21
100
AcDbEntity
  8
0
100
AcDbBlockEnd
  0
BLOCK
  5
1C
100
AcDbEntity
  8
0
100
AcDbBlockBegin
  2
*Paper_Space
 70
0
 10
0.0
 20
0.0
 30
0.0
  3
*Paper_Space
  1

  0
ENDBLK
  5
1D
100
AcDbEntity
  8
0
100
AcDbBlockEnd
  0
ENDSEC
  0
SECTION
  2
ENTITIES
  0
MTEXT
  5
231
100
AcDbEntity
  8
0
100
AcDbMText
 62
7
  6
CONTINUOUS
  7
STANDARD
 71
1
 72
1
 10
15.9560215477
 20
0.9479130325
 30
0.0
 11
1.0
 21
0.0
 31
0.0
 44
0.9
  1
SCALE: 1:0.333
 40
0.3
 41
3.36
  0
LINE
  5
232
100
AcDbEntity
  8
0
100
AcDbLine
 62
7
  6
CONTINUOUS
 10
0.0
 20
0.0
 11
0.0
 21
17.0
  0
LINE
  5
233
100
AcDbEntity
  8
0
100
AcDbLine
 62
7
  6
CONTINUOUS
 10
0.0
 20
0.0
 11
22.0
 21
0.0
  0
LINE
  5
234
100
AcDbEntity
  8
0
100
AcDbLine
 62
7
  6
CONTINUOUS
 10
0.0
 20
17.0
 11
22.0
 21
17.0
  0
LINE
  5
235
100
AcDbEntity
  8
0
100
AcDbLine
 62
7
  6
CONTINUOUS
 10
22.0
 20
0.0
 11
22.0
 21
17.0
  0
LINE
  5
236
100
AcDbEntity
  8
0
100
AcDbLine
 62
7
  6
CONTINUOUS
 10
3.8282839428
 20
4.270120049
 11
3.8282839428
 21
4.995120049
  0
LINE
  5
237
100
AcDbEntity
  8
0
100
AcDbLine
 62
7
  6
CONTINUOUS
 10
4.3838827119
 20
4.995120049
 11
5.0478355214
 21
6.145120049
  0
LINE
  5
238
100
AcDbEntity
  8
0
100
AcDbLine
 62
7
  6
CONTINUOUS
 10
3.8282839428
 20
4.270120049
 11
8.4324506095
 21
4.270120049
  0
LINE
  5
239
100
AcDbEntity
  8
0
100
AcDbLine
 62
7
  6
CONTINUOUS
 10
5.1880096246
 20
4.9517063804
 11
5.1669277735
 21
4.9882212176
  0
LINE
  5
23A
100
AcDbEntity
  8
0
100
AcDbLine
 62
7
  6
CONTINUOUS
 10
5.2391582087
 20
5.0344477674
 11
5.2641582087
 21
4.9911464972
  0
LINE
  5
23B
100
AcDbEntity
  8
0
100
AcDbLine
 62
7
  6
CONTINUOUS
 10
5.2664774856
 20
5.0482960584
 11
5.2898108189
 21
5.0078815396
  0
LINE
  5
23C
100
AcDbEntity
  8
0
100
AcDbLine
 62
7
  6
CONTINUOUS
 10
5.3037839428
 20
5.6001093589
 11
5.3037839428
 21
5.4401307391
  0
LINE
  5
23D
100
AcDbEntity
  8
0
100
AcDbLine
 62
7
  6
CONTINUOUS
 10
5.3071172762
 20
5.6034533823
 11
5.3071172762
 21
5.4367867157
  0
LINE
  5
23E
100
AcDbEntity
  8
0
100
AcDbLine
 62
7
  6
CONTINUOUS
 10
6.0503672762
 20
6.3467033823
 11
6.0470339428
 21
6.343370049
  0
LINE
  5
23F
100
AcDbEntity
  8
0
100
AcDbLine
 62
7
  6
CONTINUOUS
 10
5.3037839428
 20
5.600120049
 11
5.3071172762
 21
5.6034533823
  0
LINE
  5
240
100
AcDbEntity
  8
0
100
AcDbLine
 62
7
  6
CONTINUOUS
 10
5.3037839428
 20
5.440120049
 11
5.3071172762
 21
5.4367867157
  0
LINE
  5
241
100
AcDbEntity
  8
0
100
AcDbLine
 62
7
  6
CONTINUOUS
 10
8.4074506095
 20
5.020120049
 11
7.8624180845
 21
5.020120049
  0
LINE
  5
242
100
AcDbEntity
  8
0
100
AcDbLine
 62
7
  6
CONTINUOUS
 10
3.8532839428
 20
5.020120049
 11
4.3983164686
 21
5.020120049
  0
LINE
  5
243
100
AcDbEntity
  8
03__ASM_ALL_CURVES
100
AcDbLine
 62
4
  6
CONTINUOUS
 10
3.8282839428
 20
5.1534533823
 11
4.4752965045
 21
5.1534533823
  0
LINE
  5
244
100
AcDbEntity
  8
03__ASM_ALL_CURVES
100
AcDbLine
 62
4
  6
CONTINUOUS
 10
5.6703947994
 20
5.1534533823
 11
6.5903397529
 21
5.1534533823
  0
LINE
  5
245
100
AcDbEntity
  8
03__ASM_ALL_CURVES
100
AcDbLine
 62
4
  6
CONTINUOUS
 10
7.7854380478
 20
5.1534533823
 11
8.4324506095
 21
5.1534533823
  0
LINE
  5
246
100
AcDbEntity
  8
0
100
AcDbLine
 62
7
  6
CONTINUOUS
 10
6.0470339428
 20
6.3388064333
 11
6.0470339428
 21
6.343370049
  0
LINE
  5
247
100
AcDbEntity
  8
0
100
AcDbLine
 62
7
  6
CONTINUOUS
 10
6.1028672762
 20
4.4918418763
 11
6.1028672762
 21
4.6462036623
  0
LINE
  5
248
100
AcDbEntity
  8
0
100
AcDbLine
 62
7
  6
CONTINUOUS
 10
6.1028672762
 20
6.3940364357
 11
6.1028672762
 21
6.5483982217
  0
LINE
  5
249
100
AcDbEntity
  8
0
100
AcDbLine
 62
7
  6
CONTINUOUS
 10
6.6206906639
 20
6.4243850687
 11
6.5435097709
 21
6.2907038407
  0
LINE
  5
24A
100
AcDbEntity
  8
0
100
AcDbLine
 62
7
  6
CONTINUOUS
 10
5.6695933842
 20
4.7770362573
 11
5.5924124912
 21
4.6433550293
  0
LINE
  5
24B
100
AcDbEntity
  8
0
100
AcDbLine
 62
7
  6
CONTINUOUS
 10
6.9626909196
 20
6.4555633586
 11
6.9774223108
 21
6.4702947498
  0
LINE
  5
24C
100
AcDbEntity
  8
0
100
AcDbLine
 62
7
  6
CONTINUOUS
 10
6.9671103006
 20
6.4511439776
 11
6.9658523267
 21
6.4498860036
  0
LINE
  5
24D
100
AcDbEntity
  8
0
100
AcDbLine
 62
7
  6
CONTINUOUS
 10
7.0289821439
 20
6.4187349168
 11
7.0142507526
 21
6.4040035255
  0
LINE
  5
24E
100
AcDbEntity
  8
0
100
AcDbLine
 62
7
  6
CONTINUOUS
 10
7.0071322959
 20
6.0580748339
 11
6.8734510678
 21
5.9808939409
  0
LINE
  5
24F
100
AcDbEntity
  8
0
100
AcDbLine
 62
7
  6
CONTINUOUS
 10
5.3597834845
 20
5.1069775543
 11
5.2261022565
 21
5.0297966613
  0
LINE
  5
250
100
AcDbEntity
  8
0
100
AcDbLine
 62
7
  6
CONTINUOUS
 10
5.2154017958
 20
5.020731996
 11
5.2642499584
 21
5.0489344959
  0
LINE
  5
251
100
AcDbEntity
  8
0
100
AcDbLine
 62
7
  6
CONTINUOUS
 10
5.2188610458
 20
4.9977106833
 11
5.1847045432
 21
4.9779904174
  0
LINE
  5
252
100
AcDbEntity
  8
0
100
AcDbLine
 62
7
  6
CONTINUOUS
 10
5.1880378766
 20
4.9722169147
 11
5.2221943791
 21
4.9919371806
  0
LINE
  5
253
100
AcDbEntity
  8
0
100
AcDbLine
 62
7
  6
CONTINUOUS
 10
5.3116808919
 20
5.4367867157
 11
5.3071172762
 21
5.4367867157
  0
LINE
  5
254
100
AcDbEntity
  8
0
100
AcDbLine
 62
7
  6
CONTINUOUS
 10
7.1586454489
 20
5.492620049
 11
7.0042836629
 21
5.492620049
  0
LINE
  5
255
100
AcDbEntity
  8
0
100
AcDbLine
 62
7
  6
CONTINUOUS
 10
5.1020891035
 20
5.492620049
 11
5.2564508895
 21
5.492620049
  0
LINE
  5
256
100
AcDbEntity
  8
0
100
AcDbLine
 62
7
  6
CONTINUOUS
 10
5.2261022565
 20
6.0104434367
 11
5.3597834845
 21
5.9332625437
  0
LINE
  5
257
100
AcDbEntity
  8
0
100
AcDbLine
 62
7
  6
CONTINUOUS
 10
6.8734510678
 20
5.059346157
 11
7.0071322959
 21
4.982165264
  0
LINE
  5
258
100
AcDbEntity
  8
03__ASM_ALL_CURVES
100
AcDbLine
 62
4
  6
CONTINUOUS
 10
5.7141217212
 20
5.9363656039
 11
6.5466128311
 21
5.1038744941
  0
LINE
  5
259
100
AcDbEntity
  8
0
100
AcDbLine
 62
7
  6
CONTINUOUS
 10
5.5924124912
 20
6.3968850687
 11
5.6695933842
 21
6.2632038407
  0
LINE
  5
25A
100
AcDbEntity
  8
0
100
AcDbLine
 62
7
  6
CONTINUOUS
 10
6.5435097709
 20
4.7495362573
 11
6.6206906639
 21
4.6158550293
  0
LINE
  5
25B
100
AcDbEntity
  8
0
100
AcDbLine
 62
7
  6
CONTINUOUS
 10
6.1578672762
 20
4.4918418763
 11
6.1578672762
 21
4.6462036623
  0
LINE
  5
25C
100
AcDbEntity
  8
0
100
AcDbLine
 62
7
  6
CONTINUOUS
 10
6.1578672762
 20
6.3940364357
 11
6.1578672762
 21
6.5483982217
  0
LINE
  5
25D
100
AcDbEntity
  8
0
100
AcDbLine
 62
7
  6
CONTINUOUS
 10
6.2137006095
 20
6.3388064333
 11
6.2137006095
 21
6.343370049
  0
LINE
  5
25E
100
AcDbEntity
  8
0
100
AcDbLine
 62
7
  6
CONTINUOUS
 10
5.6400438884
 20
4.6158550293
 11
5.7172247814
 21
4.7495362573
  0
LINE
  5
25F
100
AcDbEntity
  8
0
100
AcDbLine
 62
7
  6
CONTINUOUS
 10
6.5911411681
 20
6.2632038407
 11
6.6683220611
 21
6.3968850687
  0
LINE
  5
260
100
AcDbEntity
  8
0
100
AcDbLine
 62
7
  6
CONTINUOUS
 10
7.0613912047
 20
6.3568630734
 11
7.0601332308
 21
6.3556050995
  0
LINE
  5
261
100
AcDbEntity
  8
0
100
AcDbLine
 62
7
  6
CONTINUOUS
 10
7.080541977
 20
6.3671750837
 11
7.0658105857
 21
6.3524436924
  0
LINE
  5
262
100
AcDbEntity
  8
0
100
AcDbLine
 62
7
  6
CONTINUOUS
 10
5.2404017958
 20
4.9774307259
 11
5.2892499584
 21
5.0056332257
  0
LINE
  5
263
100
AcDbEntity
  8
0
100
AcDbLine
 62
7
  6
CONTINUOUS
 10
5.2536022565
 20
4.982165264
 11
5.3872834845
 21
5.059346157
  0
LINE
  5
264
100
AcDbEntity
  8
0
100
AcDbLine
 62
7
  6
CONTINUOUS
 10
6.9009510678
 20
5.9332625437
 11
7.0346322959
 21
6.0104434367
  0
LINE
  5
265
100
AcDbEntity
  8
0
100
AcDbLine
 62
7
  6
CONTINUOUS
 10
5.2564508895
 20
5.547620049
 11
5.1020891035
 21
5.547620049
  0
LINE
  5
266
100
AcDbEntity
  8
0
100
AcDbLine
 62
7
  6
CONTINUOUS
 10
7.0042836629
 20
5.547620049
 11
7.1586454489
 21
5.547620049
  0
LINE
  5
267
100
AcDbEntity
  8
0
100
AcDbLine
 62
7
  6
CONTINUOUS
 10
5.3116808919
 20
5.6034533823
 11
5.3071172762
 21
5.6034533823
  0
LINE
  5
268
100
AcDbEntity
  8
0
100
AcDbLine
 62
7
  6
CONTINUOUS
 10
7.0346322959
 20
5.0297966613
 11
6.9009510678
 21
5.1069775543
  0
LINE
  5
269
100
AcDbEntity
  8
0
100
AcDbLine
 62
7
  6
CONTINUOUS
 10
5.3872834845
 20
5.9808939409
 11
5.2536022565
 21
6.0580748339
  0
LINE
  5
26A
100
AcDbEntity
  8
0
100
AcDbLine
 62
7
  6
CONTINUOUS
 10
6.6683220611
 20
4.6433550293
 11
6.5911411681
 21
4.7770362573
  0
LINE
  5
26B
100
AcDbEntity
  8
0
100
AcDbLine
 62
7
  6
CONTINUOUS
 10
5.7172247814
 20
6.2907038407
 11
5.6400438884
 21
6.4243850687
  0
LINE
  5
26C
100
AcDbEntity
  8
0
100
AcDbLine
 62
7
  6
CONTINUOUS
 10
6.2103672762
 20
6.3467033823
 11
6.2137006095
 21
6.343370049
  0
LINE
  5
26D
100
AcDbEntity
  8
0
100
AcDbLine
 62
7
  6
CONTINUOUS
 10
6.2103565861
 20
6.3467033823
 11
6.0503779663
 21
6.3467033823
  0
LINE
  5
26E
100
AcDbEntity
  8
0
100
AcDbLine
 62
7
  6
CONTINUOUS
 10
6.2137006095
 20
6.343370049
 11
6.0470339428
 21
6.343370049
  0
LINE
  5
26F
100
AcDbEntity
  8
0
100
AcDbLine
 62
7
  6
CONTINUOUS
 10
7.0658105857
 20
6.3524436924
 11
6.9626909196
 21
6.4555633586
  0
LINE
  5
270
100
AcDbEntity
  8
0
100
AcDbLine
 62
7
  6
CONTINUOUS
 10
7.080541977
 20
6.3671750837
 11
6.9774223108
 21
6.4702947498
  0
LINE
  5
271
100
AcDbEntity
  8
0
100
AcDbLine
 62
7
  6
CONTINUOUS
 10
7.0891794695
 20
6.4257127354
 11
7.0359599625
 21
6.4789322424
  0
LINE
  5
272
100
AcDbEntity
  8
0
100
AcDbLine
 62
7
  6
CONTINUOUS
 10
7.1107413655
 20
6.4769239123
 11
7.0871711395
 21
6.5004941383
  0
LINE
  5
273
100
AcDbEntity
  8
03__ASM_ALL_CURVES
100
AcDbLine
 62
8
  6
HIDDEN
 10
7.472259274
 20
6.120120049
 11
7.8055926073
 21
5.7867867157
  0
LINE
  5
274
100
AcDbEntity
  8
0
100
AcDbLine
 62
7
  6
CONTINUOUS
 10
7.2128990309
 20
6.145120049
 11
7.8768518405
 21
4.995120049
  0
LINE
  5
275
100
AcDbEntity
  8
0
100
AcDbLine
 62
7
  6
CONTINUOUS
 10
8.4324506095
 20
4.270120049
 11
8.4324506095
 21
4.995120049
  0
LINE
  5
276
100
AcDbEntity
  8
0
100
AcDbLine
 62
7
  6
CONTINUOUS
 10
3.7687887505
 20
12.1875477814
 11
3.7687887505
 21
13.304214448
  0
LINE
  5
277
100
AcDbEntity
  8
0
100
AcDbLine
 62
7
  6
CONTINUOUS
 10
4.3388212763
 20
12.1875477814
 11
4.3388212763
 21
12.4686199342
  0
LINE
  5
278
100
AcDbEntity
  8
0
100
AcDbLine
 62
7
  6
CONTINUOUS
 10
4.3388212766
 20
13.0231422693
 11
4.3388212766
 21
13.304214448
  0
LINE
  5
279
100
AcDbEntity
  8
0
100
AcDbLine
 62
7
  6
CONTINUOUS
 10
5.1022876022
 20
12.154214448
 11
5.1022876022
 21
12.1625477814
  0
LINE
  5
27A
100
AcDbEntity
  8
0
100
AcDbLine
 62
7
  6
CONTINUOUS
 10
5.1074325812
 20
12.129214448
 11
5.1074325812
 21
12.154214448
  0
LINE
  5
27B
100
AcDbEntity
  8
0
100
AcDbLine
 62
7
  6
CONTINUOUS
 10
5.2476220839
 20
11.9333811147
 11
5.2442887505
 21
11.936714448
  0
LINE
  5
27C
100
AcDbEntity
  8
0
100
AcDbLine
 62
7
  6
CONTINUOUS
 10
5.2477887505
 20
11.9333811147
 11
5.2476220839
 21
11.946609987
  0
LINE
  5
27D
100
AcDbEntity
  8
0
100
AcDbLine
 62
7
  6
CONTINUOUS
 10
5.1856209355
 20
12.1625477814
 11
5.1856209355
 21
12.1560578346
  0
LINE
  5
27E
100
AcDbEntity
  8
0
100
AcDbLine
 62
7
  6
CONTINUOUS
 10
5.2274029678
 20
12.1499610424
 11
5.2274029678
 21
12.154214448
  0
LINE
  5
27F
100
AcDbEntity
  8
0
100
AcDbLine
 62
7
  6
CONTINUOUS
 10
5.2442887505
 20
12.096714448
 11
5.2442887505
 21
11.936714448
  0
LINE
  5
280
100
AcDbEntity
  8
0
100
AcDbLine
 62
7
  6
CONTINUOUS
 10
5.2476220839
 20
11.946609987
 11
5.2476220839
 21
12.0868189091
  0
LINE
  5
281
100
AcDbEntity
  8
0
100
AcDbLine
 62
7
  6
CONTINUOUS
 10
5.2479554172
 20
12.1625477814
 11
5.2479554172
 21
12.1000477814
  0
LINE
  5
282
100
AcDbEntity
  8
0
100
AcDbLine
 62
7
  6
CONTINUOUS
 10
5.2479554172
 20
11.9333811147
 11
5.2479554172
 21
11.8708811147
  0
LINE
  5
283
100
AcDbEntity
  8
0
100
AcDbLine
 62
7
  6
CONTINUOUS
 10
5.2476220839
 20
12.0868189091
 11
5.2477887505
 21
12.1000477814
  0
LINE
  5
284
100
AcDbEntity
  8
0
100
AcDbLine
 62
7
  6
CONTINUOUS
 10
5.230544961
 20
12.1373546035
 11
5.2274029678
 21
12.1508947123
  0
LINE
  5
285
100
AcDbEntity
  8
0
100
AcDbLine
 62
7
  6
CONTINUOUS
 10
5.2266326205
 20
12.154214448
 11
5.2251323022
 21
12.160679921
  0
LINE
  5
286
100
AcDbEntity
  8
0
100
AcDbLine
 62
7
  6
CONTINUOUS
 10
5.2479554172
 20
11.8708811147
 11
6.8937887505
 21
11.8708811147
  0
LINE
  5
287
100
AcDbEntity
  8
0
100
AcDbLine
 62
7
  6
CONTINUOUS
 10
5.2251303745
 20
12.160679467
 11
5.2249029678
 21
12.1607345451
  0
LINE
  5
288
100
AcDbEntity
  8
0
100
AcDbLine
 62
7
  6
CONTINUOUS
 10
5.1074325812
 20
12.129214448
 11
5.2046630163
 21
12.129214448
  0
LINE
  5
289
100
AcDbEntity
  8
0
100
AcDbLine
 62
7
  6
CONTINUOUS
 10
5.2069822933
 20
12.1374092275
 11
5.2303156266
 21
12.1374092275
  0
LINE
  5
28A
100
AcDbEntity
  8
0
100
AcDbLine
 62
7
  6
CONTINUOUS
 10
6.0292054172
 20
11.9926581868
 11
6.0708720839
 21
11.9686019256
  0
LINE
  5
28B
100
AcDbEntity
  8
0
100
AcDbLine
 62
7
  6
CONTINUOUS
 10
6.1125387505
 20
12.0407707093
 11
6.0708720839
 21
12.0648269705
  0
LINE
  5
28C
100
AcDbEntity
  8
0
100
AcDbLine
 62
7
  6
CONTINUOUS
 10
5.2269563859
 20
12.1482943757
 11
5.2052897192
 21
12.1482943757
  0
LINE
  5
28D
100
AcDbEntity
  8
0
100
AcDbLine
 62
7
  6
CONTINUOUS
 10
5.2274029678
 20
12.154214448
 11
5.2008065685
 21
12.154214448
  0
LINE
  5
28E
100
AcDbEntity
  8
0
100
AcDbLine
 62
7
  6
CONTINUOUS
 10
5.1022876022
 20
12.154214448
 11
5.1796630163
 21
12.154214448
  0
LINE
  5
28F
100
AcDbEntity
  8
0
100
AcDbLine
 62
7
  6
CONTINUOUS
 10
5.2249029678
 20
12.1607345451
 11
5.2015696345
 21
12.1607345451
  0
LINE
  5
290
100
AcDbEntity
  8
0
100
AcDbLine
 62
7
  6
CONTINUOUS
 10
3.7937887505
 20
12.1625477814
 11
8.3479554172
 21
12.1625477814
  0
LINE
  5
291
100
AcDbEntity
  8
0
100
AcDbLine
 62
7
  6
CONTINUOUS
 10
5.2442887505
 20
12.096714448
 11
5.2476220839
 21
12.1000477814
  0
LINE
  5
292
100
AcDbEntity
  8
0
100
AcDbLine
 62
7
  6
CONTINUOUS
 10
6.0292054172
 20
11.9926581868
 11
6.0292054172
 21
12.0407707093
  0
LINE
  5
293
100
AcDbEntity
  8
0
100
AcDbLine
 62
7
  6
CONTINUOUS
 10
4.1854554172
 20
12.6000477814
 11
4.5187887505
 21
12.6000477814
  0
LINE
  5
294
100
AcDbEntity
  8
0
100
AcDbLine
 62
7
  6
CONTINUOUS
 10
7.6229554172
 20
12.6000477814
 11
7.9562887505
 21
12.6000477814
  0
LINE
  5
295
100
AcDbEntity
  8
0
100
AcDbLine
 62
7
  6
CONTINUOUS
 10
6.1125387505
 20
12.0407707093
 11
6.1125387505
 21
11.9926581868
  0
LINE
  5
296
100
AcDbEntity
  8
0
100
AcDbLine
 62
7
  6
CONTINUOUS
 10
5.1993421073
 20
12.16030318
 11
5.1796630163
 21
12.154214448
  0
LINE
  5
297
100
AcDbEntity
  8
0
100
AcDbLine
 62
7
  6
CONTINUOUS
 10
6.9694869516
 20
12.6616842599
 11
6.9547555603
 21
12.6616842599
  0
LINE
  5
298
100
AcDbEntity
  8
0
100
AcDbLine
 62
7
  6
CONTINUOUS
 10
6.9031957273
 20
12.7037826873
 11
6.9179271185
 21
12.7037826873
  0
LINE
  5
299
100
AcDbEntity
  8
03__ASM_ALL_CURVES
100
AcDbLine
 62
4
  6
CONTINUOUS
 10
3.7687887505
 20
12.7458811147
 11
4.8250387505
 21
12.7458811147
  0
LINE
  5
29A
100
AcDbEntity
  8
03__ASM_ALL_CURVES
100
AcDbLine
 62
4
  6
CONTINUOUS
 10
7.3167054172
 20
12.7458811147
 11
8.3729554172
 21
12.7458811147
  0
LINE
  5
29B
100
AcDbEntity
  8
0
100
AcDbLine
 62
7
  6
CONTINUOUS
 10
5.1796630163
 20
12.129214448
 11
5.2047547661
 21
12.1369778624
  0
LINE
  5
29C
100
AcDbEntity
  8
0
100
AcDbLine
 62
7
  6
CONTINUOUS
 10
5.2046630163
 20
12.129214448
 11
5.2297547661
 21
12.1369778624
  0
LINE
  5
29D
100
AcDbEntity
  8
0
100
AcDbLine
 62
7
  6
CONTINUOUS
 10
6.9179271185
 20
12.7879795421
 11
6.9031957273
 21
12.7879795421
  0
LINE
  5
29E
100
AcDbEntity
  8
0
100
AcDbLine
 62
7
  6
CONTINUOUS
 10
6.9547555603
 20
12.8300779695
 11
6.9694869516
 21
12.8300779695
  0
LINE
  5
29F
100
AcDbEntity
  8
0
100
AcDbLine
 62
7
  6
CONTINUOUS
 10
7.9562887505
 20
12.891714448
 11
7.6229554172
 21
12.891714448
  0
LINE
  5
2A0
100
AcDbEntity
  8
0
100
AcDbLine
 62
7
  6
CONTINUOUS
 10
4.5187887505
 20
12.891714448
 11
4.1854554172
 21
12.891714448
  0
LINE
  5
2A1
100
AcDbEntity
  8
0
100
AcDbLine
 62
7
  6
CONTINUOUS
 10
6.9031957273
 20
12.7879795421
 11
6.9547555603
 21
12.8300779695
  0
LINE
  5
2A2
100
AcDbEntity
  8
0
100
AcDbLine
 62
7
  6
CONTINUOUS
 10
6.9179271185
 20
12.7879795421
 11
6.9694869516
 21
12.8300779695
  0
LINE
  5
2A3
100
AcDbEntity
  8
0
100
AcDbLine
 62
7
  6
CONTINUOUS
 10
6.0708720839
 20
12.0648269705
 11
6.0292054172
 21
12.0407707093
  0
LINE
  5
2A4
100
AcDbEntity
  8
0
100
AcDbLine
 62
7
  6
CONTINUOUS
 10
6.9694869516
 20
12.6616842599
 11
7.0159547826
 21
12.6996250849
  0
LINE
  5
2A5
100
AcDbEntity
  8
0
100
AcDbLine
 62
7
  6
CONTINUOUS
 10
6.0708720839
 20
11.9686019256
 11
6.1125387505
 21
11.9926581868
  0
LINE
  5
2A6
100
AcDbEntity
  8
0
100
AcDbLine
 62
7
  6
CONTINUOUS
 10
6.9547555603
 20
12.6616842599
 11
6.9031957273
 21
12.7037826873
  0
LINE
  5
2A7
100
AcDbEntity
  8
0
100
AcDbLine
 62
7
  6
CONTINUOUS
 10
6.9694869516
 20
12.6616842599
 11
6.9179271185
 21
12.7037826873
  0
LINE
  5
2A8
100
AcDbEntity
  8
0
100
AcDbLine
 62
7
  6
CONTINUOUS
 10
6.8937887505
 20
11.8708811147
 11
6.8937887505
 21
12.1625477814
  0
LINE
  5
2A9
100
AcDbEntity
  8
0
100
AcDbLine
 62
7
  6
CONTINUOUS
 10
3.7937887505
 20
13.329214448
 11
8.3479554172
 21
13.329214448
  0
LINE
  5
2AA
100
AcDbEntity
  8
0
100
AcDbLine
 62
7
  6
CONTINUOUS
 10
7.016305454
 20
12.7918508224
 11
6.9694869516
 21
12.8300779695
  0
LINE
  5
2AB
100
AcDbEntity
  8
0
100
AcDbLine
 62
7
  6
CONTINUOUS
 10
6.9031957273
 20
12.7037826873
 11
6.9031957273
 21
12.7879795421
  0
LINE
  5
2AC
100
AcDbEntity
  8
0
100
AcDbLine
 62
7
  6
CONTINUOUS
 10
6.9179271185
 20
12.7037826873
 11
6.9179271185
 21
12.7879795421
  0
LINE
  5
2AD
100
AcDbEntity
  8
0
100
AcDbLine
 62
7
  6
CONTINUOUS
 10
7.8029228914
 20
13.304214448
 11
7.8029228914
 21
13.0231422952
  0
LINE
  5
2AE
100
AcDbEntity
  8
0
100
AcDbLine
 62
7
  6
CONTINUOUS
 10
7.8029228907
 20
12.4686199601
 11
7.8029228911
 21
12.1875477814
  0
LINE
  5
2AF
100
AcDbEntity
  8
0
100
AcDbLine
 62
7
  6
CONTINUOUS
 10
8.3729554172
 20
13.304214448
 11
8.3729554172
 21
12.1875477814
  0
LINE
  5
2B0
100
AcDbEntity
  8
0
100
AcDbLine
 62
7
  6
CONTINUOUS
 10
15.1228552569
 20
4.2106248567
 11
16.2895219236
 21
4.2106248567
  0
LINE
  5
2B1
100
AcDbEntity
  8
0
100
AcDbLine
 62
7
  6
CONTINUOUS
 10
14.8936885903
 20
6.2838748567
 11
14.8970219236
 21
6.28720819
  0
LINE
  5
2B2
100
AcDbEntity
  8
0
100
AcDbLine
 62
7
  6
CONTINUOUS
 10
15.1228552569
 20
4.63770819
 11
14.8311885903
 21
4.63770819
  0
LINE
  5
2B3
100
AcDbEntity
  8
0
100
AcDbLine
 62
7
  6
CONTINUOUS
 10
14.8311885903
 20
6.2835281709
 11
14.8311885903
 21
4.6377215424
  0
LINE
  5
2B4
100
AcDbEntity
  8
0
100
AcDbLine
 62
7
  6
CONTINUOUS
 10
15.6219917354
 20
6.3592397244
 11
15.6602188825
 21
6.4060582268
  0
LINE
  5
2B5
100
AcDbEntity
  8
0
100
AcDbLine
 62
7
  6
CONTINUOUS
 10
15.1478552569
 20
4.9606248567
 11
16.2645219236
 21
4.9606248567
  0
LINE
  5
2B6
100
AcDbEntity
  8
0
100
AcDbLine
 62
7
  6
CONTINUOUS
 10
15.1228552569
 20
4.2106248567
 11
15.1228552569
 21
6.7106239942
  0
LINE
  5
2B7
100
AcDbEntity
  8
0
100
AcDbLine
 62
7
  6
CONTINUOUS
 10
15.7482870177
 20
6.3076798914
 11
15.7903854451
 21
6.3592397244
  0
LINE
  5
2B8
100
AcDbEntity
  8
0
100
AcDbLine
 62
7
  6
CONTINUOUS
 10
15.7482870177
 20
6.2929485001
 11
15.7903854451
 21
6.3445083332
  0
LWPOLYLINE
  5
2B9
100
AcDbEntity
  8
0
100
AcDbPolyline
 62
7
  6
CONTINUOUS
 90
4
 70
0
 10
15.4436910501
 20
4.9606248567
 10
15.4198752449
 20
5.0472864238
 10
15.4028862485
 20
5.1642618143
 10
15.3999386385
 20
5.2391145734
  0
LINE
  5
2BA
100
AcDbEntity
  8
0
100
AcDbLine
 62
7
  6
CONTINUOUS
 10
15.3999385903
 20
5.2390117781
 11
15.3999385962
 21
5.2391221091
  0
LINE
  5
2BB
100
AcDbEntity
  8
0
100
AcDbLine
 62
7
  6
CONTINUOUS
 10
15.6219917354
 20
6.3592397244
 11
15.6219917354
 21
6.3445083332
  0
LINE
  5
2BC
100
AcDbEntity
  8
0
100
AcDbLine
 62
7
  6
CONTINUOUS
 10
15.6640901628
 20
6.3076798914
 11
15.6640901628
 21
6.2929485001
  0
LINE
  5
2BD
100
AcDbEntity
  8
03__ASM_ALL_CURVES
100
AcDbLine
 62
8
  6
HIDDEN
 10
15.7061885903
 20
6.0606248567
 11
15.7061885903
 21
5.7272915234
  0
LINE
  5
2BE
100
AcDbEntity
  8
0
100
AcDbLine
 62
7
  6
CONTINUOUS
 10
15.7482870177
 20
6.2929485001
 11
15.7482870177
 21
6.3076798914
  0
LINE
  5
2BF
100
AcDbEntity
  8
0
100
AcDbLine
 62
7
  6
CONTINUOUS
 10
15.7903854451
 20
6.3445083332
 11
15.7903854451
 21
6.3592397244
  0
LINE
  5
2C0
100
AcDbEntity
  8
0
100
AcDbLine
 62
7
  6
CONTINUOUS
 10
15.0570219236
 20
6.28720819
 11
15.0603552569
 21
6.2838748567
  0
LINE
  5
2C1
100
AcDbEntity
  8
0
100
AcDbLine
 62
7
  6
CONTINUOUS
 10
16.0124385841
 20
5.2390696387
 11
16.0124385903
 21
5.2389574598
  0
LWPOLYLINE
  5
2C2
100
AcDbEntity
  8
0
100
AcDbPolyline
 62
7
  6
CONTINUOUS
 90
3
 70
0
 10
16.0124385895
 20
5.2391163991
 10
16.0094394733
 20
5.1636155096
 10
15.9923044593
 20
5.0463705944
  0
LINE
  5
2C3
100
AcDbEntity
  8
0
100
AcDbLine
 62
7
  6
CONTINUOUS
 10
15.9923044593
 20
5.0463705944
 11
15.9686862286
 21
4.9606248567
  0
LINE
  5
2C4
100
AcDbEntity
  8
0
100
AcDbLine
 62
7
  6
CONTINUOUS
 10
15.6640901628
 20
6.2929485001
 11
15.6219917354
 21
6.3445083332
  0
LINE
  5
2C5
100
AcDbEntity
  8
0
100
AcDbLine
 62
7
  6
CONTINUOUS
 10
15.6219917354
 20
6.3592397244
 11
15.6640901628
 21
6.3076798914
  0
LINE
  5
2C6
100
AcDbEntity
  8
0
100
AcDbLine
 62
7
  6
CONTINUOUS
 10
16.2895219236
 20
4.2106248567
 11
16.2895219236
 21
6.7106239942
  0
LINE
  5
2C7
100
AcDbEntity
  8
0
100
AcDbLine
 62
7
  6
CONTINUOUS
 10
14.8936885903
 20
6.2835415234
 11
14.8966540068
 21
6.283247316
  0
LINE
  5
2C8
100
AcDbEntity
  8
0
100
AcDbLine
 62
7
  6
CONTINUOUS
 10
15.75244462
 20
6.4057075554
 11
15.7903854451
 21
6.3592397244
  0
LINE
  5
2C9
100
AcDbEntity
  8
0
100
AcDbLine
 62
7
  6
CONTINUOUS
 10
15.0575462446
 20
6.2832618131
 11
15.0603552569
 21
6.2835415234
  0
LINE
  5
2CA
100
AcDbEntity
  8
0
100
AcDbLine
 62
7
  6
CONTINUOUS
 10
14.8936885903
 20
6.28370819
 11
14.9069174625
 21
6.2838748567
  0
LINE
  5
2CB
100
AcDbEntity
  8
0
100
AcDbLine
 62
7
  6
CONTINUOUS
 10
15.1228552569
 20
6.2835415234
 11
15.0603552569
 21
6.2835415234
  0
LINE
  5
2CC
100
AcDbEntity
  8
0
100
AcDbLine
 62
7
  6
CONTINUOUS
 10
14.8936885903
 20
6.2835415234
 11
14.8311885903
 21
6.2835415234
  0
LINE
  5
2CD
100
AcDbEntity
  8
0
100
AcDbLine
 62
7
  6
CONTINUOUS
 10
14.9069174625
 20
6.2838748567
 11
15.0471263847
 21
6.2838748567
  0
LINE
  5
2CE
100
AcDbEntity
  8
0
100
AcDbLine
 62
7
  6
CONTINUOUS
 10
15.0570219236
 20
6.28720819
 11
14.8970219236
 21
6.28720819
  0
LINE
  5
2CF
100
AcDbEntity
  8
0
100
AcDbLine
 62
7
  6
CONTINUOUS
 10
15.7482870177
 20
6.2929485001
 11
15.6640901628
 21
6.2929485001
  0
LINE
  5
2D0
100
AcDbEntity
  8
0
100
AcDbLine
 62
7
  6
CONTINUOUS
 10
15.6640901628
 20
6.3076798914
 11
15.7482870177
 21
6.3076798914
  0
LINE
  5
2D1
100
AcDbEntity
  8
0
100
AcDbLine
 62
7
  6
CONTINUOUS
 10
15.0471263847
 20
6.2838748567
 11
15.0603552569
 21
6.28370819
  0
LINE
  5
2D2
100
AcDbEntity
  8
0
100
AcDbLine
 62
7
  6
CONTINUOUS
 10
15.1228552569
 20
6.7106248567
 11
16.2895219236
 21
6.7106248567
  0
LINE
  5
2D3
100
AcDbEntity
  8
0
100
AcDbLine
 62
7
  6
CONTINUOUS
 10
13.1063155906
 20
11.7360887619
 11
13.3274709439
 21
11.2854215349
  0
LINE
  5
2D4
100
AcDbEntity
  8
0
100
AcDbLine
 62
7
  6
CONTINUOUS
 10
13.1048733608
 20
11.7544835139
 11
13.3751807553
 21
12.629198563
  0
LWPOLYLINE
  5
2D5
100
AcDbEntity
  8
0
100
AcDbPolyline
 62
7
  6
CONTINUOUS
 90
5
 70
0
 10
13.9714450786
 20
12.8021034845
 10
13.9713102623
 20
12.8011698076
 10
13.9709991797
 20
12.7994712173
 10
13.9704806561
 20
12.7970150092
 10
13.9697300303
 20
12.7937810867
  0
LWPOLYLINE
  5
2D6
100
AcDbEntity
  8
0
100
AcDbPolyline
 62
7
  6
CONTINUOUS
 90
6
 70
0
 10
13.9674143944
 20
12.7847202697
 10
13.9657861564
 20
12.778734949
 10
13.9637981608
 20
12.7716572372
 10
13.9614126023
 20
12.7633845816
 10
13.9586055444
 20
12.7538620201
 10
13.9553634667
 20
12.7430666676
  0
LINE
  5
2D7
100
AcDbEntity
  8
0
100
AcDbLine
 62
7
  6
CONTINUOUS
 10
13.6231410352
 20
11.7626425789
 11
13.6911791379
 21
11.9828139597
  0
LINE
  5
2D8
100
AcDbEntity
  8
0
100
AcDbLine
 62
7
  6
CONTINUOUS
 10
13.8254103209
 20
12.4171862271
 11
13.8934484298
 21
12.6373576283
  0
LINE
  5
2D9
100
AcDbEntity
  8
0
100
AcDbLine
 62
7
  6
CONTINUOUS
 10
13.9553634667
 20
12.7430666676
 11
13.9475764084
 21
12.7177312412
  0
LINE
  5
2DA
100
AcDbEntity
  8
0
100
AcDbLine
 62
7
  6
CONTINUOUS
 10
13.9475764084
 20
12.7177312412
 11
13.9381903833
 21
12.6879154195
  0
LINE
  5
2DB
100
AcDbEntity
  8
0
100
AcDbLine
 62
7
  6
CONTINUOUS
 10
13.9381903833
 20
12.6879154195
 11
13.9275825034
 21
12.6548353782
  0
LINE
  5
2DC
100
AcDbEntity
  8
0
100
AcDbLine
 62
7
  6
CONTINUOUS
 10
13.9275825034
 20
12.6548353782
 11
13.9104187896
 21
12.6022496792
  0
LINE
  5
2DD
100
AcDbEntity
  8
0
100
AcDbLine
 62
7
  6
CONTINUOUS
 10
13.9104187896
 20
12.6022496792
 11
13.8865832496
 21
12.5305626508
  0
LINE
  5
2DE
100
AcDbEntity
  8
0
100
AcDbLine
 62
7
  6
CONTINUOUS
 10
13.8865832496
 20
12.5305626508
 11
13.8628684207
 21
12.4603857714
  0
LINE
  5
2DF
100
AcDbEntity
  8
0
100
AcDbLine
 62
7
  6
CONTINUOUS
 10
13.8628684207
 20
12.4603857714
 11
13.8337047012
 21
12.3753626358
  0
LINE
  5
2E0
100
AcDbEntity
  8
0
100
AcDbLine
 62
7
  6
CONTINUOUS
 10
13.8337047012
 20
12.3753626358
 11
13.8042030999
 21
12.2906607161
  0
LINE
  5
2E1
100
AcDbEntity
  8
0
100
AcDbLine
 62
7
  6
CONTINUOUS
 10
13.8042030999
 20
12.2906607161
 11
13.7796259223
 21
12.2211134912
  0
LINE
  5
2E2
100
AcDbEntity
  8
0
100
AcDbLine
 62
7
  6
CONTINUOUS
 10
13.6911791379
 20
11.9828139597
 11
13.6915446664
 21
11.983825814
  0
LINE
  5
2E3
100
AcDbEntity
  8
0
100
AcDbLine
 62
7
  6
CONTINUOUS
 10
13.7796259223
 20
12.2211134912
 11
13.7545170047
 21
12.1511353883
  0
LINE
  5
2E4
100
AcDbEntity
  8
0
100
AcDbLine
 62
7
  6
CONTINUOUS
 10
14.1545746523
 20
13.356252015
 11
13.8958353236
 21
12.6468935007
  0
LINE
  5
2E5
100
AcDbEntity
  8
0
100
AcDbLine
 62
7
  6
CONTINUOUS
 10
13.6114210535
 20
11.7275191569
 11
13.8721639416
 21
12.4423706204
  0
LINE
  5
2E6
100
AcDbEntity
  8
0
100
AcDbLine
 62
7
  6
CONTINUOUS
 10
13.7545170047
 20
12.1511353883
 11
13.7361175399
 21
12.1007005479
  0
LINE
  5
2E7
100
AcDbEntity
  8
0
100
AcDbLine
 62
7
  6
CONTINUOUS
 10
13.7361175399
 20
12.1007005479
 11
13.7243784548
 21
12.0690044944
  0
LINE
  5
2E8
100
AcDbEntity
  8
0
100
AcDbLine
 62
7
  6
CONTINUOUS
 10
13.7243784548
 20
12.0690044944
 11
13.7132796275
 21
12.0394939544
  0
LWPOLYLINE
  5
2E9
100
AcDbEntity
  8
0
100
AcDbPolyline
 62
7
  6
CONTINUOUS
 90
4
 70
0
 10
13.7132796275
 20
12.0394939544
 10
13.703011577
 20
12.0127356641
 10
13.6982641907
 20
12.0006096645
 10
13.6938246109
 20
11.9894642502
  0
LINE
  5
2EA
100
AcDbEntity
  8
0
100
AcDbLine
 62
7
  6
CONTINUOUS
 10
13.6938246109
 20
11.9894642502
 11
13.6915414763
 21
11.983826047
  0
LINE
  5
2EB
100
AcDbEntity
  8
0
100
AcDbLine
 62
7
  6
CONTINUOUS
 10
13.3438625772
 20
11.2768519299
 11
17.538527854
 21
11.2768519299
  0
LINE
  5
2EC
100
AcDbEntity
  8
0
100
AcDbLine
 62
7
  6
CONTINUOUS
 10
14.2241124514
 20
12.3106778833
 11
14.2245216066
 21
12.3120136392
  0
LINE
  5
2ED
100
AcDbEntity
  8
0
100
AcDbLine
 62
7
  6
CONTINUOUS
 10
14.123595281
 20
12.0446033852
 11
14.1211746178
 21
12.0367701161
  0
LINE
  5
2EE
100
AcDbEntity
  8
0
100
AcDbLine
 62
7
  6
CONTINUOUS
 10
14.2736611459
 20
12.296828373
 11
14.2030584682
 21
12.0683580244
  0
LINE
  5
2EF
100
AcDbEntity
  8
0
100
AcDbLine
 62
7
  6
CONTINUOUS
 10
14.4088203565
 20
12.5157726824
 11
14.4112410197
 21
12.5236059515
  0
LINE
  5
2F0
100
AcDbEntity
  8
0
100
AcDbLine
 62
7
  6
CONTINUOUS
 10
14.7679826191
 20
12.5970995277
 11
14.7704032823
 21
12.6049327968
  0
LINE
  5
2F1
100
AcDbEntity
  8
0
100
AcDbLine
 62
7
  6
CONTINUOUS
 10
14.7282482684
 20
12.4345977388
 11
14.7398946898
 21
12.4722855723
  0
LINE
  5
2F2
100
AcDbEntity
  8
0
100
AcDbLine
 62
7
  6
CONTINUOUS
 10
14.7352766241
 20
12.4305294091
 11
14.744978721
 21
12.4619254062
  0
LINE
  5
2F3
100
AcDbEntity
  8
0
100
AcDbLine
 62
7
  6
CONTINUOUS
 10
14.8166497727
 20
12.4722855723
 11
14.8050033513
 21
12.4345977388
  0
LINE
  5
2F4
100
AcDbEntity
  8
0
100
AcDbLine
 62
7
  6
CONTINUOUS
 10
14.077440483
 20
12.3586542958
 11
14.2241124514
 21
12.3106778833
  0
LINE
  5
2F5
100
AcDbEntity
  8
0
100
AcDbLine
 62
7
  6
CONTINUOUS
 10
15.8848737062
 20
11.7674427459
 11
16.0315456746
 21
11.7194663335
  0
LINE
  5
2F6
100
AcDbEntity
  8
0
100
AcDbLine
 62
7
  6
CONTINUOUS
 10
16.0339663379
 20
11.7272996026
 11
15.8872943694
 21
11.775276015
  0
LINE
  5
2F7
100
AcDbEntity
  8
0
100
AcDbLine
 62
7
  6
CONTINUOUS
 10
14.2265331146
 20
12.3185111524
 11
14.0798611462
 21
12.3664875649
  0
LINE
  5
2F8
100
AcDbEntity
  8
0
100
AcDbLine
 62
7
  6
CONTINUOUS
 10
16.0423452817
 20
11.7490744848
 11
15.8956733132
 21
11.7970508972
  0
LINE
  5
2F9
100
AcDbEntity
  8
0
100
AcDbLine
 62
7
  6
CONTINUOUS
 10
14.2349120584
 20
12.3402860346
 11
14.08824009
 21
12.3882624471
  0
LINE
  5
2FA
100
AcDbEntity
  8
0
100
AcDbLine
 62
7
  6
CONTINUOUS
 10
14.2969536751
 20
12.5988702663
 11
14.4088203565
 21
12.5157726824
  0
LINE
  5
2FB
100
AcDbEntity
  8
0
100
AcDbLine
 62
7
  6
CONTINUOUS
 10
15.7467482187
 20
11.5219238307
 11
15.7873493187
 21
11.4917642401
  0
LINE
  5
2FC
100
AcDbEntity
  8
0
100
AcDbLine
 62
7
  6
CONTINUOUS
 10
15.789769982
 20
11.4995975091
 11
15.750132757
 21
11.5290411074
  0
LINE
  5
2FD
100
AcDbEntity
  8
0
100
AcDbLine
 62
7
  6
CONTINUOUS
 10
14.4112410197
 20
12.5236059515
 11
14.3047006528
 21
12.6027470057
  0
LINE
  5
2FE
100
AcDbEntity
  8
0
100
AcDbLine
 62
7
  6
CONTINUOUS
 10
15.8228320895
 20
11.5088585142
 11
15.762017478
 21
11.5540332456
  0
LINE
  5
2FF
100
AcDbEntity
  8
0
100
AcDbLine
 62
7
  6
CONTINUOUS
 10
14.4443031272
 20
12.5328669565
 11
14.3324364459
 21
12.6159645405
  0
LINE
  5
300
100
AcDbEntity
  8
0
100
AcDbLine
 62
7
  6
CONTINUOUS
 10
14.744978721
 20
12.4619254062
 11
14.7398946898
 21
12.4722855723
  0
LINE
  5
301
100
AcDbEntity
  8
0
100
AcDbLine
 62
7
  6
CONTINUOUS
 10
14.7891794731
 20
12.4807693229
 11
14.784095442
 21
12.4911294891
  0
LINE
  5
302
100
AcDbEntity
  8
0
100
AcDbLine
 62
7
  6
CONTINUOUS
 10
14.7679826191
 20
12.5970995277
 11
14.7208958118
 21
12.6930523526
  0
LINE
  5
303
100
AcDbEntity
  8
0
100
AcDbLine
 62
7
  6
CONTINUOUS
 10
14.7704032823
 20
12.6049327968
 11
14.7271327356
 21
12.6931089002
  0
LINE
  5
304
100
AcDbEntity
  8
0
100
AcDbLine
 62
7
  6
CONTINUOUS
 10
14.8186409738
 20
12.5970995277
 11
14.7715541664
 21
12.6930523526
  0
LINE
  5
305
100
AcDbEntity
  8
0
100
AcDbLine
 62
7
  6
CONTINUOUS
 10
16.0153884495
 20
12.0367701161
 11
15.8732118294
 21
12.0367701161
  0
LINE
  5
306
100
AcDbEntity
  8
0
100
AcDbLine
 62
7
  6
CONTINUOUS
 10
14.1211746178
 20
12.0367701161
 11
14.1980620507
 21
12.0367701161
  0
LINE
  5
307
100
AcDbEntity
  8
0
100
AcDbLine
 62
7
  6
CONTINUOUS
 10
14.123595281
 20
12.0446033852
 11
14.1993012342
 21
12.0446033852
  0
LINE
  5
308
100
AcDbEntity
  8
0
100
AcDbLine
 62
7
  6
CONTINUOUS
 10
15.8756324927
 20
12.0446033852
 11
16.0117513519
 21
12.0446033852
  0
LINE
  5
309
100
AcDbEntity
  8
0
100
AcDbLine
 62
7
  6
CONTINUOUS
 10
14.2030584682
 20
12.0709586644
 11
14.1043973151
 21
12.0709586644
  0
LINE
  5
30A
100
AcDbEntity
  8
0
100
AcDbLine
 62
7
  6
CONTINUOUS
 10
15.8564345268
 20
12.0709586644
 11
15.9986111468
 21
12.0709586644
  0
LINE
  5
30B
100
AcDbEntity
  8
0
100
AcDbLine
 62
7
  6
CONTINUOUS
 10
13.581734083
 20
12.0857649291
 11
13.7306045342
 21
12.0857649291
  0
LINE
  5
30C
100
AcDbEntity
  8
0
100
AcDbLine
 62
7
  6
CONTINUOUS
 10
16.7478812499
 20
12.0857649291
 11
17.0549015812
 21
12.0857649291
  0
LINE
  5
30D
100
AcDbEntity
  8
0
100
AcDbLine
 62
7
  6
CONTINUOUS
 10
14.7282482684
 20
12.4345977388
 11
14.7608025991
 21
12.415753822
  0
LINE
  5
30E
100
AcDbEntity
  8
0
100
AcDbLine
 62
7
  6
CONTINUOUS
 10
14.7891794731
 20
12.4807693229
 11
14.8147054481
 21
12.4659937358
  0
LINE
  5
30F
100
AcDbEntity
  8
0
100
AcDbLine
 62
7
  6
CONTINUOUS
 10
14.8166497727
 20
12.4722855723
 11
14.784095442
 21
12.4911294891
  0
LINE
  5
310
100
AcDbEntity
  8
0
100
AcDbLine
 62
7
  6
CONTINUOUS
 10
15.2576220744
 20
12.5157726824
 11
15.2600427376
 21
12.5236059515
  0
LINE
  5
311
100
AcDbEntity
  8
0
100
AcDbLine
 62
7
  6
CONTINUOUS
 10
15.2356719397
 20
12.6159645405
 11
15.205362001
 21
12.5328669565
  0
LINE
  5
312
100
AcDbEntity
  8
0
100
AcDbLine
 62
7
  6
CONTINUOUS
 10
15.2600427376
 20
12.5236059515
 11
15.2875467404
 21
12.599010795
  0
LINE
  5
313
100
AcDbEntity
  8
0
100
AcDbLine
 62
7
  6
CONTINUOUS
 10
15.2576220744
 20
12.5157726824
 11
15.2879320131
 21
12.5988702663
  0
LINE
  5
314
100
AcDbEntity
  8
0
100
AcDbLine
 62
7
  6
CONTINUOUS
 10
15.701635137
 20
13.1344199842
 11
15.6925603182
 21
13.1252628046
  0
LINE
  5
315
100
AcDbEntity
  8
0
100
AcDbLine
 62
7
  6
CONTINUOUS
 10
15.6721790951
 20
13.0593091425
 11
15.6812539139
 21
13.0684663221
  0
LINE
  5
316
100
AcDbEntity
  8
0
100
AcDbLine
 62
7
  6
CONTINUOUS
 10
15.7342809612
 20
13.0034393849
 11
15.7252061424
 21
12.9942822052
  0
LINE
  5
317
100
AcDbEntity
  8
0
100
AcDbLine
 62
7
  6
CONTINUOUS
 10
14.784095442
 20
12.4911294891
 11
14.7398946898
 21
12.4722855723
  0
LINE
  5
318
100
AcDbEntity
  8
0
100
AcDbLine
 62
7
  6
CONTINUOUS
 10
14.744978721
 20
12.4619254062
 11
14.7891794731
 21
12.4807693229
  0
LINE
  5
319
100
AcDbEntity
  8
0
100
AcDbLine
 62
7
  6
CONTINUOUS
 10
14.7608025991
 20
12.415753822
 11
14.8050033513
 21
12.4345977388
  0
LINE
  5
31A
100
AcDbEntity
  8
03__ASM_ALL_CURVES
100
AcDbLine
 62
4
  6
CONTINUOUS
 10
13.1925877588
 20
12.2828814325
 11
13.8014681367
 21
12.2828814325
  0
LINE
  5
31B
100
AcDbEntity
  8
03__ASM_ALL_CURVES
100
AcDbLine
 62
4
  6
CONTINUOUS
 10
16.4600644299
 20
12.2828814325
 11
17.4333060853
 21
12.2828814325
  0
LINE
  5
31C
100
AcDbEntity
  8
0
100
AcDbLine
 62
7
  6
CONTINUOUS
 10
17.1255042589
 20
12.3142352777
 11
16.8184839275
 21
12.3142352777
  0
LINE
  5
31D
100
AcDbEntity
  8
0
100
AcDbLine
 62
7
  6
CONTINUOUS
 10
13.8124575075
 20
12.3142352777
 11
13.6523367607
 21
12.3142352777
  0
LINE
  5
31E
100
AcDbEntity
  8
0
100
AcDbLine
 62
7
  6
CONTINUOUS
 10
15.8076892316
 20
13.0043661097
 11
15.7986144128
 21
12.9952089301
  0
LINE
  5
31F
100
AcDbEntity
  8
03__ASM_ALL_CURVES
100
AcDbLine
 62
8
  6
HIDDEN
 10
15.5615200206
 20
11.6922146663
 11
15.5616135833
 21
11.6933372779
  0
LINE
  5
320
100
AcDbEntity
  8
0
100
AcDbLine
 62
7
  6
CONTINUOUS
 10
15.6721790951
 20
13.0593091425
 11
15.6925603182
 21
13.1252628046
  0
LINE
  5
321
100
AcDbEntity
  8
0
100
AcDbLine
 62
7
  6
CONTINUOUS
 10
15.6812539139
 20
13.0684663221
 11
15.701635137
 21
13.1344199842
  0
LINE
  5
322
100
AcDbEntity
  8
0
100
AcDbLine
 62
7
  6
CONTINUOUS
 10
15.8076892316
 20
13.0043661097
 11
15.8280704547
 21
13.0703197718
  0
LINE
  5
323
100
AcDbEntity
  8
0
100
AcDbLine
 62
7
  6
CONTINUOUS
 10
13.3990662764
 20
12.6468173787
 11
13.8960440192
 21
12.6468173787
  0
LINE
  5
324
100
AcDbEntity
  8
0
100
AcDbLine
 62
7
  6
CONTINUOUS
 10
17.0967538105
 20
12.6468173787
 11
17.5937315533
 21
12.6468173787
  0
LWPOLYLINE
  5
325
100
AcDbEntity
  8
0
100
AcDbPolyline
 62
7
  6
CONTINUOUS
 90
12
 70
0
 10
16.8765935189
 20
11.9933676238
 10
16.7925104948
 20
12.0312610764
 10
16.7112138901
 20
12.0778105739
 10
16.6372178308
 20
12.1281760066
 10
16.5709622922
 20
12.1799288582
 10
16.5119441669
 20
12.2318600939
 10
16.4584621975
 20
12.2844571544
 10
16.4093959719
 20
12.3384429686
 10
16.3646671141
 20
12.3940057666
 10
16.3247733918
 20
12.4510215173
 10
16.290810541
 20
12.5088212163
 10
16.2822497848
 20
12.5256285449
  0
LINE
  5
326
100
AcDbEntity
  8
0
100
AcDbLine
 62
7
  6
CONTINUOUS
 10
15.8663194897
 20
12.4423706204
 11
16.8286586711
 21
11.7275191569
  0
LINE
  5
327
100
AcDbEntity
  8
0
100
AcDbLine
 62
7
  6
CONTINUOUS
 10
15.6436217976
 20
12.3106778833
 11
15.6460424609
 21
12.3185111524
  0
LINE
  5
328
100
AcDbEntity
  8
0
100
AcDbLine
 62
7
  6
CONTINUOUS
 10
15.7033482111
 20
12.3882624471
 11
15.60376305
 21
12.3402860346
  0
LINE
  5
329
100
AcDbEntity
  8
0
100
AcDbLine
 62
7
  6
CONTINUOUS
 10
15.6460424609
 20
12.3185111524
 11
15.7378274348
 21
12.3627297259
  0
LINE
  5
32A
100
AcDbEntity
  8
0
100
AcDbLine
 62
7
  6
CONTINUOUS
 10
15.6436217976
 20
12.3106778833
 11
15.7432069588
 21
12.3586542958
  0
LINE
  5
32B
100
AcDbEntity
  8
0
100
AcDbLine
 62
7
  6
CONTINUOUS
 10
15.8732118294
 20
12.0367701161
 11
15.8756324927
 21
12.0446033852
  0
LINE
  5
32C
100
AcDbEntity
  8
0
100
AcDbLine
 62
7
  6
CONTINUOUS
 10
15.7986144128
 20
12.9952089301
 11
15.7252061424
 21
12.9942822052
  0
LINE
  5
32D
100
AcDbEntity
  8
0
100
AcDbLine
 62
7
  6
CONTINUOUS
 10
15.7342809612
 20
13.0034393849
 11
15.8076892316
 21
13.0043661097
  0
LINE
  5
32E
100
AcDbEntity
  8
0
100
AcDbLine
 62
7
  6
CONTINUOUS
 10
15.7252061424
 20
12.9942822052
 11
15.6721790951
 21
13.0593091425
  0
LINE
  5
32F
100
AcDbEntity
  8
0
100
AcDbLine
 62
7
  6
CONTINUOUS
 10
15.7342809612
 20
13.0034393849
 11
15.6812539139
 21
13.0684663221
  0
LINE
  5
330
100
AcDbEntity
  8
0
100
AcDbLine
 62
7
  6
CONTINUOUS
 10
15.8956733132
 20
11.7970508972
 11
15.895264158
 21
11.7957151413
  0
LINE
  5
331
100
AcDbEntity
  8
0
100
AcDbLine
 62
7
  6
CONTINUOUS
 10
15.8461246187
 20
11.8109004075
 11
15.7755219411
 21
11.5824300588
  0
LINE
  5
332
100
AcDbEntity
  8
0
100
AcDbLine
 62
7
  6
CONTINUOUS
 10
15.789769982
 20
11.4995975091
 11
15.7873493187
 21
11.4917642401
  0
LINE
  5
333
100
AcDbEntity
  8
0
100
AcDbLine
 62
7
  6
CONTINUOUS
 10
15.701635137
 20
13.1344199842
 11
15.7553346326
 21
13.1350979005
  0
LINE
  5
334
100
AcDbEntity
  8
03__ASM_ALL_CURVES
100
AcDbLine
 62
8
  6
HIDDEN
 10
16.254037495
 20
12.8837710685
 11
16.6627384486
 21
12.6765677457
  0
LINE
  5
335
100
AcDbEntity
  8
0
100
AcDbLine
 62
7
  6
CONTINUOUS
 10
15.8280704547
 20
13.0703197718
 11
15.8237148613
 21
13.0756610253
  0
LINE
  5
336
100
AcDbEntity
  8
0
100
AcDbLine
 62
7
  6
CONTINUOUS
 10
16.2822704826
 20
12.5255863642
 11
16.282259135
 21
12.5256094893
  0
LINE
  5
337
100
AcDbEntity
  8
0
100
AcDbLine
 62
7
  6
CONTINUOUS
 10
17.1037772023
 20
12.6468173787
 11
16.1487302004
 21
13.356252015
  0
LINE
  5
338
100
AcDbEntity
  8
0
100
AcDbLine
 62
7
  6
CONTINUOUS
 10
17.0840973067
 20
12.6373576279
 11
17.016059204
 21
12.4171862471
  0
LINE
  5
339
100
AcDbEntity
  8
0
100
AcDbLine
 62
7
  6
CONTINUOUS
 10
16.8818280201
 20
11.9828139808
 11
16.8137899117
 21
11.7626425792
  0
LINE
  5
33A
100
AcDbEntity
  8
0
100
AcDbLine
 62
7
  6
CONTINUOUS
 10
17.6161748446
 20
12.6328309465
 11
17.8373301979
 21
12.1821637195
  0
LINE
  5
33B
100
AcDbEntity
  8
0
100
AcDbLine
 62
7
  6
CONTINUOUS
 10
17.8379134314
 20
12.1711501517
 11
17.567606037
 21
11.2964351027
  0
ARC
  5
33C
100
AcDbEntity
  8
0
100
AcDbCircle
 62
7
  6
CONTINUOUS
 10
5.2034494612
 20
4.984963799
 40
0.0416666667
100
AcDbArc
 50
66.8698976459
 51
353.1301023541
  0
ARC
  5
33D
100
AcDbEntity
  8
0
100
AcDbCircle
 62
7
  6
CONTINUOUS
 10
5.2034494612
 20
4.984963799
 40
0.0366666667
100
AcDbArc
 50
75.0994720393
 51
174.9031987725
  0
ARC
  5
33E
100
AcDbEntity
  8
0
100
AcDbCircle
 62
7
  6
CONTINUOUS
 10
5.2034494612
 20
4.984963799
 40
0.0366666667
100
AcDbArc
 50
245.0968012276
 51
344.9005279608
  0
CIRCLE
  5
33F
100
AcDbEntity
  8
0
100
AcDbCircle
 62
7
  6
CONTINUOUS
 10
5.3735420494
 20
4.7632948223
 40
0.0263370525
  0
ARC
  5
340
100
AcDbEntity
  8
0
100
AcDbCircle
 62
7
  6
CONTINUOUS
 10
3.8532839428
 20
4.995120049
 40
0.025
100
AcDbArc
 50
90.0
 51
180.0
  0
ARC
  5
341
100
AcDbEntity
  8
0
100
AcDbCircle
 62
7
  6
CONTINUOUS
 10
5.2034494612
 20
4.984963799
 40
0.02
100
AcDbArc
 50
20.4059317731
 51
39.594068227
  0
ARC
  5
342
100
AcDbEntity
  8
0
100
AcDbCircle
 62
7
  6
CONTINUOUS
 10
5.2034494612
 20
4.984963799
 40
0.02
100
AcDbArc
 50
200.405931773
 51
219.5940682267
  0
ARC
  5
343
100
AcDbEntity
  8
0
100
AcDbCircle
 62
7
  6
CONTINUOUS
 10
5.2034494612
 20
4.984963799
 40
0.0173725101
100
AcDbArc
 50
18.9378299487
 51
41.0621700514
  0
ARC
  5
344
100
AcDbEntity
  8
0
100
AcDbCircle
 62
7
  6
CONTINUOUS
 10
5.2034494612
 20
4.984963799
 40
0.0173725101
100
AcDbArc
 50
198.9378299486
 51
221.0621700511
  0
CIRCLE
  5
345
100
AcDbEntity
  8
0
100
AcDbCircle
 62
7
  6
CONTINUOUS
 10
5.3735420494
 20
4.7632948223
 40
0.0131685262
  0
ARC
  5
346
100
AcDbEntity
  8
0
100
AcDbCircle
 62
7
  6
CONTINUOUS
 10
5.2137351291
 20
5.0236187474
 40
0.0033333333
100
AcDbArc
 50
255.09947204
 51
300.0000000001
  0
ARC
  5
347
100
AcDbEntity
  8
0
100
AcDbCircle
 62
7
  6
CONTINUOUS
 10
5.2420684624
 20
4.9745439745
 40
0.0033333333
100
AcDbArc
 50
120.0000000001
 51
164.9005279603
  0
ARC
  5
348
100
AcDbEntity
  8
0
100
AcDbCircle
 62
7
  6
CONTINUOUS
 10
6.1303672762
 20
5.520120049
 40
1.25
100
AcDbArc
 50
30.0
 51
150.0
  0
ARC
  5
349
100
AcDbEntity
  8
0
100
AcDbCircle
 62
7
  6
CONTINUOUS
 10
6.1303672762
 20
5.520120049
 40
1.0286458333
100
AcDbArc
 50
148.4680619564
 51
151.5319380437
  0
ARC
  5
34A
100
AcDbEntity
  8
0
100
AcDbCircle
 62
7
  6
CONTINUOUS
 10
6.1303672762
 20
5.520120049
 40
1.0286458333
100
AcDbArc
 50
208.4680619563
 51
208.5919954672
  0
ARC
  5
34B
100
AcDbEntity
  8
0
100
AcDbCircle
 62
7
  6
CONTINUOUS
 10
6.1303672762
 20
5.520120049
 40
1.0286458333
100
AcDbArc
 50
211.3830554245
 51
211.5319380436
  0
ARC
  5
34C
100
AcDbEntity
  8
0
100
AcDbCircle
 62
7
  6
CONTINUOUS
 10
6.1303672762
 20
5.520120049
 40
1.0286458333
100
AcDbArc
 50
238.4680619564
 51
241.5319380437
  0
ARC
  5
34D
100
AcDbEntity
  8
0
100
AcDbCircle
 62
7
  6
CONTINUOUS
 10
6.1303672762
 20
5.520120049
 40
1.0286458333
100
AcDbArc
 50
268.4680619563
 51
271.5319380436
  0
ARC
  5
34E
100
AcDbEntity
  8
0
100
AcDbCircle
 62
7
  6
CONTINUOUS
 10
6.1303672762
 20
5.520120049
 40
1.0286458333
100
AcDbArc
 50
298.4680619563
 51
301.5319380436
  0
ARC
  5
34F
100
AcDbEntity
  8
0
100
AcDbCircle
 62
7
  6
CONTINUOUS
 10
6.1303672762
 20
5.520120049
 40
1.0286458333
100
AcDbArc
 50
328.4680619564
 51
331.5319380437
  0
ARC
  5
350
100
AcDbEntity
  8
0
100
AcDbCircle
 62
7
  6
CONTINUOUS
 10
6.1303672762
 20
5.520120049
 40
1.0286458333
100
AcDbArc
 50
28.4680619563
 51
31.5319380436
  0
ARC
  5
351
100
AcDbEntity
  8
0
100
AcDbCircle
 62
7
  6
CONTINUOUS
 10
6.1303672762
 20
5.520120049
 40
1.0286458333
100
AcDbArc
 50
58.4680619564
 51
61.5319380437
  0
ARC
  5
352
100
AcDbEntity
  8
0
100
AcDbCircle
 62
7
  6
CONTINUOUS
 10
6.1303672762
 20
5.520120049
 40
1.0286458333
100
AcDbArc
 50
88.4680619564
 51
91.5319380436
  0
ARC
  5
353
100
AcDbEntity
  8
0
100
AcDbCircle
 62
7
  6
CONTINUOUS
 10
6.1303672762
 20
5.520120049
 40
1.0286458333
100
AcDbArc
 50
118.4680619563
 51
121.5319380436
  0
ARC
  5
354
100
AcDbEntity
  8
0
100
AcDbCircle
 62
7
  6
CONTINUOUS
 10
6.1303672762
 20
5.520120049
 40
1.0286458333
100
AcDbArc
 50
178.4680619563
 51
181.5319380436
  0
ARC
  5
355
100
AcDbEntity
  8
0
100
AcDbCircle
 62
7
  6
CONTINUOUS
 10
6.1303672762
 20
5.520120049
 40
1.0286458333
100
AcDbArc
 50
358.4680619564
 51
1.5319380436
  0
ARC
  5
356
100
AcDbEntity
  8
0
100
AcDbCircle
 62
7
  6
CONTINUOUS
 10
6.1303672762
 20
5.520120049
 40
0.8743489583
100
AcDbArc
 50
178.1976374378
 51
181.8023625622
  0
ARC
  5
357
100
AcDbEntity
  8
0
100
AcDbCircle
 62
7
  6
CONTINUOUS
 10
6.1303672762
 20
5.520120049
 40
0.8743489583
100
AcDbArc
 50
148.1976374378
 51
151.8023625622
  0
ARC
  5
358
100
AcDbEntity
  8
0
100
AcDbCircle
 62
7
  6
CONTINUOUS
 10
6.1303672762
 20
5.520120049
 40
0.8743489583
100
AcDbArc
 50
208.1976374378
 51
211.8023625622
  0
ARC
  5
359
100
AcDbEntity
  8
0
100
AcDbCircle
 62
7
  6
CONTINUOUS
 10
6.1303672762
 20
5.520120049
 40
0.8743489583
100
AcDbArc
 50
358.1976374378
 51
1.8023625622
  0
ARC
  5
35A
100
AcDbEntity
  8
0
100
AcDbCircle
 62
7
  6
CONTINUOUS
 10
6.1303672762
 20
5.520120049
 40
0.8743489583
100
AcDbArc
 50
238.1976374378
 51
241.8023625622
  0
ARC
  5
35B
100
AcDbEntity
  8
0
100
AcDbCircle
 62
7
  6
CONTINUOUS
 10
6.1303672762
 20
5.520120049
 40
0.8743489583
100
AcDbArc
 50
268.1976374378
 51
271.8023625622
  0
ARC
  5
35C
100
AcDbEntity
  8
0
100
AcDbCircle
 62
7
  6
CONTINUOUS
 10
6.1303672762
 20
5.520120049
 40
0.8743489583
100
AcDbArc
 50
298.1976374378
 51
301.8023625622
  0
ARC
  5
35D
100
AcDbEntity
  8
0
100
AcDbCircle
 62
7
  6
CONTINUOUS
 10
6.1303672762
 20
5.520120049
 40
0.8743489583
100
AcDbArc
 50
328.1976374378
 51
331.8023625622
  0
ARC
  5
35E
100
AcDbEntity
  8
0
100
AcDbCircle
 62
7
  6
CONTINUOUS
 10
6.1303672762
 20
5.520120049
 40
0.8743489583
100
AcDbArc
 50
28.1976374378
 51
31.8023625622
  0
ARC
  5
35F
100
AcDbEntity
  8
0
100
AcDbCircle
 62
7
  6
CONTINUOUS
 10
6.1303672762
 20
5.520120049
 40
0.8743489583
100
AcDbArc
 50
58.1976374378
 51
61.8023625622
  0
ARC
  5
360
100
AcDbEntity
  8
0
100
AcDbCircle
 62
7
  6
CONTINUOUS
 10
6.1303672762
 20
5.520120049
 40
0.8743489583
100
AcDbArc
 50
88.1976374378
 51
91.8023625622
  0
ARC
  5
361
100
AcDbEntity
  8
0
100
AcDbCircle
 62
7
  6
CONTINUOUS
 10
6.1303672762
 20
5.520120049
 40
0.8743489583
100
AcDbArc
 50
118.1976374378
 51
121.8023625622
  0
CIRCLE
  5
362
100
AcDbEntity
  8
0
100
AcDbCircle
 62
7
  6
CONTINUOUS
 10
6.1303672762
 20
5.520120049
 40
0.8229166667
  0
CIRCLE
  5
363
100
AcDbEntity
  8
03__ASM_ALL_CURVES
100
AcDbCircle
 62
8
  6
HIDDEN
 10
6.1303672762
 20
5.520120049
 40
0.5905511811
  0
CIRCLE
  5
364
100
AcDbEntity
  8
0
100
AcDbCircle
 62
7
  6
CONTINUOUS
 10
6.1303672762
 20
5.520120049
 40
0.5905511811
  0
ARC
  5
365
100
AcDbEntity
  8
0
100
AcDbCircle
 62
7
  6
CONTINUOUS
 10
8.4074506095
 20
4.995120049
 40
0.025
100
AcDbArc
 50
0.0
 51
90.0
  0
ARC
  5
366
100
AcDbEntity
  8
0
100
AcDbCircle
 62
7
  6
CONTINUOUS
 10
7.1138857678
 20
6.3921611343
 40
0.0416666667
100
AcDbArc
 50
126.3667122903
 51
216.8459241598
  0
ARC
  5
367
100
AcDbEntity
  8
0
100
AcDbCircle
 62
7
  6
CONTINUOUS
 10
7.0024083614
 20
6.5036385407
 40
0.0416666667
100
AcDbArc
 50
233.1540758403
 51
323.6332877097
  0
ARC
  5
368
100
AcDbEntity
  8
0
100
AcDbCircle
 62
7
  6
CONTINUOUS
 10
7.065957936
 20
6.4792809349
 40
0.03
100
AcDbArc
 50
45.0000000001
 51
180.6659686837
  0
ARC
  5
369
100
AcDbEntity
  8
0
100
AcDbCircle
 62
7
  6
CONTINUOUS
 10
7.0895281621
 20
6.4557107089
 40
0.03
100
AcDbArc
 50
269.3340313163
 51
45.0
  0
ARC
  5
36A
100
AcDbEntity
  8
0
100
AcDbCircle
 62
7
  6
CONTINUOUS
 10
4.5187887505
 20
12.7458811147
 40
0.30625
100
AcDbArc
 50
240.1506510866
 51
119.8493488394
  0
ARC
  5
36B
100
AcDbEntity
  8
0
100
AcDbCircle
 62
7
  6
CONTINUOUS
 10
7.6229554172
 20
12.7458811147
 40
0.30625
100
AcDbArc
 50
60.1506510866
 51
299.8493488394
  0
ARC
  5
36C
100
AcDbEntity
  8
0
100
AcDbCircle
 62
7
  6
CONTINUOUS
 10
4.5187887505
 20
12.7458811147
 40
0.1458333333
100
AcDbArc
 50
270.0
 51
90.0
  0
ARC
  5
36D
100
AcDbEntity
  8
0
100
AcDbCircle
 62
7
  6
CONTINUOUS
 10
4.1854554172
 20
12.7458811147
 40
0.1458333333
100
AcDbArc
 50
90.0
 51
270.0
  0
ARC
  5
36E
100
AcDbEntity
  8
0
100
AcDbCircle
 62
7
  6
CONTINUOUS
 10
7.9562887505
 20
12.7458811147
 40
0.1458333333
100
AcDbArc
 50
270.0
 51
90.0
  0
ARC
  5
36F
100
AcDbEntity
  8
0
100
AcDbCircle
 62
7
  6
CONTINUOUS
 10
7.6229554172
 20
12.7458811147
 40
0.1458333333
100
AcDbArc
 50
90.0
 51
270.0
  0
CIRCLE
  5
370
100
AcDbEntity
  8
0
100
AcDbCircle
 62
7
  6
CONTINUOUS
 10
6.0708720839
 20
12.016714448
 40
0.0833333333
  0
CIRCLE
  5
371
100
AcDbEntity
  8
0
100
AcDbCircle
 62
7
  6
CONTINUOUS
 10
6.0708720839
 20
12.016714448
 40
0.08
  0
ARC
  5
372
100
AcDbEntity
  8
0
100
AcDbCircle
 62
7
  6
CONTINUOUS
 10
7.0189297036
 20
12.7523857355
 40
0.0402971203
100
AcDbArc
 50
122.1949674615
 51
123.186050008
  0
ARC
  5
373
100
AcDbEntity
  8
0
100
AcDbCircle
 62
7
  6
CONTINUOUS
 10
8.3479554172
 20
12.1875477814
 40
0.025
100
AcDbArc
 50
270.0
 51
360.0
  0
ARC
  5
374
100
AcDbEntity
  8
0
100
AcDbCircle
 62
7
  6
CONTINUOUS
 10
3.7937887505
 20
12.1875477814
 40
0.025
100
AcDbArc
 50
180.0
 51
270.0
  0
ARC
  5
375
100
AcDbEntity
  8
0
100
AcDbCircle
 62
7
  6
CONTINUOUS
 10
3.7937887505
 20
13.304214448
 40
0.025
100
AcDbArc
 50
90.0
 51
180.0
  0
ARC
  5
376
100
AcDbEntity
  8
0
100
AcDbCircle
 62
7
  6
CONTINUOUS
 10
8.3479554172
 20
13.304214448
 40
0.025
100
AcDbArc
 50
0.0
 51
90.0
  0
ARC
  5
377
100
AcDbEntity
  8
0
100
AcDbCircle
 62
7
  6
CONTINUOUS
 10
14.9770541568
 20
7.1047800399
 40
0.8254521022
100
AcDbArc
 50
275.0167727188
 51
275.5959602895
  0
ARC
  5
378
100
AcDbEntity
  8
0
100
AcDbCircle
 62
7
  6
CONTINUOUS
 10
14.9769511631
 20
7.1043527587
 40
0.8250230882
100
AcDbArc
 50
264.411038348
 51
264.9827448576
  0
ARC
  5
379
100
AcDbEntity
  8
0
100
AcDbCircle
 62
7
  6
CONTINUOUS
 10
14.9770219083
 20
7.1011768633
 40
0.8218656223
100
AcDbArc
 50
264.9584686378
 51
275.0409784505
  0
ARC
  5
37A
100
AcDbEntity
  8
0
100
AcDbCircle
 62
7
  6
CONTINUOUS
 10
15.6996839694
 20
6.4086824764
 40
0.0402971203
100
AcDbArc
 50
212.1949674613
 51
213.1860500081
  0
ARC
  5
37B
100
AcDbEntity
  8
0
100
AcDbCircle
 62
7
  6
CONTINUOUS
 10
15.1478552569
 20
4.9356248567
 40
0.025
100
AcDbArc
 50
90.0
 51
180.0
  0
ARC
  5
37C
100
AcDbEntity
  8
0
100
AcDbCircle
 62
7
  6
CONTINUOUS
 10
16.2645219236
 20
4.9356248567
 40
0.025
100
AcDbArc
 50
0.0
 51
90.0
  0
ARC
  5
37D
100
AcDbEntity
  8
0
100
AcDbCircle
 62
7
  6
CONTINUOUS
 10
14.7039965049
 20
10.9021121848
 40
1.7944271133
100
AcDbArc
 50
71.0092126296
 51
72.7649378232
  0
ARC
  5
37E
100
AcDbEntity
  8
0
100
AcDbCircle
 62
7
  6
CONTINUOUS
 10
14.7571387862
 20
11.0741420846
 40
1.52603483
100
AcDbArc
 50
70.8548025657
 51
72.9193478871
  0
ARC
  5
37F
100
AcDbEntity
  8
0
100
AcDbCircle
 62
7
  6
CONTINUOUS
 10
14.7595594835
 20
11.0819754579
 40
1.5260347203
100
AcDbArc
 50
70.8548024915
 51
72.9193479613
  0
ARC
  5
380
100
AcDbEntity
  8
0
100
AcDbCircle
 62
7
  6
CONTINUOUS
 10
14.7462249891
 20
11.2833834501
 40
1.4098964437
100
AcDbArc
 50
88.9706101867
 51
91.0293898133
  0
ARC
  5
381
100
AcDbEntity
  8
0
100
AcDbCircle
 62
7
  6
CONTINUOUS
 10
14.9375996965
 20
11.3157583271
 40
1.3178148105
100
AcDbArc
 50
52.4361565394
 51
54.4738508256
  0
ARC
  5
382
100
AcDbEntity
  8
0
100
AcDbCircle
 62
7
  6
CONTINUOUS
 10
14.9577144161
 20
11.3420874717
 40
1.2846815334
100
AcDbArc
 50
52.3070429461
 51
52.4313840923
  0
ARC
  5
383
100
AcDbEntity
  8
0
100
AcDbCircle
 62
7
  6
CONTINUOUS
 10
14.7933117964
 20
11.410513628
 40
1.1868562106
100
AcDbArc
 50
88.7771348095
 51
91.2228651905
  0
ARC
  5
384
100
AcDbEntity
  8
0
100
AcDbCircle
 62
7
  6
CONTINUOUS
 10
14.7956815971
 20
11.4221654871
 40
1.1830374051
100
AcDbArc
 50
89.076867113
 51
91.22434927
  0
ARC
  5
385
100
AcDbEntity
  8
0
100
AcDbCircle
 62
7
  6
CONTINUOUS
 10
14.9500772098
 20
11.4186553709
 40
1.1299151552
100
AcDbArc
 50
52.1350509761
 51
54.6530301342
  0
ARC
  5
386
100
AcDbEntity
  8
0
100
AcDbCircle
 62
7
  6
CONTINUOUS
 10
14.9562001169
 20
11.4314265201
 40
1.1237444569
100
AcDbArc
 50
52.1295388287
 51
54.3121198663
  0
ARC
  5
387
100
AcDbEntity
  8
0
100
AcDbCircle
 62
7
  6
CONTINUOUS
 10
13.1287548692
 20
11.747102015
 40
0.0249962591
100
AcDbArc
 50
162.8242238995
 51
206.1419178885
  0
ARC
  5
388
100
AcDbEntity
  8
0
100
AcDbCircle
 62
7
  6
CONTINUOUS
 10
14.6047455895
 20
12.0051944708
 40
0.6687244184
100
AcDbArc
 50
114.0294919334
 51
116.9214143269
  0
ARC
  5
389
100
AcDbEntity
  8
0
100
AcDbCircle
 62
7
  6
CONTINUOUS
 10
14.5891941382
 20
12.0365213476
 40
0.6337513666
100
AcDbArc
 50
116.9501360017
 51
117.4599154807
  0
ARC
  5
38A
100
AcDbEntity
  8
0
100
AcDbCircle
 62
7
  6
CONTINUOUS
 10
14.6559682848
 20
12.3271753835
 40
0.6027171388
100
AcDbArc
 50
205.531875638
 51
207.9583892103
  0
ARC
  5
38B
100
AcDbEntity
  8
0
100
AcDbCircle
 62
7
  6
CONTINUOUS
 10
14.652186827
 20
12.3185638864
 40
0.6011503101
100
AcDbArc
 50
204.3233472897
 51
207.9536791595
  0
ARC
  5
38C
100
AcDbEntity
  8
0
100
AcDbCircle
 62
7
  6
CONTINUOUS
 10
14.6393970737
 20
12.3191916729
 40
0.5843230975
100
AcDbArc
 50
205.1393305431
 51
205.5258299453
  0
ARC
  5
38D
100
AcDbEntity
  8
0
100
AcDbCircle
 62
7
  6
CONTINUOUS
 10
14.6675758631
 20
12.0240441868
 40
0.5556539621
100
AcDbArc
 50
113.6919891977
 51
117.7540726804
  0
ARC
  5
38E
100
AcDbEntity
  8
0
100
AcDbCircle
 62
7
  6
CONTINUOUS
 10
14.6674315998
 20
12.0369032659
 40
0.5500119249
100
AcDbArc
 50
114.5803567745
 51
117.7614233473
  0
ARC
  5
38F
100
AcDbEntity
  8
0
100
AcDbCircle
 62
7
  6
CONTINUOUS
 10
14.4008171804
 20
12.2574643828
 40
0.3388400375
100
AcDbArc
 50
157.2930995436
 51
161.2385208913
  0
ARC
  5
390
100
AcDbEntity
  8
0
100
AcDbCircle
 62
7
  6
CONTINUOUS
 10
14.3993708
 20
12.2579799652
 40
0.337304684
100
AcDbArc
 50
161.2424259153
 51
162.6344467739
  0
ARC
  5
391
100
AcDbEntity
  8
0
100
AcDbCircle
 62
7
  6
CONTINUOUS
 10
14.4990246236
 20
12.2271765196
 40
0.2873137822
100
AcDbArc
 50
156.8163634804
 51
162.8258620794
  0
ARC
  5
392
100
AcDbEntity
  8
0
100
AcDbCircle
 62
7
  6
CONTINUOUS
 10
14.7936910813
 20
12.4185209977
 40
0.0980222654
100
AcDbArc
 50
90.0012979708
 51
91.0760419624
  0
ARC
  5
393
100
AcDbEntity
  8
0
100
AcDbCircle
 62
7
  6
CONTINUOUS
 10
14.7918165155
 20
12.431244618
 40
0.0848631904
100
AcDbArc
 50
88.7453238006
 51
90.0014779635
  0
ARC
  5
394
100
AcDbEntity
  8
0
100
AcDbCircle
 62
7
  6
CONTINUOUS
 10
14.7383021679
 20
12.4366853645
 40
0.0419613034
100
AcDbArc
 50
193.0437657796
 51
215.483150327
  0
ARC
  5
395
100
AcDbEntity
  8
0
100
AcDbCircle
 62
7
  6
CONTINUOUS
 10
14.806699795
 20
12.4702523834
 40
0.0418444297
100
AcDbArc
 50
20.0464918639
 51
35.4896952433
  0
ARC
  5
396
100
AcDbEntity
  8
0
100
AcDbCircle
 62
7
  6
CONTINUOUS
 10
13.3990605835
 20
12.6218221521
 40
0.0249925847
100
AcDbArc
 50
90.0053787205
 51
162.7778218751
  0
ARC
  5
397
100
AcDbEntity
  8
0
100
AcDbCircle
 62
7
  6
CONTINUOUS
 10
15.4605764733
 20
11.7855335529
 40
0.6090556659
100
AcDbArc
 50
25.5445040207
 51
27.9457608197
  0
ARC
  5
398
100
AcDbEntity
  8
0
100
AcDbCircle
 62
7
  6
CONTINUOUS
 10
15.4870813832
 20
11.798395836
 40
0.5795952499
100
AcDbArc
 50
24.2850883907
 51
25.5271286528
  0
ARC
  5
399
100
AcDbEntity
  8
0
100
AcDbCircle
 62
7
  6
CONTINUOUS
 10
15.4013934672
 20
11.8327843081
 40
0.5194129399
100
AcDbArc
 50
26.8519979559
 51
27.2933317088
  0
ARC
  5
39A
100
AcDbEntity
  8
0
100
AcDbCircle
 62
7
  6
CONTINUOUS
 10
15.4141729989
 20
11.8327174028
 40
0.5023486417
100
AcDbArc
 50
23.9661843242
 51
28.310842125
  0
ARC
  5
39B
100
AcDbEntity
  8
0
100
AcDbCircle
 62
7
  6
CONTINUOUS
 10
15.4180347512
 20
11.8411270389
 40
0.5007976802
100
AcDbArc
 50
23.9728990886
 51
26.8604038159
  0
ARC
  5
39C
100
AcDbEntity
  8
0
100
AcDbCircle
 62
7
  6
CONTINUOUS
 10
15.7193155422
 20
11.8501262912
 40
0.3384666603
100
AcDbArc
 50
337.2919942103
 51
342.6290079383
  0
ARC
  5
39D
100
AcDbEntity
  8
0
100
AcDbCircle
 62
7
  6
CONTINUOUS
 10
15.6191653425
 20
11.8811880631
 40
0.289031022
100
AcDbArc
 50
336.8250408202
 51
338.4467613729
  0
ARC
  5
39E
100
AcDbEntity
  8
0
100
AcDbCircle
 62
7
  6
CONTINUOUS
 10
15.6208111214
 20
11.8805422826
 40
0.287263084
100
AcDbArc
 50
338.4459681031
 51
342.8248200021
  0
ARC
  5
39F
100
AcDbEntity
  8
0
100
AcDbCircle
 62
7
  6
CONTINUOUS
 10
15.5166264297
 20
12.1121913677
 40
0.6707299276
100
AcDbArc
 50
294.0311522289
 51
296.6593079639
  0
ARC
  5
3A0
100
AcDbEntity
  8
0
100
AcDbCircle
 62
7
  6
CONTINUOUS
 10
15.5166196161
 20
12.0990939518
 40
0.6649390579
100
AcDbArc
 50
294.0259053955
 51
297.4201564826
  0
ARC
  5
3A1
100
AcDbEntity
  8
0
100
AcDbCircle
 62
7
  6
CONTINUOUS
 10
15.7384542042
 20
13.0869627106
 40
0.0491893597
100
AcDbArc
 50
154.3350021063
 51
162.8795407333
  0
ARC
  5
3A2
100
AcDbEntity
  8
0
100
AcDbCircle
 62
7
  6
CONTINUOUS
 10
15.7373747691
 20
13.0874651337
 40
0.0479988183
100
AcDbArc
 50
153.2424295381
 51
154.3175054626
  0
ARC
  5
3A3
100
AcDbEntity
  8
0
100
AcDbCircle
 62
7
  6
CONTINUOUS
 10
15.7729614136
 20
13.05212921
 40
0.0478424417
100
AcDbArc
 50
296.1639864832
 51
297.2383950901
  0
ARC
  5
3A4
100
AcDbEntity
  8
0
100
AcDbCircle
 62
7
  6
CONTINUOUS
 10
15.7734724889
 20
13.0511639658
 40
0.0467503192
100
AcDbArc
 50
297.2229335788
 51
305.4461545959
  0
ARC
  5
3A5
100
AcDbEntity
  8
0
100
AcDbCircle
 62
7
  6
CONTINUOUS
 10
15.7359431662
 20
13.0882392901
 40
0.0463719978
100
AcDbArc
 50
144.5526921633
 51
153.3001653286
  0
ARC
  5
3A6
100
AcDbEntity
  8
0
100
AcDbCircle
 62
7
  6
CONTINUOUS
 10
15.7349812789
 20
13.0888930445
 40
0.0452100678
100
AcDbArc
 50
125.4813959929
 51
144.5338283458
  0
ARC
  5
3A7
100
AcDbEntity
  8
0
100
AcDbCircle
 62
7
  6
CONTINUOUS
 10
17.5937313046
 20
12.62181735
 40
0.0250000518
100
AcDbArc
 50
26.1383212639
 51
89.9994299932
  0
SPLINE
  5
3A8
100
AcDbEntity
  8
0
100
AcDbSpline
 62
7
  6
CONTINUOUS
 70
0
 71
3
 72
9
 73
5
 74
0
 42
0.0000001
 43
0.0000001
 44
0.0000000001
 40
0.0
 40
0.0
 40
0.0
 40
0.0
 40
0.4934650619
 40
1.0
 40
1.0
 40
1.0
 40
1.0
 10
5.2642499584
 20
5.0489344959
 30
0.0
 10
5.2646072465
 20
5.0491407763
 30
0.0
 10
5.2655429669
 20
5.0492549598
 30
0.0
 10
5.2662657417
 20
5.0486628096
 30
0.0
 10
5.2664774856
 20
5.0482960584
 30
0.0
  0
SPLINE
  5
3A9
100
AcDbEntity
  8
0
100
AcDbSpline
 62
7
  6
CONTINUOUS
 70
0
 71
3
 72
9
 73
5
 74
0
 42
0.0000001
 43
0.0000001
 44
0.0000000001
 40
0.0
 40
0.0
 40
0.0
 40
0.0
 40
0.5038895661
 40
1.0
 40
1.0
 40
1.0
 40
1.0
 10
5.2900401533
 20
5.0070766014
 30
0.0
 10
5.2900486092
 20
5.0067899668
 30
0.0
 10
5.2899153876
 20
5.0062049583
 30
0.0
 10
5.2894944653
 20
5.0057743918
 30
0.0
 10
5.2892499584
 20
5.0056332257
 30
0.0
  0
LINE
  5
3AA
100
AcDbEntity
  8
0
100
AcDbLine
 62
7
  6
CONTINUOUS
 10
5.2898108189
 20
5.0078815396
 11
5.2900401533
 21
5.0070766014
  0
SPLINE
  5
3AB
100
AcDbEntity
  8
0
100
AcDbSpline
 62
7
  6
CONTINUOUS
 70
0
 71
3
 72
11
 73
7
 74
0
 42
0.0000001
 43
0.0000001
 44
0.0000000001
 40
0.0
 40
0.0
 40
0.0
 40
0.0
 40
0.2527993529
 40
0.5040452659
 40
0.7526478084
 40
1.0
 40
1.0
 40
1.0
 40
1.0
 10
6.9764627437
 20
12.7458811147
 30
0.0
 10
6.9764627437
 20
12.7498309449
 30
0.0
 10
6.9773401798
 20
12.7577339044
 30
0.0
 10
6.9812596043
 20
12.7689329558
 30
0.0
 10
6.9877403607
 20
12.7787887469
 30
0.0
 10
6.9936383164
 20
12.7839949071
 30
0.0
 10
6.9968726929
 20
12.786110299
 30
0.0
  0
SPLINE
  5
3AC
100
AcDbEntity
  8
0
100
AcDbSpline
 62
7
  6
CONTINUOUS
 70
0
 71
3
 72
15
 73
11
 74
0
 42
0.0000001
 43
0.0000001
 44
0.0000000001
 40
0.0
 40
0.0
 40
0.0
 40
0.0
 40
0.124157115
 40
0.2484034568
 40
0.3726500385
 40
0.4969131593
 40
0.6214544012
 40
0.7465506133
 40
0.8729572537
 40
1.0
 40
1.0
 40
1.0
 40
1.0
 10
6.9974593194
 20
12.7864867693
 30
0.0
 10
7.0006569056
 20
12.788500003
 30
0.0
 10
7.0076657079
 20
12.7916483399
 30
0.0
 10
7.0190765323
 20
12.7931046869
 30
0.0
 10
7.0304235734
 20
12.791155888
 30
0.0
 10
7.0407212305
 20
12.7860128404
 30
0.0
 10
7.0492076629
 20
12.778225406
 30
0.0
 10
7.0554343441
 20
12.7684802409
 30
0.0
 10
7.0591905232
 20
12.7574869832
 30
0.0
 10
7.0600329698
 20
12.7497475157
 30
0.0
 10
7.0600329698
 20
12.7458811147
 30
0.0
  0
SPLINE
  5
3AD
100
AcDbEntity
  8
0
100
AcDbSpline
 62
7
  6
CONTINUOUS
 70
0
 71
3
 72
15
 73
11
 74
0
 42
0.0000001
 43
0.0000001
 44
0.0000000001
 40
0.0
 40
0.0
 40
0.0
 40
0.0
 40
0.127058878
 40
0.2534519572
 40
0.3785257558
 40
0.502938812
 40
0.6271410426
 40
0.7513846375
 40
0.8756824389
 40
1.0
 40
1.0
 40
1.0
 40
1.0
 10
7.0600329698
 20
12.7458811147
 30
0.0
 10
7.0600329698
 20
12.7421324373
 30
0.0
 10
7.0592414369
 20
12.7346310645
 30
0.0
 10
7.0557128511
 20
12.7239431153
 30
0.0
 10
7.0498634172
 20
12.714395339
 30
0.0
 10
7.0418765911
 20
12.7066167571
 30
0.0
 10
7.032116703
 20
12.7012419628
 30
0.0
 10
7.0212374472
 20
12.6988007581
 30
0.0
 10
7.0101141771
 20
12.6995427259
 30
0.0
 10
7.0031253375
 20
12.7021246374
 30
0.0
 10
6.9998929839
 20
12.703858027
 30
0.0
  0
SPLINE
  5
3AE
100
AcDbEntity
  8
0
100
AcDbSpline
 62
7
  6
CONTINUOUS
 70
0
 71
3
 72
11
 73
7
 74
0
 42
0.0000001
 43
0.0000001
 44
0.0000000001
 40
0.0
 40
0.0
 40
0.0
 40
0.0
 40
0.2475042408
 40
0.4960449761
 40
0.7471829918
 40
1.0
 40
1.0
 40
1.0
 40
1.0
 10
6.9998929839
 20
12.703858027
 30
0.0
 10
6.9962319321
 20
12.7058213113
 30
0.0
 10
6.9894806955
 20
12.7109494328
 30
0.0
 10
6.9820025641
 20
12.7212108003
 30
0.0
 10
6.9774752782
 20
12.7331446961
 30
0.0
 10
6.9764627437
 20
12.7416376932
 30
0.0
 10
6.9764627437
 20
12.7458811147
 30
0.0
  0
LINE
  5
3AF
100
AcDbEntity
  8
0
100
AcDbLine
 62
7
  6
CONTINUOUS
 10
5.2015696345
 20
12.1607345451
 11
5.1993421073
 21
12.16030318
  0
LINE
  5
3B0
100
AcDbEntity
  8
0
100
AcDbLine
 62
7
  6
CONTINUOUS
 10
5.230544961
 20
12.1373546035
 11
5.2297547661
 21
12.1369778624
  0
SPLINE
  5
3B1
100
AcDbEntity
  8
0
100
AcDbSpline
 62
7
  6
CONTINUOUS
 70
0
 71
3
 72
14
 73
10
 74
0
 42
0.0000001
 43
0.0000001
 44
0.0000000001
 40
0.0
 40
0.0
 40
0.0
 40
0.0
 40
0.125058347
 40
0.2500409448
 40
0.375055087
 40
0.500156496
 40
0.6253471133
 40
0.7505946923
 40
1.0
 40
1.0
 40
1.0
 40
1.0
 10
7.8029228914
 20
13.0231422952
 30
0.0
 10
7.8029228913
 20
13.021630894
 30
0.0
 10
7.8024789374
 20
13.0185850328
 30
0.0
 10
7.8003957067
 20
13.0144680203
 30
0.0
 10
7.7970896234
 20
13.0112506861
 30
0.0
 10
7.7929822801
 20
13.0091848962
 30
0.0
 10
7.788486516
 20
13.0082756423
 30
0.0
 10
7.7824122087
 20
13.0084587542
 30
0.0
 10
7.777996867
 20
13.0100028744
 30
0.0
 10
7.7753825294
 20
13.0115030979
 30
0.0
  0
SPLINE
  5
3B2
100
AcDbEntity
  8
0
100
AcDbSpline
 62
7
  6
CONTINUOUS
 70
0
 71
3
 72
15
 73
11
 74
0
 42
0.0000001
 43
0.0000001
 44
0.0000000001
 40
0.0
 40
0.0
 40
0.0
 40
0.0
 40
0.2489965043
 40
0.3740783436
 40
0.4992091837
 40
0.6244132426
 40
0.7494922055
 40
0.8122637145
 40
0.8750473275
 40
1.0
 40
1.0
 40
1.0
 40
1.0
 10
7.7753825294
 20
12.4802591662
 30
0.0
 10
7.7779935957
 20
12.4817575161
 30
0.0
 10
7.7824026865
 20
12.4832977579
 30
0.0
 10
7.7884723061
 20
12.4834936143
 30
0.0
 10
7.7929660954
 20
12.4825760192
 30
0.0
 10
7.7970827721
 20
12.4805230378
 30
0.0
 10
7.7998380832
 20
12.4778254522
 30
0.0
 10
7.8014391428
 20
12.475238065
 30
0.0
 10
7.8025831562
 20
12.472421858
 30
0.0
 10
7.8029228981
 20
12.4701306718
 30
0.0
 10
7.8029228922
 20
12.4686199601
 30
0.0
  0
SPLINE
  5
3B3
100
AcDbEntity
  8
0
100
AcDbSpline
 62
7
  6
CONTINUOUS
 70
0
 71
3
 72
14
 73
10
 74
0
 42
0.0000001
 43
0.0000001
 44
0.0000000001
 40
0.0
 40
0.0
 40
0.0
 40
0.0
 40
0.3263328144
 40
0.4738161582
 40
0.6059556495
 40
0.722266539
 40
0.8242557151
 40
0.915261818
 40
1.0
 40
1.0
 40
1.0
 40
1.0
 10
4.3388212766
 20
13.304214448
 30
0.0
 10
4.3388212766
 20
13.3076364236
 30
0.0
 10
4.3382438875
 20
13.3126427223
 30
0.0
 10
4.3362639687
 20
13.3186969819
 30
0.0
 10
4.3344014921
 20
13.3224276896
 30
0.0
 10
4.3322093231
 20
13.325403733
 30
0.0
 10
4.3297609698
 20
13.3275759404
 30
0.0
 10
4.3271299881
 20
13.328907959
 30
0.0
 10
4.325276097
 20
13.329214448
 30
0.0
 10
4.3243875196
 20
13.329214448
 30
0.0
  0
SPLINE
  5
3B4
100
AcDbEntity
  8
0
100
AcDbSpline
 62
7
  6
CONTINUOUS
 70
0
 71
3
 72
13
 73
9
 74
0
 42
0.0000001
 43
0.0000001
 44
0.0000000001
 40
0.0
 40
0.0
 40
0.0
 40
0.0
 40
0.2569673565
 40
0.3795208322
 40
0.5
 40
0.6204791678
 40
0.7430326435
 40
1.0
 40
1.0
 40
1.0
 40
1.0
 10
6.9437070351
 20
12.6827334736
 30
0.0
 10
6.947428107
 20
12.679695231
 30
0.0
 10
6.9536473415
 20
12.675947922
 30
0.0
 10
6.9626808915
 20
12.6733919405
 30
0.0
 10
6.9694869516
 20
12.6727530711
 30
0.0
 10
6.9762930118
 20
12.6733919405
 30
0.0
 10
6.9853265617
 20
12.675947922
 30
0.0
 10
6.9915457962
 20
12.679695231
 30
0.0
 10
6.9952668682
 20
12.6827334736
 30
0.0
  0
LINE
  5
3B5
100
AcDbEntity
  8
0
100
AcDbLine
 62
7
  6
CONTINUOUS
 10
5.2477887505
 20
12.1000477814
 11
5.2482896055
 21
12.0966803021
  0
LINE
  5
3B6
100
AcDbEntity
  8
0
100
AcDbLine
 62
7
  6
CONTINUOUS
 10
5.2482896055
 20
12.0966803021
 11
5.2491877618
 21
12.0868409709
  0
SPLINE
  5
3B7
100
AcDbEntity
  8
0
100
AcDbSpline
 62
7
  6
CONTINUOUS
 70
0
 71
3
 72
15
 73
11
 74
0
 42
0.0000001
 43
0.0000001
 44
0.0000000001
 40
0.0
 40
0.0
 40
0.0
 40
0.0
 40
0.0950873753
 40
0.2152435181
 40
0.3530562891
 40
0.4999951909
 40
0.6469346823
 40
0.7847493845
 40
0.9049087377
 40
1.0
 40
1.0
 40
1.0
 40
1.0
 10
5.2491877618
 20
12.0868409709
 30
0.0
 10
5.2495536623
 20
12.0824053436
 30
0.0
 10
5.2503472822
 20
12.072361534
 30
0.0
 10
5.2513166783
 20
12.0558633423
 30
0.0
 10
5.2520163164
 20
12.0369223508
 30
0.0
 10
5.2522724821
 20
12.0167159093
 30
0.0
 10
5.2520163893
 20
11.9965093763
 30
0.0
 10
5.2513168009
 20
11.9775681145
 30
0.0
 10
5.250347435
 20
11.9610694976
 30
0.0
 10
5.2495538078
 20
11.9510253553
 30
0.0
 10
5.2491879002
 20
11.946589546
 30
0.0
  0
LINE
  5
3B8
100
AcDbEntity
  8
0
100
AcDbLine
 62
7
  6
CONTINUOUS
 10
5.2491879002
 20
11.946589546
 11
5.2481509713
 21
11.9356441936
  0
SPLINE
  5
3B9
100
AcDbEntity
  8
0
100
AcDbSpline
 62
7
  6
CONTINUOUS
 70
0
 71
3
 72
9
 73
5
 74
0
 42
0.0000001
 43
0.0000001
 44
0.0000000001
 40
0.0
 40
0.0
 40
0.0
 40
0.0
 40
0.2381232878
 40
1.0
 40
1.0
 40
1.0
 40
1.0
 10
6.9952668682
 20
12.6827334736
 30
0.0
 10
6.9966810922
 20
12.6838881827
 30
0.0
 10
7.0023566858
 20
12.6890583105
 30
0.0
 10
7.0069492417
 20
12.6953606556
 30
0.0
 10
7.0098156638
 20
12.7004505386
 30
0.0
  0
SPLINE
  5
3BA
100
AcDbEntity
  8
0
100
AcDbSpline
 62
7
  6
CONTINUOUS
 70
0
 71
3
 72
12
 73
8
 74
0
 42
0.0000001
 43
0.0000001
 44
0.0000000001
 40
0.0
 40
0.0
 40
0.0
 40
0.0
 40
0.2698410194
 40
0.4021107327
 40
0.5310541563
 40
0.7756602915
 40
1.0
 40
1.0
 40
1.0
 40
1.0
 10
6.9179271185
 20
12.7458811147
 30
0.0
 10
6.9179271185
 20
12.7395631999
 30
0.0
 10
6.9187905944
 20
12.7301152782
 30
0.0
 10
6.9216849584
 20
12.7180073997
 30
0.0
 10
6.9255740371
 20
12.7068030446
 30
0.0
 10
6.9321896251
 20
12.6943368219
 30
0.0
 10
6.9396384109
 20
12.6860554913
 30
0.0
 10
6.9437070351
 20
12.6827334736
 30
0.0
  0
SPLINE
  5
3BB
100
AcDbEntity
  8
0
100
AcDbSpline
 62
7
  6
CONTINUOUS
 70
0
 71
3
 72
12
 73
8
 74
0
 42
0.0000001
 43
0.0000001
 44
0.0000000001
 40
0.0
 40
0.0
 40
0.0
 40
0.0
 40
0.2243397085
 40
0.4689458437
 40
0.5978892673
 40
0.7301589806
 40
1.0
 40
1.0
 40
1.0
 40
1.0
 10
6.9437070351
 20
12.8090287558
 30
0.0
 10
6.9396384109
 20
12.8057067381
 30
0.0
 10
6.9321896251
 20
12.7974254075
 30
0.0
 10
6.9255740371
 20
12.7849591848
 30
0.0
 10
6.9216849584
 20
12.7737548297
 30
0.0
 10
6.9187905944
 20
12.7616469512
 30
0.0
 10
6.9179271185
 20
12.7521990295
 30
0.0
 10
6.9179271185
 20
12.7458811147
 30
0.0
  0
SPLINE
  5
3BC
100
AcDbEntity
  8
0
100
AcDbSpline
 62
7
  6
CONTINUOUS
 70
0
 71
3
 72
13
 73
9
 74
0
 42
0.0000001
 43
0.0000001
 44
0.0000000001
 40
0.0
 40
0.0
 40
0.0
 40
0.0
 40
0.2569673565
 40
0.3795208322
 40
0.5
 40
0.6204791678
 40
0.7430326435
 40
1.0
 40
1.0
 40
1.0
 40
1.0
 10
6.9952668682
 20
12.8090287558
 30
0.0
 10
6.9915457962
 20
12.8120669984
 30
0.0
 10
6.9853265617
 20
12.8158143074
 30
0.0
 10
6.9762930118
 20
12.8183702889
 30
0.0
 10
6.9694869516
 20
12.8190091583
 30
0.0
 10
6.9626808915
 20
12.8183702889
 30
0.0
 10
6.9536473415
 20
12.8158143074
 30
0.0
 10
6.947428107
 20
12.8120669984
 30
0.0
 10
6.9437070351
 20
12.8090287558
 30
0.0
  0
SPLINE
  5
3BD
100
AcDbEntity
  8
0
100
AcDbSpline
 62
7
  6
CONTINUOUS
 70
0
 71
3
 72
9
 73
5
 74
0
 42
0.0000001
 43
0.0000001
 44
0.0000000001
 40
0.0
 40
0.0
 40
0.0
 40
0.0
 40
0.2624151282
 40
1.0
 40
1.0
 40
1.0
 40
1.0
 10
7.0095668262
 20
12.7917500764
 30
0.0
 10
7.0085896289
 20
12.7934581265
 30
0.0
 10
7.0046121609
 20
12.7998135098
 30
0.0
 10
6.9995512289
 20
12.8055305899
 30
0.0
 10
6.9952668682
 20
12.8090287558
 30
0.0
  0
LINE
  5
3BE
100
AcDbEntity
  8
0
100
AcDbLine
 62
7
  6
CONTINUOUS
 10
5.2007359508
 20
12.1542965495
 11
5.20309458
 21
12.1515998525
  0
LINE
  5
3BF
100
AcDbEntity
  8
0
100
AcDbLine
 62
7
  6
CONTINUOUS
 10
5.20309458
 20
12.1515998525
 11
5.2040696345
 21
12.1499610424
  0
LINE
  5
3C0
100
AcDbEntity
  8
0
100
AcDbLine
 62
7
  6
CONTINUOUS
 10
5.2047547661
 20
12.1369778624
 11
5.2069822933
 21
12.1374092275
  0
SPLINE
  5
3C1
100
AcDbEntity
  8
0
100
AcDbSpline
 62
7
  6
CONTINUOUS
 70
0
 71
3
 72
14
 73
10
 74
0
 42
0.0000001
 43
0.0000001
 44
0.0000000001
 40
0.0
 40
0.0
 40
0.0
 40
0.0
 40
0.3263328144
 40
0.4738161582
 40
0.6059556495
 40
0.722266539
 40
0.8242557151
 40
0.915261818
 40
1.0
 40
1.0
 40
1.0
 40
1.0
 10
7.8029228911
 20
12.1875477814
 30
0.0
 10
7.8029228911
 20
12.1841258058
 30
0.0
 10
7.8035002802
 20
12.1791195071
 30
0.0
 10
7.805480199
 20
12.1730652475
 30
0.0
 10
7.8073426756
 20
12.1693345398
 30
0.0
 10
7.8095348446
 20
12.1663584964
 30
0.0
 10
7.8119831979
 20
12.164186289
 30
0.0
 10
7.8146141796
 20
12.1628542704
 30
0.0
 10
7.8164680707
 20
12.1625477814
 30
0.0
 10
7.8173566482
 20
12.1625477814
 30
0.0
  0
LINE
  5
3C2
100
AcDbEntity
  8
0
100
AcDbLine
 62
7
  6
CONTINUOUS
 10
5.2303156266
 20
12.1374092275
 11
5.230544961
 21
12.1373546035
  0
SPLINE
  5
3C3
100
AcDbEntity
  8
0
100
AcDbSpline
 62
7
  6
CONTINUOUS
 70
0
 71
3
 72
14
 73
10
 74
0
 42
0.0000001
 43
0.0000001
 44
0.0000000001
 40
0.0
 40
0.0
 40
0.0
 40
0.0
 40
0.1250583471
 40
0.2500409451
 40
0.3750550876
 40
0.500156495
 40
0.6253471172
 40
0.7505946908
 40
1.0
 40
1.0
 40
1.0
 40
1.0
 10
4.3388212763
 20
12.4686199342
 30
0.0
 10
4.3388212764
 20
12.4701313354
 30
0.0
 10
4.3392652303
 20
12.4731771966
 30
0.0
 10
4.341348461
 20
12.4772942091
 30
0.0
 10
4.3446545442
 20
12.4805115432
 30
0.0
 10
4.3487618881
 20
12.4825773338
 30
0.0
 10
4.3532576501
 20
12.4834865847
 30
0.0
 10
4.3593319675
 20
12.4833034895
 30
0.0
 10
4.3637472631
 20
12.4817592894
 30
0.0
 10
4.3663616383
 20
12.4802591315
 30
0.0
  0
SPLINE
  5
3C4
100
AcDbEntity
  8
0
100
AcDbSpline
 62
7
  6
CONTINUOUS
 70
0
 71
3
 72
15
 73
11
 74
0
 42
0.0000001
 43
0.0000001
 44
0.0000000001
 40
0.0
 40
0.0
 40
0.0
 40
0.0
 40
0.2489965086
 40
0.374078357
 40
0.4992091718
 40
0.6244132376
 40
0.7494922056
 40
0.8122637135
 40
0.8750473261
 40
1.0
 40
1.0
 40
1.0
 40
1.0
 10
4.3663616383
 20
13.0115030632
 30
0.0
 10
4.3637505791
 20
13.010004701
 30
0.0
 10
4.3593414792
 20
13.0084644741
 30
0.0
 10
4.3532718619
 20
13.0082686161
 30
0.0
 10
4.3487780719
 20
13.0091862097
 30
0.0
 10
4.3446613957
 20
13.0112391916
 30
0.0
 10
4.3419060845
 20
13.0139367772
 30
0.0
 10
4.3403050249
 20
13.0165241645
 30
0.0
 10
4.3391610115
 20
13.0193403714
 30
0.0
 10
4.3388212696
 20
13.0216315576
 30
0.0
 10
4.3388212755
 20
13.0231422693
 30
0.0
  0
SPLINE
  5
3C5
100
AcDbEntity
  8
0
100
AcDbSpline
 62
7
  6
CONTINUOUS
 70
0
 71
3
 72
15
 73
11
 74
0
 42
0.0000001
 43
0.0000001
 44
0.0000000001
 40
0.0
 40
0.0
 40
0.0
 40
0.0
 40
0.127058878
 40
0.2534519572
 40
0.3785257558
 40
0.502938812
 40
0.6271410426
 40
0.7513846375
 40
0.8756824389
 40
1.0
 40
1.0
 40
1.0
 40
1.0
 10
15.7061885903
 20
6.4497857426
 30
0.0
 10
15.7099372677
 20
6.4497857426
 30
0.0
 10
15.7174386404
 20
6.4489942097
 30
0.0
 10
15.7281265897
 20
6.445465624
 30
0.0
 10
15.7376743659
 20
6.43961619
 30
0.0
 10
15.7454529479
 20
6.4316293639
 30
0.0
 10
15.7508277421
 20
6.4218694758
 30
0.0
 10
15.7532689468
 20
6.4109902201
 30
0.0
 10
15.7525269791
 20
6.3998669499
 30
0.0
 10
15.7499450676
 20
6.3928781103
 30
0.0
 10
15.748211678
 20
6.3896457567
 30
0.0
  0
SPLINE
  5
3C6
100
AcDbEntity
  8
0
100
AcDbSpline
 62
7
  6
CONTINUOUS
 70
0
 71
3
 72
11
 73
7
 74
0
 42
0.0000001
 43
0.0000001
 44
0.0000000001
 40
0.0
 40
0.0
 40
0.0
 40
0.0
 40
0.2475042408
 40
0.4960449761
 40
0.7471829918
 40
1.0
 40
1.0
 40
1.0
 40
1.0
 10
15.748211678
 20
6.3896457567
 30
0.0
 10
15.7462483937
 20
6.385984705
 30
0.0
 10
15.7411202722
 20
6.3792334683
 30
0.0
 10
15.7308589047
 20
6.3717553369
 30
0.0
 10
15.7189250089
 20
6.367228051
 30
0.0
 10
15.7104320117
 20
6.3662155165
 30
0.0
 10
15.7061885903
 20
6.3662155165
 30
0.0
  0
SPLINE
  5
3C7
100
AcDbEntity
  8
0
100
AcDbSpline
 62
7
  6
CONTINUOUS
 70
0
 71
3
 72
11
 73
7
 74
0
 42
0.0000001
 43
0.0000001
 44
0.0000000001
 40
0.0
 40
0.0
 40
0.0
 40
0.0
 40
0.2527993529
 40
0.5040452659
 40
0.7526478084
 40
1.0
 40
1.0
 40
1.0
 40
1.0
 10
15.7061885903
 20
6.3662155165
 30
0.0
 10
15.70223876
 20
6.3662155165
 30
0.0
 10
15.6943358006
 20
6.3670929526
 30
0.0
 10
15.6831367491
 20
6.3710123771
 30
0.0
 10
15.6732809581
 20
6.3774931336
 30
0.0
 10
15.6680747979
 20
6.3833910892
 30
0.0
 10
15.6659594059
 20
6.3866254657
 30
0.0
  0
SPLINE
  5
3C8
100
AcDbEntity
  8
0
100
AcDbSpline
 62
7
  6
CONTINUOUS
 70
0
 71
3
 72
15
 73
11
 74
0
 42
0.0000001
 43
0.0000001
 44
0.0000000001
 40
0.0
 40
0.0
 40
0.0
 40
0.0
 40
0.124157115
 40
0.2484034568
 40
0.3726500385
 40
0.4969131593
 40
0.6214544012
 40
0.7465506133
 40
0.8729572537
 40
1.0
 40
1.0
 40
1.0
 40
1.0
 10
15.6655829356
 20
6.3872120922
 30
0.0
 10
15.663569702
 20
6.3904096784
 30
0.0
 10
15.6604213651
 20
6.3974184808
 30
0.0
 10
15.658965018
 20
6.4088293052
 30
0.0
 10
15.660913817
 20
6.4201763462
 30
0.0
 10
15.6660568646
 20
6.4304740033
 30
0.0
 10
15.6738442989
 20
6.4389604357
 30
0.0
 10
15.6835894641
 20
6.4451871169
 30
0.0
 10
15.6945827217
 20
6.448943296
 30
0.0
 10
15.7023221893
 20
6.4497857426
 30
0.0
 10
15.7061885903
 20
6.4497857426
 30
0.0
  0
SPLINE
  5
3C9
100
AcDbEntity
  8
0
100
AcDbSpline
 62
7
  6
CONTINUOUS
 70
0
 71
3
 72
13
 73
9
 74
0
 42
0.0000001
 43
0.0000001
 44
0.0000000001
 40
0.0
 40
0.0
 40
0.0
 40
0.0
 40
0.2569673565
 40
0.3795208322
 40
0.5
 40
0.6204791678
 40
0.7430326435
 40
1.0
 40
1.0
 40
1.0
 40
1.0
 10
15.6430409491
 20
6.385019641
 30
0.0
 10
15.6400027066
 20
6.381298569
 30
0.0
 10
15.6362553975
 20
6.3750793345
 30
0.0
 10
15.6336994161
 20
6.3660457846
 30
0.0
 10
15.6330605467
 20
6.3592397244
 30
0.0
 10
15.6336994161
 20
6.3524336643
 30
0.0
 10
15.6362553975
 20
6.3434001143
 30
0.0
 10
15.6400027066
 20
6.3371808799
 30
0.0
 10
15.6430409491
 20
6.3334598079
 30
0.0
  0
SPLINE
  5
3CA
100
AcDbEntity
  8
0
100
AcDbSpline
 62
7
  6
CONTINUOUS
 70
0
 71
3
 72
12
 73
8
 74
0
 42
0.0000001
 43
0.0000001
 44
0.0000000001
 40
0.0
 40
0.0
 40
0.0
 40
0.0
 40
0.2243397085
 40
0.4689458437
 40
0.5978892673
 40
0.7301589806
 40
1.0
 40
1.0
 40
1.0
 40
1.0
 10
15.6430409491
 20
6.3334598079
 30
0.0
 10
15.6463629668
 20
6.3293911838
 30
0.0
 10
15.6546442975
 20
6.321942398
 30
0.0
 10
15.6671105202
 20
6.31532681
 30
0.0
 10
15.6783148752
 20
6.3114377312
 30
0.0
 10
15.6904227538
 20
6.3085433672
 30
0.0
 10
15.6998706755
 20
6.3076798914
 30
0.0
 10
15.7061885903
 20
6.3076798914
 30
0.0
  0
SPLINE
  5
3CB
100
AcDbEntity
  8
0
100
AcDbSpline
 62
7
  6
CONTINUOUS
 70
0
 71
3
 72
9
 73
5
 74
0
 42
0.0000001
 43
0.0000001
 44
0.0000000001
 40
0.0
 40
0.0
 40
0.0
 40
0.0
 40
0.2624151282
 40
1.0
 40
1.0
 40
1.0
 40
1.0
 10
15.6603196285
 20
6.399319599
 30
0.0
 10
15.6586115785
 20
6.3983424017
 30
0.0
 10
15.6522561951
 20
6.3943649337
 30
0.0
 10
15.6465391151
 20
6.3893040018
 30
0.0
 10
15.6430409491
 20
6.385019641
 30
0.0
  0
SPLINE
  5
3CC
100
AcDbEntity
  8
0
100
AcDbSpline
 62
7
  6
CONTINUOUS
 70
0
 71
3
 72
9
 73
5
 74
0
 42
0.0000001
 43
0.0000001
 44
0.0000000001
 40
0.0
 40
0.0
 40
0.0
 40
0.0
 40
0.2381232878
 40
1.0
 40
1.0
 40
1.0
 40
1.0
 10
15.7693362314
 20
6.385019641
 30
0.0
 10
15.7681815223
 20
6.386433865
 30
0.0
 10
15.7630113945
 20
6.3921094586
 30
0.0
 10
15.7567090494
 20
6.3967020145
 30
0.0
 10
15.7516191663
 20
6.3995684367
 30
0.0
  0
SPLINE
  5
3CD
100
AcDbEntity
  8
0
100
AcDbSpline
 62
7
  6
CONTINUOUS
 70
0
 71
3
 72
13
 73
9
 74
0
 42
0.0000001
 43
0.0000001
 44
0.0000000001
 40
0.0
 40
0.0
 40
0.0
 40
0.0
 40
0.2569673565
 40
0.3795208322
 40
0.5
 40
0.6204791678
 40
0.7430326435
 40
1.0
 40
1.0
 40
1.0
 40
1.0
 10
15.7693362314
 20
6.3334598079
 30
0.0
 10
15.7723744739
 20
6.3371808799
 30
0.0
 10
15.776121783
 20
6.3434001143
 30
0.0
 10
15.7786777645
 20
6.3524336643
 30
0.0
 10
15.7793166339
 20
6.3592397244
 30
0.0
 10
15.7786777645
 20
6.3660457846
 30
0.0
 10
15.776121783
 20
6.3750793345
 30
0.0
 10
15.7723744739
 20
6.381298569
 30
0.0
 10
15.7693362314
 20
6.385019641
 30
0.0
  0
SPLINE
  5
3CE
100
AcDbEntity
  8
0
100
AcDbSpline
 62
7
  6
CONTINUOUS
 70
0
 71
3
 72
12
 73
8
 74
0
 42
0.0000001
 43
0.0000001
 44
0.0000000001
 40
0.0
 40
0.0
 40
0.0
 40
0.0
 40
0.2698410194
 40
0.4021107327
 40
0.5310541563
 40
0.7756602915
 40
1.0
 40
1.0
 40
1.0
 40
1.0
 10
15.7061885903
 20
6.3076798914
 30
0.0
 10
15.7125065051
 20
6.3076798914
 30
0.0
 10
15.7219544268
 20
6.3085433672
 30
0.0
 10
15.7340623053
 20
6.3114377312
 30
0.0
 10
15.7452666603
 20
6.31532681
 30
0.0
 10
15.7577328831
 20
6.321942398
 30
0.0
 10
15.7660142137
 20
6.3293911838
 30
0.0
 10
15.7693362314
 20
6.3334598079
 30
0.0
  0
SPLINE
  5
3CF
100
AcDbEntity
  8
03__ASM_ALL_CURVES
100
AcDbSpline
 62
8
  6
HIDDEN
 70
0
 71
3
 72
22
 73
18
 74
0
 42
0.0000001
 43
0.0000001
 44
0.0000000001
 40
0.0
 40
0.0
 40
0.0
 40
0.0
 40
0.125
 40
0.15625
 40
0.1875
 40
0.25
 40
0.375
 40
0.4375
 40
0.5
 40
0.5625
 40
0.625
 40
0.65625
 40
0.6875
 40
0.75
 40
0.8125
 40
0.875
 40
1.0
 40
1.0
 40
1.0
 40
1.0
 10
15.5332238625
 20
11.8253940416
 30
0.0
 10
15.5319133738
 20
11.8279564977
 30
0.0
 10
15.5302305775
 20
11.8312085832
 30
0.0
 10
15.5283452784
 20
11.8349640395
 30
0.0
 10
15.5268024251
 20
11.8377813757
 30
0.0
 10
15.5239740028
 20
11.8428579108
 30
0.0
 10
15.5207444501
 20
11.848622993
 30
0.0
 10
15.5172589022
 20
11.8543148961
 30
0.0
 10
15.5146218342
 20
11.8588078048
 30
0.0
 10
15.5122043919
 20
11.8624413778
 30
0.0
 10
15.5101029034
 20
11.8657003803
 30
0.0
 10
15.5085205875
 20
11.8681827901
 30
0.0
 10
15.5066123347
 20
11.8709795487
 30
0.0
 10
15.5040971753
 20
11.8745865449
 30
0.0
 10
15.501210827
 20
11.8788354568
 30
0.0
 10
15.4969361992
 20
11.8846876826
 30
0.0
 10
15.4936456614
 20
11.8891103573
 30
0.0
 10
15.4914707621
 20
11.8920513614
 30
0.0
  0
SPLINE
  5
3D0
100
AcDbEntity
  8
03__ASM_ALL_CURVES
100
AcDbSpline
 62
8
  6
HIDDEN
 70
0
 71
3
 72
141
 73
137
 74
0
 42
0.0000001
 43
0.0000001
 44
0.0000000001
 40
0.0
 40
0.0
 40
0.0
 40
0.0
 40
0.03125
 40
0.046875
 40
0.0625
 40
0.0703125
 40
0.078125
 40
0.08203125
 40
0.083984375
 40
0.0859375
 40
0.08984375
 40
0.09375
 40
0.1015625
 40
0.109375
 40
0.125
 40
0.140625
 40
0.15625
 40
0.16015625
 40
0.1640625
 40
0.166015625
 40
0.16796875
 40
0.171875
 40
0.1796875
 40
0.1875
 40
0.203125
 40
0.21875
 40
0.2265625
 40
0.234375
 40
0.2421875
 40
0.24609375
 40
0.248046875
 40
0.25
 40
0.251953125
 40
0.25390625
 40
0.2578125
 40
0.265625
 40
0.2734375
 40
0.28125
 40
0.296875
 40
0.3125
 40
0.3203125
 40
0.328125
 40
0.33203125
 40
0.333984375
 40
0.3359375
 40
0.33984375
 40
0.34375
 40
0.359375
 40
0.375
 40
0.390625
 40
0.40625
 40
0.41015625
 40
0.4140625
 40
0.416015625
 40
0.41796875
 40
0.421875
 40
0.4296875
 40
0.4375
 40
0.453125
 40
0.46875
 40
0.4765625
 40
0.484375
 40
0.4921875
 40
0.49609375
 40
0.498046875
 40
0.5
 40
0.501953125
 40
0.50390625
 40
0.5078125
 40
0.515625
 40
0.5234375
 40
0.53125
 40
0.546875
 40
0.5625
 40
0.5703125
 40
0.578125
 40
0.58203125
 40
0.583984375
 40
0.5859375
 40
0.58984375
 40
0.59375
 40
0.609375
 40
0.625
 40
0.640625
 40
0.6484375
 40
0.65625
 40
0.66015625
 40
0.6640625
 40
0.666015625
 40
0.66796875
 40
0.671875
 40
0.6796875
 40
0.6875
 40
0.703125
 40
0.71875
 40
0.7265625
 40
0.734375
 40
0.7421875
 40
0.74609375
 40
0.748046875
 40
0.75
 40
0.751953125
 40
0.75390625
 40
0.7578125
 40
0.765625
 40
0.7734375
 40
0.78125
 40
0.796875
 40
0.8046875
 40
0.8125
 40
0.8203125
 40
0.828125
 40
0.830078125
 40
0.83203125
 40
0.833984375
 40
0.8359375
 40
0.83984375
 40
0.84375
 40
0.8515625
 40
0.859375
 40
0.875
 40
0.890625
 40
0.8984375
 40
0.90625
 40
0.91015625
 40
0.9140625
 40
0.916015625
 40
0.91796875
 40
0.919921875
 40
0.921875
 40
0.9296875
 40
0.9375
 40
0.9453125
 40
0.953125
 40
0.96875
 40
1.0
 40
1.0
 40
1.0
 40
1.0
 10
15.4914707619
 20
11.8920513616
 30
0.0
 10
15.4832535566
 20
11.9009545665
 30
0.0
 10
15.4709265622
 20
11.9143090946
 30
0.0
 10
15.4544953154
 20
11.9321162489
 30
0.0
 10
15.444215899
 20
11.9432433935
 30
0.0
 10
15.4360149087
 20
11.9521504145
 30
0.0
 10
15.4308378762
 20
11.9577052028
 30
0.0
 10
15.4273169908
 20
11.9616178037
 30
0.0
 10
15.4251438448
 20
11.9638156357
 30
0.0
 10
15.4223633911
 20
11.9658705424
 30
0.0
 10
15.4190957642
 20
11.9684881125
 30
0.0
 10
15.4137513596
 20
11.9726488804
 30
0.0
 10
15.407110604
 20
11.9778591755
 30
0.0
 10
15.3964633976
 20
11.9861905905
 30
0.0
 10
15.3831603704
 20
11.9966054475
 30
0.0
 10
15.3672010256
 20
12.0091080378
 30
0.0
 10
15.3552114767
 20
12.018469989
 30
0.0
 10
15.3472505046
 20
12.0247347875
 30
0.0
 10
15.3438855655
 20
12.0273101218
 30
0.0
 10
15.3413052899
 20
12.0294520357
 30
0.0
 10
15.3383166053
 20
12.0312953623
 30
0.0
 10
15.3328966511
 20
12.0343824536
 30
0.0
 10
15.3252528618
 20
12.038864964
 30
0.0
 10
15.3129674877
 20
12.0459965453
 30
0.0
 10
15.2976295944
 20
12.0549247671
 30
0.0
 10
15.2822855431
 20
12.0638485526
 30
0.0
 10
15.2700100217
 20
12.070987232
 30
0.0
 10
15.2608079165
 20
12.0763449505
 30
0.0
 10
15.2531244926
 20
12.0807974979
 30
0.0
 10
15.2477756177
 20
12.0839383163
 30
0.0
 10
15.2446730098
 20
12.0856955319
 30
0.0
 10
15.2424759428
 20
12.0871191896
 30
0.0
 10
15.2397823741
 20
12.0881386322
 30
0.0
 10
15.2363641345
 20
12.0896388836
 30
0.0
 10
15.2303015256
 20
12.0921986329
 30
0.0
 10
15.2216828361
 20
12.0958897504
 30
0.0
 10
15.2113223763
 20
12.1003044441
 30
0.0
 10
15.1975146179
 20
12.1061955778
 30
0.0
 10
15.1802535906
 20
12.1135595476
 30
0.0
 10
15.1629901455
 20
12.1209172127
 30
0.0
 10
15.1491862556
 20
12.1268184338
 30
0.0
 10
15.1405428677
 20
12.1304721269
 30
0.0
 10
15.1345245034
 20
12.1330990085
 30
0.0
 10
15.1310353556
 20
12.1344916609
 30
0.0
 10
15.1273575717
 20
12.1354759386
 30
0.0
 10
15.1228248183
 20
12.1368458734
 30
0.0
 10
15.1118931448
 20
12.1400187999
 30
0.0
 10
15.0955178977
 20
12.1448268927
 30
0.0
 10
15.0736716287
 20
12.1512077675
 30
0.0
 10
15.0518282897
 20
12.1576044047
 30
0.0
 10
15.03544645
 20
12.162377032
 30
0.0
 10
15.0245232004
 20
12.1655952755
 30
0.0
 10
15.0199750338
 20
12.1668822933
 30
0.0
 10
15.016329053
 20
12.1680376592
 30
0.0
 10
15.0127103122
 20
12.1687331519
 30
0.0
 10
15.0063901721
 20
12.1697365972
 30
0.0
 10
14.9973547976
 20
12.1712815677
 30
0.0
 10
14.9829018853
 20
12.1736912421
 30
0.0
 10
14.9648345056
 20
12.176724514
 30
0.0
 10
14.9467674743
 20
12.1797509184
 30
0.0
 10
14.9323140045
 20
12.1821715809
 30
0.0
 10
14.9214732274
 20
12.1839925812
 30
0.0
 10
14.9124414312
 20
12.1854919286
 30
0.0
 10
14.906114881
 20
12.1865771852
 30
0.0
 10
14.9025064133
 20
12.1871415547
 30
0.0
 10
14.8997811776
 20
12.1877219592
 30
0.0
 10
14.8971281294
 20
12.1877017427
 30
0.0
 10
14.8935655522
 20
12.1878842904
 30
0.0
 10
14.8873427728
 20
12.1881061393
 30
0.0
 10
14.8784469622
 20
12.1884740845
 30
0.0
 10
14.8677745796
 20
12.1888938387
 30
0.0
 10
14.8535439905
 20
12.1894608328
 30
0.0
 10
14.8357548717
 20
12.1901691113
 30
0.0
 10
14.8179702143
 20
12.1908700939
 30
0.0
 10
14.8037324869
 20
12.1914487615
 30
0.0
 10
14.7948566802
 20
12.1917693728
 30
0.0
 10
14.7885979803
 20
12.1920761066
 30
0.0
 10
14.7850929803
 20
12.192122604
 30
0.0
 10
14.781856907
 20
12.1916840553
 30
0.0
 10
14.7777198961
 20
12.1913016594
 30
0.0
 10
14.7678667155
 20
12.1902474643
 30
0.0
 10
14.7530552935
 20
12.1887233644
 30
0.0
 10
14.7333242454
 20
12.1866590929
 30
0.0
 10
14.7168795917
 20
12.1849443183
 30
0.0
 10
14.7037201843
 20
12.1835754839
 30
0.0
 10
14.6955058224
 20
12.1827097735
 30
0.0
 10
14.6889106116
 20
12.1820409122
 30
0.0
 10
14.684842774
 20
12.1815687007
 30
0.0
 10
14.6814644284
 20
12.1813150204
 30
0.0
 10
14.6785390495
 20
12.1806083229
 30
0.0
 10
14.6736300585
 20
12.1791611568
 30
0.0
 10
14.6665074302
 20
12.1772035732
 30
0.0
 10
14.655172556
 20
12.1740100993
 30
0.0
 10
14.6409831156
 20
12.1700391223
 30
0.0
 10
14.6268004018
 20
12.1660613587
 30
0.0
 10
14.6154547651
 20
12.1628787433
 30
0.0
 10
14.6069398987
 20
12.1604970671
 30
0.0
 10
14.5998627503
 20
12.1584948878
 30
0.0
 10
14.5948722088
 20
12.1571276932
 30
0.0
 10
14.5920775347
 20
12.1562928209
 30
0.0
 10
14.5898207769
 20
12.1558177124
 30
0.0
 10
14.588178496
 20
12.1547652301
 30
0.0
 10
14.5857744518
 20
12.1535633148
 30
0.0
 10
14.5816672377
 20
12.1513661296
 30
0.0
 10
14.5757475798
 20
12.1482763506
 30
0.0
 10
14.5686663351
 20
12.1445476186
 30
0.0
 10
14.5592168831
 20
12.1395833063
 30
0.0
 10
14.5497694961
 20
12.1346170056
 30
0.0
 10
14.5403217582
 20
12.1296511725
 30
0.0
 10
14.5332349426
 20
12.1259273832
 30
0.0
 10
14.5261523513
 20
12.1222010182
 30
0.0
 10
14.520828494
 20
12.1194135322
 30
0.0
 10
14.5172977921
 20
12.1175438669
 30
0.0
 10
14.5154993399
 20
12.1166292875
 30
0.0
 10
14.5138295852
 20
12.1156359637
 30
0.0
 10
14.5122156118
 20
12.1139368518
 30
0.0
 10
14.5099884716
 20
12.1119412519
 30
0.0
 10
14.5065422252
 20
12.1086765965
 30
0.0
 10
14.5021942761
 20
12.1046203343
 30
0.0
 10
14.4952601049
 20
12.0981165409
 30
0.0
 10
14.4865838502
 20
12.0899918758
 30
0.0
 10
14.477913574
 20
12.0818641211
 30
0.0
 10
14.4709698372
 20
12.0753652711
 30
0.0
 10
14.4666458021
 20
12.0712966502
 30
0.0
 10
14.4631505321
 20
12.0680573302
 30
0.0
 10
14.461048193
 20
12.0659972331
 30
0.0
 10
14.4591780409
 20
12.0644305145
 30
0.0
 10
14.4582909466
 20
12.0630327114
 30
0.0
 10
14.4575483108
 20
12.0615724855
 30
0.0
 10
14.4559887291
 20
12.0586841444
 30
0.0
 10
14.4536805676
 20
12.0543381458
 30
0.0
 10
14.4505851801
 20
12.0485511895
 30
0.0
 10
14.4474945645
 20
12.0427621712
 30
0.0
 10
14.4433720788
 20
12.0350441996
 30
0.0
 10
14.4361585091
 20
12.0215374121
 30
0.0
 10
14.4299751819
 20
12.0099602812
 30
0.0
 10
14.4258530232
 20
12.0022421683
 30
0.0
  0
LINE
  5
3D1
100
AcDbEntity
  8
03__ASM_ALL_CURVES
100
AcDbLine
 62
8
  6
HIDDEN
 10
14.4258530343
 20
12.0022422027
 11
14.4253274765
 21
12.0005943421
  0
LINE
  5
3D2
100
AcDbEntity
  8
03__ASM_ALL_CURVES
100
AcDbLine
 62
8
  6
HIDDEN
 10
14.4253274765
 20
12.0005943422
 11
14.4219845888
 21
11.9886162811
  0
SPLINE
  5
3D3
100
AcDbEntity
  8
03__ASM_ALL_CURVES
100
AcDbSpline
 62
8
  6
HIDDEN
 70
0
 71
3
 72
34
 73
30
 74
0
 42
0.0000001
 43
0.0000001
 44
0.0000000001
 40
0.0
 40
0.0
 40
0.0
 40
0.0
 40
0.0625
 40
0.125
 40
0.15625
 40
0.171875
 40
0.1875
 40
0.25
 40
0.3125
 40
0.328125
 40
0.34375
 40
0.375
 40
0.4375
 40
0.46875
 40
0.5
 40
0.53125
 40
0.5625
 40
0.625
 40
0.65625
 40
0.671875
 40
0.6875
 40
0.75
 40
0.78125
 40
0.8125
 40
0.828125
 40
0.84375
 40
0.875
 40
0.9375
 40
1.0
 40
1.0
 40
1.0
 40
1.0
 10
14.4219845889
 20
11.9886162816
 30
0.0
 10
14.4214381054
 20
11.9855513165
 30
0.0
 10
14.4203378293
 20
11.9794260513
 30
0.0
 10
14.4189990289
 20
11.9717461451
 30
0.0
 10
14.4179947177
 20
11.9664130699
 30
0.0
 10
14.417524978
 20
11.963299123
 30
0.0
 10
14.4173908174
 20
11.958265934
 30
0.0
 10
14.4169197077
 20
11.9508747451
 30
0.0
 10
14.4166723998
 20
11.9433925807
 30
0.0
 10
14.4163144374
 20
11.9384503672
 30
0.0
 10
14.4164912361
 20
11.9350736021
 30
0.0
 10
14.4170064256
 20
11.9291244938
 30
0.0
 10
14.4174707492
 20
11.9223479828
 30
0.0
 10
14.4180732753
 20
11.9155495125
 30
0.0
 10
14.4182350268
 20
11.9104940678
 30
0.0
 10
14.4194882495
 20
11.9052759707
 30
0.0
 10
14.4207724057
 20
11.8983759173
 30
0.0
 10
14.4221944634
 20
11.8914567124
 30
0.0
 10
14.4233306149
 20
11.8854150057
 30
0.0
 10
14.4240962919
 20
11.8819505817
 30
0.0
 10
14.4258577402
 20
11.8766919324
 30
0.0
 10
14.4277128532
 20
11.8705749259
 30
0.0
 10
14.4299054555
 20
11.863584071
 30
0.0
 10
14.4313231175
 20
11.8591940949
 30
0.0
 10
14.4323256434
 20
11.8557317718
 30
0.0
 10
14.4338167558
 20
11.8520873709
 30
0.0
 10
14.4366536931
 20
11.8456249969
 30
0.0
 10
14.4405867287
 20
11.8364375984
 30
0.0
 10
14.4437696469
 20
11.8290740981
 30
0.0
 10
14.4453565448
 20
11.8253940457
 30
0.0
  0
SPLINE
  5
3D4
100
AcDbEntity
  8
03__ASM_ALL_CURVES
100
AcDbSpline
 62
8
  6
HIDDEN
 70
0
 71
3
 72
139
 73
135
 74
0
 42
0.0000001
 43
0.0000001
 44
0.0000000001
 40
0.0
 40
0.0
 40
0.0
 40
0.0
 40
0.03125
 40
0.046875
 40
0.0546875
 40
0.0625
 40
0.0703125
 40
0.078125
 40
0.08203125
 40
0.0859375
 40
0.09375
 40
0.1015625
 40
0.109375
 40
0.125
 40
0.140625
 40
0.1484375
 40
0.15234375
 40
0.154296875
 40
0.15625
 40
0.16015625
 40
0.1640625
 40
0.171875
 40
0.1796875
 40
0.1875
 40
0.203125
 40
0.21875
 40
0.2265625
 40
0.228515625
 40
0.23046875
 40
0.234375
 40
0.23828125
 40
0.2421875
 40
0.25
 40
0.265625
 40
0.28125
 40
0.296875
 40
0.30078125
 40
0.3046875
 40
0.30859375
 40
0.3125
 40
0.3203125
 40
0.328125
 40
0.34375
 40
0.359375
 40
0.3671875
 40
0.375
 40
0.37890625
 40
0.3828125
 40
0.390625
 40
0.3984375
 40
0.40625
 40
0.421875
 40
0.4375
 40
0.4453125
 40
0.453125
 40
0.45703125
 40
0.4609375
 40
0.46484375
 40
0.46875
 40
0.4765625
 40
0.484375
 40
0.5
 40
0.515625
 40
0.5234375
 40
0.53125
 40
0.53515625
 40
0.5390625
 40
0.54296875
 40
0.546875
 40
0.5546875
 40
0.5625
 40
0.578125
 40
0.59375
 40
0.6015625
 40
0.609375
 40
0.61328125
 40
0.615234375
 40
0.6171875
 40
0.62109375
 40
0.625
 40
0.6328125
 40
0.640625
 40
0.65625
 40
0.671875
 40
0.6796875
 40
0.68359375
 40
0.6875
 40
0.689453125
 40
0.69140625
 40
0.6953125
 40
0.69921875
 40
0.703125
 40
0.71875
 40
0.734375
 40
0.7421875
 40
0.75
 40
0.7578125
 40
0.76171875
 40
0.765625
 40
0.767578125
 40
0.76953125
 40
0.771484375
 40
0.7734375
 40
0.77734375
 40
0.78125
 40
0.796875
 40
0.8125
 40
0.8203125
 40
0.828125
 40
0.8359375
 40
0.83984375
 40
0.84375
 40
0.845703125
 40
0.84765625
 40
0.8515625
 40
0.859375
 40
0.875
 40
0.890625
 40
0.8984375
 40
0.90625
 40
0.9140625
 40
0.91796875
 40
0.919921875
 40
0.921875
 40
0.9228515625
 40
0.923828125
 40
0.92578125
 40
0.9296875
 40
0.9375
 40
0.9453125
 40
0.953125
 40
0.96875
 40
0.984375
 40
1.0
 40
1.0
 40
1.0
 40
1.0
 10
14.4453565468
 20
11.8253940416
 30
0.0
 10
14.4517661502
 20
11.8153983691
 30
0.0
 10
14.4613831322
 20
11.8004052434
 30
0.0
 10
14.4725939253
 20
11.7829119228
 30
0.0
 10
14.4790129774
 20
11.7729176547
 30
0.0
 10
14.4837911897
 20
11.7654165912
 30
0.0
 10
14.4887072669
 20
11.7579360198
 30
0.0
 10
14.4923745122
 20
11.7516383722
 30
0.0
 10
14.4972210436
 20
11.7468845606
 30
0.0
 10
14.5017335049
 20
11.7420810935
 30
0.0
 10
14.5074886885
 20
11.7360937925
 30
0.0
 10
14.5143459007
 20
11.7289017568
 30
0.0
 10
14.5235057316
 20
11.7193148364
 30
0.0
 10
14.5349514313
 20
11.7073309185
 30
0.0
 10
14.5463923849
 20
11.6953449943
 30
0.0
 10
14.5544138816
 20
11.6869592478
 30
0.0
 10
14.558406632
 20
11.6827603006
 30
0.0
 10
14.5607172245
 20
11.680370686
 30
0.0
 10
14.5637400152
 20
11.6782211583
 30
0.0
 10
14.5672746471
 20
11.6754520432
 30
0.0
 10
14.5730663436
 20
11.6710674
 30
0.0
 10
14.5802592492
 20
11.6655708607
 30
0.0
 10
14.5889105397
 20
11.6589816318
 30
0.0
 10
14.6004396328
 20
11.6501942646
 30
0.0
 10
14.6148461956
 20
11.6392064741
 30
0.0
 10
14.6292794237
 20
11.6282351706
 30
0.0
 10
14.6386121471
 20
11.6210740018
 30
0.0
 10
14.6429709522
 20
11.6178001651
 30
0.0
 10
14.6457497964
 20
11.6155402093
 30
0.0
 10
14.6501503488
 20
11.6132800908
 30
0.0
 10
14.6551223235
 20
11.6103798627
 30
0.0
 10
14.6618592949
 20
11.6065784961
 30
0.0
 10
14.6735988494
 20
11.5998955617
 30
0.0
 10
14.6903956898
 20
11.5903642923
 30
0.0
 10
14.710541485
 20
11.5789208387
 30
0.0
 10
14.7256508134
 20
11.5703371037
 30
0.0
 10
14.7357269832
 20
11.564618375
 30
0.0
 10
14.7407585057
 20
11.5617518695
 30
0.0
 10
14.745815621
 20
11.5589131763
 30
0.0
 10
14.7533676289
 20
11.556007506
 30
0.0
 10
14.7625305804
 20
11.5520743835
 30
0.0
 10
14.7773461014
 20
11.5459495012
 30
0.0
 10
14.7958127464
 20
11.5382366846
 30
0.0
 10
14.8142969183
 20
11.5305405807
 30
0.0
 10
14.8290843961
 20
11.5243889581
 30
0.0
 10
14.8383174557
 20
11.5205226863
 30
0.0
 10
14.8457257421
 20
11.517479972
 30
0.0
 10
14.8530539646
 20
11.5142532516
 30
0.0
 10
14.8627874233
 20
11.5115370175
 30
0.0
 10
14.8744304317
 20
11.5081922147
 30
0.0
 10
14.8899673605
 20
11.5037619993
 30
0.0
 10
14.9093844951
 20
11.4982161228
 30
0.0
 10
14.9288015879
 20
11.492665773
 30
0.0
 10
14.9443385836
 20
11.4882427148
 30
0.0
 10
14.9540409232
 20
11.485437486
 30
0.0
 10
14.9618218431
 20
11.4832869595
 30
0.0
 10
14.9676053578
 20
11.4814175854
 30
0.0
 10
14.9735880491
 20
11.4805272998
 30
0.0
 10
14.9815415707
 20
11.479225217
 30
0.0
 10
14.9914914779
 20
11.4776370203
 30
0.0
 10
15.007406896
 20
11.4750737728
 30
0.0
 10
15.027302398
 20
11.4718780828
 30
0.0
 10
15.0471985248
 20
11.468676581
 30
0.0
 10
15.0631129431
 20
11.4661226324
 30
0.0
 10
15.07306535
 20
11.4645111881
 30
0.0
 10
15.0810137471
 20
11.463256763
 30
0.0
 10
15.0870120932
 20
11.4622208892
 30
0.0
 10
15.0925899947
 20
11.4622637216
 30
0.0
 10
15.1001740555
 20
11.4619440508
 30
0.0
 10
15.1096038024
 20
11.4616735511
 30
0.0
 10
15.1247197858
 20
11.461168145
 30
0.0
 10
15.1436031691
 20
11.460564582
 30
0.0
 10
15.1624974508
 20
11.4599389985
 30
0.0
 10
15.1775959968
 20
11.4594688252
 30
0.0
 10
15.1870693371
 20
11.4591102434
 30
0.0
 10
15.1936271947
 20
11.4589885288
 30
0.0
 10
15.197489484
 20
11.45871675
 30
0.0
 10
15.2009199976
 20
11.4592046273
 30
0.0
 10
15.2053104426
 20
11.4596344845
 30
0.0
 10
15.2122779817
 20
11.4604228442
 30
0.0
 10
15.2210069911
 20
11.4613738412
 30
0.0
 10
15.234962404
 20
11.4629147564
 30
0.0
 10
15.2524108445
 20
11.4648338103
 30
0.0
 10
15.2698563401
 20
11.4667570748
 30
0.0
 10
15.2820714492
 20
11.4680994808
 30
0.0
 10
15.2890468028
 20
11.4688719567
 30
0.0
 10
15.2934173938
 20
11.4693422109
 30
0.0
 10
15.2968886558
 20
11.4697471713
 30
0.0
 10
15.3004519649
 20
11.470047138
 30
0.0
 10
15.3042472617
 20
11.4711736031
 30
0.0
 10
15.3088442683
 20
11.4724767119
 30
0.0
 10
15.3180163388
 20
11.4751079578
 30
0.0
 10
15.3317837047
 20
11.4790442706
 30
0.0
 10
15.3470761931
 20
11.4834231537
 30
0.0
 10
15.3593113101
 20
11.4869250346
 30
0.0
 10
15.3684870199
 20
11.4895520006
 30
0.0
 10
15.3761350685
 20
11.4917397985
 30
0.0
 10
15.3822499242
 20
11.4934929763
 30
0.0
 10
15.3860798551
 20
11.4945820341
 30
0.0
 10
15.3891251451
 20
11.4954685733
 30
0.0
 10
15.3914601893
 20
11.4960916058
 30
0.0
 10
15.3932155812
 20
11.4971898283
 30
0.0
 10
15.3957585477
 20
11.4984881646
 30
0.0
 10
15.3988680573
 20
11.5001678124
 30
0.0
 10
15.4063878536
 20
11.5041522651
 30
0.0
 10
15.4176433319
 20
11.5101487478
 30
0.0
 10
15.430162091
 20
11.5168013265
 30
0.0
 10
15.4401725158
 20
11.5221266972
 30
0.0
 10
15.4476864788
 20
11.5261169099
 30
0.0
 10
15.4539295426
 20
11.5294534267
 30
0.0
 10
15.4589654942
 20
11.5320973329
 30
0.0
 10
15.4620184987
 20
11.5338073725
 30
0.0
 10
15.4646772437
 20
11.5350434951
 30
0.0
 10
15.4665461951
 20
11.5367611758
 30
0.0
 10
15.4697605347
 20
11.53980146
 30
0.0
 10
15.4762291977
 20
11.5458576481
 30
0.0
 10
15.4854492861
 20
11.5545220734
 30
0.0
 10
15.4946766498
 20
11.5631820254
 30
0.0
 10
15.5020577669
 20
11.5701105406
 30
0.0
 10
15.5075915613
 20
11.57530795
 30
0.0
 10
15.5122101905
 20
11.5796354839
 30
0.0
 10
15.5154291437
 20
11.5826719553
 30
0.0
 10
15.5172905549
 20
11.5843958351
 30
0.0
 10
15.5184022678
 20
11.5854996631
 30
0.0
 10
15.5194101415
 20
11.5863221698
 30
0.0
 10
15.519985337
 20
11.5873657768
 30
0.0
 10
15.5209610702
 20
11.5892078582
 30
0.0
 10
15.5229344457
 20
11.5928808255
 30
0.0
 10
15.5257420992
 20
11.5981337747
 30
0.0
 10
15.5291161862
 20
11.6044348085
 30
0.0
 10
15.5336132562
 20
11.612837062
 30
0.0
 10
15.5392351818
 20
11.6233395784
 30
0.0
 10
15.5459812391
 20
11.6359427276
 30
0.0
 10
15.5504786589
 20
11.6443448023
 30
0.0
 10
15.5527273628
 20
11.6485458428
 30
0.0
  0
LINE
  5
3D5
100
AcDbEntity
  8
03__ASM_ALL_CURVES
100
AcDbLine
 62
8
  6
HIDDEN
 10
15.552727375
 20
11.6485458806
 11
15.5537385886
 21
11.6517636025
  0
LINE
  5
3D6
100
AcDbEntity
  8
03__ASM_ALL_CURVES
100
AcDbLine
 62
8
  6
HIDDEN
 10
15.5537385887
 20
11.6517636026
 11
15.5565958203
 21
11.6621718016
  0
SPLINE
  5
3D7
100
AcDbEntity
  8
03__ASM_ALL_CURVES
100
AcDbSpline
 62
8
  6
HIDDEN
 70
0
 71
3
 72
18
 73
14
 74
0
 42
0.0000001
 43
0.0000001
 44
0.0000000001
 40
0.0
 40
0.0
 40
0.0
 40
0.0
 40
0.25
 40
0.375
 40
0.4375
 40
0.5
 40
0.5625
 40
0.625
 40
0.6875
 40
0.75
 40
0.8125
 40
0.875
 40
1.0
 40
1.0
 40
1.0
 40
1.0
 10
15.5565958203
 20
11.6621718017
 30
0.0
 10
15.5571301207
 20
11.6644752026
 30
0.0
 10
15.5579228592
 20
11.6679474323
 30
0.0
 10
15.5587327807
 20
11.6719790032
 30
0.0
 10
15.5591518924
 20
11.674367722
 30
0.0
 10
15.5594636793
 20
11.6759549289
 30
0.0
 10
15.5598075039
 20
11.6783169828
 30
0.0
 10
15.560150303
 20
11.6805014452
 30
0.0
 10
15.5604651664
 20
11.6826214264
 30
0.0
 10
15.5606635441
 20
11.6843192566
 30
0.0
 10
15.5608972931
 20
11.6860548373
 30
0.0
 10
15.5611756259
 20
11.6887304766
 30
0.0
 10
15.5613819377
 20
11.6908338808
 30
0.0
 10
15.5615200206
 20
11.692214667
 30
0.0
  0
SPLINE
  5
3D8
100
AcDbEntity
  8
03__ASM_ALL_CURVES
100
AcDbSpline
 62
8
  6
HIDDEN
 70
0
 71
3
 72
18
 73
14
 74
0
 42
0.0000001
 43
0.0000001
 44
0.0000000001
 40
0.0
 40
0.0
 40
0.0
 40
0.0
 40
0.125
 40
0.1875
 40
0.25
 40
0.3125
 40
0.375
 40
0.4375
 40
0.5
 40
0.5625
 40
0.625
 40
0.75
 40
1.0
 40
1.0
 40
1.0
 40
1.0
 10
15.5616135833
 20
11.6933372779
 30
0.0
 10
15.5617503886
 20
11.6957410588
 30
0.0
 10
15.5619714943
 20
11.6992952644
 30
0.0
 10
15.5622027112
 20
11.7042400683
 30
0.0
 10
15.5621859307
 20
11.708420742
 30
0.0
 10
15.5622633788
 20
11.7125836587
 30
0.0
 10
15.5621541052
 20
11.7163455323
 30
0.0
 10
15.5619718358
 20
11.720046627
 30
0.0
 10
15.5619054444
 20
11.7235505267
 30
0.0
 10
15.5614485369
 20
11.727903985
 30
0.0
 10
15.5610159039
 20
11.7334021316
 30
0.0
 10
15.5597715436
 20
11.7432683105
 30
0.0
 10
15.5582752295
 20
11.7515597794
 30
0.0
 10
15.557246162
 20
11.7570790835
 30
0.0
  0
LINE
  5
3D9
100
AcDbEntity
  8
03__ASM_ALL_CURVES
100
AcDbLine
 62
8
  6
HIDDEN
 10
15.5572461623
 20
11.757079082
 11
15.5568920852
 21
11.7587367216
  0
SPLINE
  5
3DA
100
AcDbEntity
  8
03__ASM_ALL_CURVES
100
AcDbSpline
 62
8
  6
HIDDEN
 70
0
 71
3
 72
21
 73
17
 74
0
 42
0.0000001
 43
0.0000001
 44
0.0000000001
 40
0.0
 40
0.0
 40
0.0
 40
0.0
 40
0.125
 40
0.1875
 40
0.25
 40
0.375
 40
0.4375
 40
0.5
 40
0.5625
 40
0.625
 40
0.65625
 40
0.6875
 40
0.75
 40
0.8125
 40
0.875
 40
1.0
 40
1.0
 40
1.0
 40
1.0
 10
15.5568920852
 20
11.7587367216
 30
0.0
 10
15.5562896382
 20
11.7612630761
 30
0.0
 10
15.5554177612
 20
11.7650026955
 30
0.0
 10
15.5541280849
 20
11.7701885046
 30
0.0
 10
15.5524344061
 20
11.7760243073
 30
0.0
 10
15.5508081725
 20
11.7817069793
 30
0.0
 10
15.5488666694
 20
11.7873949524
 30
0.0
 10
15.5474570338
 20
11.7918649681
 30
0.0
 10
15.5460190658
 20
11.7955161895
 30
0.0
 10
15.5447992146
 20
11.7987824806
 30
0.0
 10
15.5438892068
 20
11.8012682549
 30
0.0
 10
15.5427329418
 20
11.8040841783
 30
0.0
 10
15.5411852698
 20
11.8077225224
 30
0.0
 10
15.5394419132
 20
11.8119989942
 30
0.0
 10
15.5367285654
 20
11.8179258371
 30
0.0
 10
15.5346153113
 20
11.8224122659
 30
0.0
 10
15.5332238626
 20
11.8253940414
 30
0.0
  0
SPLINE
  5
3DB
100
AcDbEntity
  8
0
100
AcDbSpline
 62
7
  6
CONTINUOUS
 70
0
 71
3
 72
26
 73
22
 74
0
 42
0.0000001
 43
0.0000001
 44
0.0000000001
 40
0.0
 40
0.0
 40
0.0
 40
0.0
 40
0.0680605148
 40
0.1386931228
 40
0.2111469042
 40
0.284628082
 40
0.3582939222
 40
0.4313006856
 40
0.5028249891
 40
0.5720968714
 40
0.6384307052
 40
0.7012610591
 40
0.7601836636
 40
0.8150034123
 40
0.8657928694
 40
0.8898098391
 40
0.9129983201
 40
0.9354690103
 40
0.9573582501
 40
0.9788167911
 40
1.0
 40
1.0
 40
1.0
 40
1.0
 10
16.1487302004
 20
13.356252015
 30
0.0
 10
16.1083256693
 20
13.3862655889
 30
0.0
 10
16.0230880105
 20
13.4435959796
 30
0.0
 10
15.8865308883
 20
13.5196513788
 30
0.0
 10
15.7407560458
 20
13.5863732333
 30
0.0
 10
15.588250245
 20
13.6426312601
 30
0.0
 10
15.4315806891
 20
13.6874727121
 30
0.0
 10
15.2734019349
 20
13.7201411219
 30
0.0
 10
15.1163857705
 20
13.7400826474
 30
0.0
 10
14.9631812179
 20
13.746960053
 30
0.0
 10
14.8163618736
 20
13.7406518916
 30
0.0
 10
14.6783833025
 20
13.7212533132
 30
0.0
 10
14.5515284218
 20
13.6890502085
 30
0.0
 10
14.4379164774
 20
13.6445332819
 30
0.0
 10
14.3542859542
 20
13.5967713532
 30
0.0
 10
14.2964650603
 20
13.5529422484
 30
0.0
 10
14.25836068
 20
13.5181396728
 30
0.0
 10
14.2248918597
 20
13.4809427275
 30
0.0
 10
14.1962101486
 20
13.4415005285
 30
0.0
 10
14.1724656198
 20
13.3999979005
 30
0.0
 10
14.1599427042
 20
13.3709690408
 30
0.0
 10
14.1545746523
 20
13.356252015
 30
0.0
  0
SPLINE
  5
3DC
100
AcDbEntity
  8
0
100
AcDbSpline
 62
7
  6
CONTINUOUS
 70
0
 71
3
 72
13
 73
9
 74
0
 42
0.0000001
 43
0.0000001
 44
0.0000000001
 40
0.0
 40
0.0
 40
0.0
 40
0.0
 40
0.1164908133
 40
0.233878502
 40
0.3530358904
 40
0.4747853885
 40
0.7286569627
 40
1.0
 40
1.0
 40
1.0
 40
1.0
 10
15.5535132422
 20
11.6510359333
 30
0.0
 10
15.5555729866
 20
11.6577035744
 30
0.0
 10
15.5589860368
 20
11.671325446
 30
0.0
 10
15.5619031179
 20
11.6923106422
 30
0.0
 10
15.5626089717
 20
11.7138026499
 30
0.0
 10
15.5605860861
 20
11.7434180353
 30
0.0
 10
15.5522636689
 20
11.7815085004
 30
0.0
 10
15.5403849575
 20
11.8108012644
 30
0.0
 10
15.5332238625
 20
11.8253940416
 30
0.0
  0
SPLINE
  5
3DD
100
AcDbEntity
  8
0
100
AcDbSpline
 62
7
  6
CONTINUOUS
 70
0
 71
3
 72
12
 73
8
 74
0
 42
0.0000001
 43
0.0000001
 44
0.0000000001
 40
0.0
 40
0.0
 40
0.0
 40
0.0
 40
0.2530279118
 40
0.5157786826
 40
0.6451672529
 40
0.7702535844
 40
1.0
 40
1.0
 40
1.0
 40
1.0
 10
17.538527854
 20
11.2768519299
 30
0.0
 10
17.5416586611
 20
11.2768519299
 30
0.0
 10
17.5480625603
 20
11.2779501501
 30
0.0
 10
17.5553416505
 20
11.2814740755
 30
0.0
 10
17.5604016076
 20
11.2854317415
 30
0.0
 10
17.564524546
 20
11.2897918414
 30
0.0
 10
17.5667667264
 20
11.2937190928
 30
0.0
 10
17.567606037
 20
11.2964351027
 30
0.0
  0
SPLINE
  5
3DE
100
AcDbEntity
  8
0
100
AcDbSpline
 62
7
  6
CONTINUOUS
 70
0
 71
3
 72
10
 73
6
 74
0
 42
0.0000001
 43
0.0000001
 44
0.0000000001
 40
0.0
 40
0.0
 40
0.0
 40
0.0
 40
0.5157002594
 40
0.7604322627
 40
1.0
 40
1.0
 40
1.0
 40
1.0
 10
17.8379134314
 20
12.1711501517
 30
0.0
 10
17.838484919
 20
12.1729994863
 30
0.0
 10
17.8389084291
 20
12.1759024237
 30
0.0
 10
17.838359248
 20
12.1796351401
 30
0.0
 10
17.8377254832
 20
12.1813560692
 30
0.0
 10
17.8373291896
 20
12.1821632217
 30
0.0
  0
SPLINE
  5
3DF
100
AcDbEntity
  8
0
100
AcDbSpline
 62
7
  6
CONTINUOUS
 70
0
 71
3
 72
15
 73
11
 74
0
 42
0.0000001
 43
0.0000001
 44
0.0000000001
 40
0.0
 40
0.0
 40
0.0
 40
0.0
 40
0.1128863917
 40
0.2272545495
 40
0.344544357
 40
0.4659178988
 40
0.5919694844
 40
0.7229138116
 40
0.8589431353
 40
1.0
 40
1.0
 40
1.0
 40
1.0
 10
14.8482752533
 20
12.4880820185
 30
0.0
 10
14.8472001356
 20
12.4902735574
 30
0.0
 10
14.8446571872
 20
12.4945110056
 30
0.0
 10
14.8397849492
 20
12.5001897968
 30
0.0
 10
14.8339327296
 20
12.5051398578
 30
0.0
 10
14.8271919944
 20
12.5092867165
 30
0.0
 10
14.819669591
 20
12.5125688066
 30
0.0
 10
14.8114736766
 20
12.5149068682
 30
0.0
 10
14.802735842
 20
12.51626182
 30
0.0
 10
14.7967390666
 20
12.5165432631
 30
0.0
 10
14.7936888607
 20
12.5165432631
 30
0.0
  0
SPLINE
  5
3E0
100
AcDbEntity
  8
0
100
AcDbSpline
 62
7
  6
CONTINUOUS
 70
0
 71
3
 72
17
 73
13
 74
0
 42
0.0000001
 43
0.0000001
 44
0.0000000001
 40
0.0
 40
0.0
 40
0.0
 40
0.0
 40
0.0505022316
 40
0.101819231
 40
0.1546739802
 40
0.2096168816
 40
0.3267056517
 40
0.4538916117
 40
0.5889802777
 40
0.728075878
 40
0.8665081561
 40
1.0
 40
1.0
 40
1.0
 40
1.0
 10
14.6986554023
 20
12.4146592598
 30
0.0
 10
14.6974711014
 20
12.4170733599
 30
0.0
 10
14.6955320359
 20
12.4221755507
 30
0.0
 10
14.69406336
 20
12.4303220432
 30
0.0
 10
14.6940303256
 20
12.4388354489
 30
0.0
 10
14.6959387269
 20
12.4507021784
 30
0.0
 10
14.7020482166
 20
12.4656581666
 30
0.0
 10
14.7141581908
 20
12.4820326137
 30
0.0
 10
14.73033167
 20
12.496231355
 30
0.0
 10
14.7494632816
 20
12.5072940591
 30
0.0
 10
14.770248675
 20
12.5145769963
 30
0.0
 10
14.7847438732
 20
12.5163926578
 30
0.0
 10
14.7918502848
 20
12.5165259771
 30
0.0
  0
SPLINE
  5
3E1
100
AcDbEntity
  8
0
100
AcDbSpline
 62
7
  6
CONTINUOUS
 70
0
 71
3
 72
14
 73
10
 74
0
 42
0.0000001
 43
0.0000001
 44
0.0000000001
 40
0.0
 40
0.0
 40
0.0
 40
0.0
 40
0.1243535889
 40
0.2534110802
 40
0.3848681555
 40
0.516457149
 40
0.6457551131
 40
0.7705785946
 40
1.0
 40
1.0
 40
1.0
 40
1.0
 10
17.0549015812
 20
12.0857649291
 30
0.0
 10
17.0638898292
 20
12.0857649291
 30
0.0
 10
17.0822316474
 20
12.0873301912
 30
0.0
 10
17.1093666195
 20
12.0938686861
 30
0.0
 10
17.1357750765
 20
12.1044213076
 30
0.0
 10
17.1604571597
 20
12.1185653624
 30
0.0
 10
17.182507961
 20
12.1358180448
 30
0.0
 10
17.2065517527
 20
12.1612523743
 30
0.0
 10
17.2196283681
 20
12.1841568134
 30
0.0
 10
17.224524315
 20
12.2000001034
 30
0.0
  0
SPLINE
  5
3E2
100
AcDbEntity
  8
0
100
AcDbSpline
 62
7
  6
CONTINUOUS
 70
0
 71
3
 72
11
 73
7
 74
0
 42
0.0000001
 43
0.0000001
 44
0.0000000001
 40
0.0
 40
0.0
 40
0.0
 40
0.0
 40
0.2642342289
 40
0.517126198
 40
0.760959885
 40
1.0
 40
1.0
 40
1.0
 40
1.0
 10
17.224524315
 20
12.2000001034
 30
0.0
 10
17.2262359547
 20
12.2055389714
 30
0.0
 10
17.2287386103
 20
12.2166686654
 30
0.0
 10
17.2295036932
 20
12.2334397029
 30
0.0
 10
17.2271148283
 20
12.24950884
 30
0.0
 10
17.2234314646
 20
12.2595371707
 30
0.0
 10
17.22112001
 20
12.2642448724
 30
0.0
  0
SPLINE
  5
3E3
100
AcDbEntity
  8
0
100
AcDbSpline
 62
7
  6
CONTINUOUS
 70
0
 71
3
 72
36
 73
32
 74
0
 42
0.0000001
 43
0.0000001
 44
0.0000000001
 40
0.0
 40
0.0
 40
0.0
 40
0.0
 40
0.0214511363
 40
0.0431980622
 40
0.0655183615
 40
0.0886521408
 40
0.1127960731
 40
0.1380956084
 40
0.1646503373
 40
0.1925118863
 40
0.2216944271
 40
0.2521738292
 40
0.2838983248
 40
0.3167873349
 40
0.3507407375
 40
0.3856375515
 40
0.4213435172
 40
0.4577102126
 40
0.5317693029
 40
0.6065073142
 40
0.6805560105
 40
0.7169138231
 40
0.7526081861
 40
0.7874905143
 40
0.8214276465
 40
0.8542994373
 40
0.8860042284
 40
0.9164610746
 40
0.9456253571
 40
0.9734752381
 40
1.0
 40
1.0
 40
1.0
 40
1.0
 10
15.7755217074
 20
11.5824301309
 30
0.0
 10
15.7716813278
 20
11.570001559
 30
0.0
 10
15.7621096607
 20
11.5455011226
 30
0.0
 10
15.742460276
 20
11.5108250837
 30
0.0
 10
15.7176220425
 20
11.4783629416
 30
0.0
 10
15.6878105222
 20
11.4483352019
 30
0.0
 10
15.6532374434
 20
11.4209466594
 30
0.0
 10
15.6141627356
 20
11.3963559533
 30
0.0
 10
15.5708497761
 20
11.3747294821
 30
0.0
 10
15.5236007061
 20
11.3561878137
 30
0.0
 10
15.4727300424
 20
11.3408620842
 30
0.0
 10
15.4185843629
 20
11.328836332
 30
0.0
 10
15.3615264593
 20
11.3202016459
 30
0.0
 10
15.3019430329
 20
11.315001269
 30
0.0
 10
15.2402365124
 20
11.3132816166
 30
0.0
 10
15.1768252824
 20
11.3150416505
 30
0.0
 10
15.1121384818
 20
11.320280255
 30
0.0
 10
15.0242569072
 20
11.3319124447
 30
0.0
 10
14.9141492827
 20
11.3548877204
 30
0.0
 10
14.7848721298
 20
11.3948903012
 30
0.0
 10
14.6810423877
 20
11.4381145091
 30
0.0
 10
14.6019683542
 20
11.4781452793
 30
0.0
 10
14.5456486424
 20
11.5103503369
 30
0.0
 10
14.4923507522
 20
11.5447038385
 30
0.0
 10
14.442429159
 20
11.5809654467
 30
0.0
 10
14.3962298687
 20
11.6188996082
 30
0.0
 10
14.3540581245
 20
11.6582386155
 30
0.0
 10
14.3162063577
 20
11.6987296357
 30
0.0
 10
14.2829223201
 20
11.7401016562
 30
0.0
 10
14.2544537187
 20
11.782074435
 30
0.0
 10
14.238419945
 20
11.8109539183
 30
0.0
 10
14.2313337617
 20
11.8253940416
 30
0.0
  0
SPLINE
  5
3E4
100
AcDbEntity
  8
0
100
AcDbSpline
 62
7
  6
CONTINUOUS
 70
0
 71
3
 72
21
 73
17
 74
0
 42
0.0000001
 43
0.0000001
 44
0.0000000001
 40
0.0
 40
0.0
 40
0.0
 40
0.0
 40
0.0621163738
 40
0.1242127657
 40
0.1863105818
 40
0.2484093369
 40
0.3105879698
 40
0.3728648518
 40
0.4353756775
 40
0.4981534905
 40
0.6240292176
 40
0.7500388103
 40
0.8129246508
 40
0.8754979408
 40
0.9378529777
 40
1.0
 40
1.0
 40
1.0
 40
1.0
 10
15.7415874484
 20
13.1158864765
 30
0.0
 10
15.7424481436
 20
13.1186716871
 30
0.0
 10
15.7447680136
 20
13.1240762315
 30
0.0
 10
15.7498862324
 20
13.1312460916
 30
0.0
 10
15.7564376606
 20
13.1371415436
 30
0.0
 10
15.7641051757
 20
13.1414884029
 30
0.0
 10
15.7725230616
 20
13.1441224861
 30
0.0
 10
15.7813176041
 20
13.1449628792
 30
0.0
 10
15.7901306063
 20
13.1440533076
 30
0.0
 10
15.8014704519
 20
13.1406238729
 30
0.0
 10
15.8142150149
 20
13.1325306324
 30
0.0
 10
15.8234360976
 20
13.1205783015
 30
0.0
 10
15.8279403859
 20
13.1096094669
 30
0.0
 10
15.8297364296
 20
13.100922706
 30
0.0
 10
15.829808099
 20
13.0920888522
 30
0.0
 10
15.8286733405
 20
13.0863067316
 30
0.0
 10
15.8278122206
 20
13.0835201468
 30
0.0
  0
SPLINE
  5
3E5
100
AcDbEntity
  8
0
100
AcDbSpline
 62
7
  6
CONTINUOUS
 70
0
 71
3
 72
21
 73
17
 74
0
 42
0.0000001
 43
0.0000001
 44
0.0000000001
 40
0.0
 40
0.0
 40
0.0
 40
0.0
 40
0.0621163738
 40
0.1242127657
 40
0.1863105818
 40
0.2484093369
 40
0.3105879698
 40
0.3728648518
 40
0.4353756775
 40
0.4981534905
 40
0.6240292176
 40
0.7500388103
 40
0.8129246508
 40
0.8754979408
 40
0.9378529777
 40
1.0
 40
1.0
 40
1.0
 40
1.0
 10
15.8278122206
 20
13.0835201468
 30
0.0
 10
15.8269515255
 20
13.0807349362
 30
0.0
 10
15.8246316555
 20
13.0753303918
 30
0.0
 10
15.8195134367
 20
13.0681605317
 30
0.0
 10
15.8129620084
 20
13.0622650798
 30
0.0
 10
15.8052944933
 20
13.0579182204
 30
0.0
 10
15.7968766074
 20
13.0552841373
 30
0.0
 10
15.7880820649
 20
13.0544437442
 30
0.0
 10
15.7792690628
 20
13.0553533157
 30
0.0
 10
15.7679292171
 20
13.0587827504
 30
0.0
 10
15.7551846541
 20
13.0668759909
 30
0.0
 10
15.7459635715
 20
13.0788283219
 30
0.0
 10
15.7414592831
 20
13.0897971564
 30
0.0
 10
15.7396632394
 20
13.0984839173
 30
0.0
 10
15.73959157
 20
13.1073177712
 30
0.0
 10
15.7407263286
 20
13.1130998917
 30
0.0
 10
15.7415874484
 20
13.1158864765
 30
0.0
  0
SPLINE
  5
3E6
100
AcDbEntity
  8
0
100
AcDbSpline
 62
7
  6
CONTINUOUS
 70
0
 71
3
 72
15
 73
11
 74
0
 42
0.0000001
 43
0.0000001
 44
0.0000000001
 40
0.0
 40
0.0
 40
0.0
 40
0.0
 40
0.1127943642
 40
0.2270952081
 40
0.3442615974
 40
0.4653665781
 40
0.5912169141
 40
0.7223184242
 40
0.8587679866
 40
1.0
 40
1.0
 40
1.0
 40
1.0
 10
13.4861183319
 20
12.1357553344
 30
0.0
 10
13.4880014095
 20
12.1319201012
 30
0.0
 10
13.4924544391
 20
12.1245040279
 30
0.0
 10
13.5009747211
 20
12.1145577537
 30
0.0
 10
13.5112171763
 20
12.1059018853
 30
0.0
 10
13.523011218
 20
12.0986571968
 30
0.0
 10
13.5361840433
 20
12.0929298897
 30
0.0
 10
13.5505397432
 20
12.0887901014
 30
0.0
 10
13.5658564399
 20
12.0863048018
 30
0.0
 10
13.5763842946
 20
12.0857649291
 30
0.0
 10
13.581734083
 20
12.0857649291
 30
0.0
  0
SPLINE
  5
3E7
100
AcDbEntity
  8
0
100
AcDbSpline
 62
7
  6
CONTINUOUS
 70
0
 71
3
 72
15
 73
11
 74
0
 42
0.0000001
 43
0.0000001
 44
0.0000000001
 40
0.0
 40
0.0
 40
0.0
 40
0.0
 40
0.1127943642
 40
0.2270952081
 40
0.3442615974
 40
0.4653665781
 40
0.5912169141
 40
0.7223184242
 40
0.8587679866
 40
1.0
 40
1.0
 40
1.0
 40
1.0
 10
16.6522654988
 20
12.1357553344
 30
0.0
 10
16.6541485764
 20
12.1319201012
 30
0.0
 10
16.658601606
 20
12.1245040279
 30
0.0
 10
16.667121888
 20
12.1145577537
 30
0.0
 10
16.6773643431
 20
12.1059018853
 30
0.0
 10
16.6891583849
 20
12.0986571968
 30
0.0
 10
16.7023312102
 20
12.0929298897
 30
0.0
 10
16.71668691
 20
12.0887901014
 30
0.0
 10
16.7320036067
 20
12.0863048018
 30
0.0
 10
16.7425314615
 20
12.0857649291
 30
0.0
 10
16.7478812499
 20
12.0857649291
 30
0.0
  0
SPLINE
  5
3E8
100
AcDbEntity
  8
0
100
AcDbSpline
 62
7
  6
CONTINUOUS
 70
0
 71
3
 72
11
 73
7
 74
0
 42
0.0000001
 43
0.0000001
 44
0.0000000001
 40
0.0
 40
0.0
 40
0.0
 40
0.0
 40
0.2267238773
 40
0.4648685926
 40
0.7223840338
 40
1.0
 40
1.0
 40
1.0
 40
1.0
 10
13.3274719522
 20
11.2854220327
 30
0.0
 10
13.3281192034
 20
11.2841037412
 30
0.0
 10
13.329927576
 20
11.2816132938
 30
0.0
 10
13.333801328
 20
11.2788656832
 30
0.0
 10
13.3385835097
 20
11.2772015811
 30
0.0
 10
13.3420643076
 20
11.2768519299
 30
0.0
 10
13.3438625772
 20
11.2768519299
 30
0.0
  0
SPLINE
  5
3E9
100
AcDbEntity
  8
0
100
AcDbSpline
 62
7
  6
CONTINUOUS
 70
0
 71
3
 72
33
 73
29
 74
0
 42
0.0000001
 43
0.0000001
 44
0.0000000001
 40
0.0
 40
0.0
 40
0.0
 40
0.0
 40
0.0265224285
 40
0.0543755297
 40
0.0835452166
 40
0.1140045766
 40
0.1457094261
 40
0.1785838479
 40
0.2473831842
 40
0.3194167611
 40
0.3934708872
 40
0.4682147087
 40
0.5422798567
 40
0.614335096
 40
0.6492345689
 40
0.6831907839
 40
0.7160820757
 40
0.7478089806
 40
0.7782905087
 40
0.8074748004
 40
0.8353385265
 40
0.8618943465
 40
0.8871961133
 40
0.9113407506
 40
0.9344764955
 40
0.9567976403
 40
0.9785467889
 40
1.0
 40
1.0
 40
1.0
 40
1.0
 10
15.5332238625
 20
11.8253940416
 30
0.0
 10
15.5281394156
 20
11.8357550551
 30
0.0
 10
15.5166326642
 20
11.8564781051
 30
0.0
 10
15.4962034611
 20
11.8865995664
 30
0.0
 10
15.472317722
 20
11.9162921452
 30
0.0
 10
15.4451533024
 20
11.9453495028
 30
0.0
 10
15.4148903173
 20
11.9735812858
 30
0.0
 10
15.3700057968
 20
12.0104290803
 30
0.0
 10
15.3073761889
 20
12.0530642847
 30
0.0
 10
15.2248425532
 20
12.0973431926
 30
0.0
 10
15.1359915108
 20
12.1343355104
 30
0.0
 10
15.043208217
 20
12.1630457982
 30
0.0
 10
14.9489856699
 20
12.1827036995
 30
0.0
 10
14.8705222864
 20
12.1911993048
 30
0.0
 10
14.809201984
 20
12.1929021668
 30
0.0
 10
14.7649185911
 20
12.1916685529
 30
0.0
 10
14.7221597543
 20
12.187935933
 30
0.0
 10
14.681213329
 20
12.1817391846
 30
0.0
 10
14.6423565907
 20
12.1731100496
 30
0.0
 10
14.605851185
 20
12.1621095717
 30
0.0
 10
14.5719427663
 20
12.148806941
 30
0.0
 10
14.5408626115
 20
12.1332826949
 30
0.0
 10
14.5128184764
 20
12.1156411302
 30
0.0
 10
14.4880126533
 20
12.0959806614
 30
0.0
 10
14.4666136421
 20
12.0744379417
 30
0.0
 10
14.4487948355
 20
12.0511375185
 30
0.0
 10
14.4346880141
 20
12.0262561812
 30
0.0
 10
14.4278225607
 20
12.0086716912
 30
0.0
 10
14.4250671671
 20
11.9997521499
 30
0.0
  0
SPLINE
  5
3EA
100
AcDbEntity
  8
0
100
AcDbSpline
 62
7
  6
CONTINUOUS
 70
0
 71
3
 72
14
 73
10
 74
0
 42
0.0000001
 43
0.0000001
 44
0.0000000001
 40
0.0
 40
0.0
 40
0.0
 40
0.0
 40
0.2713021909
 40
0.4002957466
 40
0.5253293695
 40
0.647043541
 40
0.7661757093
 40
0.8835398478
 40
1.0
 40
1.0
 40
1.0
 40
1.0
 10
14.2313337617
 20
11.8253940416
 30
0.0
 10
14.2213538439
 20
11.8457309757
 30
0.0
 10
14.2087282006
 20
11.8768830149
 30
0.0
 10
14.1976240765
 20
11.9193654494
 30
0.0
 10
14.1924749918
 20
11.9503632197
 30
0.0
 10
14.1903847906
 20
11.9808916491
 30
0.0
 10
14.1913728422
 20
12.0108400479
 30
0.0
 10
14.195433799
 20
12.040083981
 30
0.0
 10
14.2001878289
 20
12.0590669824
 30
0.0
 10
14.2030587019
 20
12.0683579524
 30
0.0
  0
SPLINE
  5
3EB
100
AcDbEntity
  8
0
100
AcDbSpline
 62
7
  6
CONTINUOUS
 70
0
 71
3
 72
26
 73
22
 74
0
 42
0.0000001
 43
0.0000001
 44
0.0000000001
 40
0.0
 40
0.0
 40
0.0
 40
0.0
 40
0.0211831941
 40
0.0426417063
 40
0.0645309344
 40
0.0870016462
 40
0.1101901729
 40
0.1342072076
 40
0.1849968583
 40
0.2398168822
 40
0.2987398168
 40
0.361570475
 40
0.4279044815
 40
0.497176305
 40
0.5687003573
 40
0.6417067777
 40
0.7153722898
 40
0.7888532063
 40
0.8613068225
 40
0.9319394137
 40
1.0
 40
1.0
 40
1.0
 40
1.0
 10
13.8721639416
 20
12.4423706204
 30
0.0
 10
13.8775319898
 20
12.4570876359
 30
0.0
 10
13.8900548776
 20
12.4861164716
 30
0.0
 10
13.9137993769
 20
12.5276190709
 30
0.0
 10
13.9424810954
 20
12.5670612464
 30
0.0
 10
13.9759499238
 20
12.6042582389
 30
0.0
 10
14.0140543786
 20
12.6390608802
 30
0.0
 10
14.0718754701
 20
12.6828900971
 30
0.0
 10
14.1555063661
 20
12.7306521764
 30
0.0
 10
14.2691189106
 20
12.7751692006
 30
0.0
 10
14.3959744857
 20
12.8073723136
 30
0.0
 10
14.5339536814
 20
12.8267707579
 30
0.0
 10
14.6807733475
 20
12.8330786517
 30
0.0
 10
14.8339777844
 20
12.8262009858
 30
0.0
 10
14.9909934432
 20
12.8062593364
 30
0.0
 10
15.1491715014
 20
12.7735909396
 30
0.0
 10
15.3058403678
 20
12.7287495913
 30
0.0
 10
15.4583456274
 20
12.6724917155
 30
0.0
 10
15.604120166
 20
12.605769987
 30
0.0
 10
15.740677213
 20
12.5297146231
 30
0.0
 10
15.8259149163
 20
12.4723842258
 30
0.0
 10
15.8663194897
 20
12.4423706204
 30
0.0
  0
SPLINE
  5
3EC
100
AcDbEntity
  8
0
100
AcDbSpline
 62
7
  6
CONTINUOUS
 70
0
 71
3
 72
13
 73
9
 74
0
 42
0.0000001
 43
0.0000001
 44
0.0000000001
 40
0.0
 40
0.0
 40
0.0
 40
0.0
 40
0.1164908133
 40
0.233878502
 40
0.3530358904
 40
0.4747853885
 40
0.7286569627
 40
1.0
 40
1.0
 40
1.0
 40
1.0
 10
14.4250671671
 20
11.9997521499
 30
0.0
 10
14.4230074227
 20
11.9930845089
 30
0.0
 10
14.4195943725
 20
11.9794626373
 30
0.0
 10
14.4166772914
 20
11.958477441
 30
0.0
 10
14.4159714376
 20
11.9369854333
 30
0.0
 10
14.4179943232
 20
11.907370048
 30
0.0
 10
14.4263167404
 20
11.8692795828
 30
0.0
 10
14.4381954518
 20
11.8399868188
 30
0.0
 10
14.4453565468
 20
11.8253940416
 30
0.0
  0
SPLINE
  5
3ED
100
AcDbEntity
  8
0
100
AcDbSpline
 62
7
  6
CONTINUOUS
 70
0
 71
3
 72
15
 73
11
 74
0
 42
0.0000001
 43
0.0000001
 44
0.0000000001
 40
0.0
 40
0.0
 40
0.0
 40
0.0
 40
0.1127943642
 40
0.2270952081
 40
0.3442615974
 40
0.4653665781
 40
0.5912169141
 40
0.7223184242
 40
0.8587679866
 40
1.0
 40
1.0
 40
1.0
 40
1.0
 10
17.22112001
 20
12.2642448724
 30
0.0
 10
17.2192369324
 20
12.2680801056
 30
0.0
 10
17.2147839028
 20
12.2754961789
 30
0.0
 10
17.2062636208
 20
12.2854424532
 30
0.0
 10
17.1960211656
 20
12.2940983215
 30
0.0
 10
17.1842271239
 20
12.30134301
 30
0.0
 10
17.1710542986
 20
12.3070703172
 30
0.0
 10
17.1566985987
 20
12.3112101054
 30
0.0
 10
17.141381902
 20
12.313695405
 30
0.0
 10
17.1308540473
 20
12.3142352777
 30
0.0
 10
17.1255042589
 20
12.3142352777
 30
0.0
  0
SPLINE
  5
3EE
100
AcDbEntity
  8
0
100
AcDbSpline
 62
7
  6
CONTINUOUS
 70
0
 71
3
 72
12
 73
8
 74
0
 42
0.0000001
 43
0.0000001
 44
0.0000000001
 40
0.0
 40
0.0
 40
0.0
 40
0.0
 40
0.2586569556
 40
0.4997147473
 40
0.6195012764
 40
0.741875221
 40
1.0
 40
1.0
 40
1.0
 40
1.0
 10
16.8765913538
 20
11.9933652925
 30
0.0
 10
16.8776466652
 20
11.9929613184
 30
0.0
 10
16.8796115446
 20
11.9919080876
 30
0.0
 10
16.8813792874
 20
11.9897479469
 30
0.0
 10
16.8821239984
 20
11.9877553823
 30
0.0
 10
16.8824263722
 20
11.9855765261
 30
0.0
 10
16.8821609665
 20
11.9838913732
 30
0.0
 10
16.8818280218
 20
11.98281398
 30
0.0
  0
SPLINE
  5
3EF
100
AcDbEntity
  8
0
100
AcDbSpline
 62
7
  6
CONTINUOUS
 70
0
 71
3
 72
14
 73
10
 74
0
 42
0.0000001
 43
0.0000001
 44
0.0000000001
 40
0.0
 40
0.0
 40
0.0
 40
0.0
 40
0.1243535889
 40
0.2534110802
 40
0.3848681555
 40
0.516457149
 40
0.6457551131
 40
0.7705785946
 40
1.0
 40
1.0
 40
1.0
 40
1.0
 10
13.6523367607
 20
12.3142352777
 30
0.0
 10
13.6433485127
 20
12.3142352777
 30
0.0
 10
13.6250066945
 20
12.3126700156
 30
0.0
 10
13.5978717224
 20
12.3061315207
 30
0.0
 10
13.5714632654
 20
12.2955788992
 30
0.0
 10
13.5467811822
 20
12.2814348444
 30
0.0
 10
13.5247303809
 20
12.264182162
 30
0.0
 10
13.5006865892
 20
12.2387478325
 30
0.0
 10
13.4876099738
 20
12.2158433934
 30
0.0
 10
13.4827140269
 20
12.2000001034
 30
0.0
  0
SPLINE
  5
3F0
100
AcDbEntity
  8
0
100
AcDbSpline
 62
7
  6
CONTINUOUS
 70
0
 71
3
 72
12
 73
8
 74
0
 42
0.0000001
 43
0.0000001
 44
0.0000000001
 40
0.0
 40
0.0
 40
0.0
 40
0.0
 40
0.2329575941
 40
0.3607952784
 40
0.4917965519
 40
0.7525528198
 40
1.0
 40
1.0
 40
1.0
 40
1.0
 10
16.8137899117
 20
11.7626425792
 30
0.0
 10
16.8128691713
 20
11.7596630621
 30
0.0
 10
16.8126958861
 20
11.7546484633
 30
0.0
 10
16.8140890574
 20
11.7482115912
 30
0.0
 10
16.8165394908
 20
11.7416737576
 30
0.0
 10
16.8210904275
 20
11.7343235365
 30
0.0
 10
16.825999538
 20
11.7294944326
 30
0.0
 10
16.8286586711
 20
11.7275191569
 30
0.0
  0
SPLINE
  5
3F1
100
AcDbEntity
  8
0
100
AcDbSpline
 62
7
  6
CONTINUOUS
 70
0
 71
3
 72
14
 73
10
 74
0
 42
0.0000001
 43
0.0000001
 44
0.0000000001
 40
0.0
 40
0.0
 40
0.0
 40
0.0
 40
0.110390582
 40
0.2223063687
 40
0.3376150854
 40
0.4577870112
 40
0.5838689281
 40
0.7164340977
 40
1.0
 40
1.0
 40
1.0
 40
1.0
 10
14.6996385457
 20
12.4126543946
 30
0.0
 10
14.7006636191
 20
12.4105663936
 30
0.0
 10
14.7031061972
 20
12.4065355118
 30
0.0
 10
14.7078254556
 20
12.4011673104
 30
0.0
 10
14.7135324494
 20
12.396532165
 30
0.0
 10
14.7201364794
 20
12.3926796007
 30
0.0
 10
14.7275479333
 20
12.3896506094
 30
0.0
 10
14.7386031407
 20
12.3866817029
 30
0.0
 10
14.7474202625
 20
12.3858851765
 30
0.0
 10
14.7533953138
 20
12.3858851765
 30
0.0
  0
SPLINE
  5
3F2
100
AcDbEntity
  8
0
100
AcDbSpline
 62
7
  6
CONTINUOUS
 70
0
 71
3
 72
20
 73
16
 74
0
 42
0.0000001
 43
0.0000001
 44
0.0000000001
 40
0.0
 40
0.0
 40
0.0
 40
0.0
 40
0.1192587475
 40
0.1820720608
 40
0.2465976521
 40
0.3124533979
 40
0.3792077619
 40
0.4463972051
 40
0.5135365888
 40
0.5801456878
 40
0.6457618567
 40
0.7722425904
 40
0.8326147503
 40
0.8907563386
 40
1.0
 40
1.0
 40
1.0
 40
1.0
 10
16.5126564437
 20
12.2301322687
 30
0.0
 10
16.5219123269
 20
12.2503488373
 30
0.0
 10
16.5399716978
 20
12.2795339755
 30
0.0
 10
16.569889555
 20
12.3144941238
 30
0.0
 10
16.5959202223
 20
12.3394818633
 30
0.0
 10
16.6247479724
 20
12.3623617907
 30
0.0
 10
16.6559420207
 20
12.3828142956
 30
0.0
 10
16.6890403959
 20
12.4005259001
 30
0.0
 10
16.7235458233
 20
12.4152372395
 30
0.0
 10
16.7589523771
 20
12.4267302705
 30
0.0
 10
16.8060384776
 20
12.4373890125
 30
0.0
 10
16.8533162248
 20
12.4413280964
 30
0.0
 10
16.8989470599
 20
12.4377907547
 30
0.0
 10
16.9406891831
 20
12.4297314413
 30
0.0
 10
16.9702165175
 20
12.4182177235
 30
0.0
 10
16.9878753931
 20
12.4080689506
 30
0.0
  0
SPLINE
  5
3F3
100
AcDbEntity
  8
0
100
AcDbSpline
 62
7
  6
CONTINUOUS
 70
0
 71
3
 72
11
 73
7
 74
0
 42
0.0000001
 43
0.0000001
 44
0.0000000001
 40
0.0
 40
0.0
 40
0.0
 40
0.0
 40
0.2642342289
 40
0.517126198
 40
0.760959885
 40
1.0
 40
1.0
 40
1.0
 40
1.0
 10
13.4827140269
 20
12.2000001034
 30
0.0
 10
13.4810023872
 20
12.1944612354
 30
0.0
 10
13.4784997316
 20
12.1833315415
 30
0.0
 10
13.4777346487
 20
12.166560504
 30
0.0
 10
13.4801235136
 20
12.1504913668
 30
0.0
 10
13.4838068773
 20
12.1404630361
 30
0.0
 10
13.4861183319
 20
12.1357553344
 30
0.0
  0
SPLINE
  5
3F4
100
AcDbEntity
  8
0
100
AcDbSpline
 62
7
  6
CONTINUOUS
 70
0
 71
3
 72
14
 73
10
 74
0
 42
0.0000001
 43
0.0000001
 44
0.0000000001
 40
0.0
 40
0.0
 40
0.0
 40
0.0
 40
0.1243535889
 40
0.2534110802
 40
0.3848681555
 40
0.516457149
 40
0.6457551131
 40
0.7705785946
 40
1.0
 40
1.0
 40
1.0
 40
1.0
 10
16.8184839275
 20
12.3142352777
 30
0.0
 10
16.8094956796
 20
12.3142352777
 30
0.0
 10
16.7911538613
 20
12.3126700156
 30
0.0
 10
16.7640188893
 20
12.3061315207
 30
0.0
 10
16.7376104323
 20
12.2955788992
 30
0.0
 10
16.7129283491
 20
12.2814348444
 30
0.0
 10
16.6908775478
 20
12.264182162
 30
0.0
 10
16.6668337561
 20
12.2387478325
 30
0.0
 10
16.6537571407
 20
12.2158433934
 30
0.0
 10
16.6488611938
 20
12.2000001034
 30
0.0
  0
SPLINE
  5
3F5
100
AcDbEntity
  8
0
100
AcDbSpline
 62
7
  6
CONTINUOUS
 70
0
 71
3
 72
9
 73
5
 74
0
 42
0.0000001
 43
0.0000001
 44
0.0000000001
 40
0.0
 40
0.0
 40
0.0
 40
0.0
 40
0.4851428301
 40
1.0
 40
1.0
 40
1.0
 40
1.0
 10
15.8178798431
 20
13.0373429408
 30
0.0
 10
15.8193658351
 20
13.0421516125
 30
0.0
 10
15.820959475
 20
13.0525545344
 30
0.0
 10
15.8198485847
 20
13.0629802747
 30
0.0
 10
15.8187036088
 20
13.0681974189
 30
0.0
  0
SPLINE
  5
3F6
100
AcDbEntity
  8
0
100
AcDbSpline
 62
7
  6
CONTINUOUS
 70
0
 71
3
 72
11
 73
7
 74
0
 42
0.0000001
 43
0.0000001
 44
0.0000000001
 40
0.0
 40
0.0
 40
0.0
 40
0.0
 40
0.2642342289
 40
0.517126198
 40
0.760959885
 40
1.0
 40
1.0
 40
1.0
 40
1.0
 10
16.6488611938
 20
12.2000001034
 30
0.0
 10
16.6471495541
 20
12.1944612354
 30
0.0
 10
16.6446468985
 20
12.1833315415
 30
0.0
 10
16.6438818156
 20
12.166560504
 30
0.0
 10
16.6462706805
 20
12.1504913668
 30
0.0
 10
16.6499540442
 20
12.1404630361
 30
0.0
 10
16.6522654988
 20
12.1357553344
 30
0.0
  0
SPLINE
  5
3F7
100
AcDbEntity
  8
0
100
AcDbSpline
 62
7
  6
CONTINUOUS
 70
0
 71
3
 72
13
 73
9
 74
0
 42
0.0000001
 43
0.0000001
 44
0.0000000001
 40
0.0
 40
0.0
 40
0.0
 40
0.0
 40
0.1176163535
 40
0.2461914978
 40
0.3816170932
 40
0.5176699247
 40
0.7733588344
 40
1.0
 40
1.0
 40
1.0
 40
1.0
 10
17.016059204
 20
12.4171862471
 30
0.0
 10
17.0156747333
 20
12.4159421
 30
0.0
 10
17.0144360982
 20
12.4134597831
 30
0.0
 10
17.0115386948
 20
12.4103212052
 30
0.0
 10
17.0077986508
 20
12.4078719748
 30
0.0
 10
17.0023092967
 20
12.405787052
 30
0.0
 10
16.9953221368
 20
12.4052289016
 30
0.0
 10
16.9900509749
 20
12.4068186303
 30
0.0
 10
16.9878753931
 20
12.4080689506
 30
0.0
  0
SPLINE
  5
3F8
100
AcDbEntity
  8
0
100
AcDbSpline
 62
7
  6
CONTINUOUS
 70
0
 71
3
 72
15
 73
11
 74
0
 42
0.0000001
 43
0.0000001
 44
0.0000000001
 40
0.0
 40
0.0
 40
0.0
 40
0.0
 40
0.2877881765
 40
0.4222132916
 40
0.5478058607
 40
0.6633702723
 40
0.7722936323
 40
0.826779389
 40
0.8825566568
 40
1.0
 40
1.0
 40
1.0
 40
1.0
 10
13.8447071634
 20
12.4068868054
 30
0.0
 10
13.842194519
 20
12.4061216021
 30
0.0
 10
13.8383332667
 20
12.405424198
 30
0.0
 10
13.83332086
 20
12.4057757208
 30
0.0
 10
13.8299972718
 20
12.4067371013
 30
0.0
 10
13.8272356077
 20
12.4084561903
 30
0.0
 10
13.8256922441
 20
12.410575998
 30
0.0
 10
13.8250633363
 20
12.4124889541
 30
0.0
 10
13.8248315742
 20
12.4145660404
 30
0.0
 10
13.8250938461
 20
12.4161621321
 30
0.0
 10
13.8254103201
 20
12.4171862268
 30
0.0
  0
SPLINE
  5
3F9
100
AcDbEntity
  8
0
100
AcDbSpline
 62
7
  6
CONTINUOUS
 70
0
 71
3
 72
9
 73
5
 74
0
 42
0.0000001
 43
0.0000001
 44
0.0000000001
 40
0.0
 40
0.0
 40
0.0
 40
0.0
 40
0.2555102692
 40
1.0
 40
1.0
 40
1.0
 40
1.0
 10
15.7530948333
 20
13.1333769775
 30
0.0
 10
15.7518578437
 20
13.133640282
 30
0.0
 10
15.7469908848
 20
13.1345434997
 30
0.0
 10
15.7420239892
 20
13.1349298635
 30
0.0
 10
15.7383392722
 20
13.1348833467
 30
0.0
  0
SPLINE
  5
3FA
100
AcDbEntity
  8
0
100
AcDbSpline
 62
7
  6
CONTINUOUS
 70
0
 71
3
 72
10
 73
6
 74
0
 42
0.0000001
 43
0.0000001
 44
0.0000000001
 40
0.0
 40
0.0
 40
0.0
 40
0.0
 40
0.5122099251
 40
0.7585613427
 40
1.0
 40
1.0
 40
1.0
 40
1.0
 10
15.7383392722
 20
13.1348833467
 30
0.0
 10
15.7329784367
 20
13.1348156701
 30
0.0
 10
15.7249741223
 20
13.1336564575
 30
0.0
 10
15.7152107802
 20
13.1297972368
 30
0.0
 10
15.7107971762
 20
13.1271750147
 30
0.0
 10
15.7087396113
 20
13.1257077849
 30
0.0
  0
SPLINE
  5
3FB
100
AcDbEntity
  8
0
100
AcDbSpline
 62
7
  6
CONTINUOUS
 70
0
 71
3
 72
11
 73
7
 74
0
 42
0.0000001
 43
0.0000001
 44
0.0000000001
 40
0.0
 40
0.0
 40
0.0
 40
0.0
 40
0.2292923628
 40
0.4734939054
 40
0.7317958028
 40
1.0
 40
1.0
 40
1.0
 40
1.0
 10
15.6914445255
 20
13.1014431532
 30
0.0
 10
15.6898641939
 20
13.0963291982
 30
0.0
 10
15.6882688061
 20
13.0852055463
 30
0.0
 10
15.6904916928
 20
13.0680937392
 30
0.0
 10
15.6969902175
 20
13.0511567932
 30
0.0
 10
15.7038106944
 20
13.0408049979
 30
0.0
 10
15.7077674376
 20
13.0359528535
 30
0.0
  0
SPLINE
  5
3FC
100
AcDbEntity
  8
0
100
AcDbSpline
 62
7
  6
CONTINUOUS
 70
0
 71
3
 72
9
 73
5
 74
0
 42
0.0000001
 43
0.0000001
 44
0.0000000001
 40
0.0
 40
0.0
 40
0.0
 40
0.0
 40
0.5105032877
 40
1.0
 40
1.0
 40
1.0
 40
1.0
 10
15.7709850964
 20
13.0039027473
 30
0.0
 10
15.7750375816
 20
13.0039539069
 30
0.0
 10
15.7829925592
 20
13.0048432239
 30
0.0
 10
15.7905693031
 20
13.0074753575
 30
0.0
 10
15.7940571454
 20
13.0091889104
 30
0.0
  0
SPLINE
  5
3FD
100
AcDbEntity
  8
0
100
AcDbSpline
 62
7
  6
CONTINUOUS
 70
0
 71
3
 72
10
 73
6
 74
0
 42
0.0000001
 43
0.0000001
 44
0.0000000001
 40
0.0
 40
0.0
 40
0.0
 40
0.0
 40
0.2479209789
 40
0.4959058434
 40
1.0
 40
1.0
 40
1.0
 40
1.0
 10
15.8005847573
 20
13.013078309
 30
0.0
 10
15.8026205984
 20
13.0145300478
 30
0.0
 10
15.8064613458
 20
13.0177788094
 30
0.0
 10
15.8129985901
 20
13.0255024868
 30
0.0
 10
15.8163787741
 20
13.0324854796
 30
0.0
 10
15.8178798431
 20
13.0373429408
 30
0.0
  0
SPLINE
  5
3FE
100
AcDbEntity
  8
0
100
AcDbSpline
 62
7
  6
CONTINUOUS
 70
0
 71
3
 72
14
 73
10
 74
0
 42
0.0000001
 43
0.0000001
 44
0.0000000001
 40
0.0
 40
0.0
 40
0.0
 40
0.0
 40
0.1164604135
 40
0.2338241749
 40
0.3529557927
 40
0.4746695391
 40
0.5997031011
 40
0.728697109
 40
1.0
 40
1.0
 40
1.0
 40
1.0
 10
15.8461246085
 20
11.8109004106
 30
0.0
 10
15.8489955084
 20
11.8201913981
 30
0.0
 10
15.8537495398
 20
11.8391743984
 30
0.0
 10
15.8578104029
 20
11.8684182984
 30
0.0
 10
15.8587983737
 20
11.8983665928
 30
0.0
 10
15.8567081941
 20
11.9288949438
 30
0.0
 10
15.8515591122
 20
11.9598927232
 30
0.0
 10
15.8404549017
 20
12.0023752413
 30
0.0
 10
15.8278292717
 20
12.0335273977
 30
0.0
 10
15.8178493253
 20
12.0538643903
 30
0.0
  0
SPLINE
  5
3FF
100
AcDbEntity
  8
0
100
AcDbSpline
 62
7
  6
CONTINUOUS
 70
0
 71
3
 72
11
 73
7
 74
0
 42
0.0000001
 43
0.0000001
 44
0.0000000001
 40
0.0
 40
0.0
 40
0.0
 40
0.0
 40
0.2604910662
 40
0.5177078348
 40
0.7655758539
 40
1.0
 40
1.0
 40
1.0
 40
1.0
 10
15.7077674376
 20
13.0359528535
 30
0.0
 10
15.7117773086
 20
13.0310355586
 30
0.0
 10
15.7207822923
 20
13.0220599518
 30
0.0
 10
15.7365042215
 20
13.0117884517
 30
0.0
 10
15.7534714277
 20
13.0053258642
 30
0.0
 10
15.7652754973
 20
13.0038306678
 30
0.0
 10
15.7709850964
 20
13.0039027473
 30
0.0
  0
SPLINE
  5
400
100
AcDbEntity
  8
0
100
AcDbSpline
 62
7
  6
CONTINUOUS
 70
0
 71
3
 72
36
 73
32
 74
0
 42
0.0000001
 43
0.0000001
 44
0.0000000001
 40
0.0
 40
0.0
 40
0.0
 40
0.0
 40
0.0214511363
 40
0.0431980622
 40
0.0655183615
 40
0.0886521408
 40
0.1127960731
 40
0.1380956084
 40
0.1646503373
 40
0.1925118863
 40
0.2216944271
 40
0.2521738292
 40
0.2838983248
 40
0.3167873349
 40
0.3507407375
 40
0.3856375515
 40
0.4213435172
 40
0.4577102126
 40
0.5317693029
 40
0.6065073142
 40
0.6805560105
 40
0.7169138231
 40
0.7526081861
 40
0.7874905143
 40
0.8214276465
 40
0.8542994373
 40
0.8860042284
 40
0.9164610746
 40
0.9456253571
 40
0.9734752381
 40
1.0
 40
1.0
 40
1.0
 40
1.0
 10
14.2030587019
 20
12.0683579524
 30
0.0
 10
14.2068990815
 20
12.0807865243
 30
0.0
 10
14.2164707486
 20
12.1052869607
 30
0.0
 10
14.2361201333
 20
12.1399629996
 30
0.0
 10
14.2609583668
 20
12.1724251416
 30
0.0
 10
14.2907698871
 20
12.2024528813
 30
0.0
 10
14.3253429659
 20
12.2298414239
 30
0.0
 10
14.3644176737
 20
12.2544321299
 30
0.0
 10
14.4077306332
 20
12.2760586011
 30
0.0
 10
14.4549797032
 20
12.2946002696
 30
0.0
 10
14.5058503669
 20
12.309925999
 30
0.0
 10
14.5599960464
 20
12.3219517513
 30
0.0
 10
14.61705395
 20
12.3305864373
 30
0.0
 10
14.6766373764
 20
12.3357868143
 30
0.0
 10
14.7383438969
 20
12.3375064666
 30
0.0
 10
14.8017551269
 20
12.3357464328
 30
0.0
 10
14.8664419275
 20
12.3305078283
 30
0.0
 10
14.9543235021
 20
12.3188756386
 30
0.0
 10
15.0644311266
 20
12.2959003628
 30
0.0
 10
15.1937082795
 20
12.255897782
 30
0.0
 10
15.2975380216
 20
12.2126735741
 30
0.0
 10
15.3766120551
 20
12.172642804
 30
0.0
 10
15.4329317669
 20
12.1404377464
 30
0.0
 10
15.4862296571
 20
12.1060842448
 30
0.0
 10
15.5361512503
 20
12.0698226365
 30
0.0
 10
15.5823505406
 20
12.031888475
 30
0.0
 10
15.6245222848
 20
11.9925494678
 30
0.0
 10
15.6623740516
 20
11.9520584475
 30
0.0
 10
15.6956580892
 20
11.910686427
 30
0.0
 10
15.7241266906
 20
11.8687136482
 30
0.0
 10
15.7401604643
 20
11.8398341649
 30
0.0
 10
15.7472466476
 20
11.8253940416
 30
0.0
  0
SPLINE
  5
401
100
AcDbEntity
  8
0
100
AcDbSpline
 62
7
  6
CONTINUOUS
 70
0
 71
3
 72
11
 73
7
 74
0
 42
0.0000001
 43
0.0000001
 44
0.0000000001
 40
0.0
 40
0.0
 40
0.0
 40
0.0
 40
0.2746569336
 40
0.5317064696
 40
0.7719332094
 40
1.0
 40
1.0
 40
1.0
 40
1.0
 10
14.7936747207
 20
12.5160874618
 30
0.0
 10
14.7985785252
 20
12.5159799302
 30
0.0
 10
14.8080837168
 20
12.514951554
 30
0.0
 10
14.8213167868
 20
12.5107257037
 30
0.0
 10
14.8325286946
 20
12.5039881117
 30
0.0
 10
14.8384062286
 20
12.4978620317
 30
0.0
 10
14.8407703642
 20
12.4945454401
 30
0.0
  0
SPLINE
  5
402
100
AcDbEntity
  8
0
100
AcDbSpline
 62
7
  6
CONTINUOUS
 70
0
 71
3
 72
17
 73
13
 74
0
 42
0.0000001
 43
0.0000001
 44
0.0000000001
 40
0.0
 40
0.0
 40
0.0
 40
0.0
 40
0.0504945987
 40
0.1021806427
 40
0.1556518878
 40
0.2113471973
 40
0.3299198656
 40
0.4580033771
 40
0.5931357826
 40
0.731431169
 40
0.8684836499
 40
1.0
 40
1.0
 40
1.0
 40
1.0
 10
14.8460089701
 20
12.4845957532
 30
0.0
 10
14.846878204
 20
12.4822136944
 30
0.0
 10
14.8481997734
 20
12.4772219664
 30
0.0
 10
14.8488517058
 20
12.4693970413
 30
0.0
 10
14.8481950038
 20
12.4613110677
 30
0.0
 10
14.8455323681
 20
12.4501502403
 30
0.0
 10
14.8388871657
 20
12.4362906792
 30
0.0
 10
14.826719344
 20
12.4212892122
 30
0.0
 10
14.8110082736
 20
12.4084460489
 30
0.0
 10
14.7927735913
 20
12.3985753637
 30
0.0
 10
14.7732043447
 20
12.392314059
 30
0.0
 10
14.759688103
 20
12.3907755028
 30
0.0
 10
14.7530837147
 20
12.3907755028
 30
0.0
  0
SPLINE
  5
403
100
AcDbEntity
  8
0
100
AcDbSpline
 62
7
  6
CONTINUOUS
 70
0
 71
3
 72
17
 73
13
 74
0
 42
0.0000001
 43
0.0000001
 44
0.0000000001
 40
0.0
 40
0.0
 40
0.0
 40
0.0
 40
0.2306369432
 40
0.4353215535
 40
0.6099453177
 40
0.7523461788
 40
0.8621776736
 40
0.9392946774
 40
0.9657881299
 40
0.9844453833
 40
0.995520773
 40
1.0
 40
1.0
 40
1.0
 40
1.0
 10
13.8934484298
 20
12.6373576283
 30
0.0
 10
13.8936715277
 20
12.6380795733
 30
0.0
 10
13.8940895584
 20
12.6394431568
 30
0.0
 10
13.894664534
 20
12.6413570907
 30
0.0
 10
13.89514448
 20
12.6429973911
 30
0.0
 10
13.8955232219
 20
12.644344267
 30
0.0
 10
13.8958009591
 20
12.6453854667
 30
0.0
 10
13.8959629452
 20
12.6460690279
 30
0.0
 10
13.8960421708
 20
12.6464576485
 30
0.0
 10
13.8960641052
 20
12.6466475884
 30
0.0
 10
13.8960771574
 20
12.6467464954
 30
0.0
 10
13.8960573532
 20
12.6468127476
 30
0.0
 10
13.8960426887
 20
12.6468133057
 30
0.0
  0
SPLINE
  5
404
100
AcDbEntity
  8
0
100
AcDbSpline
 62
7
  6
CONTINUOUS
 70
0
 71
3
 72
11
 73
7
 74
0
 42
0.0000001
 43
0.0000001
 44
0.0000000001
 40
0.0
 40
0.0
 40
0.0
 40
0.0
 40
0.2752777195
 40
0.5327071799
 40
0.7726868791
 40
1.0
 40
1.0
 40
1.0
 40
1.0
 10
14.7530837147
 20
12.3907755028
 30
0.0
 10
14.7479978537
 20
12.3907755028
 30
0.0
 10
14.7381241757
 20
12.391643686
 30
0.0
 10
14.7243444185
 20
12.3957871499
 30
0.0
 10
14.712667237
 20
12.4026161822
 30
0.0
 10
14.7065653827
 20
12.4089180694
 30
0.0
 10
14.7041276769
 20
12.412337871
 30
0.0
  0
SPLINE
  5
405
100
AcDbEntity
  8
0
100
AcDbSpline
 62
7
  6
CONTINUOUS
 70
0
 71
3
 72
16
 73
12
 74
0
 42
0.0000001
 43
0.0000001
 44
0.0000000001
 40
0.0
 40
0.0
 40
0.0
 40
0.0
 40
0.050771253
 40
0.1030490967
 40
0.2135208748
 40
0.3334309327
 40
0.4620348534
 40
0.5967885271
 40
0.7340188035
 40
0.8697264343
 40
1.0
 40
1.0
 40
1.0
 40
1.0
 10
14.6974235521
 20
12.4272148969
 30
0.0
 10
14.6968652581
 20
12.4296132768
 30
0.0
 10
14.6961516688
 20
12.4345881089
 30
0.0
 10
14.6963431938
 20
12.4449792763
 30
0.0
 10
14.6997760678
 20
12.4584598023
 30
0.0
 10
14.7082715786
 20
12.4738308604
 30
0.0
 10
14.720632904
 20
12.4878881643
 30
0.0
 10
14.7361077199
 20
12.4998181972
 30
0.0
 10
14.7537732578
 20
12.5089392958
 30
0.0
 10
14.772568906
 20
12.5146987881
 30
0.0
 10
14.7854958105
 20
12.5161078083
 30
0.0
 10
14.7918143264
 20
12.5161078083
 30
0.0
  0
SPLINE
  5
406
100
AcDbEntity
  8
0
100
AcDbSpline
 62
7
  6
CONTINUOUS
 70
0
 71
3
 72
19
 73
15
 74
0
 42
0.0000001
 43
0.0000001
 44
0.0000000001
 40
0.0
 40
0.0
 40
0.0
 40
0.0
 40
0.1323256618
 40
0.2010654861
 40
0.2706457756
 40
0.4097866571
 40
0.5451393372
 40
0.6726433284
 40
0.7327657249
 40
0.790264974
 40
0.8452803054
 40
0.8981693279
 40
0.9494988407
 40
1.0
 40
1.0
 40
1.0
 40
1.0
 10
14.7533444735
 20
12.3859887782
 30
0.0
 10
14.7604706076
 20
12.3859887782
 30
0.0
 10
14.7713240339
 20
12.3873812937
 30
0.0
 10
14.7853801855
 20
12.3912714031
 30
0.0
 10
14.7993559101
 20
12.3966219123
 30
0.0
 10
14.8156076819
 20
12.4057902324
 30
0.0
 10
14.8321309222
 20
12.4199922277
 30
0.0
 10
14.8427013084
 20
12.4340278957
 30
0.0
 10
14.8485053994
 20
12.4459228296
 30
0.0
 10
14.8514067957
 20
12.4547899177
 30
0.0
 10
14.8528830132
 20
12.4636114161
 30
0.0
 10
14.8528906142
 20
12.4722289254
 30
0.0
 10
14.8514295297
 20
12.4804765044
 30
0.0
 10
14.849473071
 20
12.4856403656
 30
0.0
 10
14.8482752533
 20
12.4880820185
 30
0.0
  0
SPLINE
  5
407
100
AcDbEntity
  8
0
100
AcDbSpline
 62
7
  6
CONTINUOUS
 70
0
 71
3
 72
14
 73
10
 74
0
 42
0.0000001
 43
0.0000001
 44
0.0000000001
 40
0.0
 40
0.0
 40
0.0
 40
0.0
 40
0.2778754266
 40
0.4092728561
 40
0.5350006665
 40
0.6558760954
 40
0.7729537481
 40
0.8872498491
 40
1.0
 40
1.0
 40
1.0
 40
1.0
 10
14.7533444735
 20
12.3859887782
 30
0.0
 10
14.7473263996
 20
12.3859887782
 30
0.0
 10
14.7384142479
 20
12.386957706
 30
0.0
 10
14.7272695311
 20
12.3902002514
 30
0.0
 10
14.7197353666
 20
12.3934673969
 30
0.0
 10
14.7129949257
 20
12.3975962275
 30
0.0
 10
14.7071476109
 20
12.4025450442
 30
0.0
 10
14.7022756775
 20
12.4082270467
 30
0.0
 10
14.6997308863
 20
12.412466974
 30
0.0
 10
14.6986554023
 20
12.4146592598
 30
0.0
  0
SPLINE
  5
408
100
AcDbEntity
  8
0
100
AcDbSpline
 62
7
  6
CONTINUOUS
 70
0
 71
3
 72
33
 73
29
 74
0
 42
0.0000001
 43
0.0000001
 44
0.0000000001
 40
0.0
 40
0.0
 40
0.0
 40
0.0
 40
0.0265224285
 40
0.0543755297
 40
0.0835452166
 40
0.1140045766
 40
0.1457094261
 40
0.1785838479
 40
0.2473831842
 40
0.3194167611
 40
0.3934708872
 40
0.4682147087
 40
0.5422798567
 40
0.614335096
 40
0.6492345689
 40
0.6831907839
 40
0.7160820757
 40
0.7478089806
 40
0.7782905087
 40
0.8074748004
 40
0.8353385265
 40
0.8618943465
 40
0.8871961133
 40
0.9113407506
 40
0.9344764955
 40
0.9567976403
 40
0.9785467889
 40
1.0
 40
1.0
 40
1.0
 40
1.0
 10
14.4453565468
 20
11.8253940416
 30
0.0
 10
14.4504409937
 20
11.8150330281
 30
0.0
 10
14.4619477451
 20
11.7943099781
 30
0.0
 10
14.4823769482
 20
11.7641885169
 30
0.0
 10
14.5062626873
 20
11.7344959381
 30
0.0
 10
14.5334271069
 20
11.7054385804
 30
0.0
 10
14.563690092
 20
11.6772067974
 30
0.0
 10
14.6085746125
 20
11.6403590029
 30
0.0
 10
14.6712042204
 20
11.5977237985
 30
0.0
 10
14.7537378561
 20
11.5534448907
 30
0.0
 10
14.8425888985
 20
11.5164525728
 30
0.0
 10
14.9353721923
 20
11.4877422851
 30
0.0
 10
15.0295947394
 20
11.4680843837
 30
0.0
 10
15.1080581229
 20
11.4595887784
 30
0.0
 10
15.1693784253
 20
11.4578859164
 30
0.0
 10
15.2136618182
 20
11.4591195303
 30
0.0
 10
15.256420655
 20
11.4628521503
 30
0.0
 10
15.2973670803
 20
11.4690488987
 30
0.0
 10
15.3362238186
 20
11.4776780336
 30
0.0
 10
15.3727292242
 20
11.4886785116
 30
0.0
 10
15.406637643
 20
11.5019811422
 30
0.0
 10
15.4377177978
 20
11.5175053883
 30
0.0
 10
15.4657619329
 20
11.535146953
 30
0.0
 10
15.490567756
 20
11.5548074218
 30
0.0
 10
15.5119667672
 20
11.5763501416
 30
0.0
 10
15.5297855738
 20
11.5996505648
 30
0.0
 10
15.5438923952
 20
11.624531902
 30
0.0
 10
15.5507578486
 20
11.642116392
 30
0.0
 10
15.5535132422
 20
11.6510359333
 30
0.0
  0
SPLINE
  5
409
100
AcDbEntity
  8
0
100
AcDbSpline
 62
7
  6
CONTINUOUS
 70
0
 71
3
 72
14
 73
10
 74
0
 42
0.0000001
 43
0.0000001
 44
0.0000000001
 40
0.0
 40
0.0
 40
0.0
 40
0.0
 40
0.2713021909
 40
0.4002957466
 40
0.5253293695
 40
0.647043541
 40
0.7661757093
 40
0.8835398478
 40
1.0
 40
1.0
 40
1.0
 40
1.0
 10
15.7472466476
 20
11.8253940416
 30
0.0
 10
15.7572265654
 20
11.8050571075
 30
0.0
 10
15.7698522087
 20
11.7739050683
 30
0.0
 10
15.7809563328
 20
11.7314226339
 30
0.0
 10
15.7861054174
 20
11.7004248636
 30
0.0
 10
15.7881956187
 20
11.6698964341
 30
0.0
 10
15.7872075671
 20
11.6399480353
 30
0.0
 10
15.7831466103
 20
11.6107041022
 30
0.0
 10
15.7783925804
 20
11.5917211008
 30
0.0
 10
15.7755217074
 20
11.5824301309
 30
0.0
  0
SPLINE
  5
40A
100
AcDbEntity
  8
0
100
AcDbSpline
 62
7
  6
CONTINUOUS
 70
0
 71
3
 72
36
 73
32
 74
0
 42
0.0000001
 43
0.0000001
 44
0.0000000001
 40
0.0
 40
0.0
 40
0.0
 40
0.0
 40
0.0265246154
 40
0.0543741029
 40
0.0835379471
 40
0.1139945078
 40
0.1456991071
 40
0.1785709568
 40
0.2125086221
 40
0.2473914655
 40
0.2830859116
 40
0.3194436144
 40
0.3934924862
 40
0.4682309981
 40
0.5422907117
 40
0.5786576937
 40
0.6143639222
 40
0.649260927
 40
0.6832144724
 40
0.7161035242
 40
0.7478279942
 40
0.7783072626
 40
0.8074896031
 40
0.8353508785
 40
0.8619052901
 40
0.8872044862
 40
0.9113480397
 40
0.9344814445
 40
0.9568015437
 40
0.9785486289
 40
1.0
 40
1.0
 40
1.0
 40
1.0
 10
15.8178493253
 20
12.0538643903
 30
0.0
 10
15.8107631779
 20
12.0683044404
 30
0.0
 10
15.7947296484
 20
12.0971837005
 30
0.0
 10
15.7662613709
 20
12.1391560121
 30
0.0
 10
15.7329778282
 20
12.1805275876
 30
0.0
 10
15.6951265356
 20
12.221018322
 30
0.0
 10
15.652955169
 20
12.2603573988
 30
0.0
 10
15.6067557604
 20
12.2982918513
 30
0.0
 10
15.5568335781
 20
12.3345538365
 30
0.0
 10
15.5035352164
 20
12.3689079225
 30
0.0
 10
15.4472152648
 20
12.4011132255
 30
0.0
 10
15.3681411066
 20
12.4411440366
 30
0.0
 10
15.2643110477
 20
12.4843685088
 30
0.0
 10
15.1350330775
 20
12.5243713386
 30
0.0
 10
15.0249245504
 20
12.5473467584
 30
0.0
 10
14.9370422089
 20
12.5589788815
 30
0.0
 10
14.8723549242
 20
12.5642174503
 30
0.0
 10
14.8089432978
 20
12.5659772982
 30
0.0
 10
14.7472365247
 20
12.5642575056
 30
0.0
 10
14.687652995
 20
12.559056879
 30
0.0
 10
14.6305951654
 20
12.5504220062
 30
0.0
 10
14.5764497265
 20
12.5383960533
 30
0.0
 10
14.5255794659
 20
12.5230701866
 30
0.0
 10
14.4783308903
 20
12.5045285039
 30
0.0
 10
14.4350185403
 20
12.4829020323
 30
0.0
 10
14.3959444178
 20
12.4583115331
 30
0.0
 10
14.3613719871
 20
12.4309232228
 30
0.0
 10
14.3315607645
 20
12.4008959806
 30
0.0
 10
14.3067227902
 20
12.368433919
 30
0.0
 10
14.2870734761
 20
12.3337576982
 30
0.0
 10
14.2775016058
 20
12.3092570754
 30
0.0
 10
14.2736611561
 20
12.2968283699
 30
0.0
  0
SPLINE
  5
40B
100
AcDbEntity
  8
0
100
AcDbSpline
 62
7
  6
CONTINUOUS
 70
0
 71
3
 72
17
 73
13
 74
0
 42
0.0000001
 43
0.0000001
 44
0.0000000001
 40
0.0
 40
0.0
 40
0.0
 40
0.0
 40
0.1326850983
 40
0.2709515178
 40
0.4094168454
 40
0.543202028
 40
0.6689420739
 40
0.7854929538
 40
0.8408666619
 40
0.8947059822
 40
0.9475505679
 40
1.0
 40
1.0
 40
1.0
 40
1.0
 10
14.7533953138
 20
12.3858851765
 30
0.0
 10
14.7605616776
 20
12.3858851765
 30
0.0
 10
14.7752236682
 20
12.3874734898
 30
0.0
 10
14.7964978903
 20
12.3939121182
 30
0.0
 10
14.8163130696
 20
12.4041548309
 30
0.0
 10
14.8332211057
 20
12.4176861663
 30
0.0
 10
14.8459525019
 20
12.4337652212
 30
0.0
 10
14.8523104274
 20
12.448813731
 30
0.0
 10
14.8542401248
 20
12.4609041082
 30
0.0
 10
14.8541541153
 20
12.4697012959
 30
0.0
 10
14.8525569471
 20
12.4781906234
 30
0.0
 10
14.8505078932
 20
12.4835347837
 30
0.0
 10
14.8492595327
 20
12.4860776975
 30
0.0
  0
ELLIPSE
  5
40C
100
AcDbEntity
  8
0
100
AcDbEllipse
 62
7
  6
CONTINUOUS
 10
4.3243875196
 20
12.1875477814
 30
0.0
 11
-0.0
 21
0.025
 31
0.0
 40
0.5773502692
 41
-3.1415926536
 42
-1.5707963268
  0
ELLIPSE
  5
40D
100
AcDbEntity
  8
0
100
AcDbEllipse
 62
7
  6
CONTINUOUS
 10
5.2240696345
 20
12.1607345451
 30
0.0
 11
-0.0029354063
 21
0.0124345808
 31
0.0
 40
0.1270166538
 41
-3.1715682369
 42
-2.6479694613
  0
ELLIPSE
  5
40E
100
AcDbEntity
  8
0
100
AcDbEllipse
 62
7
  6
CONTINUOUS
 10
7.8173566482
 20
13.304214448
 30
0.0
 11
-0.0
 21
0.025
 31
0.0
 40
0.5773502692
 41
-0.0
 42
1.5707963268
  0
ELLIPSE
  5
40F
100
AcDbEntity
  8
0
100
AcDbEllipse
 62
7
  6
CONTINUOUS
 10
5.2024029678
 20
12.1607345451
 30
0.0
 11
-0.0029354063
 21
0.0124345808
 31
0.0
 40
0.1270166538
 41
-3.6951670125
 42
-3.1715682369
  0
ELLIPSE
  5
410
100
AcDbEntity
  8
0
100
AcDbEllipse
 62
7
  6
CONTINUOUS
 10
17.1050177236
 20
12.6218173787
 30
0.0
 11
-0.0159036693
 21
0.0227294645
 31
0.0
 40
0.6545760187
 41
-0.429488974
 42
0.4705108309
  0
ELLIPSE
  5
411
100
AcDbEntity
  8
0
100
AcDbEllipse
 62
7
  6
CONTINUOUS
 10
13.6174727116
 20
11.7471023297
 30
0.0
 11
0.0082691312
 21
0.0249991817
 31
0.0
 40
0.0244606467
 41
-2.4627055067
 42
-0.8919091798
  0
ENDSEC
  0
SECTION
  2
OBJECTS
  0
DICTIONARY
  5
C
100
AcDbDictionary
280
0
281
1
  3
ACAD_GROUP
350
D
  3
ACAD_MLINESTYLE
350
17
  3
ACAD_LAYOUT
350
1A
  3
ACAD_PLOTSETTINGS
350
19
  3
ACAD_PLOTSTYLENAME
350
E
  0
DICTIONARY
  5
D
102
{ACAD_REACTORS
330
C
102
}
100
AcDbDictionary
280
0
281
1
  0
ACDBDICTIONARYWDFLT
  5
E
102
{ACAD_REACTORS
330
C
102
}
100
AcDbDictionary
281
1
  3
Normal
350
F
100
AcDbDictionaryWithDefault
340
F
  0
DICTIONARY
  5
17
102
{ACAD_REACTORS
330
C
102
}
100
AcDbDictionary
280
0
281
1
  3
Standard
350
18
  0
DICTIONARY
  5
19
102
{ACAD_REACTORS
330
C
102
}
100
AcDbDictionary
281
1
  0
DICTIONARY
  5
1A
102
{ACAD_REACTORS
330
C
102
}
100
AcDbDictionary
281
1
  3
Model
350
412
  3
Layout1
350
413
  0
ACDBPLACEHOLDER
  5
F
102
{ACAD_REACTORS
330
E
102
}
  0
MLINESTYLE
  5
18
102
{ACAD_REACTORS
330
17
102
}
100
AcDbMlineStyle
  2
STANDARD
 70
0
  3

 62
256
 51
90.0
 52
90.0
 71
2
 49
0.5
 62
256
  6
BYLAYER
 49
-0.5
 62
256
  6
BYLAYER
  0
LAYOUT
  5
412
102
{ACAD_REACTORS
330
1A
102
}
100
AcDbPlotSettings
  1

  2
none_device
  4
ANSI_C_(22.00_x_17.00_Inches)
  6

 40
0.0
 41
0.0
 42
0.0
 43
0.0
 44
558.8
 45
431.8
 46
0.0
 47
0.0
 48
0.0
 49
0.0
140
0.0
141
0.0
142
1.0
143
1.0
 70
1024
 72
0
 73
0
 74
0
  7

 75
0
147
1.0
148
0.0
149
0.0
100
AcDbLayout
  1
Model
 70
0
 71
0
 10
0.0
 20
0.0
 11
22.0
 21
17.0
 12
0.0
 22
0.0
 32
0.0
 14
0.0
 24
0.0
 34
0.0
 15
0.0
 25
0.0
 35
0.0
146
0.0
 13
0.0
 23
0.0
 33
0.0
 16
1.0
 26
0.0
 36
0.0
 17
0.0
 27
1.0
 37
0.0
 76
0
330
22E
345
0
346
0
  0
LAYOUT
  5
413
102
{ACAD_REACTORS
330
1A
102
}
100
AcDbPlotSettings
  1

  2
none_device
  4
ANSI_C_(22.00_x_17.00_Inches)
  6

 40
0.0
 41
0.0
 42
0.0
 43
0.0
 44
558.8
 45
431.8
 46
0.0
 47
0.0
 48
0.0
 49
0.0
140
0.0
141
0.0
142
1.0
143
1.0
 70
0
 72
0
 73
0
 74
0
  7

 75
0
147
1.0
148
0.0
149
0.0
100
AcDbLayout
  1
Layout1
 70
0
 71
1
 10
0.0
 20
0.0
 11
22.0
 21
17.0
 12
0.0
 22
0.0
 32
0.0
 14
0.0
 24
0.0
 34
0.0
 15
0.0
 25
0.0
 35
0.0
146
0.0
 13
0.0
 23
0.0
 33
0.0
 16
1.0
 26
0.0
 36
0.0
 17
0.0
 27
1.0
 37
0.0
 76
0
330
22F
345
0
346
0
  0
ENDSEC
  0
EOF